999
unknown String-ID: 20550
0
SECTION
2
HEADER
9
$ACADVER
1
AC1009
9
$DWGCODEPAGE
3
unknown String-ID: 20561
0
ENDSEC
0
SECTION
2
TABLES
0
TABLE
2
LAYER
70
1
0
LAYER
2
0
70
0
62
7
6
CONTINUOUS
0
ENDTAB
0
ENDSEC
0
SECTION
2
ENTITIES
0
LINE
8
0
6
CONTINUOUS
10
-0.020835
20
0.050587
30
0.0
11
-0.020705
21
0.050239
31
0.0
0
LINE
8
0
6
CONTINUOUS
10
-0.020705
20
0.050239
30
0.0
11
-0.020390
21
0.050095
31
0.0
0
LINE
8
0
6
CONTINUOUS
10
0.020136
20
0.050095
30
0.0
11
0.020451
21
0.050239
31
0.0
0
LINE
8
0
6
CONTINUOUS
10
0.020451
20
0.050239
30
0.0
11
0.020581
21
0.050587
31
0.0
0
LINE
8
0
6
CONTINUOUS
10
-0.020390
20
0.050095
30
0.0
11
-0.020156
21
0.050095
31
0.0
0
LINE
8
0
6
CONTINUOUS
10
-0.016312
20
0.090095
30
0.0
11
-0.017710
21
0.089850
31
0.0
0
LINE
8
0
6
CONTINUOUS
10
-0.017710
20
0.089850
30
0.0
11
-0.018971
21
0.089139
31
0.0
0
LINE
8
0
6
CONTINUOUS
10
-0.018971
20
0.089139
30
0.0
11
-0.019971
21
0.088033
31
0.0
0
LINE
8
0
6
CONTINUOUS
10
-0.019971
20
0.088033
30
0.0
11
-0.020614
21
0.086638
31
0.0
0
LINE
8
0
6
CONTINUOUS
10
-0.020614
20
0.086638
30
0.0
11
-0.020835
21
0.085093
31
0.0
0
LINE
8
0
6
CONTINUOUS
10
0.020581
20
0.085093
30
0.0
11
0.020360
21
0.086638
31
0.0
0
LINE
8
0
6
CONTINUOUS
10
0.020360
20
0.086638
30
0.0
11
0.019717
21
0.088033
31
0.0
0
LINE
8
0
6
CONTINUOUS
10
0.019717
20
0.088033
30
0.0
11
0.018717
21
0.089139
31
0.0
0
LINE
8
0
6
CONTINUOUS
10
0.018717
20
0.089139
30
0.0
11
0.017456
21
0.089850
31
0.0
0
LINE
8
0
6
CONTINUOUS
10
0.017456
20
0.089850
30
0.0
11
0.016058
21
0.090095
31
0.0
0
LINE
8
0
6
CONTINUOUS
10
0.016058
20
0.090095
30
0.0
11
-0.016312
21
0.090095
31
0.0
0
LINE
8
0
6
CONTINUOUS
10
-0.020835
20
0.085093
30
0.0
11
-0.020835
21
0.050839
31
0.0
0
LINE
8
0
6
CONTINUOUS
10
0.020581
20
0.050587
30
0.0
11
0.020581
21
0.050839
31
0.0
0
LINE
8
0
6
CONTINUOUS
10
0.020581
20
0.050839
30
0.0
11
0.020581
21
0.085093
31
0.0
0
LINE
8
0
6
CONTINUOUS
10
-0.020835
20
0.050839
30
0.0
11
-0.020835
21
0.050587
31
0.0
0
LINE
8
0
6
CONTINUOUS
10
0.019902
20
0.050095
30
0.0
11
0.020136
21
0.050095
31
0.0
0
LINE
8
0
6
CONTINUOUS
10
-0.020156
20
0.050095
30
0.0
11
0.019902
21
0.050095
31
0.0
0
LINE
8
0
6
CONTINUOUS
10
0.020864
20
0.057757
30
0.0
11
0.020873
21
0.058077
31
0.0
0
LINE
8
0
6
CONTINUOUS
10
-0.050125
20
0.076880
30
0.0
11
-0.050699
21
0.076880
31
0.0
0
LINE
8
0
6
CONTINUOUS
10
-0.021125
20
0.058094
30
0.0
11
-0.021119
21
0.057757
31
0.0
0
LINE
8
0
6
CONTINUOUS
10
0.020807
20
0.056105
30
0.0
11
0.020581
21
0.059442
31
0.0
0
LINE
8
0
6
CONTINUOUS
10
-0.020835
20
0.059444
30
0.0
11
-0.021061
21
0.056105
31
0.0
0
LINE
8
0
6
CONTINUOUS
10
0.020581
20
0.049595
30
0.0
11
0.020807
21
0.056105
31
0.0
0
LINE
8
0
6
CONTINUOUS
10
0.020823
20
0.056728
30
0.0
11
0.020735
21
0.057454
31
0.0
0
LINE
8
0
6
CONTINUOUS
10
0.020792
20
0.056130
30
0.0
11
0.020823
21
0.056728
31
0.0
0
LINE
8
0
6
CONTINUOUS
10
0.007398
20
-0.145373
30
0.0
11
0.013213
21
-0.145373
31
0.0
0
LINE
8
0
6
CONTINUOUS
10
0.015386
20
-0.132479
30
0.0
11
0.015448
21
-0.125413
31
0.0
0
LINE
8
0
6
CONTINUOUS
10
-0.000127
20
-0.145373
30
0.0
11
0.007398
21
-0.145373
31
0.0
0
LINE
8
0
6
CONTINUOUS
10
0.016529
20
-0.099450
30
0.0
11
0.019047
21
-0.004076
31
0.0
0
LINE
8
0
6
CONTINUOUS
10
0.014924
20
-0.145373
30
0.0
11
0.014925
21
-0.145299
31
0.0
0
LINE
8
0
6
CONTINUOUS
10
0.013213
20
-0.145373
30
0.0
11
0.014924
21
-0.145373
31
0.0
0
LINE
8
0
6
CONTINUOUS
10
0.012134
20
0.049595
30
0.0
11
-0.000127
21
0.049595
31
0.0
0
LINE
8
0
6
CONTINUOUS
10
0.018193
20
0.049595
30
0.0
11
0.012134
21
0.049595
31
0.0
0
LINE
8
0
6
CONTINUOUS
10
0.015575
20
-0.123150
30
0.0
11
0.016035
21
-0.111343
31
0.0
0
LINE
8
0
6
CONTINUOUS
10
0.016035
20
-0.111343
30
0.0
11
0.016529
21
-0.099450
31
0.0
0
LINE
8
0
6
CONTINUOUS
10
0.015289
20
-0.131696
30
0.0
11
0.015575
21
-0.123150
31
0.0
0
LINE
8
0
6
CONTINUOUS
10
0.015205
20
-0.137230
30
0.0
11
0.015386
21
-0.132479
31
0.0
0
LINE
8
0
6
CONTINUOUS
10
0.016221
20
-0.099505
30
0.0
11
0.019186
21
0.001145
31
0.0
0
LINE
8
0
6
CONTINUOUS
10
0.015668
20
-0.119715
30
0.0
11
0.016221
21
-0.099505
31
0.0
0
LINE
8
0
6
CONTINUOUS
10
0.015323
20
-0.126126
30
0.0
11
0.015668
21
-0.119715
31
0.0
0
LINE
8
0
6
CONTINUOUS
10
0.014970
20
-0.142793
30
0.0
11
0.015060
21
-0.140487
31
0.0
0
LINE
8
0
6
CONTINUOUS
10
0.015060
20
-0.140487
30
0.0
11
0.015205
21
-0.137230
31
0.0
0
LINE
8
0
6
CONTINUOUS
10
0.020581
20
0.048585
30
0.0
11
0.020581
21
0.049595
31
0.0
0
LINE
8
0
6
CONTINUOUS
10
0.020581
20
0.049595
30
0.0
11
0.018193
21
0.049595
31
0.0
0
LINE
8
0
6
CONTINUOUS
10
0.014925
20
-0.145299
30
0.0
11
0.014970
21
-0.142793
31
0.0
0
LINE
8
0
6
CONTINUOUS
10
-0.021077
20
0.056728
30
0.0
11
-0.021046
21
0.056130
31
0.0
0
LINE
8
0
6
CONTINUOUS
10
-0.020987
20
0.057476
30
0.0
11
-0.021077
21
0.056728
31
0.0
0
LINE
8
0
6
CONTINUOUS
10
-0.013467
20
-0.145373
30
0.0
11
-0.007652
21
-0.145373
31
0.0
0
LINE
8
0
6
CONTINUOUS
10
-0.007652
20
-0.145373
30
0.0
11
-0.000127
21
-0.145373
31
0.0
0
LINE
8
0
6
CONTINUOUS
10
-0.019301
20
-0.004076
30
0.0
11
-0.016783
21
-0.099450
31
0.0
0
LINE
8
0
6
CONTINUOUS
10
-0.015178
20
-0.145373
30
0.0
11
-0.013467
21
-0.145373
31
0.0
0
LINE
8
0
6
CONTINUOUS
10
-0.015179
20
-0.145299
30
0.0
11
-0.015178
21
-0.145373
31
0.0
0
LINE
8
0
6
CONTINUOUS
10
-0.021061
20
0.056105
30
0.0
11
-0.020835
21
0.049595
31
0.0
0
LINE
8
0
6
CONTINUOUS
10
-0.000127
20
0.049595
30
0.0
11
-0.012388
21
0.049595
31
0.0
0
LINE
8
0
6
CONTINUOUS
10
-0.012388
20
0.049595
30
0.0
11
-0.018713
21
0.049595
31
0.0
0
LINE
8
0
6
CONTINUOUS
10
-0.016289
20
-0.111343
30
0.0
11
-0.015829
21
-0.123150
31
0.0
0
LINE
8
0
6
CONTINUOUS
10
-0.016783
20
-0.099450
30
0.0
11
-0.016289
21
-0.111343
31
0.0
0
LINE
8
0
6
CONTINUOUS
10
-0.015829
20
-0.123150
30
0.0
11
-0.015533
21
-0.131682
31
0.0
0
LINE
8
0
6
CONTINUOUS
10
-0.015533
20
-0.132479
30
0.0
11
-0.015460
21
-0.137230
31
0.0
0
LINE
8
0
6
CONTINUOUS
10
-0.019440
20
0.001145
30
0.0
11
-0.016475
21
-0.099505
31
0.0
0
LINE
8
0
6
CONTINUOUS
10
-0.016475
20
-0.099505
30
0.0
11
-0.015933
21
-0.119715
31
0.0
0
LINE
8
0
6
CONTINUOUS
10
-0.015933
20
-0.119715
30
0.0
11
-0.015702
21
-0.126126
31
0.0
0
LINE
8
0
6
CONTINUOUS
10
-0.015702
20
-0.126126
30
0.0
11
-0.015533
21
-0.132479
31
0.0
0
LINE
8
0
6
CONTINUOUS
10
-0.015315
20
-0.140487
30
0.0
11
-0.015224
21
-0.142793
31
0.0
0
LINE
8
0
6
CONTINUOUS
10
-0.015460
20
-0.137230
30
0.0
11
-0.015315
21
-0.140487
31
0.0
0
LINE
8
0
6
CONTINUOUS
10
-0.018713
20
0.049595
30
0.0
11
-0.020835
21
0.049595
31
0.0
0
LINE
8
0
6
CONTINUOUS
10
-0.020835
20
0.049595
30
0.0
11
-0.020835
21
0.048585
31
0.0
0
LINE
8
0
6
CONTINUOUS
10
-0.015224
20
-0.142793
30
0.0
11
-0.015179
21
-0.145299
31
0.0
0
LINE
8
0
6
CONTINUOUS
10
0.020864
20
0.057757
30
0.0
11
0.020581
21
0.059219
31
0.0
0
LINE
8
0
6
CONTINUOUS
10
0.020823
20
0.056728
30
0.0
11
0.020864
21
0.057757
31
0.0
0
LINE
8
0
6
CONTINUOUS
10
-0.021119
20
0.057757
30
0.0
11
-0.021077
21
0.056728
31
0.0
0
LINE
8
0
6
CONTINUOUS
10
-0.020835
20
0.059219
30
0.0
11
-0.021119
21
0.057757
31
0.0
0
LINE
8
0
6
CONTINUOUS
10
-0.026218
20
0.039174
30
0.0
11
-0.020539
21
0.038663
31
0.0
0
LINE
8
0
6
CONTINUOUS
10
-0.020835
20
0.077478
30
0.0
11
-0.026215
21
0.077015
31
0.0
0
LINE
8
0
6
CONTINUOUS
10
0.020285
20
0.038668
30
0.0
11
0.027592
21
0.039302
31
0.0
0
LINE
8
0
6
CONTINUOUS
10
0.027591
20
0.076889
30
0.0
11
0.020581
21
0.077496
31
0.0
0
LINE
8
0
6
CONTINUOUS
10
-0.035010
20
0.039315
30
0.0
11
-0.026218
21
0.039174
31
0.0
0
LINE
8
0
6
CONTINUOUS
10
-0.026215
20
0.077015
30
0.0
11
-0.035008
21
0.076874
31
0.0
0
LINE
8
0
6
CONTINUOUS
10
0.027592
20
0.039302
30
0.0
11
0.036739
21
0.039294
31
0.0
0
LINE
8
0
6
CONTINUOUS
10
0.036741
20
0.076895
30
0.0
11
0.027591
21
0.076889
31
0.0
0
LINE
8
0
6
CONTINUOUS
10
0.052229
20
0.039318
30
0.0
11
0.052604
21
0.039319
31
0.0
0
LINE
8
0
6
CONTINUOUS
10
0.037857
20
0.076894
30
0.0
11
0.036741
21
0.076895
31
0.0
0
LINE
8
0
6
CONTINUOUS
10
-0.052885
20
0.039314
30
0.0
11
-0.035010
21
0.039315
31
0.0
0
LINE
8
0
6
CONTINUOUS
10
-0.035008
20
0.076874
30
0.0
11
-0.050125
21
0.076880
31
0.0
0
LINE
8
0
6
CONTINUOUS
10
-0.053615
20
0.039408
30
0.0
11
-0.053461
21
0.039309
31
0.0
0
LINE
8
0
6
CONTINUOUS
10
-0.050699
20
0.076880
30
0.0
11
-0.053452
21
0.076817
31
0.0
0
LINE
8
0
6
CONTINUOUS
10
-0.053452
20
0.076817
30
0.0
11
-0.053502
21
0.076786
31
0.0
0
LINE
8
0
6
CONTINUOUS
10
0.053204
20
0.039315
30
0.0
11
0.053344
21
0.039404
31
0.0
0
LINE
8
0
6
CONTINUOUS
10
0.053199
20
0.076835
30
0.0
11
0.052207
21
0.076851
31
0.0
0
LINE
8
0
6
CONTINUOUS
10
0.053283
20
0.076782
30
0.0
11
0.053199
21
0.076835
31
0.0
0
LINE
8
0
6
CONTINUOUS
10
0.060440
20
0.014931
30
0.0
11
0.061511
21
0.021360
31
0.0
0
LINE
8
0
6
CONTINUOUS
10
0.058245
20
0.008811
30
0.0
11
0.060440
21
0.014931
31
0.0
0
LINE
8
0
6
CONTINUOUS
10
0.054461
20
0.003517
30
0.0
11
0.058245
21
0.008811
31
0.0
0
LINE
8
0
6
CONTINUOUS
10
0.030074
20
-0.003964
30
0.0
11
0.036577
21
-0.003547
31
0.0
0
LINE
8
0
6
CONTINUOUS
10
0.023563
20
-0.004070
30
0.0
11
0.030074
21
-0.003964
31
0.0
0
LINE
8
0
6
CONTINUOUS
10
0.019031
20
-0.004076
30
0.0
11
0.023563
21
-0.004070
31
0.0
0
LINE
8
0
6
CONTINUOUS
10
0.061931
20
0.088296
30
0.0
11
0.061514
21
0.094798
31
0.0
0
LINE
8
0
6
CONTINUOUS
10
0.062038
20
0.081784
30
0.0
11
0.061931
21
0.088296
31
0.0
0
LINE
8
0
6
CONTINUOUS
10
0.062038
20
0.081316
30
0.0
11
0.062038
21
0.081784
31
0.0
0
LINE
8
0
6
CONTINUOUS
10
-0.060694
20
0.101258
30
0.0
11
-0.061765
21
0.094829
31
0.0
0
LINE
8
0
6
CONTINUOUS
10
-0.058499
20
0.107378
30
0.0
11
-0.060694
21
0.101258
31
0.0
0
LINE
8
0
6
CONTINUOUS
10
-0.054715
20
0.112672
30
0.0
11
-0.058499
21
0.107378
31
0.0
0
LINE
8
0
6
CONTINUOUS
10
-0.030329
20
0.120153
30
0.0
11
-0.036831
21
0.119736
31
0.0
0
LINE
8
0
6
CONTINUOUS
10
-0.023817
20
0.120259
30
0.0
11
-0.030329
21
0.120153
31
0.0
0
LINE
8
0
6
CONTINUOUS
10
-0.062298
20
0.039408
30
0.0
11
-0.062292
21
0.034405
31
0.0
0
LINE
8
0
6
CONTINUOUS
10
-0.062292
20
0.034405
30
0.0
11
-0.062185
21
0.027893
31
0.0
0
LINE
8
0
6
CONTINUOUS
10
-0.062185
20
0.027893
30
0.0
11
-0.061768
21
0.021391
31
0.0
0
LINE
8
0
6
CONTINUOUS
10
-0.054704
20
0.003507
30
0.0
11
-0.049411
21
-0.000277
31
0.0
0
LINE
8
0
6
CONTINUOUS
10
-0.049411
20
-0.000277
30
0.0
11
-0.043290
21
-0.002472
31
0.0
0
LINE
8
0
6
CONTINUOUS
10
-0.043290
20
-0.002472
30
0.0
11
-0.036861
21
-0.003543
31
0.0
0
LINE
8
0
6
CONTINUOUS
10
0.038817
20
0.035727
30
0.0
11
0.038867
21
0.035625
31
0.0
0
LINE
8
0
6
CONTINUOUS
10
0.049735
20
0.035328
30
0.0
11
0.050343
21
0.035832
31
0.0
0
LINE
8
0
6
CONTINUOUS
10
0.049030
20
0.034991
30
0.0
11
0.049735
21
0.035328
31
0.0
0
LINE
8
0
6
CONTINUOUS
10
0.048305
20
0.034868
30
0.0
11
0.049030
21
0.034991
31
0.0
0
LINE
8
0
6
CONTINUOUS
10
0.050343
20
0.035832
30
0.0
11
0.050801
21
0.036431
31
0.0
0
LINE
8
0
6
CONTINUOUS
10
0.039513
20
0.035014
30
0.0
11
0.040175
21
0.034877
31
0.0
0
LINE
8
0
6
CONTINUOUS
10
0.040175
20
0.034877
30
0.0
11
0.040400
21
0.034877
31
0.0
0
LINE
8
0
6
CONTINUOUS
10
0.039091
20
0.035397
30
0.0
11
0.039513
21
0.035014
31
0.0
0
LINE
8
0
6
CONTINUOUS
10
0.038867
20
0.035625
30
0.0
11
0.039091
21
0.035397
31
0.0
0
LINE
8
0
6
CONTINUOUS
10
0.040400
20
0.034877
30
0.0
11
0.048305
21
0.034868
31
0.0
0
LINE
8
0
6
CONTINUOUS
10
0.050801
20
0.036431
30
0.0
11
0.052272
21
0.039404
31
0.0
0
LINE
8
0
6
CONTINUOUS
10
0.042676
20
0.043455
30
0.0
11
0.042421
21
0.043509
31
0.0
0
LINE
8
0
6
CONTINUOUS
10
0.042421
20
0.043509
30
0.0
11
0.042285
21
0.043664
31
0.0
0
LINE
8
0
6
CONTINUOUS
10
0.042276
20
0.043883
30
0.0
11
0.046292
21
0.051578
31
0.0
0
LINE
8
0
6
CONTINUOUS
10
0.058277
20
0.037948
30
0.0
11
0.054285
21
0.044976
31
0.0
0
LINE
8
0
6
CONTINUOUS
10
0.069740
20
0.035614
30
0.0
11
0.069790
21
0.035715
31
0.0
0
LINE
8
0
6
CONTINUOUS
10
0.049290
20
0.051578
30
0.0
11
0.053307
21
0.043884
31
0.0
0
LINE
8
0
6
CONTINUOUS
10
0.068433
20
0.034869
30
0.0
11
0.069095
21
0.035004
31
0.0
0
LINE
8
0
6
CONTINUOUS
10
0.069517
20
0.035386
30
0.0
11
0.069740
21
0.035614
31
0.0
0
LINE
8
0
6
CONTINUOUS
10
0.069095
20
0.035004
30
0.0
11
0.069517
21
0.035386
31
0.0
0
LINE
8
0
6
CONTINUOUS
10
0.058263
20
0.035845
30
0.0
11
0.058872
21
0.035340
31
0.0
0
LINE
8
0
6
CONTINUOUS
10
0.058872
20
0.035340
30
0.0
11
0.059578
21
0.035002
31
0.0
0
LINE
8
0
6
CONTINUOUS
10
0.059578
20
0.035002
30
0.0
11
0.060304
21
0.034878
31
0.0
0
LINE
8
0
6
CONTINUOUS
10
0.057806
20
0.036444
30
0.0
11
0.058263
21
0.035845
31
0.0
0
LINE
8
0
6
CONTINUOUS
10
0.053545
20
0.043665
30
0.0
11
0.057806
21
0.036444
31
0.0
0
LINE
8
0
6
CONTINUOUS
10
0.048412
20
0.052039
30
0.0
11
0.049091
21
0.051780
31
0.0
0
LINE
8
0
6
CONTINUOUS
10
0.048412
20
0.052767
30
0.0
11
0.047601
21
0.052458
31
0.0
0
LINE
8
0
6
CONTINUOUS
10
0.047601
20
0.052458
30
0.0
11
0.046913
21
0.051578
31
0.0
0
LINE
8
0
6
CONTINUOUS
10
0.053637
20
0.043455
30
0.0
11
0.053840
21
0.043066
31
0.0
0
LINE
8
0
6
CONTINUOUS
10
0.042594
20
0.043271
30
0.0
11
0.043972
21
0.041518
31
0.0
0
LINE
8
0
6
CONTINUOUS
10
0.042585
20
0.043490
30
0.0
11
0.042594
21
0.043271
31
0.0
0
LINE
8
0
6
CONTINUOUS
10
0.043915
20
0.041797
30
0.0
11
0.042585
21
0.043490
31
0.0
0
LINE
8
0
6
CONTINUOUS
10
0.048412
20
0.039404
30
0.0
11
0.050466
21
0.039873
31
0.0
0
LINE
8
0
6
CONTINUOUS
10
0.050466
20
0.039873
30
0.0
11
0.052417
21
0.041255
31
0.0
0
LINE
8
0
6
CONTINUOUS
10
0.046358
20
0.039872
30
0.0
11
0.048412
21
0.039404
31
0.0
0
LINE
8
0
6
CONTINUOUS
10
0.046085
20
0.039944
30
0.0
11
0.046358
21
0.039872
31
0.0
0
LINE
8
0
6
CONTINUOUS
10
0.053840
20
0.043066
30
0.0
11
0.053533
21
0.043117
31
0.0
0
LINE
8
0
6
CONTINUOUS
10
0.052417
20
0.041255
30
0.0
11
0.053840
21
0.043066
31
0.0
0
LINE
8
0
6
CONTINUOUS
10
0.049779
20
0.040460
30
0.0
11
0.047791
21
0.040006
31
0.0
0
LINE
8
0
6
CONTINUOUS
10
0.053533
20
0.043117
30
0.0
11
0.053235
21
0.043272
31
0.0
0
LINE
8
0
6
CONTINUOUS
10
0.051667
20
0.041798
30
0.0
11
0.049779
21
0.040460
31
0.0
0
LINE
8
0
6
CONTINUOUS
10
0.047791
20
0.040006
30
0.0
11
0.045803
21
0.040460
31
0.0
0
LINE
8
0
6
CONTINUOUS
10
0.044142
20
0.041320
30
0.0
11
0.046085
21
0.039944
31
0.0
0
LINE
8
0
6
CONTINUOUS
10
0.043972
20
0.041518
30
0.0
11
0.044142
21
0.041320
31
0.0
0
LINE
8
0
6
CONTINUOUS
10
0.045803
20
0.040460
30
0.0
11
0.043915
21
0.041797
31
0.0
0
LINE
8
0
6
CONTINUOUS
10
0.053235
20
0.043272
30
0.0
11
0.052998
21
0.043491
31
0.0
0
LINE
8
0
6
CONTINUOUS
10
0.052998
20
0.043491
30
0.0
11
0.051667
21
0.041798
31
0.0
0
LINE
8
0
6
CONTINUOUS
10
0.052417
20
0.041255
30
0.0
11
0.050466
21
0.039873
31
0.0
0
LINE
8
0
6
CONTINUOUS
10
0.045803
20
0.040460
30
0.0
11
0.047791
21
0.040006
31
0.0
0
LINE
8
0
6
CONTINUOUS
10
0.043915
20
0.041797
30
0.0
11
0.045803
21
0.040460
31
0.0
0
LINE
8
0
6
CONTINUOUS
10
0.042585
20
0.043490
30
0.0
11
0.043915
21
0.041797
31
0.0
0
LINE
8
0
6
CONTINUOUS
10
0.046510
20
0.051011
30
0.0
11
0.042585
21
0.043490
31
0.0
0
LINE
8
0
6
CONTINUOUS
10
0.047112
20
0.051780
30
0.0
11
0.046510
21
0.051011
31
0.0
0
LINE
8
0
6
CONTINUOUS
10
0.047791
20
0.052039
30
0.0
11
0.047112
21
0.051780
31
0.0
0
LINE
8
0
6
CONTINUOUS
10
0.048470
20
0.051780
30
0.0
11
0.047791
21
0.052039
31
0.0
0
LINE
8
0
6
CONTINUOUS
10
0.049071
20
0.051011
30
0.0
11
0.048470
21
0.051780
31
0.0
0
LINE
8
0
6
CONTINUOUS
10
0.052998
20
0.043491
30
0.0
11
0.049071
21
0.051011
31
0.0
0
LINE
8
0
6
CONTINUOUS
10
0.051667
20
0.041798
30
0.0
11
0.052998
21
0.043491
31
0.0
0
LINE
8
0
6
CONTINUOUS
10
0.049779
20
0.040460
30
0.0
11
0.051667
21
0.041798
31
0.0
0
LINE
8
0
6
CONTINUOUS
10
0.047791
20
0.040006
30
0.0
11
0.049779
21
0.040460
31
0.0
0
LINE
8
0
6
CONTINUOUS
10
0.053873
20
0.043108
30
0.0
11
0.052417
21
0.041255
31
0.0
0
LINE
8
0
6
CONTINUOUS
10
0.048470
20
0.051780
30
0.0
11
0.049071
21
0.051011
31
0.0
0
LINE
8
0
6
CONTINUOUS
10
0.047791
20
0.052039
30
0.0
11
0.048470
21
0.051780
31
0.0
0
LINE
8
0
6
CONTINUOUS
10
0.048412
20
0.052039
30
0.0
11
0.047791
21
0.052039
31
0.0
0
LINE
8
0
6
CONTINUOUS
10
0.049091
20
0.051780
30
0.0
11
0.048412
21
0.052039
31
0.0
0
LINE
8
0
6
CONTINUOUS
10
0.047791
20
0.052767
30
0.0
11
0.046980
21
0.052458
31
0.0
0
LINE
8
0
6
CONTINUOUS
10
0.047601
20
0.052458
30
0.0
11
0.048412
21
0.052767
31
0.0
0
LINE
8
0
6
CONTINUOUS
10
0.046980
20
0.052458
30
0.0
11
0.046292
21
0.051578
31
0.0
0
LINE
8
0
6
CONTINUOUS
10
0.046913
20
0.051578
30
0.0
11
0.047601
21
0.052458
31
0.0
0
LINE
8
0
6
CONTINUOUS
10
0.041328
20
0.044975
30
0.0
11
0.038431
21
0.037947
31
0.0
0
LINE
8
0
6
CONTINUOUS
10
0.047791
20
0.052767
30
0.0
11
0.048602
21
0.052458
31
0.0
0
LINE
8
0
6
CONTINUOUS
10
0.053533
20
0.043117
30
0.0
11
0.053840
21
0.043066
31
0.0
0
LINE
8
0
6
CONTINUOUS
10
0.053235
20
0.043272
30
0.0
11
0.053533
21
0.043117
31
0.0
0
LINE
8
0
6
CONTINUOUS
10
0.052998
20
0.043491
30
0.0
11
0.053235
21
0.043272
31
0.0
0
LINE
8
0
6
CONTINUOUS
10
0.049071
20
0.051011
30
0.0
11
0.052998
21
0.043491
31
0.0
0
LINE
8
0
6
CONTINUOUS
10
0.053840
20
0.043066
30
0.0
11
0.053637
21
0.043455
31
0.0
0
LINE
8
0
6
CONTINUOUS
10
0.042421
20
0.043509
30
0.0
11
0.042675
21
0.043458
31
0.0
0
LINE
8
0
6
CONTINUOUS
10
0.042285
20
0.043664
30
0.0
11
0.042421
21
0.043509
31
0.0
0
LINE
8
0
6
CONTINUOUS
10
0.042276
20
0.043883
30
0.0
11
0.042285
21
0.043664
31
0.0
0
LINE
8
0
6
CONTINUOUS
10
0.046292
20
0.051578
30
0.0
11
0.042276
21
0.043883
31
0.0
0
LINE
8
0
6
CONTINUOUS
10
0.048602
20
0.052458
30
0.0
11
0.049290
21
0.051578
31
0.0
0
LINE
8
0
6
CONTINUOUS
10
0.048412
20
0.039404
30
0.0
11
0.056059
21
0.039404
31
0.0
0
LINE
8
0
6
CONTINUOUS
10
0.062044
20
0.039404
30
0.0
11
0.086577
21
0.039405
31
0.0
0
LINE
8
0
6
CONTINUOUS
10
0.050466
20
0.039873
30
0.0
11
0.048412
21
0.039404
31
0.0
0
LINE
8
0
6
CONTINUOUS
10
0.041524
20
0.045404
30
0.0
11
0.041328
21
0.044975
31
0.0
0
LINE
8
0
6
CONTINUOUS
10
0.042285
20
0.043664
30
0.0
11
0.042276
21
0.043883
31
0.0
0
LINE
8
0
6
CONTINUOUS
10
0.053307
20
0.043884
30
0.0
11
0.053545
21
0.043665
31
0.0
0
LINE
8
0
6
CONTINUOUS
10
0.046980
20
0.052458
30
0.0
11
0.047791
21
0.052767
31
0.0
0
LINE
8
0
6
CONTINUOUS
10
0.061153
20
0.036100
30
0.0
11
0.060331
21
0.036241
31
0.0
0
LINE
8
0
6
CONTINUOUS
10
0.069116
20
0.036091
30
0.0
11
0.061153
21
0.036100
31
0.0
0
LINE
8
0
6
CONTINUOUS
10
0.058775
20
0.037241
30
0.0
11
0.058277
21
0.037948
31
0.0
0
LINE
8
0
6
CONTINUOUS
10
0.060331
20
0.036241
30
0.0
11
0.059496
21
0.036642
31
0.0
0
LINE
8
0
6
CONTINUOUS
10
0.069790
20
0.035715
30
0.0
11
0.070240
21
0.036630
31
0.0
0
LINE
8
0
6
CONTINUOUS
10
0.070240
20
0.036630
30
0.0
11
0.069799
21
0.036231
31
0.0
0
LINE
8
0
6
CONTINUOUS
10
0.069799
20
0.036231
30
0.0
11
0.069116
21
0.036091
31
0.0
0
LINE
8
0
6
CONTINUOUS
10
0.059496
20
0.036642
30
0.0
11
0.058775
21
0.037241
31
0.0
0
LINE
8
0
6
CONTINUOUS
10
0.054058
20
0.045405
30
0.0
11
0.050149
21
0.053318
31
0.0
0
LINE
8
0
6
CONTINUOUS
10
0.054285
20
0.044976
30
0.0
11
0.054058
21
0.045405
31
0.0
0
LINE
8
0
6
CONTINUOUS
10
0.049588
20
0.054454
30
0.0
11
0.049106
21
0.055430
31
0.0
0
LINE
8
0
6
CONTINUOUS
10
0.049106
20
0.055430
30
0.0
11
0.048974
21
0.055696
31
0.0
0
LINE
8
0
6
CONTINUOUS
10
0.050149
20
0.053318
30
0.0
11
0.049588
21
0.054454
31
0.0
0
LINE
8
0
6
CONTINUOUS
10
0.045994
20
0.054454
30
0.0
11
0.045432
21
0.053318
31
0.0
0
LINE
8
0
6
CONTINUOUS
10
0.038366
20
0.036641
30
0.0
11
0.038817
21
0.035727
31
0.0
0
LINE
8
0
6
CONTINUOUS
10
0.038234
20
0.037241
30
0.0
11
0.038366
21
0.036641
31
0.0
0
LINE
8
0
6
CONTINUOUS
10
0.038431
20
0.037947
30
0.0
11
0.038234
21
0.037241
31
0.0
0
LINE
8
0
6
CONTINUOUS
10
0.045432
20
0.053318
30
0.0
11
0.041524
21
0.045404
31
0.0
0
LINE
8
0
6
CONTINUOUS
10
0.046607
20
0.055696
30
0.0
11
0.046475
21
0.055430
31
0.0
0
LINE
8
0
6
CONTINUOUS
10
0.046475
20
0.055430
30
0.0
11
0.045994
21
0.054454
31
0.0
0
LINE
8
0
6
CONTINUOUS
10
0.048974
20
0.055696
30
0.0
11
0.047790
21
0.058093
31
0.0
0
LINE
8
0
6
CONTINUOUS
10
0.047790
20
0.058093
30
0.0
11
0.046607
21
0.055696
31
0.0
0
LINE
8
0
6
CONTINUOUS
10
0.046292
20
0.051578
30
0.0
11
0.046980
21
0.052458
31
0.0
0
LINE
8
0
6
CONTINUOUS
10
0.037832
20
0.078539
30
0.0
11
0.037700
21
0.077940
31
0.0
0
LINE
8
0
6
CONTINUOUS
10
0.037882
20
0.078641
30
0.0
11
0.037832
21
0.078539
31
0.0
0
LINE
8
0
6
CONTINUOUS
10
0.037652
20
0.077629
30
0.0
11
0.037840
21
0.076936
31
0.0
0
LINE
8
0
6
CONTINUOUS
10
0.037700
20
0.077940
30
0.0
11
0.037652
21
0.077629
31
0.0
0
LINE
8
0
6
CONTINUOUS
10
0.037840
20
0.076936
30
0.0
11
0.039931
21
0.071654
31
0.0
0
LINE
8
0
6
CONTINUOUS
10
0.043395
20
0.063645
30
0.0
11
0.044573
21
0.061127
31
0.0
0
LINE
8
0
6
CONTINUOUS
10
0.038431
20
0.037947
30
0.0
11
0.041328
21
0.044975
31
0.0
0
LINE
8
0
6
CONTINUOUS
10
0.037864
20
0.037658
30
0.0
11
0.037914
21
0.037556
31
0.0
0
LINE
8
0
6
CONTINUOUS
10
0.037732
20
0.038258
30
0.0
11
0.037864
21
0.037658
31
0.0
0
LINE
8
0
6
CONTINUOUS
10
0.044573
20
0.055057
30
0.0
11
0.043396
21
0.052538
31
0.0
0
LINE
8
0
6
CONTINUOUS
10
0.037683
20
0.038569
30
0.0
11
0.037732
21
0.038258
31
0.0
0
LINE
8
0
6
CONTINUOUS
10
0.037872
20
0.039266
30
0.0
11
0.037683
21
0.038569
31
0.0
0
LINE
8
0
6
CONTINUOUS
10
0.039888
20
0.044401
30
0.0
11
0.037884
21
0.039296
31
0.0
0
LINE
8
0
6
CONTINUOUS
10
0.044292
20
0.060684
30
0.0
11
0.043395
21
0.062604
31
0.0
0
LINE
8
0
6
CONTINUOUS
10
0.044673
20
0.059468
30
0.0
11
0.044292
21
0.060684
31
0.0
0
LINE
8
0
6
CONTINUOUS
10
0.044800
20
0.058092
30
0.0
11
0.044673
21
0.059468
31
0.0
0
LINE
8
0
6
CONTINUOUS
10
0.044673
20
0.056717
30
0.0
11
0.044800
21
0.058092
31
0.0
0
LINE
8
0
6
CONTINUOUS
10
0.044293
20
0.055500
30
0.0
11
0.044673
21
0.056717
31
0.0
0
LINE
8
0
6
CONTINUOUS
10
0.043396
20
0.053580
30
0.0
11
0.044293
21
0.055500
31
0.0
0
LINE
8
0
6
CONTINUOUS
10
0.044673
20
0.056717
30
0.0
11
0.044293
21
0.055500
31
0.0
0
LINE
8
0
6
CONTINUOUS
10
0.044800
20
0.058092
30
0.0
11
0.044673
21
0.056717
31
0.0
0
LINE
8
0
6
CONTINUOUS
10
0.044673
20
0.059468
30
0.0
11
0.044800
21
0.058092
31
0.0
0
LINE
8
0
6
CONTINUOUS
10
0.044292
20
0.060684
30
0.0
11
0.044673
21
0.059468
31
0.0
0
LINE
8
0
6
CONTINUOUS
10
0.041327
20
0.071209
30
0.0
11
0.038399
21
0.078251
31
0.0
0
LINE
8
0
6
CONTINUOUS
10
0.045160
20
0.058092
30
0.0
11
0.045008
21
0.056450
31
0.0
0
LINE
8
0
6
CONTINUOUS
10
0.044293
20
0.055500
30
0.0
11
0.043396
21
0.053580
31
0.0
0
LINE
8
0
6
CONTINUOUS
10
0.045008
20
0.056450
30
0.0
11
0.044573
21
0.055057
31
0.0
0
LINE
8
0
6
CONTINUOUS
10
0.041523
20
0.070780
30
0.0
11
0.041327
21
0.071209
31
0.0
0
LINE
8
0
6
CONTINUOUS
10
0.045007
20
0.059734
30
0.0
11
0.045160
21
0.058092
31
0.0
0
LINE
8
0
6
CONTINUOUS
10
0.038234
20
0.037241
30
0.0
11
0.038431
21
0.037947
31
0.0
0
LINE
8
0
6
CONTINUOUS
10
0.037914
20
0.037556
30
0.0
11
0.038365
21
0.036641
31
0.0
0
LINE
8
0
6
CONTINUOUS
10
0.038365
20
0.036641
30
0.0
11
0.038234
21
0.037241
31
0.0
0
LINE
8
0
6
CONTINUOUS
10
0.041524
20
0.045404
30
0.0
11
0.045432
21
0.053318
31
0.0
0
LINE
8
0
6
CONTINUOUS
10
0.041328
20
0.044975
30
0.0
11
0.041524
21
0.045404
31
0.0
0
LINE
8
0
6
CONTINUOUS
10
0.045994
20
0.054454
30
0.0
11
0.046475
21
0.055430
31
0.0
0
LINE
8
0
6
CONTINUOUS
10
0.046475
20
0.055430
30
0.0
11
0.046607
21
0.055696
31
0.0
0
LINE
8
0
6
CONTINUOUS
10
0.045432
20
0.053318
30
0.0
11
0.045994
21
0.054454
31
0.0
0
LINE
8
0
6
CONTINUOUS
10
0.045993
20
0.061731
30
0.0
11
0.045432
21
0.062867
31
0.0
0
LINE
8
0
6
CONTINUOUS
10
0.038331
20
0.079556
30
0.0
11
0.037882
21
0.078641
31
0.0
0
LINE
8
0
6
CONTINUOUS
10
0.038201
20
0.078957
30
0.0
11
0.038331
21
0.079556
31
0.0
0
LINE
8
0
6
CONTINUOUS
10
0.038399
20
0.078251
30
0.0
11
0.038201
21
0.078957
31
0.0
0
LINE
8
0
6
CONTINUOUS
10
0.045432
20
0.062867
30
0.0
11
0.041523
21
0.070780
31
0.0
0
LINE
8
0
6
CONTINUOUS
10
0.046607
20
0.060489
30
0.0
11
0.046475
21
0.060755
31
0.0
0
LINE
8
0
6
CONTINUOUS
10
0.040824
20
0.070192
30
0.0
11
0.040812
21
0.069979
31
0.0
0
LINE
8
0
6
CONTINUOUS
10
0.046475
20
0.060755
30
0.0
11
0.045993
21
0.061731
31
0.0
0
LINE
8
0
6
CONTINUOUS
10
0.046607
20
0.055696
30
0.0
11
0.047790
21
0.058093
31
0.0
0
LINE
8
0
6
CONTINUOUS
10
0.047790
20
0.058093
30
0.0
11
0.046607
21
0.060489
31
0.0
0
LINE
8
0
6
CONTINUOUS
10
0.044573
20
0.061127
30
0.0
11
0.045007
21
0.059734
31
0.0
0
LINE
8
0
6
CONTINUOUS
10
0.070206
20
0.079544
30
0.0
11
0.069755
21
0.080459
31
0.0
0
LINE
8
0
6
CONTINUOUS
10
0.069765
20
0.079945
30
0.0
11
0.070206
21
0.079544
31
0.0
0
LINE
8
0
6
CONTINUOUS
10
0.069081
20
0.080086
30
0.0
11
0.069765
21
0.079945
31
0.0
0
LINE
8
0
6
CONTINUOUS
10
0.069481
20
0.080788
30
0.0
11
0.069058
21
0.081172
31
0.0
0
LINE
8
0
6
CONTINUOUS
10
0.069704
20
0.080561
30
0.0
11
0.069481
21
0.080788
31
0.0
0
LINE
8
0
6
CONTINUOUS
10
0.069058
20
0.081172
30
0.0
11
0.068396
21
0.081308
31
0.0
0
LINE
8
0
6
CONTINUOUS
10
0.060267
20
0.081318
30
0.0
11
0.059541
21
0.081194
31
0.0
0
LINE
8
0
6
CONTINUOUS
10
0.059541
20
0.081194
30
0.0
11
0.058836
21
0.080858
31
0.0
0
LINE
8
0
6
CONTINUOUS
10
0.058836
20
0.080858
30
0.0
11
0.058228
21
0.080354
31
0.0
0
LINE
8
0
6
CONTINUOUS
10
0.058228
20
0.080354
30
0.0
11
0.057774
21
0.079759
31
0.0
0
LINE
8
0
6
CONTINUOUS
10
0.057676
20
0.079552
30
0.0
11
0.053543
21
0.072521
31
0.0
0
LINE
8
0
6
CONTINUOUS
10
0.053305
20
0.072303
30
0.0
11
0.049289
21
0.064607
31
0.0
0
LINE
8
0
6
CONTINUOUS
10
0.038399
20
0.078251
30
0.0
11
0.041327
21
0.071210
31
0.0
0
LINE
8
0
6
CONTINUOUS
10
0.038831
20
0.080572
30
0.0
11
0.038781
21
0.080470
31
0.0
0
LINE
8
0
6
CONTINUOUS
10
0.046291
20
0.064607
30
0.0
11
0.042274
21
0.072301
31
0.0
0
LINE
8
0
6
CONTINUOUS
10
0.048994
20
0.081183
30
0.0
11
0.048268
21
0.081308
31
0.0
0
LINE
8
0
6
CONTINUOUS
10
0.049699
20
0.080845
30
0.0
11
0.048994
21
0.081183
31
0.0
0
LINE
8
0
6
CONTINUOUS
10
0.050308
20
0.080340
30
0.0
11
0.049699
21
0.080845
31
0.0
0
LINE
8
0
6
CONTINUOUS
10
0.050764
20
0.079746
30
0.0
11
0.050308
21
0.080340
31
0.0
0
LINE
8
0
6
CONTINUOUS
10
0.039055
20
0.080800
30
0.0
11
0.038831
21
0.080572
31
0.0
0
LINE
8
0
6
CONTINUOUS
10
0.039476
20
0.081182
30
0.0
11
0.039055
21
0.080800
31
0.0
0
LINE
8
0
6
CONTINUOUS
10
0.040138
20
0.081317
30
0.0
11
0.039476
21
0.081182
31
0.0
0
LINE
8
0
6
CONTINUOUS
10
0.040363
20
0.081317
30
0.0
11
0.040138
21
0.081317
31
0.0
0
LINE
8
0
6
CONTINUOUS
10
0.048268
20
0.081308
30
0.0
11
0.040363
21
0.081317
31
0.0
0
LINE
8
0
6
CONTINUOUS
10
0.042284
20
0.072520
30
0.0
11
0.042420
21
0.072675
31
0.0
0
LINE
8
0
6
CONTINUOUS
10
0.042420
20
0.072675
30
0.0
11
0.042675
21
0.072729
31
0.0
0
LINE
8
0
6
CONTINUOUS
10
0.052228
20
0.076782
30
0.0
11
0.050764
21
0.079746
31
0.0
0
LINE
8
0
6
CONTINUOUS
10
0.052242
20
0.076782
30
0.0
11
0.050861
21
0.079538
31
0.0
0
LINE
8
0
6
CONTINUOUS
10
0.046912
20
0.064607
30
0.0
11
0.047600
21
0.063727
31
0.0
0
LINE
8
0
6
CONTINUOUS
10
0.047600
20
0.063727
30
0.0
11
0.048411
21
0.063418
31
0.0
0
LINE
8
0
6
CONTINUOUS
10
0.049090
20
0.064405
30
0.0
11
0.048411
21
0.064146
31
0.0
0
LINE
8
0
6
CONTINUOUS
10
0.053839
20
0.073121
30
0.0
11
0.053635
21
0.072730
31
0.0
0
LINE
8
0
6
CONTINUOUS
10
0.052996
20
0.072696
30
0.0
11
0.053234
21
0.072914
31
0.0
0
LINE
8
0
6
CONTINUOUS
10
0.051666
20
0.074388
30
0.0
11
0.052996
21
0.072696
31
0.0
0
LINE
8
0
6
CONTINUOUS
10
0.046357
20
0.076313
30
0.0
11
0.046084
21
0.076242
31
0.0
0
LINE
8
0
6
CONTINUOUS
10
0.048411
20
0.076781
30
0.0
11
0.046357
21
0.076313
31
0.0
0
LINE
8
0
6
CONTINUOUS
10
0.050465
20
0.076313
30
0.0
11
0.048411
21
0.076781
31
0.0
0
LINE
8
0
6
CONTINUOUS
10
0.044141
20
0.074865
30
0.0
11
0.043971
21
0.074667
31
0.0
0
LINE
8
0
6
CONTINUOUS
10
0.046084
20
0.076242
30
0.0
11
0.044141
21
0.074865
31
0.0
0
LINE
8
0
6
CONTINUOUS
10
0.045802
20
0.075725
30
0.0
11
0.047790
21
0.076179
31
0.0
0
LINE
8
0
6
CONTINUOUS
10
0.052416
20
0.074931
30
0.0
11
0.050465
21
0.076313
31
0.0
0
LINE
8
0
6
CONTINUOUS
10
0.043914
20
0.074388
30
0.0
11
0.045802
21
0.075725
31
0.0
0
LINE
8
0
6
CONTINUOUS
10
0.047790
20
0.076179
30
0.0
11
0.049778
21
0.075726
31
0.0
0
LINE
8
0
6
CONTINUOUS
10
0.053839
20
0.073121
30
0.0
11
0.052416
21
0.074931
31
0.0
0
LINE
8
0
6
CONTINUOUS
10
0.053532
20
0.073069
30
0.0
11
0.053839
21
0.073121
31
0.0
0
LINE
8
0
6
CONTINUOUS
10
0.049778
20
0.075726
30
0.0
11
0.051666
21
0.074388
31
0.0
0
LINE
8
0
6
CONTINUOUS
10
0.053234
20
0.072914
30
0.0
11
0.053532
21
0.073069
31
0.0
0
LINE
8
0
6
CONTINUOUS
10
0.042593
20
0.072913
30
0.0
11
0.042583
21
0.072695
31
0.0
0
LINE
8
0
6
CONTINUOUS
10
0.043971
20
0.074667
30
0.0
11
0.042593
21
0.072913
31
0.0
0
LINE
8
0
6
CONTINUOUS
10
0.042583
20
0.072695
30
0.0
11
0.043914
21
0.074388
31
0.0
0
LINE
8
0
6
CONTINUOUS
10
0.086918
20
0.076782
30
0.0
11
0.086570
21
0.076782
31
0.0
0
LINE
8
0
6
CONTINUOUS
10
0.088972
20
0.076314
30
0.0
11
0.086918
21
0.076782
31
0.0
0
LINE
8
0
6
CONTINUOUS
10
0.050465
20
0.076313
30
0.0
11
0.052416
21
0.074931
31
0.0
0
LINE
8
0
6
CONTINUOUS
10
0.067931
20
0.071221
30
0.0
11
0.093056
21
0.071226
31
0.0
0
LINE
8
0
6
CONTINUOUS
10
0.049778
20
0.075726
30
0.0
11
0.047790
21
0.076179
31
0.0
0
LINE
8
0
6
CONTINUOUS
10
0.051666
20
0.074388
30
0.0
11
0.049778
21
0.075726
31
0.0
0
LINE
8
0
6
CONTINUOUS
10
0.052996
20
0.072696
30
0.0
11
0.051666
21
0.074388
31
0.0
0
LINE
8
0
6
CONTINUOUS
10
0.049070
20
0.065175
30
0.0
11
0.052996
21
0.072696
31
0.0
0
LINE
8
0
6
CONTINUOUS
10
0.048469
20
0.064405
30
0.0
11
0.049070
21
0.065175
31
0.0
0
LINE
8
0
6
CONTINUOUS
10
0.047790
20
0.064146
30
0.0
11
0.048469
21
0.064405
31
0.0
0
LINE
8
0
6
CONTINUOUS
10
0.047111
20
0.064405
30
0.0
11
0.047790
21
0.064146
31
0.0
0
LINE
8
0
6
CONTINUOUS
10
0.046510
20
0.065174
30
0.0
11
0.047111
21
0.064405
31
0.0
0
LINE
8
0
6
CONTINUOUS
10
0.042583
20
0.072695
30
0.0
11
0.046510
21
0.065174
31
0.0
0
LINE
8
0
6
CONTINUOUS
10
0.043914
20
0.074388
30
0.0
11
0.042583
21
0.072695
31
0.0
0
LINE
8
0
6
CONTINUOUS
10
0.045802
20
0.075725
30
0.0
11
0.043914
21
0.074388
31
0.0
0
LINE
8
0
6
CONTINUOUS
10
0.047790
20
0.076179
30
0.0
11
0.045802
21
0.075725
31
0.0
0
LINE
8
0
6
CONTINUOUS
10
0.092673
20
0.072705
30
0.0
11
0.090923
21
0.074932
31
0.0
0
LINE
8
0
6
CONTINUOUS
10
0.046291
20
0.064607
30
0.0
11
0.046979
21
0.063727
31
0.0
0
LINE
8
0
6
CONTINUOUS
10
0.047600
20
0.063727
30
0.0
11
0.046912
21
0.064607
31
0.0
0
LINE
8
0
6
CONTINUOUS
10
0.046979
20
0.063727
30
0.0
11
0.047790
21
0.063418
31
0.0
0
LINE
8
0
6
CONTINUOUS
10
0.048411
20
0.063418
30
0.0
11
0.047600
21
0.063727
31
0.0
0
LINE
8
0
6
CONTINUOUS
10
0.048469
20
0.064405
30
0.0
11
0.047790
21
0.064146
31
0.0
0
LINE
8
0
6
CONTINUOUS
10
0.048411
20
0.064146
30
0.0
11
0.049090
21
0.064405
31
0.0
0
LINE
8
0
6
CONTINUOUS
10
0.047790
20
0.064146
30
0.0
11
0.048411
21
0.064146
31
0.0
0
LINE
8
0
6
CONTINUOUS
10
0.049070
20
0.065175
30
0.0
11
0.048469
21
0.064405
31
0.0
0
LINE
8
0
6
CONTINUOUS
10
0.054284
20
0.071210
30
0.0
11
0.058245
21
0.078252
31
0.0
0
LINE
8
0
6
CONTINUOUS
10
0.047790
20
0.063418
30
0.0
11
0.046979
21
0.063727
31
0.0
0
LINE
8
0
6
CONTINUOUS
10
0.042274
20
0.072301
30
0.0
11
0.046291
21
0.064607
31
0.0
0
LINE
8
0
6
CONTINUOUS
10
0.042284
20
0.072520
30
0.0
11
0.042274
21
0.072301
31
0.0
0
LINE
8
0
6
CONTINUOUS
10
0.042420
20
0.072675
30
0.0
11
0.042284
21
0.072520
31
0.0
0
LINE
8
0
6
CONTINUOUS
10
0.042673
20
0.072726
30
0.0
11
0.042420
21
0.072675
31
0.0
0
LINE
8
0
6
CONTINUOUS
10
0.052996
20
0.072696
30
0.0
11
0.049070
21
0.065175
31
0.0
0
LINE
8
0
6
CONTINUOUS
10
0.053234
20
0.072914
30
0.0
11
0.052996
21
0.072696
31
0.0
0
LINE
8
0
6
CONTINUOUS
10
0.053532
20
0.073069
30
0.0
11
0.053234
21
0.072914
31
0.0
0
LINE
8
0
6
CONTINUOUS
10
0.053839
20
0.073121
30
0.0
11
0.053532
21
0.073069
31
0.0
0
LINE
8
0
6
CONTINUOUS
10
0.053635
20
0.072730
30
0.0
11
0.053839
21
0.073121
31
0.0
0
LINE
8
0
6
CONTINUOUS
10
0.046979
20
0.063727
30
0.0
11
0.046291
21
0.064607
31
0.0
0
LINE
8
0
6
CONTINUOUS
10
0.054057
20
0.070781
30
0.0
11
0.054284
21
0.071210
31
0.0
0
LINE
8
0
6
CONTINUOUS
10
0.053543
20
0.072521
30
0.0
11
0.053305
21
0.072303
31
0.0
0
LINE
8
0
6
CONTINUOUS
10
0.069755
20
0.080459
30
0.0
11
0.069704
21
0.080561
31
0.0
0
LINE
8
0
6
CONTINUOUS
10
0.042274
20
0.072301
30
0.0
11
0.042284
21
0.072520
31
0.0
0
LINE
8
0
6
CONTINUOUS
10
0.048601
20
0.063727
30
0.0
11
0.047790
21
0.063418
31
0.0
0
LINE
8
0
6
CONTINUOUS
10
0.038201
20
0.078957
30
0.0
11
0.038399
21
0.078251
31
0.0
0
LINE
8
0
6
CONTINUOUS
10
0.038781
20
0.080470
30
0.0
11
0.038331
21
0.079556
31
0.0
0
LINE
8
0
6
CONTINUOUS
10
0.038331
20
0.079556
30
0.0
11
0.038201
21
0.078957
31
0.0
0
LINE
8
0
6
CONTINUOUS
10
0.041523
20
0.070780
30
0.0
11
0.045432
21
0.062867
31
0.0
0
LINE
8
0
6
CONTINUOUS
10
0.041327
20
0.071210
30
0.0
11
0.041523
21
0.070780
31
0.0
0
LINE
8
0
6
CONTINUOUS
10
0.045993
20
0.061731
30
0.0
11
0.046475
21
0.060755
31
0.0
0
LINE
8
0
6
CONTINUOUS
10
0.046475
20
0.060755
30
0.0
11
0.046607
21
0.060489
31
0.0
0
LINE
8
0
6
CONTINUOUS
10
0.045432
20
0.062867
30
0.0
11
0.045993
21
0.061731
31
0.0
0
LINE
8
0
6
CONTINUOUS
10
0.049587
20
0.061731
30
0.0
11
0.050149
21
0.062867
31
0.0
0
LINE
8
0
6
CONTINUOUS
10
0.060296
20
0.079956
30
0.0
11
0.061118
21
0.080095
31
0.0
0
LINE
8
0
6
CONTINUOUS
10
0.061118
20
0.080095
30
0.0
11
0.069081
21
0.080086
31
0.0
0
LINE
8
0
6
CONTINUOUS
10
0.058741
20
0.078958
30
0.0
11
0.059462
21
0.079556
31
0.0
0
LINE
8
0
6
CONTINUOUS
10
0.058245
20
0.078252
30
0.0
11
0.058741
21
0.078958
31
0.0
0
LINE
8
0
6
CONTINUOUS
10
0.059462
20
0.079556
30
0.0
11
0.060296
21
0.079956
31
0.0
0
LINE
8
0
6
CONTINUOUS
10
0.050149
20
0.062867
30
0.0
11
0.054057
21
0.070781
31
0.0
0
LINE
8
0
6
CONTINUOUS
10
0.048974
20
0.060489
30
0.0
11
0.049105
21
0.060755
31
0.0
0
LINE
8
0
6
CONTINUOUS
10
0.049105
20
0.060755
30
0.0
11
0.049587
21
0.061731
31
0.0
0
LINE
8
0
6
CONTINUOUS
10
0.046607
20
0.060489
30
0.0
11
0.047790
21
0.058093
31
0.0
0
LINE
8
0
6
CONTINUOUS
10
0.047790
20
0.058093
30
0.0
11
0.048974
21
0.060489
31
0.0
0
LINE
8
0
6
CONTINUOUS
10
0.049289
20
0.064607
30
0.0
11
0.048601
21
0.063727
31
0.0
0
LINE
8
0
6
CONTINUOUS
10
0.066811
20
0.046481
30
0.0
11
0.055794
21
0.046480
31
0.0
0
LINE
8
0
6
CONTINUOUS
10
0.070240
20
0.036630
30
0.0
11
0.070689
21
0.037545
31
0.0
0
LINE
8
0
6
CONTINUOUS
10
0.069799
20
0.036231
30
0.0
11
0.070240
21
0.036630
31
0.0
0
LINE
8
0
6
CONTINUOUS
10
0.069116
20
0.036091
30
0.0
11
0.069799
21
0.036231
31
0.0
0
LINE
8
0
6
CONTINUOUS
10
0.070739
20
0.037646
30
0.0
11
0.070871
21
0.038245
31
0.0
0
LINE
8
0
6
CONTINUOUS
10
0.070871
20
0.038245
30
0.0
11
0.070919
21
0.038557
31
0.0
0
LINE
8
0
6
CONTINUOUS
10
0.070919
20
0.038557
30
0.0
11
0.070729
21
0.039254
31
0.0
0
LINE
8
0
6
CONTINUOUS
10
0.070729
20
0.039254
30
0.0
11
0.070612
21
0.039502
31
0.0
0
LINE
8
0
6
CONTINUOUS
10
0.070612
20
0.039502
30
0.0
11
0.067365
21
0.046230
31
0.0
0
LINE
8
0
6
CONTINUOUS
10
0.067231
20
0.046413
30
0.0
11
0.066963
21
0.046481
31
0.0
0
LINE
8
0
6
CONTINUOUS
10
0.055641
20
0.046480
30
0.0
11
0.055334
21
0.046532
31
0.0
0
LINE
8
0
6
CONTINUOUS
10
0.055334
20
0.046532
30
0.0
11
0.055041
21
0.046696
31
0.0
0
LINE
8
0
6
CONTINUOUS
10
0.054809
20
0.046927
30
0.0
11
0.051008
21
0.055059
31
0.0
0
LINE
8
0
6
CONTINUOUS
10
0.058245
20
0.078252
30
0.0
11
0.054284
21
0.071210
31
0.0
0
LINE
8
0
6
CONTINUOUS
10
0.070707
20
0.078528
30
0.0
11
0.070657
21
0.078630
31
0.0
0
LINE
8
0
6
CONTINUOUS
10
0.055793
20
0.069707
30
0.0
11
0.066808
21
0.069707
31
0.0
0
LINE
8
0
6
CONTINUOUS
10
0.051008
20
0.061128
30
0.0
11
0.054808
21
0.069260
31
0.0
0
LINE
8
0
6
CONTINUOUS
10
0.070839
20
0.077928
30
0.0
11
0.070707
21
0.078528
31
0.0
0
LINE
8
0
6
CONTINUOUS
10
0.070888
20
0.077617
30
0.0
11
0.070839
21
0.077928
31
0.0
0
LINE
8
0
6
CONTINUOUS
10
0.070701
20
0.076923
30
0.0
11
0.070888
21
0.077617
31
0.0
0
LINE
8
0
6
CONTINUOUS
10
0.070585
20
0.076676
30
0.0
11
0.070701
21
0.076923
31
0.0
0
LINE
8
0
6
CONTINUOUS
10
0.055040
20
0.069491
30
0.0
11
0.055333
21
0.069655
31
0.0
0
LINE
8
0
6
CONTINUOUS
10
0.055333
20
0.069655
30
0.0
11
0.055640
21
0.069707
31
0.0
0
LINE
8
0
6
CONTINUOUS
10
0.067229
20
0.069774
30
0.0
11
0.070585
21
0.076676
31
0.0
0
LINE
8
0
6
CONTINUOUS
10
0.066961
20
0.069707
30
0.0
11
0.067229
21
0.069774
31
0.0
0
LINE
8
0
6
CONTINUOUS
10
0.067359
20
0.069950
30
0.0
11
0.070634
21
0.076782
31
0.0
0
LINE
8
0
6
CONTINUOUS
10
0.055833
20
0.069084
30
0.0
11
0.055639
21
0.069709
31
0.0
0
LINE
8
0
6
CONTINUOUS
10
0.055639
20
0.069709
30
0.0
11
0.055056
21
0.068462
31
0.0
0
LINE
8
0
6
CONTINUOUS
10
0.055640
20
0.046478
30
0.0
11
0.055834
21
0.047103
31
0.0
0
LINE
8
0
6
CONTINUOUS
10
0.055057
20
0.047725
30
0.0
11
0.055640
21
0.046478
31
0.0
0
LINE
8
0
6
CONTINUOUS
10
0.055003
20
0.047553
30
0.0
11
0.055235
21
0.047322
31
0.0
0
LINE
8
0
6
CONTINUOUS
10
0.055839
20
0.050246
30
0.0
11
0.055003
21
0.047553
31
0.0
0
LINE
8
0
6
CONTINUOUS
10
0.057642
20
0.058093
30
0.0
11
0.057411
21
0.062252
31
0.0
0
LINE
8
0
6
CONTINUOUS
10
0.057411
20
0.062252
30
0.0
11
0.056728
21
0.066202
31
0.0
0
LINE
8
0
6
CONTINUOUS
10
0.057411
20
0.053935
30
0.0
11
0.057642
21
0.058093
31
0.0
0
LINE
8
0
6
CONTINUOUS
10
0.055833
20
0.069084
30
0.0
11
0.055527
21
0.069029
31
0.0
0
LINE
8
0
6
CONTINUOUS
10
0.056728
20
0.066202
30
0.0
11
0.055833
21
0.069084
31
0.0
0
LINE
8
0
6
CONTINUOUS
10
0.056500
20
0.062118
30
0.0
11
0.056724
21
0.058093
31
0.0
0
LINE
8
0
6
CONTINUOUS
10
0.056728
20
0.049984
30
0.0
11
0.057411
21
0.053935
31
0.0
0
LINE
8
0
6
CONTINUOUS
10
0.055527
20
0.069029
30
0.0
11
0.055234
21
0.068866
31
0.0
0
LINE
8
0
6
CONTINUOUS
10
0.055839
20
0.065941
30
0.0
11
0.056500
21
0.062118
31
0.0
0
LINE
8
0
6
CONTINUOUS
10
0.056724
20
0.058093
30
0.0
11
0.056500
21
0.054069
31
0.0
0
LINE
8
0
6
CONTINUOUS
10
0.055834
20
0.047103
30
0.0
11
0.056728
21
0.049984
31
0.0
0
LINE
8
0
6
CONTINUOUS
10
0.055528
20
0.047158
30
0.0
11
0.055834
21
0.047103
31
0.0
0
LINE
8
0
6
CONTINUOUS
10
0.056500
20
0.054069
30
0.0
11
0.055839
21
0.050246
31
0.0
0
LINE
8
0
6
CONTINUOUS
10
0.055235
20
0.047322
30
0.0
11
0.055528
21
0.047158
31
0.0
0
LINE
8
0
6
CONTINUOUS
10
0.055234
20
0.068866
30
0.0
11
0.055003
21
0.068634
31
0.0
0
LINE
8
0
6
CONTINUOUS
10
0.055003
20
0.068634
30
0.0
11
0.055839
21
0.065941
31
0.0
0
LINE
8
0
6
CONTINUOUS
10
0.056728
20
0.066202
30
0.0
11
0.057411
21
0.062252
31
0.0
0
LINE
8
0
6
CONTINUOUS
10
0.095918
20
0.053936
30
0.0
11
0.096149
21
0.058094
31
0.0
0
LINE
8
0
6
CONTINUOUS
10
0.057411
20
0.053935
30
0.0
11
0.056728
21
0.049984
31
0.0
0
LINE
8
0
6
CONTINUOUS
10
0.056500
20
0.054069
30
0.0
11
0.056724
21
0.058093
31
0.0
0
LINE
8
0
6
CONTINUOUS
10
0.055839
20
0.050246
30
0.0
11
0.056500
21
0.054069
31
0.0
0
LINE
8
0
6
CONTINUOUS
10
0.055003
20
0.047553
30
0.0
11
0.055839
21
0.050246
31
0.0
0
LINE
8
0
6
CONTINUOUS
10
0.051288
20
0.055501
30
0.0
11
0.055003
21
0.047553
31
0.0
0
LINE
8
0
6
CONTINUOUS
10
0.050908
20
0.056718
30
0.0
11
0.051288
21
0.055501
31
0.0
0
LINE
8
0
6
CONTINUOUS
10
0.050780
20
0.058093
30
0.0
11
0.050908
21
0.056718
31
0.0
0
LINE
8
0
6
CONTINUOUS
10
0.050908
20
0.059469
30
0.0
11
0.050780
21
0.058093
31
0.0
0
LINE
8
0
6
CONTINUOUS
10
0.051288
20
0.060686
30
0.0
11
0.050908
21
0.059469
31
0.0
0
LINE
8
0
6
CONTINUOUS
10
0.055003
20
0.068634
30
0.0
11
0.051288
21
0.060686
31
0.0
0
LINE
8
0
6
CONTINUOUS
10
0.055839
20
0.065941
30
0.0
11
0.055003
21
0.068634
31
0.0
0
LINE
8
0
6
CONTINUOUS
10
0.056500
20
0.062118
30
0.0
11
0.055839
21
0.065941
31
0.0
0
LINE
8
0
6
CONTINUOUS
10
0.056724
20
0.058093
30
0.0
11
0.056500
21
0.062118
31
0.0
0
LINE
8
0
6
CONTINUOUS
10
0.055639
20
0.069709
30
0.0
11
0.056728
21
0.066202
31
0.0
0
LINE
8
0
6
CONTINUOUS
10
0.094136
20
0.046442
30
0.0
11
0.095235
21
0.049985
31
0.0
0
LINE
8
0
6
CONTINUOUS
10
0.051008
20
0.061128
30
0.0
11
0.050573
21
0.059736
31
0.0
0
LINE
8
0
6
CONTINUOUS
10
0.050573
20
0.059736
30
0.0
11
0.050421
21
0.058093
31
0.0
0
LINE
8
0
6
CONTINUOUS
10
0.050421
20
0.058093
30
0.0
11
0.050573
21
0.056451
31
0.0
0
LINE
8
0
6
CONTINUOUS
10
0.050573
20
0.056451
30
0.0
11
0.051008
21
0.055059
31
0.0
0
LINE
8
0
6
CONTINUOUS
10
0.054285
20
0.044976
30
0.0
11
0.058277
21
0.037948
31
0.0
0
LINE
8
0
6
CONTINUOUS
10
0.050421
20
0.058093
30
0.0
11
0.050573
21
0.059736
31
0.0
0
LINE
8
0
6
CONTINUOUS
10
0.054808
20
0.069260
30
0.0
11
0.051008
21
0.061128
31
0.0
0
LINE
8
0
6
CONTINUOUS
10
0.055040
20
0.069491
30
0.0
11
0.054808
21
0.069260
31
0.0
0
LINE
8
0
6
CONTINUOUS
10
0.055333
20
0.069655
30
0.0
11
0.055040
21
0.069491
31
0.0
0
LINE
8
0
6
CONTINUOUS
10
0.055639
20
0.069709
30
0.0
11
0.055333
21
0.069655
31
0.0
0
LINE
8
0
6
CONTINUOUS
10
0.055056
20
0.068462
30
0.0
11
0.055639
21
0.069709
31
0.0
0
LINE
8
0
6
CONTINUOUS
10
0.055334
20
0.046532
30
0.0
11
0.055640
21
0.046478
31
0.0
0
LINE
8
0
6
CONTINUOUS
10
0.055041
20
0.046696
30
0.0
11
0.055334
21
0.046532
31
0.0
0
LINE
8
0
6
CONTINUOUS
10
0.054809
20
0.046927
30
0.0
11
0.055041
21
0.046696
31
0.0
0
LINE
8
0
6
CONTINUOUS
10
0.051008
20
0.055059
30
0.0
11
0.054809
21
0.046927
31
0.0
0
LINE
8
0
6
CONTINUOUS
10
0.055640
20
0.046478
30
0.0
11
0.055057
21
0.047725
31
0.0
0
LINE
8
0
6
CONTINUOUS
10
0.050573
20
0.059736
30
0.0
11
0.051008
21
0.061128
31
0.0
0
LINE
8
0
6
CONTINUOUS
10
0.057411
20
0.062252
30
0.0
11
0.057642
21
0.058093
31
0.0
0
LINE
8
0
6
CONTINUOUS
10
0.099656
20
0.069316
30
0.0
11
0.098952
21
0.070741
31
0.0
0
LINE
8
0
6
CONTINUOUS
10
0.054058
20
0.045405
30
0.0
11
0.054285
21
0.044976
31
0.0
0
LINE
8
0
6
CONTINUOUS
10
0.055041
20
0.046696
30
0.0
11
0.054809
21
0.046927
31
0.0
0
LINE
8
0
6
CONTINUOUS
10
0.070689
20
0.037545
30
0.0
11
0.070739
21
0.037646
31
0.0
0
LINE
8
0
6
CONTINUOUS
10
0.054808
20
0.069260
30
0.0
11
0.055040
21
0.069491
31
0.0
0
LINE
8
0
6
CONTINUOUS
10
0.055640
20
0.069707
30
0.0
11
0.055793
21
0.069707
31
0.0
0
LINE
8
0
6
CONTINUOUS
10
0.066808
20
0.069707
30
0.0
11
0.066961
21
0.069707
31
0.0
0
LINE
8
0
6
CONTINUOUS
10
0.066963
20
0.046481
30
0.0
11
0.066811
21
0.046481
31
0.0
0
LINE
8
0
6
CONTINUOUS
10
0.055794
20
0.046480
30
0.0
11
0.055641
21
0.046480
31
0.0
0
LINE
8
0
6
CONTINUOUS
10
0.050573
20
0.056451
30
0.0
11
0.050421
21
0.058093
31
0.0
0
LINE
8
0
6
CONTINUOUS
10
0.061118
20
0.080095
30
0.0
11
0.060296
21
0.079956
31
0.0
0
LINE
8
0
6
CONTINUOUS
10
0.069081
20
0.080086
30
0.0
11
0.061118
21
0.080095
31
0.0
0
LINE
8
0
6
CONTINUOUS
10
0.058741
20
0.078958
30
0.0
11
0.058245
21
0.078252
31
0.0
0
LINE
8
0
6
CONTINUOUS
10
0.060296
20
0.079956
30
0.0
11
0.059462
21
0.079556
31
0.0
0
LINE
8
0
6
CONTINUOUS
10
0.070657
20
0.078630
30
0.0
11
0.070206
21
0.079544
31
0.0
0
LINE
8
0
6
CONTINUOUS
10
0.070206
20
0.079544
30
0.0
11
0.069765
21
0.079945
31
0.0
0
LINE
8
0
6
CONTINUOUS
10
0.069765
20
0.079945
30
0.0
11
0.069081
21
0.080086
31
0.0
0
LINE
8
0
6
CONTINUOUS
10
0.059462
20
0.079556
30
0.0
11
0.058741
21
0.078958
31
0.0
0
LINE
8
0
6
CONTINUOUS
10
0.054057
20
0.070781
30
0.0
11
0.050149
21
0.062868
31
0.0
0
LINE
8
0
6
CONTINUOUS
10
0.054284
20
0.071210
30
0.0
11
0.054057
21
0.070781
31
0.0
0
LINE
8
0
6
CONTINUOUS
10
0.049587
20
0.061732
30
0.0
11
0.049106
21
0.060756
31
0.0
0
LINE
8
0
6
CONTINUOUS
10
0.049106
20
0.060756
30
0.0
11
0.048974
21
0.060489
31
0.0
0
LINE
8
0
6
CONTINUOUS
10
0.050149
20
0.062868
30
0.0
11
0.049587
21
0.061732
31
0.0
0
LINE
8
0
6
CONTINUOUS
10
0.049588
20
0.054454
30
0.0
11
0.050149
21
0.053318
31
0.0
0
LINE
8
0
6
CONTINUOUS
10
0.060331
20
0.036242
30
0.0
11
0.061153
21
0.036100
31
0.0
0
LINE
8
0
6
CONTINUOUS
10
0.061153
20
0.036100
30
0.0
11
0.069116
21
0.036091
31
0.0
0
LINE
8
0
6
CONTINUOUS
10
0.058775
20
0.037241
30
0.0
11
0.059496
21
0.036642
31
0.0
0
LINE
8
0
6
CONTINUOUS
10
0.058277
20
0.037948
30
0.0
11
0.058775
21
0.037241
31
0.0
0
LINE
8
0
6
CONTINUOUS
10
0.059496
20
0.036642
30
0.0
11
0.060331
21
0.036242
31
0.0
0
LINE
8
0
6
CONTINUOUS
10
0.050149
20
0.053318
30
0.0
11
0.054058
21
0.045405
31
0.0
0
LINE
8
0
6
CONTINUOUS
10
0.048974
20
0.055696
30
0.0
11
0.049106
21
0.055430
31
0.0
0
LINE
8
0
6
CONTINUOUS
10
0.049106
20
0.055430
30
0.0
11
0.049588
21
0.054454
31
0.0
0
LINE
8
0
6
CONTINUOUS
10
0.048974
20
0.060489
30
0.0
11
0.047790
21
0.058093
31
0.0
0
LINE
8
0
6
CONTINUOUS
10
0.047790
20
0.058093
30
0.0
11
0.048974
21
0.055696
31
0.0
0
LINE
8
0
6
CONTINUOUS
10
0.051008
20
0.055059
30
0.0
11
0.050573
21
0.056451
31
0.0
0
LINE
8
0
6
CONTINUOUS
10
0.093062
20
0.071226
30
0.0
11
0.067968
21
0.071221
31
0.0
0
LINE
8
0
6
CONTINUOUS
10
0.086570
20
0.076782
30
0.0
11
0.070634
21
0.076782
31
0.0
0
LINE
8
0
6
CONTINUOUS
10
0.056048
20
0.076782
30
0.0
11
0.048411
21
0.076781
31
0.0
0
LINE
8
0
6
CONTINUOUS
10
0.048411
20
0.076781
30
0.0
11
0.050465
21
0.076313
31
0.0
0
LINE
8
0
6
CONTINUOUS
10
0.090923
20
0.074932
30
0.0
11
0.088972
21
0.076314
31
0.0
0
LINE
8
0
6
CONTINUOUS
10
0.093056
20
0.071226
30
0.0
11
0.093404
21
0.071226
31
0.0
0
LINE
8
0
6
CONTINUOUS
10
0.093404
20
0.071226
30
0.0
11
0.092673
21
0.072705
31
0.0
0
LINE
8
0
6
CONTINUOUS
10
0.052416
20
0.074931
30
0.0
11
0.053839
21
0.073121
31
0.0
0
LINE
8
0
6
CONTINUOUS
10
0.088973
20
0.039874
30
0.0
11
0.090924
21
0.041256
31
0.0
0
LINE
8
0
6
CONTINUOUS
10
0.092674
20
0.043482
30
0.0
11
0.093405
21
0.044962
31
0.0
0
LINE
8
0
6
CONTINUOUS
10
0.090924
20
0.041256
30
0.0
11
0.092674
21
0.043482
31
0.0
0
LINE
8
0
6
CONTINUOUS
10
0.086919
20
0.039405
30
0.0
11
0.088973
21
0.039874
31
0.0
0
LINE
8
0
6
CONTINUOUS
10
0.086577
20
0.039405
30
0.0
11
0.086919
21
0.039405
31
0.0
0
LINE
8
0
6
CONTINUOUS
10
0.095918
20
0.062253
30
0.0
11
0.095235
21
0.066203
31
0.0
0
LINE
8
0
6
CONTINUOUS
10
0.057642
20
0.058093
30
0.0
11
0.057411
21
0.053935
31
0.0
0
LINE
8
0
6
CONTINUOUS
10
0.095235
20
0.049985
30
0.0
11
0.095918
21
0.053936
31
0.0
0
LINE
8
0
6
CONTINUOUS
10
0.095235
20
0.066203
30
0.0
11
0.094135
21
0.069746
31
0.0
0
LINE
8
0
6
CONTINUOUS
10
0.056728
20
0.049984
30
0.0
11
0.055640
21
0.046478
31
0.0
0
LINE
8
0
6
CONTINUOUS
10
0.096149
20
0.058094
30
0.0
11
0.095918
21
0.062253
31
0.0
0
LINE
8
0
6
CONTINUOUS
10
0.093405
20
0.044962
30
0.0
11
0.094136
21
0.046442
31
0.0
0
LINE
8
0
6
CONTINUOUS
10
0.094135
20
0.069746
30
0.0
11
0.093404
21
0.071226
31
0.0
0
LINE
8
0
6
CONTINUOUS
10
0.093404
20
0.071226
30
0.0
11
0.093062
21
0.071226
31
0.0
0
LINE
8
0
6
CONTINUOUS
10
0.099657
20
0.046872
30
0.0
11
0.100716
21
0.050285
31
0.0
0
LINE
8
0
6
CONTINUOUS
10
0.101373
20
0.062099
30
0.0
11
0.100715
21
0.065903
31
0.0
0
LINE
8
0
6
CONTINUOUS
10
0.096563
20
0.074310
30
0.0
11
0.094684
21
0.075641
31
0.0
0
LINE
8
0
6
CONTINUOUS
10
0.096564
20
0.041878
30
0.0
11
0.098249
21
0.044022
31
0.0
0
LINE
8
0
6
CONTINUOUS
10
0.101373
20
0.054089
30
0.0
11
0.101596
21
0.058094
31
0.0
0
LINE
8
0
6
CONTINUOUS
10
0.098248
20
0.072166
30
0.0
11
0.096563
21
0.074310
31
0.0
0
LINE
8
0
6
CONTINUOUS
10
0.092707
20
0.040095
30
0.0
11
0.094685
21
0.040547
31
0.0
0
LINE
8
0
6
CONTINUOUS
10
0.086919
20
0.040095
30
0.0
11
0.092707
21
0.040095
31
0.0
0
LINE
8
0
6
CONTINUOUS
10
0.100715
20
0.065903
30
0.0
11
0.099656
21
0.069316
31
0.0
0
LINE
8
0
6
CONTINUOUS
10
0.098952
20
0.070741
30
0.0
11
0.098248
21
0.072166
31
0.0
0
LINE
8
0
6
CONTINUOUS
10
0.092706
20
0.076092
30
0.0
11
0.086918
21
0.076092
31
0.0
0
LINE
8
0
6
CONTINUOUS
10
0.094684
20
0.075641
30
0.0
11
0.092706
21
0.076092
31
0.0
0
LINE
8
0
6
CONTINUOUS
10
0.094685
20
0.040547
30
0.0
11
0.096564
21
0.041878
31
0.0
0
LINE
8
0
6
CONTINUOUS
10
0.098953
20
0.045447
30
0.0
11
0.099657
21
0.046872
31
0.0
0
LINE
8
0
6
CONTINUOUS
10
0.100716
20
0.050285
30
0.0
11
0.101373
21
0.054089
31
0.0
0
LINE
8
0
6
CONTINUOUS
10
0.101596
20
0.058094
30
0.0
11
0.101373
21
0.062099
31
0.0
0
LINE
8
0
6
CONTINUOUS
10
0.098249
20
0.044022
30
0.0
11
0.098953
21
0.045447
31
0.0
0
LINE
8
0
6
CONTINUOUS
10
-0.100686
20
0.035730
30
0.0
11
-0.100635
21
0.035628
31
0.0
0
LINE
8
0
6
CONTINUOUS
10
-0.089767
20
0.035331
30
0.0
11
-0.089159
21
0.035835
31
0.0
0
LINE
8
0
6
CONTINUOUS
10
-0.090472
20
0.034995
30
0.0
11
-0.089767
21
0.035331
31
0.0
0
LINE
8
0
6
CONTINUOUS
10
-0.091198
20
0.034871
30
0.0
11
-0.090472
21
0.034995
31
0.0
0
LINE
8
0
6
CONTINUOUS
10
-0.089159
20
0.035835
30
0.0
11
-0.088701
21
0.036434
31
0.0
0
LINE
8
0
6
CONTINUOUS
10
-0.099989
20
0.035017
30
0.0
11
-0.099327
21
0.034881
31
0.0
0
LINE
8
0
6
CONTINUOUS
10
-0.099327
20
0.034881
30
0.0
11
-0.099102
21
0.034880
31
0.0
0
LINE
8
0
6
CONTINUOUS
10
-0.100412
20
0.035401
30
0.0
11
-0.099989
21
0.035017
31
0.0
0
LINE
8
0
6
CONTINUOUS
10
-0.100635
20
0.035628
30
0.0
11
-0.100412
21
0.035401
31
0.0
0
LINE
8
0
6
CONTINUOUS
10
-0.099102
20
0.034880
30
0.0
11
-0.091198
21
0.034871
31
0.0
0
LINE
8
0
6
CONTINUOUS
10
-0.088701
20
0.036434
30
0.0
11
-0.087230
21
0.039407
31
0.0
0
LINE
8
0
6
CONTINUOUS
10
-0.096826
20
0.043458
30
0.0
11
-0.097081
21
0.043513
31
0.0
0
LINE
8
0
6
CONTINUOUS
10
-0.097081
20
0.043513
30
0.0
11
-0.097217
21
0.043667
31
0.0
0
LINE
8
0
6
CONTINUOUS
10
-0.097227
20
0.043886
30
0.0
11
-0.093210
21
0.051581
31
0.0
0
LINE
8
0
6
CONTINUOUS
10
-0.081226
20
0.037951
30
0.0
11
-0.085217
21
0.044979
31
0.0
0
LINE
8
0
6
CONTINUOUS
10
-0.069762
20
0.035617
30
0.0
11
-0.069712
21
0.035719
31
0.0
0
LINE
8
0
6
CONTINUOUS
10
-0.090212
20
0.051581
30
0.0
11
-0.086196
21
0.043887
31
0.0
0
LINE
8
0
6
CONTINUOUS
10
-0.071069
20
0.034872
30
0.0
11
-0.070407
21
0.035007
31
0.0
0
LINE
8
0
6
CONTINUOUS
10
-0.069985
20
0.035389
30
0.0
11
-0.069762
21
0.035617
31
0.0
0
LINE
8
0
6
CONTINUOUS
10
-0.070407
20
0.035007
30
0.0
11
-0.069985
21
0.035389
31
0.0
0
LINE
8
0
6
CONTINUOUS
10
-0.081239
20
0.035848
30
0.0
11
-0.080630
21
0.035343
31
0.0
0
LINE
8
0
6
CONTINUOUS
10
-0.080630
20
0.035343
30
0.0
11
-0.079925
21
0.035006
31
0.0
0
LINE
8
0
6
CONTINUOUS
10
-0.079925
20
0.035006
30
0.0
11
-0.079199
21
0.034881
31
0.0
0
LINE
8
0
6
CONTINUOUS
10
-0.081696
20
0.036447
30
0.0
11
-0.081239
21
0.035848
31
0.0
0
LINE
8
0
6
CONTINUOUS
10
-0.085958
20
0.043669
30
0.0
11
-0.081696
21
0.036447
31
0.0
0
LINE
8
0
6
CONTINUOUS
10
-0.091090
20
0.052042
30
0.0
11
-0.090411
21
0.051784
31
0.0
0
LINE
8
0
6
CONTINUOUS
10
-0.091090
20
0.052771
30
0.0
11
-0.091902
21
0.052462
31
0.0
0
LINE
8
0
6
CONTINUOUS
10
-0.091902
20
0.052462
30
0.0
11
-0.092589
21
0.051581
31
0.0
0
LINE
8
0
6
CONTINUOUS
10
-0.085865
20
0.043458
30
0.0
11
-0.085662
21
0.043069
31
0.0
0
LINE
8
0
6
CONTINUOUS
10
-0.096908
20
0.043274
30
0.0
11
-0.095530
21
0.041521
31
0.0
0
LINE
8
0
6
CONTINUOUS
10
-0.096917
20
0.043493
30
0.0
11
-0.096908
21
0.043274
31
0.0
0
LINE
8
0
6
CONTINUOUS
10
-0.095587
20
0.041801
30
0.0
11
-0.096917
21
0.043493
31
0.0
0
LINE
8
0
6
CONTINUOUS
10
-0.091090
20
0.039407
30
0.0
11
-0.089036
21
0.039876
31
0.0
0
LINE
8
0
6
CONTINUOUS
10
-0.089036
20
0.039876
30
0.0
11
-0.087085
21
0.041258
31
0.0
0
LINE
8
0
6
CONTINUOUS
10
-0.093144
20
0.039876
30
0.0
11
-0.091090
21
0.039407
31
0.0
0
LINE
8
0
6
CONTINUOUS
10
-0.093417
20
0.039947
30
0.0
11
-0.093144
21
0.039876
31
0.0
0
LINE
8
0
6
CONTINUOUS
10
-0.085662
20
0.043069
30
0.0
11
-0.085969
21
0.043121
31
0.0
0
LINE
8
0
6
CONTINUOUS
10
-0.087085
20
0.041258
30
0.0
11
-0.085662
21
0.043069
31
0.0
0
LINE
8
0
6
CONTINUOUS
10
-0.089723
20
0.040463
30
0.0
11
-0.091711
21
0.040010
31
0.0
0
LINE
8
0
6
CONTINUOUS
10
-0.085969
20
0.043121
30
0.0
11
-0.086267
21
0.043275
31
0.0
0
LINE
8
0
6
CONTINUOUS
10
-0.087835
20
0.041801
30
0.0
11
-0.089723
21
0.040463
31
0.0
0
LINE
8
0
6
CONTINUOUS
10
-0.091711
20
0.040010
30
0.0
11
-0.093699
21
0.040463
31
0.0
0
LINE
8
0
6
CONTINUOUS
10
-0.095360
20
0.041324
30
0.0
11
-0.093417
21
0.039947
31
0.0
0
LINE
8
0
6
CONTINUOUS
10
-0.095530
20
0.041521
30
0.0
11
-0.095360
21
0.041324
31
0.0
0
LINE
8
0
6
CONTINUOUS
10
-0.093699
20
0.040463
30
0.0
11
-0.095587
21
0.041801
31
0.0
0
LINE
8
0
6
CONTINUOUS
10
-0.086267
20
0.043275
30
0.0
11
-0.086505
21
0.043494
31
0.0
0
LINE
8
0
6
CONTINUOUS
10
-0.086505
20
0.043494
30
0.0
11
-0.087835
21
0.041801
31
0.0
0
LINE
8
0
6
CONTINUOUS
10
-0.087085
20
0.041258
30
0.0
11
-0.089036
21
0.039876
31
0.0
0
LINE
8
0
6
CONTINUOUS
10
-0.093699
20
0.040463
30
0.0
11
-0.091711
21
0.040010
31
0.0
0
LINE
8
0
6
CONTINUOUS
10
-0.095587
20
0.041801
30
0.0
11
-0.093699
21
0.040463
31
0.0
0
LINE
8
0
6
CONTINUOUS
10
-0.096917
20
0.043493
30
0.0
11
-0.095587
21
0.041801
31
0.0
0
LINE
8
0
6
CONTINUOUS
10
-0.092992
20
0.051014
30
0.0
11
-0.096917
21
0.043493
31
0.0
0
LINE
8
0
6
CONTINUOUS
10
-0.092391
20
0.051783
30
0.0
11
-0.092992
21
0.051014
31
0.0
0
LINE
8
0
6
CONTINUOUS
10
-0.091711
20
0.052042
30
0.0
11
-0.092391
21
0.051783
31
0.0
0
LINE
8
0
6
CONTINUOUS
10
-0.091032
20
0.051783
30
0.0
11
-0.091711
21
0.052042
31
0.0
0
LINE
8
0
6
CONTINUOUS
10
-0.090431
20
0.051014
30
0.0
11
-0.091032
21
0.051783
31
0.0
0
LINE
8
0
6
CONTINUOUS
10
-0.086505
20
0.043494
30
0.0
11
-0.090431
21
0.051014
31
0.0
0
LINE
8
0
6
CONTINUOUS
10
-0.087835
20
0.041801
30
0.0
11
-0.086505
21
0.043494
31
0.0
0
LINE
8
0
6
CONTINUOUS
10
-0.089723
20
0.040463
30
0.0
11
-0.087835
21
0.041801
31
0.0
0
LINE
8
0
6
CONTINUOUS
10
-0.091711
20
0.040010
30
0.0
11
-0.089723
21
0.040463
31
0.0
0
LINE
8
0
6
CONTINUOUS
10
-0.085629
20
0.043111
30
0.0
11
-0.087085
21
0.041258
31
0.0
0
LINE
8
0
6
CONTINUOUS
10
-0.091032
20
0.051783
30
0.0
11
-0.090431
21
0.051014
31
0.0
0
LINE
8
0
6
CONTINUOUS
10
-0.091711
20
0.052042
30
0.0
11
-0.091032
21
0.051783
31
0.0
0
LINE
8
0
6
CONTINUOUS
10
-0.091090
20
0.052042
30
0.0
11
-0.091711
21
0.052042
31
0.0
0
LINE
8
0
6
CONTINUOUS
10
-0.090411
20
0.051784
30
0.0
11
-0.091090
21
0.052042
31
0.0
0
LINE
8
0
6
CONTINUOUS
10
-0.091711
20
0.052771
30
0.0
11
-0.092523
21
0.052461
31
0.0
0
LINE
8
0
6
CONTINUOUS
10
-0.091902
20
0.052462
30
0.0
11
-0.091090
21
0.052771
31
0.0
0
LINE
8
0
6
CONTINUOUS
10
-0.092523
20
0.052461
30
0.0
11
-0.093210
21
0.051581
31
0.0
0
LINE
8
0
6
CONTINUOUS
10
-0.092589
20
0.051581
30
0.0
11
-0.091902
21
0.052462
31
0.0
0
LINE
8
0
6
CONTINUOUS
10
-0.098175
20
0.044979
30
0.0
11
-0.101071
21
0.037950
31
0.0
0
LINE
8
0
6
CONTINUOUS
10
-0.091711
20
0.052771
30
0.0
11
-0.090900
21
0.052462
31
0.0
0
LINE
8
0
6
CONTINUOUS
10
-0.085969
20
0.043121
30
0.0
11
-0.085662
21
0.043069
31
0.0
0
LINE
8
0
6
CONTINUOUS
10
-0.086267
20
0.043275
30
0.0
11
-0.085969
21
0.043121
31
0.0
0
LINE
8
0
6
CONTINUOUS
10
-0.086505
20
0.043494
30
0.0
11
-0.086267
21
0.043275
31
0.0
0
LINE
8
0
6
CONTINUOUS
10
-0.090431
20
0.051014
30
0.0
11
-0.086505
21
0.043494
31
0.0
0
LINE
8
0
6
CONTINUOUS
10
-0.085662
20
0.043069
30
0.0
11
-0.085865
21
0.043458
31
0.0
0
LINE
8
0
6
CONTINUOUS
10
-0.097081
20
0.043513
30
0.0
11
-0.096828
21
0.043461
31
0.0
0
LINE
8
0
6
CONTINUOUS
10
-0.097217
20
0.043667
30
0.0
11
-0.097081
21
0.043513
31
0.0
0
LINE
8
0
6
CONTINUOUS
10
-0.097227
20
0.043886
30
0.0
11
-0.097217
21
0.043667
31
0.0
0
LINE
8
0
6
CONTINUOUS
10
-0.093210
20
0.051581
30
0.0
11
-0.097227
21
0.043886
31
0.0
0
LINE
8
0
6
CONTINUOUS
10
-0.090900
20
0.052462
30
0.0
11
-0.090212
21
0.051581
31
0.0
0
LINE
8
0
6
CONTINUOUS
10
-0.091090
20
0.039407
30
0.0
11
-0.083443
21
0.039407
31
0.0
0
LINE
8
0
6
CONTINUOUS
10
-0.062298
20
0.039408
30
0.0
11
-0.052925
21
0.039408
31
0.0
0
LINE
8
0
6
CONTINUOUS
10
-0.089036
20
0.039876
30
0.0
11
-0.091090
21
0.039407
31
0.0
0
LINE
8
0
6
CONTINUOUS
10
-0.097978
20
0.045407
30
0.0
11
-0.098175
21
0.044979
31
0.0
0
LINE
8
0
6
CONTINUOUS
10
-0.097217
20
0.043667
30
0.0
11
-0.097227
21
0.043886
31
0.0
0
LINE
8
0
6
CONTINUOUS
10
-0.086196
20
0.043887
30
0.0
11
-0.085958
21
0.043669
31
0.0
0
LINE
8
0
6
CONTINUOUS
10
-0.092523
20
0.052461
30
0.0
11
-0.091711
21
0.052771
31
0.0
0
LINE
8
0
6
CONTINUOUS
10
-0.078350
20
0.036103
30
0.0
11
-0.079171
21
0.036245
31
0.0
0
LINE
8
0
6
CONTINUOUS
10
-0.070386
20
0.036094
30
0.0
11
-0.078350
21
0.036103
31
0.0
0
LINE
8
0
6
CONTINUOUS
10
-0.080728
20
0.037245
30
0.0
11
-0.081226
21
0.037951
31
0.0
0
LINE
8
0
6
CONTINUOUS
10
-0.079171
20
0.036245
30
0.0
11
-0.080006
21
0.036646
31
0.0
0
LINE
8
0
6
CONTINUOUS
10
-0.069712
20
0.035719
30
0.0
11
-0.069262
21
0.036633
31
0.0
0
LINE
8
0
6
CONTINUOUS
10
-0.069262
20
0.036633
30
0.0
11
-0.069703
21
0.036234
31
0.0
0
LINE
8
0
6
CONTINUOUS
10
-0.069703
20
0.036234
30
0.0
11
-0.070386
21
0.036094
31
0.0
0
LINE
8
0
6
CONTINUOUS
10
-0.080006
20
0.036646
30
0.0
11
-0.080728
21
0.037245
31
0.0
0
LINE
8
0
6
CONTINUOUS
10
-0.085444
20
0.045408
30
0.0
11
-0.089353
21
0.053322
31
0.0
0
LINE
8
0
6
CONTINUOUS
10
-0.085217
20
0.044979
30
0.0
11
-0.085444
21
0.045408
31
0.0
0
LINE
8
0
6
CONTINUOUS
10
-0.089914
20
0.054458
30
0.0
11
-0.090396
21
0.055433
31
0.0
0
LINE
8
0
6
CONTINUOUS
10
-0.090396
20
0.055433
30
0.0
11
-0.090528
21
0.055700
31
0.0
0
LINE
8
0
6
CONTINUOUS
10
-0.089353
20
0.053322
30
0.0
11
-0.089914
21
0.054458
31
0.0
0
LINE
8
0
6
CONTINUOUS
10
-0.093509
20
0.054457
30
0.0
11
-0.094070
21
0.053321
31
0.0
0
LINE
8
0
6
CONTINUOUS
10
-0.101137
20
0.036645
30
0.0
11
-0.100686
21
0.035730
31
0.0
0
LINE
8
0
6
CONTINUOUS
10
-0.101269
20
0.037244
30
0.0
11
-0.101137
21
0.036645
31
0.0
0
LINE
8
0
6
CONTINUOUS
10
-0.101071
20
0.037950
30
0.0
11
-0.101269
21
0.037244
31
0.0
0
LINE
8
0
6
CONTINUOUS
10
-0.094070
20
0.053321
30
0.0
11
-0.097978
21
0.045407
31
0.0
0
LINE
8
0
6
CONTINUOUS
10
-0.092895
20
0.055699
30
0.0
11
-0.093027
21
0.055433
31
0.0
0
LINE
8
0
6
CONTINUOUS
10
-0.093027
20
0.055433
30
0.0
11
-0.093509
21
0.054457
31
0.0
0
LINE
8
0
6
CONTINUOUS
10
-0.090528
20
0.055700
30
0.0
11
-0.091712
21
0.058096
31
0.0
0
LINE
8
0
6
CONTINUOUS
10
-0.091712
20
0.058096
30
0.0
11
-0.092895
21
0.055699
31
0.0
0
LINE
8
0
6
CONTINUOUS
10
-0.093210
20
0.051581
30
0.0
11
-0.092523
21
0.052461
31
0.0
0
LINE
8
0
6
CONTINUOUS
10
-0.101670
20
0.078542
30
0.0
11
-0.101802
21
0.077943
31
0.0
0
LINE
8
0
6
CONTINUOUS
10
-0.101620
20
0.078644
30
0.0
11
-0.101670
21
0.078542
31
0.0
0
LINE
8
0
6
CONTINUOUS
10
-0.101850
20
0.077632
30
0.0
11
-0.101662
21
0.076940
31
0.0
0
LINE
8
0
6
CONTINUOUS
10
-0.101802
20
0.077943
30
0.0
11
-0.101850
21
0.077632
31
0.0
0
LINE
8
0
6
CONTINUOUS
10
-0.101662
20
0.076940
30
0.0
11
-0.098715
21
0.069493
31
0.0
0
LINE
8
0
6
CONTINUOUS
10
-0.098731
20
0.069262
30
0.0
11
-0.094930
21
0.061130
31
0.0
0
LINE
8
0
6
CONTINUOUS
10
-0.101071
20
0.037950
30
0.0
11
-0.098175
21
0.044978
31
0.0
0
LINE
8
0
6
CONTINUOUS
10
-0.101638
20
0.037661
30
0.0
11
-0.101588
21
0.037559
31
0.0
0
LINE
8
0
6
CONTINUOUS
10
-0.101770
20
0.038261
30
0.0
11
-0.101638
21
0.037661
31
0.0
0
LINE
8
0
6
CONTINUOUS
10
-0.094929
20
0.055061
30
0.0
11
-0.098730
21
0.046928
31
0.0
0
LINE
8
0
6
CONTINUOUS
10
-0.101819
20
0.038572
30
0.0
11
-0.101770
21
0.038261
31
0.0
0
LINE
8
0
6
CONTINUOUS
10
-0.101630
20
0.039269
30
0.0
11
-0.101819
21
0.038572
31
0.0
0
LINE
8
0
6
CONTINUOUS
10
-0.098714
20
0.046697
30
0.0
11
-0.101630
21
0.039269
31
0.0
0
LINE
8
0
6
CONTINUOUS
10
-0.098730
20
0.046928
30
0.0
11
-0.098677
21
0.045995
31
0.0
0
LINE
8
0
6
CONTINUOUS
10
-0.098909
20
0.068867
30
0.0
11
-0.099775
21
0.066077
31
0.0
0
LINE
8
0
6
CONTINUOUS
10
-0.098925
20
0.068636
30
0.0
11
-0.098909
21
0.068867
31
0.0
0
LINE
8
0
6
CONTINUOUS
10
-0.099761
20
0.065943
30
0.0
11
-0.098925
21
0.068636
31
0.0
0
LINE
8
0
6
CONTINUOUS
10
-0.100421
20
0.054071
30
0.0
11
-0.100645
21
0.058095
31
0.0
0
LINE
8
0
6
CONTINUOUS
10
-0.100674
20
0.058095
30
0.0
11
-0.100446
21
0.054002
31
0.0
0
LINE
8
0
6
CONTINUOUS
10
-0.099760
20
0.050248
30
0.0
11
-0.100421
21
0.054071
31
0.0
0
LINE
8
0
6
CONTINUOUS
10
-0.100446
20
0.054002
30
0.0
11
-0.099774
21
0.050114
31
0.0
0
LINE
8
0
6
CONTINUOUS
10
-0.100645
20
0.058095
30
0.0
11
-0.100421
21
0.062120
31
0.0
0
LINE
8
0
6
CONTINUOUS
10
-0.100447
20
0.062189
30
0.0
11
-0.100674
21
0.058095
31
0.0
0
LINE
8
0
6
CONTINUOUS
10
-0.100421
20
0.062120
30
0.0
11
-0.099761
21
0.065943
31
0.0
0
LINE
8
0
6
CONTINUOUS
10
-0.099775
20
0.066077
30
0.0
11
-0.100447
21
0.062189
31
0.0
0
LINE
8
0
6
CONTINUOUS
10
-0.098908
20
0.047323
30
0.0
11
-0.098924
21
0.047554
31
0.0
0
LINE
8
0
6
CONTINUOUS
10
-0.099774
20
0.050114
30
0.0
11
-0.098908
21
0.047323
31
0.0
0
LINE
8
0
6
CONTINUOUS
10
-0.098924
20
0.047554
30
0.0
11
-0.099760
21
0.050248
31
0.0
0
LINE
8
0
6
CONTINUOUS
10
-0.100421
20
0.062120
30
0.0
11
-0.100645
21
0.058095
31
0.0
0
LINE
8
0
6
CONTINUOUS
10
-0.099761
20
0.065943
30
0.0
11
-0.100421
21
0.062120
31
0.0
0
LINE
8
0
6
CONTINUOUS
10
-0.098925
20
0.068636
30
0.0
11
-0.099761
21
0.065943
31
0.0
0
LINE
8
0
6
CONTINUOUS
10
-0.095210
20
0.060688
30
0.0
11
-0.098925
21
0.068636
31
0.0
0
LINE
8
0
6
CONTINUOUS
10
-0.094830
20
0.059471
30
0.0
11
-0.095210
21
0.060688
31
0.0
0
LINE
8
0
6
CONTINUOUS
10
-0.094702
20
0.058095
30
0.0
11
-0.094830
21
0.059471
31
0.0
0
LINE
8
0
6
CONTINUOUS
10
-0.094830
20
0.056720
30
0.0
11
-0.094702
21
0.058095
31
0.0
0
LINE
8
0
6
CONTINUOUS
10
-0.095210
20
0.055503
30
0.0
11
-0.094830
21
0.056720
31
0.0
0
LINE
8
0
6
CONTINUOUS
10
-0.098924
20
0.047554
30
0.0
11
-0.095210
21
0.055503
31
0.0
0
LINE
8
0
6
CONTINUOUS
10
-0.099760
20
0.050248
30
0.0
11
-0.098924
21
0.047554
31
0.0
0
LINE
8
0
6
CONTINUOUS
10
-0.100421
20
0.054071
30
0.0
11
-0.099760
21
0.050248
31
0.0
0
LINE
8
0
6
CONTINUOUS
10
-0.100645
20
0.058095
30
0.0
11
-0.100421
21
0.054071
31
0.0
0
LINE
8
0
6
CONTINUOUS
10
-0.094830
20
0.056720
30
0.0
11
-0.095210
21
0.055503
31
0.0
0
LINE
8
0
6
CONTINUOUS
10
-0.094702
20
0.058095
30
0.0
11
-0.094830
21
0.056720
31
0.0
0
LINE
8
0
6
CONTINUOUS
10
-0.094830
20
0.059471
30
0.0
11
-0.094702
21
0.058095
31
0.0
0
LINE
8
0
6
CONTINUOUS
10
-0.095210
20
0.060688
30
0.0
11
-0.094830
21
0.059471
31
0.0
0
LINE
8
0
6
CONTINUOUS
10
-0.098175
20
0.071213
30
0.0
11
-0.101103
21
0.078255
31
0.0
0
LINE
8
0
6
CONTINUOUS
10
-0.094342
20
0.058095
30
0.0
11
-0.094495
21
0.056453
31
0.0
0
LINE
8
0
6
CONTINUOUS
10
-0.098768
20
0.047160
30
0.0
11
-0.098513
21
0.047105
31
0.0
0
LINE
8
0
6
CONTINUOUS
10
-0.098908
20
0.047323
30
0.0
11
-0.098768
21
0.047160
31
0.0
0
LINE
8
0
6
CONTINUOUS
10
-0.098924
20
0.047554
30
0.0
11
-0.098908
21
0.047323
31
0.0
0
LINE
8
0
6
CONTINUOUS
10
-0.095210
20
0.055503
30
0.0
11
-0.098924
21
0.047554
31
0.0
0
LINE
8
0
6
CONTINUOUS
10
-0.098925
20
0.068636
30
0.0
11
-0.095210
21
0.060688
31
0.0
0
LINE
8
0
6
CONTINUOUS
10
-0.098909
20
0.068867
30
0.0
11
-0.098925
21
0.068636
31
0.0
0
LINE
8
0
6
CONTINUOUS
10
-0.098769
20
0.069031
30
0.0
11
-0.098909
21
0.068867
31
0.0
0
LINE
8
0
6
CONTINUOUS
10
-0.098514
20
0.069085
30
0.0
11
-0.098769
21
0.069031
31
0.0
0
LINE
8
0
6
CONTINUOUS
10
-0.094495
20
0.056453
30
0.0
11
-0.094929
21
0.055061
31
0.0
0
LINE
8
0
6
CONTINUOUS
10
-0.097979
20
0.070783
30
0.0
11
-0.098175
21
0.071213
31
0.0
0
LINE
8
0
6
CONTINUOUS
10
-0.094495
20
0.059738
30
0.0
11
-0.094342
21
0.058095
31
0.0
0
LINE
8
0
6
CONTINUOUS
10
-0.101269
20
0.037244
30
0.0
11
-0.101071
21
0.037950
31
0.0
0
LINE
8
0
6
CONTINUOUS
10
-0.101588
20
0.037559
30
0.0
11
-0.101137
21
0.036645
31
0.0
0
LINE
8
0
6
CONTINUOUS
10
-0.101137
20
0.036645
30
0.0
11
-0.101269
21
0.037244
31
0.0
0
LINE
8
0
6
CONTINUOUS
10
-0.097978
20
0.045407
30
0.0
11
-0.094070
21
0.053321
31
0.0
0
LINE
8
0
6
CONTINUOUS
10
-0.098175
20
0.044978
30
0.0
11
-0.097978
21
0.045407
31
0.0
0
LINE
8
0
6
CONTINUOUS
10
-0.093509
20
0.054457
30
0.0
11
-0.093027
21
0.055433
31
0.0
0
LINE
8
0
6
CONTINUOUS
10
-0.093027
20
0.055433
30
0.0
11
-0.092895
21
0.055699
31
0.0
0
LINE
8
0
6
CONTINUOUS
10
-0.094070
20
0.053321
30
0.0
11
-0.093509
21
0.054457
31
0.0
0
LINE
8
0
6
CONTINUOUS
10
-0.093509
20
0.061734
30
0.0
11
-0.094070
21
0.062870
31
0.0
0
LINE
8
0
6
CONTINUOUS
10
-0.101171
20
0.079559
30
0.0
11
-0.101620
21
0.078644
31
0.0
0
LINE
8
0
6
CONTINUOUS
10
-0.101302
20
0.078961
30
0.0
11
-0.101171
21
0.079559
31
0.0
0
LINE
8
0
6
CONTINUOUS
10
-0.101103
20
0.078255
30
0.0
11
-0.101302
21
0.078961
31
0.0
0
LINE
8
0
6
CONTINUOUS
10
-0.094070
20
0.062870
30
0.0
11
-0.097979
21
0.070783
31
0.0
0
LINE
8
0
6
CONTINUOUS
10
-0.092895
20
0.060492
30
0.0
11
-0.093027
21
0.060758
31
0.0
0
LINE
8
0
6
CONTINUOUS
10
-0.098678
20
0.070195
30
0.0
11
-0.098731
21
0.069262
31
0.0
0
LINE
8
0
6
CONTINUOUS
10
-0.093027
20
0.060758
30
0.0
11
-0.093509
21
0.061734
31
0.0
0
LINE
8
0
6
CONTINUOUS
10
-0.092895
20
0.055699
30
0.0
11
-0.091712
21
0.058096
31
0.0
0
LINE
8
0
6
CONTINUOUS
10
-0.091712
20
0.058096
30
0.0
11
-0.092895
21
0.060492
31
0.0
0
LINE
8
0
6
CONTINUOUS
10
-0.094930
20
0.061130
30
0.0
11
-0.094495
21
0.059738
31
0.0
0
LINE
8
0
6
CONTINUOUS
10
-0.069296
20
0.079547
30
0.0
11
-0.069748
21
0.080462
31
0.0
0
LINE
8
0
6
CONTINUOUS
10
-0.069738
20
0.079948
30
0.0
11
-0.069296
21
0.079547
31
0.0
0
LINE
8
0
6
CONTINUOUS
10
-0.070421
20
0.080090
30
0.0
11
-0.069738
21
0.079948
31
0.0
0
LINE
8
0
6
CONTINUOUS
10
-0.070022
20
0.080791
30
0.0
11
-0.070444
21
0.081175
31
0.0
0
LINE
8
0
6
CONTINUOUS
10
-0.069798
20
0.080564
30
0.0
11
-0.070022
21
0.080791
31
0.0
0
LINE
8
0
6
CONTINUOUS
10
-0.070444
20
0.081175
30
0.0
11
-0.071106
21
0.081312
31
0.0
0
LINE
8
0
6
CONTINUOUS
10
-0.079235
20
0.081321
30
0.0
11
-0.079961
21
0.081198
31
0.0
0
LINE
8
0
6
CONTINUOUS
10
-0.079961
20
0.081198
30
0.0
11
-0.080666
21
0.080861
31
0.0
0
LINE
8
0
6
CONTINUOUS
10
-0.080666
20
0.080861
30
0.0
11
-0.081275
21
0.080357
31
0.0
0
LINE
8
0
6
CONTINUOUS
10
-0.081275
20
0.080357
30
0.0
11
-0.081729
21
0.079763
31
0.0
0
LINE
8
0
6
CONTINUOUS
10
-0.081826
20
0.079556
30
0.0
11
-0.085959
21
0.072524
31
0.0
0
LINE
8
0
6
CONTINUOUS
10
-0.086197
20
0.072306
30
0.0
11
-0.090213
21
0.064611
31
0.0
0
LINE
8
0
6
CONTINUOUS
10
-0.101103
20
0.078255
30
0.0
11
-0.098175
21
0.071213
31
0.0
0
LINE
8
0
6
CONTINUOUS
10
-0.100671
20
0.080575
30
0.0
11
-0.100721
21
0.080474
31
0.0
0
LINE
8
0
6
CONTINUOUS
10
-0.093211
20
0.064610
30
0.0
11
-0.097228
21
0.072305
31
0.0
0
LINE
8
0
6
CONTINUOUS
10
-0.090509
20
0.081187
30
0.0
11
-0.091235
21
0.081311
31
0.0
0
LINE
8
0
6
CONTINUOUS
10
-0.089803
20
0.080849
30
0.0
11
-0.090509
21
0.081187
31
0.0
0
LINE
8
0
6
CONTINUOUS
10
-0.089194
20
0.080344
30
0.0
11
-0.089803
21
0.080849
31
0.0
0
LINE
8
0
6
CONTINUOUS
10
-0.088738
20
0.079749
30
0.0
11
-0.089194
21
0.080344
31
0.0
0
LINE
8
0
6
CONTINUOUS
10
-0.100448
20
0.080803
30
0.0
11
-0.100671
21
0.080575
31
0.0
0
LINE
8
0
6
CONTINUOUS
10
-0.100026
20
0.081185
30
0.0
11
-0.100448
21
0.080803
31
0.0
0
LINE
8
0
6
CONTINUOUS
10
-0.099364
20
0.081320
30
0.0
11
-0.100026
21
0.081185
31
0.0
0
LINE
8
0
6
CONTINUOUS
10
-0.099139
20
0.081320
30
0.0
11
-0.099364
21
0.081320
31
0.0
0
LINE
8
0
6
CONTINUOUS
10
-0.091235
20
0.081311
30
0.0
11
-0.099139
21
0.081320
31
0.0
0
LINE
8
0
6
CONTINUOUS
10
-0.097218
20
0.072523
30
0.0
11
-0.097082
21
0.072678
31
0.0
0
LINE
8
0
6
CONTINUOUS
10
-0.097082
20
0.072678
30
0.0
11
-0.096828
21
0.072732
31
0.0
0
LINE
8
0
6
CONTINUOUS
10
-0.087274
20
0.076785
30
0.0
11
-0.088738
21
0.079749
31
0.0
0
LINE
8
0
6
CONTINUOUS
10
-0.087260
20
0.076785
30
0.0
11
-0.088641
21
0.079542
31
0.0
0
LINE
8
0
6
CONTINUOUS
10
-0.092590
20
0.064610
30
0.0
11
-0.091902
21
0.063730
31
0.0
0
LINE
8
0
6
CONTINUOUS
10
-0.091902
20
0.063730
30
0.0
11
-0.091091
21
0.063421
31
0.0
0
LINE
8
0
6
CONTINUOUS
10
-0.090412
20
0.064409
30
0.0
11
-0.091091
21
0.064150
31
0.0
0
LINE
8
0
6
CONTINUOUS
10
-0.085663
20
0.073124
30
0.0
11
-0.085867
21
0.072733
31
0.0
0
LINE
8
0
6
CONTINUOUS
10
-0.086506
20
0.072699
30
0.0
11
-0.086268
21
0.072918
31
0.0
0
LINE
8
0
6
CONTINUOUS
10
-0.087836
20
0.074391
30
0.0
11
-0.086506
21
0.072699
31
0.0
0
LINE
8
0
6
CONTINUOUS
10
-0.093145
20
0.076316
30
0.0
11
-0.093418
21
0.076245
31
0.0
0
LINE
8
0
6
CONTINUOUS
10
-0.091091
20
0.076785
30
0.0
11
-0.093145
21
0.076316
31
0.0
0
LINE
8
0
6
CONTINUOUS
10
-0.089037
20
0.076316
30
0.0
11
-0.091091
21
0.076785
31
0.0
0
LINE
8
0
6
CONTINUOUS
10
-0.095361
20
0.074868
30
0.0
11
-0.095531
21
0.074670
31
0.0
0
LINE
8
0
6
CONTINUOUS
10
-0.093418
20
0.076245
30
0.0
11
-0.095361
21
0.074868
31
0.0
0
LINE
8
0
6
CONTINUOUS
10
-0.093700
20
0.075729
30
0.0
11
-0.091712
21
0.076182
31
0.0
0
LINE
8
0
6
CONTINUOUS
10
-0.087086
20
0.074934
30
0.0
11
-0.089037
21
0.076316
31
0.0
0
LINE
8
0
6
CONTINUOUS
10
-0.095588
20
0.074391
30
0.0
11
-0.093700
21
0.075729
31
0.0
0
LINE
8
0
6
CONTINUOUS
10
-0.091712
20
0.076182
30
0.0
11
-0.089724
21
0.075729
31
0.0
0
LINE
8
0
6
CONTINUOUS
10
-0.085663
20
0.073124
30
0.0
11
-0.087086
21
0.074934
31
0.0
0
LINE
8
0
6
CONTINUOUS
10
-0.085971
20
0.073073
30
0.0
11
-0.085663
21
0.073124
31
0.0
0
LINE
8
0
6
CONTINUOUS
10
-0.089724
20
0.075729
30
0.0
11
-0.087836
21
0.074391
31
0.0
0
LINE
8
0
6
CONTINUOUS
10
-0.086268
20
0.072918
30
0.0
11
-0.085971
21
0.073073
31
0.0
0
LINE
8
0
6
CONTINUOUS
10
-0.096909
20
0.072917
30
0.0
11
-0.096919
21
0.072698
31
0.0
0
LINE
8
0
6
CONTINUOUS
10
-0.095531
20
0.074670
30
0.0
11
-0.096909
21
0.072917
31
0.0
0
LINE
8
0
6
CONTINUOUS
10
-0.096919
20
0.072698
30
0.0
11
-0.095588
21
0.074391
31
0.0
0
LINE
8
0
6
CONTINUOUS
10
-0.052584
20
0.076786
30
0.0
11
-0.052932
21
0.076786
31
0.0
0
LINE
8
0
6
CONTINUOUS
10
-0.050530
20
0.076317
30
0.0
11
-0.052584
21
0.076786
31
0.0
0
LINE
8
0
6
CONTINUOUS
10
-0.089037
20
0.076316
30
0.0
11
-0.087086
21
0.074934
31
0.0
0
LINE
8
0
6
CONTINUOUS
10
-0.071571
20
0.071224
30
0.0
11
-0.046446
21
0.071229
31
0.0
0
LINE
8
0
6
CONTINUOUS
10
-0.089724
20
0.075729
30
0.0
11
-0.091712
21
0.076182
31
0.0
0
LINE
8
0
6
CONTINUOUS
10
-0.087836
20
0.074391
30
0.0
11
-0.089724
21
0.075729
31
0.0
0
LINE
8
0
6
CONTINUOUS
10
-0.086506
20
0.072699
30
0.0
11
-0.087836
21
0.074391
31
0.0
0
LINE
8
0
6
CONTINUOUS
10
-0.090432
20
0.065178
30
0.0
11
-0.086506
21
0.072699
31
0.0
0
LINE
8
0
6
CONTINUOUS
10
-0.091033
20
0.064409
30
0.0
11
-0.090432
21
0.065178
31
0.0
0
LINE
8
0
6
CONTINUOUS
10
-0.091712
20
0.064150
30
0.0
11
-0.091033
21
0.064409
31
0.0
0
LINE
8
0
6
CONTINUOUS
10
-0.092392
20
0.064408
30
0.0
11
-0.091712
21
0.064150
31
0.0
0
LINE
8
0
6
CONTINUOUS
10
-0.092993
20
0.065178
30
0.0
11
-0.092392
21
0.064408
31
0.0
0
LINE
8
0
6
CONTINUOUS
10
-0.096919
20
0.072698
30
0.0
11
-0.092993
21
0.065178
31
0.0
0
LINE
8
0
6
CONTINUOUS
10
-0.095588
20
0.074391
30
0.0
11
-0.096919
21
0.072698
31
0.0
0
LINE
8
0
6
CONTINUOUS
10
-0.093700
20
0.075729
30
0.0
11
-0.095588
21
0.074391
31
0.0
0
LINE
8
0
6
CONTINUOUS
10
-0.091712
20
0.076182
30
0.0
11
-0.093700
21
0.075729
31
0.0
0
LINE
8
0
6
CONTINUOUS
10
-0.046829
20
0.072709
30
0.0
11
-0.048579
21
0.074935
31
0.0
0
LINE
8
0
6
CONTINUOUS
10
-0.093211
20
0.064610
30
0.0
11
-0.092523
21
0.063730
31
0.0
0
LINE
8
0
6
CONTINUOUS
10
-0.091902
20
0.063730
30
0.0
11
-0.092590
21
0.064610
31
0.0
0
LINE
8
0
6
CONTINUOUS
10
-0.092523
20
0.063730
30
0.0
11
-0.091712
21
0.063421
31
0.0
0
LINE
8
0
6
CONTINUOUS
10
-0.091091
20
0.063421
30
0.0
11
-0.091902
21
0.063730
31
0.0
0
LINE
8
0
6
CONTINUOUS
10
-0.091033
20
0.064409
30
0.0
11
-0.091712
21
0.064150
31
0.0
0
LINE
8
0
6
CONTINUOUS
10
-0.091091
20
0.064150
30
0.0
11
-0.090412
21
0.064409
31
0.0
0
LINE
8
0
6
CONTINUOUS
10
-0.091712
20
0.064150
30
0.0
11
-0.091091
21
0.064150
31
0.0
0
LINE
8
0
6
CONTINUOUS
10
-0.090432
20
0.065178
30
0.0
11
-0.091033
21
0.064409
31
0.0
0
LINE
8
0
6
CONTINUOUS
10
-0.085218
20
0.071213
30
0.0
11
-0.081258
21
0.078255
31
0.0
0
LINE
8
0
6
CONTINUOUS
10
-0.091712
20
0.063421
30
0.0
11
-0.092523
21
0.063730
31
0.0
0
LINE
8
0
6
CONTINUOUS
10
-0.097228
20
0.072305
30
0.0
11
-0.093211
21
0.064610
31
0.0
0
LINE
8
0
6
CONTINUOUS
10
-0.097218
20
0.072523
30
0.0
11
-0.097228
21
0.072305
31
0.0
0
LINE
8
0
6
CONTINUOUS
10
-0.097082
20
0.072678
30
0.0
11
-0.097218
21
0.072523
31
0.0
0
LINE
8
0
6
CONTINUOUS
10
-0.096829
20
0.072730
30
0.0
11
-0.097082
21
0.072678
31
0.0
0
LINE
8
0
6
CONTINUOUS
10
-0.086506
20
0.072699
30
0.0
11
-0.090432
21
0.065178
31
0.0
0
LINE
8
0
6
CONTINUOUS
10
-0.086268
20
0.072918
30
0.0
11
-0.086506
21
0.072699
31
0.0
0
LINE
8
0
6
CONTINUOUS
10
-0.085971
20
0.073073
30
0.0
11
-0.086268
21
0.072918
31
0.0
0
LINE
8
0
6
CONTINUOUS
10
-0.085663
20
0.073124
30
0.0
11
-0.085971
21
0.073073
31
0.0
0
LINE
8
0
6
CONTINUOUS
10
-0.085867
20
0.072733
30
0.0
11
-0.085663
21
0.073124
31
0.0
0
LINE
8
0
6
CONTINUOUS
10
-0.092523
20
0.063730
30
0.0
11
-0.093211
21
0.064610
31
0.0
0
LINE
8
0
6
CONTINUOUS
10
-0.085445
20
0.070785
30
0.0
11
-0.085218
21
0.071213
31
0.0
0
LINE
8
0
6
CONTINUOUS
10
-0.085959
20
0.072524
30
0.0
11
-0.086197
21
0.072306
31
0.0
0
LINE
8
0
6
CONTINUOUS
10
-0.069748
20
0.080462
30
0.0
11
-0.069798
21
0.080564
31
0.0
0
LINE
8
0
6
CONTINUOUS
10
-0.097228
20
0.072305
30
0.0
11
-0.097218
21
0.072523
31
0.0
0
LINE
8
0
6
CONTINUOUS
10
-0.090901
20
0.063730
30
0.0
11
-0.091712
21
0.063421
31
0.0
0
LINE
8
0
6
CONTINUOUS
10
-0.101302
20
0.078961
30
0.0
11
-0.101103
21
0.078255
31
0.0
0
LINE
8
0
6
CONTINUOUS
10
-0.100721
20
0.080474
30
0.0
11
-0.101171
21
0.079559
31
0.0
0
LINE
8
0
6
CONTINUOUS
10
-0.101171
20
0.079559
30
0.0
11
-0.101302
21
0.078961
31
0.0
0
LINE
8
0
6
CONTINUOUS
10
-0.097979
20
0.070783
30
0.0
11
-0.094070
21
0.062870
31
0.0
0
LINE
8
0
6
CONTINUOUS
10
-0.098175
20
0.071213
30
0.0
11
-0.097979
21
0.070783
31
0.0
0
LINE
8
0
6
CONTINUOUS
10
-0.093509
20
0.061734
30
0.0
11
-0.093027
21
0.060759
31
0.0
0
LINE
8
0
6
CONTINUOUS
10
-0.093027
20
0.060759
30
0.0
11
-0.092896
21
0.060492
31
0.0
0
LINE
8
0
6
CONTINUOUS
10
-0.094070
20
0.062870
30
0.0
11
-0.093509
21
0.061734
31
0.0
0
LINE
8
0
6
CONTINUOUS
10
-0.089915
20
0.061734
30
0.0
11
-0.089354
21
0.062871
31
0.0
0
LINE
8
0
6
CONTINUOUS
10
-0.079206
20
0.079959
30
0.0
11
-0.078385
21
0.080099
31
0.0
0
LINE
8
0
6
CONTINUOUS
10
-0.078385
20
0.080099
30
0.0
11
-0.070421
21
0.080090
31
0.0
0
LINE
8
0
6
CONTINUOUS
10
-0.080761
20
0.078961
30
0.0
11
-0.080040
21
0.079560
31
0.0
0
LINE
8
0
6
CONTINUOUS
10
-0.081258
20
0.078255
30
0.0
11
-0.080761
21
0.078961
31
0.0
0
LINE
8
0
6
CONTINUOUS
10
-0.080040
20
0.079560
30
0.0
11
-0.079206
21
0.079959
31
0.0
0
LINE
8
0
6
CONTINUOUS
10
-0.089354
20
0.062871
30
0.0
11
-0.085445
21
0.070785
31
0.0
0
LINE
8
0
6
CONTINUOUS
10
-0.090528
20
0.060492
30
0.0
11
-0.090397
21
0.060759
31
0.0
0
LINE
8
0
6
CONTINUOUS
10
-0.090397
20
0.060759
30
0.0
11
-0.089915
21
0.061734
31
0.0
0
LINE
8
0
6
CONTINUOUS
10
-0.092896
20
0.060492
30
0.0
11
-0.091712
21
0.058096
31
0.0
0
LINE
8
0
6
CONTINUOUS
10
-0.091712
20
0.058096
30
0.0
11
-0.090528
21
0.060492
31
0.0
0
LINE
8
0
6
CONTINUOUS
10
-0.090213
20
0.064611
30
0.0
11
-0.090901
21
0.063730
31
0.0
0
LINE
8
0
6
CONTINUOUS
10
-0.072692
20
0.046484
30
0.0
11
-0.083708
21
0.046483
31
0.0
0
LINE
8
0
6
CONTINUOUS
10
-0.069262
20
0.036633
30
0.0
11
-0.068813
21
0.037548
31
0.0
0
LINE
8
0
6
CONTINUOUS
10
-0.069703
20
0.036234
30
0.0
11
-0.069262
21
0.036633
31
0.0
0
LINE
8
0
6
CONTINUOUS
10
-0.070386
20
0.036094
30
0.0
11
-0.069703
21
0.036234
31
0.0
0
LINE
8
0
6
CONTINUOUS
10
-0.068763
20
0.037650
30
0.0
11
-0.068631
21
0.038249
31
0.0
0
LINE
8
0
6
CONTINUOUS
10
-0.068631
20
0.038249
30
0.0
11
-0.068583
21
0.038560
31
0.0
0
LINE
8
0
6
CONTINUOUS
10
-0.068583
20
0.038560
30
0.0
11
-0.068773
21
0.039257
31
0.0
0
LINE
8
0
6
CONTINUOUS
10
-0.068773
20
0.039257
30
0.0
11
-0.068890
21
0.039506
31
0.0
0
LINE
8
0
6
CONTINUOUS
10
-0.068890
20
0.039506
30
0.0
11
-0.072137
21
0.046233
31
0.0
0
LINE
8
0
6
CONTINUOUS
10
-0.072271
20
0.046417
30
0.0
11
-0.072539
21
0.046484
31
0.0
0
LINE
8
0
6
CONTINUOUS
10
-0.083861
20
0.046483
30
0.0
11
-0.084168
21
0.046535
31
0.0
0
LINE
8
0
6
CONTINUOUS
10
-0.084168
20
0.046535
30
0.0
11
-0.084461
21
0.046699
31
0.0
0
LINE
8
0
6
CONTINUOUS
10
-0.084693
20
0.046930
30
0.0
11
-0.088494
21
0.055062
31
0.0
0
LINE
8
0
6
CONTINUOUS
10
-0.081258
20
0.078255
30
0.0
11
-0.085218
21
0.071213
31
0.0
0
LINE
8
0
6
CONTINUOUS
10
-0.068795
20
0.078531
30
0.0
11
-0.068845
21
0.078633
31
0.0
0
LINE
8
0
6
CONTINUOUS
10
-0.083709
20
0.069710
30
0.0
11
-0.072694
21
0.069710
31
0.0
0
LINE
8
0
6
CONTINUOUS
10
-0.088494
20
0.061131
30
0.0
11
-0.084694
21
0.069264
31
0.0
0
LINE
8
0
6
CONTINUOUS
10
-0.068663
20
0.077931
30
0.0
11
-0.068795
21
0.078531
31
0.0
0
LINE
8
0
6
CONTINUOUS
10
-0.068614
20
0.077620
30
0.0
11
-0.068663
21
0.077931
31
0.0
0
LINE
8
0
6
CONTINUOUS
10
-0.068801
20
0.076927
30
0.0
11
-0.068614
21
0.077620
31
0.0
0
LINE
8
0
6
CONTINUOUS
10
-0.068917
20
0.076679
30
0.0
11
-0.068801
21
0.076927
31
0.0
0
LINE
8
0
6
CONTINUOUS
10
-0.084462
20
0.069495
30
0.0
11
-0.084169
21
0.069658
31
0.0
0
LINE
8
0
6
CONTINUOUS
10
-0.084169
20
0.069658
30
0.0
11
-0.083862
21
0.069710
31
0.0
0
LINE
8
0
6
CONTINUOUS
10
-0.072274
20
0.069778
30
0.0
11
-0.068917
21
0.076679
31
0.0
0
LINE
8
0
6
CONTINUOUS
10
-0.072541
20
0.069710
30
0.0
11
-0.072274
21
0.069778
31
0.0
0
LINE
8
0
6
CONTINUOUS
10
-0.072143
20
0.069954
30
0.0
11
-0.068869
21
0.076785
31
0.0
0
LINE
8
0
6
CONTINUOUS
10
-0.083669
20
0.069087
30
0.0
11
-0.083863
21
0.069713
31
0.0
0
LINE
8
0
6
CONTINUOUS
10
-0.083863
20
0.069713
30
0.0
11
-0.084446
21
0.068465
31
0.0
0
LINE
8
0
6
CONTINUOUS
10
-0.083862
20
0.046481
30
0.0
11
-0.083668
21
0.047107
31
0.0
0
LINE
8
0
6
CONTINUOUS
10
-0.084445
20
0.047728
30
0.0
11
-0.083862
21
0.046481
31
0.0
0
LINE
8
0
6
CONTINUOUS
10
-0.084499
20
0.047556
30
0.0
11
-0.084267
21
0.047325
31
0.0
0
LINE
8
0
6
CONTINUOUS
10
-0.083663
20
0.050249
30
0.0
11
-0.084499
21
0.047556
31
0.0
0
LINE
8
0
6
CONTINUOUS
10
-0.081860
20
0.058097
30
0.0
11
-0.082092
21
0.062255
31
0.0
0
LINE
8
0
6
CONTINUOUS
10
-0.082092
20
0.062255
30
0.0
11
-0.082774
21
0.066205
31
0.0
0
LINE
8
0
6
CONTINUOUS
10
-0.082091
20
0.053938
30
0.0
11
-0.081860
21
0.058097
31
0.0
0
LINE
8
0
6
CONTINUOUS
10
-0.083669
20
0.069087
30
0.0
11
-0.083975
21
0.069032
31
0.0
0
LINE
8
0
6
CONTINUOUS
10
-0.082774
20
0.066205
30
0.0
11
-0.083669
21
0.069087
31
0.0
0
LINE
8
0
6
CONTINUOUS
10
-0.083003
20
0.062121
30
0.0
11
-0.082779
21
0.058097
31
0.0
0
LINE
8
0
6
CONTINUOUS
10
-0.082774
20
0.049988
30
0.0
11
-0.082091
21
0.053938
31
0.0
0
LINE
8
0
6
CONTINUOUS
10
-0.083975
20
0.069032
30
0.0
11
-0.084268
21
0.068869
31
0.0
0
LINE
8
0
6
CONTINUOUS
10
-0.083663
20
0.065944
30
0.0
11
-0.083003
21
0.062121
31
0.0
0
LINE
8
0
6
CONTINUOUS
10
-0.082779
20
0.058097
30
0.0
11
-0.083002
21
0.054072
31
0.0
0
LINE
8
0
6
CONTINUOUS
10
-0.083668
20
0.047107
30
0.0
11
-0.082774
21
0.049988
31
0.0
0
LINE
8
0
6
CONTINUOUS
10
-0.083974
20
0.047161
30
0.0
11
-0.083668
21
0.047107
31
0.0
0
LINE
8
0
6
CONTINUOUS
10
-0.083002
20
0.054072
30
0.0
11
-0.083663
21
0.050249
31
0.0
0
LINE
8
0
6
CONTINUOUS
10
-0.084267
20
0.047325
30
0.0
11
-0.083974
21
0.047161
31
0.0
0
LINE
8
0
6
CONTINUOUS
10
-0.084268
20
0.068869
30
0.0
11
-0.084500
21
0.068638
31
0.0
0
LINE
8
0
6
CONTINUOUS
10
-0.084500
20
0.068638
30
0.0
11
-0.083663
21
0.065944
31
0.0
0
LINE
8
0
6
CONTINUOUS
10
-0.082774
20
0.066205
30
0.0
11
-0.082092
21
0.062255
31
0.0
0
LINE
8
0
6
CONTINUOUS
10
-0.043584
20
0.053939
30
0.0
11
-0.043353
21
0.058097
31
0.0
0
LINE
8
0
6
CONTINUOUS
10
-0.082091
20
0.053938
30
0.0
11
-0.082774
21
0.049988
31
0.0
0
LINE
8
0
6
CONTINUOUS
10
-0.083002
20
0.054072
30
0.0
11
-0.082779
21
0.058097
31
0.0
0
LINE
8
0
6
CONTINUOUS
10
-0.083663
20
0.050249
30
0.0
11
-0.083002
21
0.054072
31
0.0
0
LINE
8
0
6
CONTINUOUS
10
-0.084499
20
0.047556
30
0.0
11
-0.083663
21
0.050249
31
0.0
0
LINE
8
0
6
CONTINUOUS
10
-0.088214
20
0.055504
30
0.0
11
-0.084499
21
0.047556
31
0.0
0
LINE
8
0
6
CONTINUOUS
10
-0.088594
20
0.056721
30
0.0
11
-0.088214
21
0.055504
31
0.0
0
LINE
8
0
6
CONTINUOUS
10
-0.088722
20
0.058097
30
0.0
11
-0.088594
21
0.056721
31
0.0
0
LINE
8
0
6
CONTINUOUS
10
-0.088594
20
0.059472
30
0.0
11
-0.088722
21
0.058097
31
0.0
0
LINE
8
0
6
CONTINUOUS
10
-0.088214
20
0.060689
30
0.0
11
-0.088594
21
0.059472
31
0.0
0
LINE
8
0
6
CONTINUOUS
10
-0.084500
20
0.068638
30
0.0
11
-0.088214
21
0.060689
31
0.0
0
LINE
8
0
6
CONTINUOUS
10
-0.083663
20
0.065944
30
0.0
11
-0.084500
21
0.068638
31
0.0
0
LINE
8
0
6
CONTINUOUS
10
-0.083003
20
0.062121
30
0.0
11
-0.083663
21
0.065944
31
0.0
0
LINE
8
0
6
CONTINUOUS
10
-0.082779
20
0.058097
30
0.0
11
-0.083003
21
0.062121
31
0.0
0
LINE
8
0
6
CONTINUOUS
10
-0.083863
20
0.069713
30
0.0
11
-0.082774
21
0.066205
31
0.0
0
LINE
8
0
6
CONTINUOUS
10
-0.045366
20
0.046445
30
0.0
11
-0.044267
21
0.049989
31
0.0
0
LINE
8
0
6
CONTINUOUS
10
-0.088494
20
0.061131
30
0.0
11
-0.088929
21
0.059739
31
0.0
0
LINE
8
0
6
CONTINUOUS
10
-0.088929
20
0.059739
30
0.0
11
-0.089081
21
0.058097
31
0.0
0
LINE
8
0
6
CONTINUOUS
10
-0.089081
20
0.058097
30
0.0
11
-0.088929
21
0.056454
31
0.0
0
LINE
8
0
6
CONTINUOUS
10
-0.088929
20
0.056454
30
0.0
11
-0.088494
21
0.055062
31
0.0
0
LINE
8
0
6
CONTINUOUS
10
-0.085217
20
0.044979
30
0.0
11
-0.081226
21
0.037951
31
0.0
0
LINE
8
0
6
CONTINUOUS
10
-0.089081
20
0.058097
30
0.0
11
-0.088929
21
0.059739
31
0.0
0
LINE
8
0
6
CONTINUOUS
10
-0.084694
20
0.069264
30
0.0
11
-0.088494
21
0.061131
31
0.0
0
LINE
8
0
6
CONTINUOUS
10
-0.084462
20
0.069495
30
0.0
11
-0.084694
21
0.069264
31
0.0
0
LINE
8
0
6
CONTINUOUS
10
-0.084169
20
0.069658
30
0.0
11
-0.084462
21
0.069495
31
0.0
0
LINE
8
0
6
CONTINUOUS
10
-0.083863
20
0.069713
30
0.0
11
-0.084169
21
0.069658
31
0.0
0
LINE
8
0
6
CONTINUOUS
10
-0.084446
20
0.068465
30
0.0
11
-0.083863
21
0.069713
31
0.0
0
LINE
8
0
6
CONTINUOUS
10
-0.084168
20
0.046535
30
0.0
11
-0.083862
21
0.046481
31
0.0
0
LINE
8
0
6
CONTINUOUS
10
-0.084461
20
0.046699
30
0.0
11
-0.084168
21
0.046535
31
0.0
0
LINE
8
0
6
CONTINUOUS
10
-0.084693
20
0.046930
30
0.0
11
-0.084461
21
0.046699
31
0.0
0
LINE
8
0
6
CONTINUOUS
10
-0.088494
20
0.055062
30
0.0
11
-0.084693
21
0.046930
31
0.0
0
LINE
8
0
6
CONTINUOUS
10
-0.083862
20
0.046481
30
0.0
11
-0.084445
21
0.047728
31
0.0
0
LINE
8
0
6
CONTINUOUS
10
-0.088929
20
0.059739
30
0.0
11
-0.088494
21
0.061131
31
0.0
0
LINE
8
0
6
CONTINUOUS
10
-0.082092
20
0.062255
30
0.0
11
-0.081860
21
0.058097
31
0.0
0
LINE
8
0
6
CONTINUOUS
10
-0.085444
20
0.045408
30
0.0
11
-0.085217
21
0.044979
31
0.0
0
LINE
8
0
6
CONTINUOUS
10
-0.084461
20
0.046699
30
0.0
11
-0.084693
21
0.046930
31
0.0
0
LINE
8
0
6
CONTINUOUS
10
-0.068813
20
0.037548
30
0.0
11
-0.068763
21
0.037650
31
0.0
0
LINE
8
0
6
CONTINUOUS
10
-0.084694
20
0.069264
30
0.0
11
-0.084462
21
0.069495
31
0.0
0
LINE
8
0
6
CONTINUOUS
10
-0.083862
20
0.069710
30
0.0
11
-0.083709
21
0.069710
31
0.0
0
LINE
8
0
6
CONTINUOUS
10
-0.072694
20
0.069710
30
0.0
11
-0.072541
21
0.069710
31
0.0
0
LINE
8
0
6
CONTINUOUS
10
-0.072539
20
0.046484
30
0.0
11
-0.072692
21
0.046484
31
0.0
0
LINE
8
0
6
CONTINUOUS
10
-0.083708
20
0.046483
30
0.0
11
-0.083861
21
0.046483
31
0.0
0
LINE
8
0
6
CONTINUOUS
10
-0.088929
20
0.056454
30
0.0
11
-0.089081
21
0.058097
31
0.0
0
LINE
8
0
6
CONTINUOUS
10
-0.078385
20
0.080099
30
0.0
11
-0.079206
21
0.079959
31
0.0
0
LINE
8
0
6
CONTINUOUS
10
-0.070421
20
0.080090
30
0.0
11
-0.078385
21
0.080099
31
0.0
0
LINE
8
0
6
CONTINUOUS
10
-0.080761
20
0.078961
30
0.0
11
-0.081258
21
0.078255
31
0.0
0
LINE
8
0
6
CONTINUOUS
10
-0.079206
20
0.079959
30
0.0
11
-0.080040
21
0.079560
31
0.0
0
LINE
8
0
6
CONTINUOUS
10
-0.068845
20
0.078633
30
0.0
11
-0.069296
21
0.079547
31
0.0
0
LINE
8
0
6
CONTINUOUS
10
-0.069296
20
0.079547
30
0.0
11
-0.069738
21
0.079948
31
0.0
0
LINE
8
0
6
CONTINUOUS
10
-0.069738
20
0.079948
30
0.0
11
-0.070421
21
0.080090
31
0.0
0
LINE
8
0
6
CONTINUOUS
10
-0.080040
20
0.079560
30
0.0
11
-0.080761
21
0.078961
31
0.0
0
LINE
8
0
6
CONTINUOUS
10
-0.085445
20
0.070785
30
0.0
11
-0.089354
21
0.062871
31
0.0
0
LINE
8
0
6
CONTINUOUS
10
-0.085218
20
0.071213
30
0.0
11
-0.085445
21
0.070785
31
0.0
0
LINE
8
0
6
CONTINUOUS
10
-0.089915
20
0.061735
30
0.0
11
-0.090397
21
0.060759
31
0.0
0
LINE
8
0
6
CONTINUOUS
10
-0.090397
20
0.060759
30
0.0
11
-0.090528
21
0.060493
31
0.0
0
LINE
8
0
6
CONTINUOUS
10
-0.089354
20
0.062871
30
0.0
11
-0.089915
21
0.061735
31
0.0
0
LINE
8
0
6
CONTINUOUS
10
-0.089915
20
0.054458
30
0.0
11
-0.089353
21
0.053322
31
0.0
0
LINE
8
0
6
CONTINUOUS
10
-0.079171
20
0.036245
30
0.0
11
-0.078350
21
0.036103
31
0.0
0
LINE
8
0
6
CONTINUOUS
10
-0.078350
20
0.036103
30
0.0
11
-0.070386
21
0.036094
31
0.0
0
LINE
8
0
6
CONTINUOUS
10
-0.080728
20
0.037245
30
0.0
11
-0.080006
21
0.036646
31
0.0
0
LINE
8
0
6
CONTINUOUS
10
-0.081226
20
0.037951
30
0.0
11
-0.080728
21
0.037245
31
0.0
0
LINE
8
0
6
CONTINUOUS
10
-0.080006
20
0.036646
30
0.0
11
-0.079171
21
0.036245
31
0.0
0
LINE
8
0
6
CONTINUOUS
10
-0.089353
20
0.053322
30
0.0
11
-0.085444
21
0.045408
31
0.0
0
LINE
8
0
6
CONTINUOUS
10
-0.090528
20
0.055700
30
0.0
11
-0.090396
21
0.055433
31
0.0
0
LINE
8
0
6
CONTINUOUS
10
-0.090396
20
0.055433
30
0.0
11
-0.089915
21
0.054458
31
0.0
0
LINE
8
0
6
CONTINUOUS
10
-0.090528
20
0.060493
30
0.0
11
-0.091712
21
0.058096
31
0.0
0
LINE
8
0
6
CONTINUOUS
10
-0.091712
20
0.058096
30
0.0
11
-0.090528
21
0.055700
31
0.0
0
LINE
8
0
6
CONTINUOUS
10
-0.088494
20
0.055062
30
0.0
11
-0.088929
21
0.056454
31
0.0
0
LINE
8
0
6
CONTINUOUS
10
-0.046440
20
0.071229
30
0.0
11
-0.071534
21
0.071224
31
0.0
0
LINE
8
0
6
CONTINUOUS
10
-0.052932
20
0.076786
30
0.0
11
-0.068869
21
0.076785
31
0.0
0
LINE
8
0
6
CONTINUOUS
10
-0.083455
20
0.076785
30
0.0
11
-0.091091
21
0.076785
31
0.0
0
LINE
8
0
6
CONTINUOUS
10
-0.091091
20
0.076785
30
0.0
11
-0.089037
21
0.076316
31
0.0
0
LINE
8
0
6
CONTINUOUS
10
-0.048579
20
0.074935
30
0.0
11
-0.050530
21
0.076317
31
0.0
0
LINE
8
0
6
CONTINUOUS
10
-0.046446
20
0.071229
30
0.0
11
-0.046098
21
0.071229
31
0.0
0
LINE
8
0
6
CONTINUOUS
10
-0.046098
20
0.071229
30
0.0
11
-0.046829
21
0.072709
31
0.0
0
LINE
8
0
6
CONTINUOUS
10
-0.087086
20
0.074934
30
0.0
11
-0.085663
21
0.073124
31
0.0
0
LINE
8
0
6
CONTINUOUS
10
-0.050529
20
0.039877
30
0.0
11
-0.048578
21
0.041259
31
0.0
0
LINE
8
0
6
CONTINUOUS
10
-0.046828
20
0.043486
30
0.0
11
-0.046097
21
0.044965
31
0.0
0
LINE
8
0
6
CONTINUOUS
10
-0.048578
20
0.041259
30
0.0
11
-0.046828
21
0.043486
31
0.0
0
LINE
8
0
6
CONTINUOUS
10
-0.052583
20
0.039408
30
0.0
11
-0.050529
21
0.039877
31
0.0
0
LINE
8
0
6
CONTINUOUS
10
-0.052925
20
0.039408
30
0.0
11
-0.052583
21
0.039408
31
0.0
0
LINE
8
0
6
CONTINUOUS
10
-0.043584
20
0.062256
30
0.0
11
-0.044267
21
0.066206
31
0.0
0
LINE
8
0
6
CONTINUOUS
10
-0.081860
20
0.058097
30
0.0
11
-0.082091
21
0.053938
31
0.0
0
LINE
8
0
6
CONTINUOUS
10
-0.044267
20
0.049989
30
0.0
11
-0.043584
21
0.053939
31
0.0
0
LINE
8
0
6
CONTINUOUS
10
-0.044267
20
0.066206
30
0.0
11
-0.045367
21
0.069750
31
0.0
0
LINE
8
0
6
CONTINUOUS
10
-0.082774
20
0.049988
30
0.0
11
-0.083862
21
0.046481
31
0.0
0
LINE
8
0
6
CONTINUOUS
10
-0.043353
20
0.058097
30
0.0
11
-0.043584
21
0.062256
31
0.0
0
LINE
8
0
6
CONTINUOUS
10
-0.046097
20
0.044965
30
0.0
11
-0.045366
21
0.046445
31
0.0
0
LINE
8
0
6
CONTINUOUS
10
-0.045367
20
0.069750
30
0.0
11
-0.046098
21
0.071229
31
0.0
0
LINE
8
0
6
CONTINUOUS
10
-0.046098
20
0.071229
30
0.0
11
-0.046440
21
0.071229
31
0.0
0
LINE
8
0
6
CONTINUOUS
10
0.008422
20
0.138666
30
0.0
11
0.008504
21
0.136972
31
0.0
0
LINE
8
0
6
CONTINUOUS
10
-0.008758
20
0.136972
30
0.0
11
-0.008676
21
0.138666
31
0.0
0
LINE
8
0
6
CONTINUOUS
10
0.014874
20
0.115855
30
0.0
11
0.018444
21
0.115438
31
0.0
0
LINE
8
0
6
CONTINUOUS
10
0.018444
20
0.115438
30
0.0
11
0.038908
21
0.112780
31
0.0
0
LINE
8
0
6
CONTINUOUS
10
0.038908
20
0.112780
30
0.0
11
0.049294
21
0.111295
31
0.0
0
LINE
8
0
6
CONTINUOUS
10
0.115819
20
0.101643
30
0.0
11
0.116737
21
0.104654
31
0.0
0
LINE
8
0
6
CONTINUOUS
10
0.113866
20
0.099343
30
0.0
11
0.115819
21
0.101643
31
0.0
0
LINE
8
0
6
CONTINUOUS
10
0.112826
20
0.098300
30
0.0
11
0.113866
21
0.099343
31
0.0
0
LINE
8
0
6
CONTINUOUS
10
0.020119
20
0.131323
30
0.0
11
0.013923
21
0.132046
31
0.0
0
LINE
8
0
6
CONTINUOUS
10
0.040584
20
0.128666
30
0.0
11
0.020119
21
0.131323
31
0.0
0
LINE
8
0
6
CONTINUOUS
10
0.058057
20
0.126167
30
0.0
11
0.040584
21
0.128666
31
0.0
0
LINE
8
0
6
CONTINUOUS
10
0.075089
20
0.123315
30
0.0
11
0.058057
21
0.126167
31
0.0
0
LINE
8
0
6
CONTINUOUS
10
0.088111
20
0.120935
30
0.0
11
0.075089
21
0.123315
31
0.0
0
LINE
8
0
6
CONTINUOUS
10
0.097045
20
0.118775
30
0.0
11
0.088111
21
0.120935
31
0.0
0
LINE
8
0
6
CONTINUOUS
10
0.104625
20
0.116622
30
0.0
11
0.097045
21
0.118775
31
0.0
0
LINE
8
0
6
CONTINUOUS
10
0.107448
20
0.115769
30
0.0
11
0.104625
21
0.116622
31
0.0
0
LINE
8
0
6
CONTINUOUS
10
0.111218
20
0.114011
30
0.0
11
0.107448
21
0.115769
31
0.0
0
LINE
8
0
6
CONTINUOUS
10
0.113555
20
0.111971
30
0.0
11
0.111218
21
0.114011
31
0.0
0
LINE
8
0
6
CONTINUOUS
10
0.115039
20
0.110463
30
0.0
11
0.113555
21
0.111971
31
0.0
0
LINE
8
0
6
CONTINUOUS
10
0.116737
20
0.104654
30
0.0
11
0.116469
21
0.107797
31
0.0
0
LINE
8
0
6
CONTINUOUS
10
0.116469
20
0.107797
30
0.0
11
0.115039
21
0.110463
31
0.0
0
LINE
8
0
6
CONTINUOUS
10
0.037299
20
0.095491
30
0.0
11
0.048534
21
0.095402
31
0.0
0
LINE
8
0
6
CONTINUOUS
10
0.026720
20
0.095325
30
0.0
11
0.037299
21
0.095491
31
0.0
0
LINE
8
0
6
CONTINUOUS
10
0.017709
20
0.094869
30
0.0
11
0.026720
21
0.095325
31
0.0
0
LINE
8
0
6
CONTINUOUS
10
0.014871
20
0.094639
30
0.0
11
0.017709
21
0.094869
31
0.0
0
LINE
8
0
6
CONTINUOUS
10
0.063571
20
0.095159
30
0.0
11
0.076783
21
0.094849
31
0.0
0
LINE
8
0
6
CONTINUOUS
10
0.076783
20
0.094849
30
0.0
11
0.089175
21
0.094778
31
0.0
0
LINE
8
0
6
CONTINUOUS
10
0.097602
20
0.095142
30
0.0
11
0.100577
21
0.095384
31
0.0
0
LINE
8
0
6
CONTINUOUS
10
0.089175
20
0.094778
30
0.0
11
0.097602
21
0.095142
31
0.0
0
LINE
8
0
6
CONTINUOUS
10
0.100577
20
0.095384
30
0.0
11
0.106861
21
0.096005
31
0.0
0
LINE
8
0
6
CONTINUOUS
10
0.110166
20
0.096789
30
0.0
11
0.112826
21
0.098300
31
0.0
0
LINE
8
0
6
CONTINUOUS
10
0.106861
20
0.096005
30
0.0
11
0.110166
21
0.096789
31
0.0
0
LINE
8
0
6
CONTINUOUS
10
0.090851
20
0.110664
30
0.0
11
0.078458
21
0.110736
31
0.0
0
LINE
8
0
6
CONTINUOUS
10
0.099278
20
0.111028
30
0.0
11
0.090851
21
0.110664
31
0.0
0
LINE
8
0
6
CONTINUOUS
10
0.102423
20
0.111390
30
0.0
11
0.096302
21
0.110786
31
0.0
0
LINE
8
0
6
CONTINUOUS
10
0.105585
20
0.112166
30
0.0
11
0.102423
21
0.111390
31
0.0
0
LINE
8
0
6
CONTINUOUS
10
0.050209
20
0.111288
30
0.0
11
0.038974
21
0.111376
31
0.0
0
LINE
8
0
6
CONTINUOUS
10
0.038974
20
0.111376
30
0.0
11
0.028396
21
0.111211
31
0.0
0
LINE
8
0
6
CONTINUOUS
10
0.028396
20
0.111211
30
0.0
11
0.019384
21
0.110755
31
0.0
0
LINE
8
0
6
CONTINUOUS
10
0.019384
20
0.110755
30
0.0
11
0.014873
21
0.110389
31
0.0
0
LINE
8
0
6
CONTINUOUS
10
-0.116737
20
0.138256
30
0.0
11
-0.116469
21
0.135111
31
0.0
0
LINE
8
0
6
CONTINUOUS
10
-0.116469
20
0.135111
30
0.0
11
-0.115040
21
0.132446
31
0.0
0
LINE
8
0
6
CONTINUOUS
10
-0.115040
20
0.132446
30
0.0
11
-0.112647
21
0.130382
31
0.0
0
LINE
8
0
6
CONTINUOUS
10
-0.112647
20
0.130382
30
0.0
11
-0.109624
21
0.129460
31
0.0
0
LINE
8
0
6
CONTINUOUS
10
-0.109624
20
0.129460
30
0.0
11
-0.108768
21
0.129360
31
0.0
0
LINE
8
0
6
CONTINUOUS
10
-0.050631
20
0.123074
30
0.0
11
-0.039448
21
0.121883
31
0.0
0
LINE
8
0
6
CONTINUOUS
10
-0.039448
20
0.121883
30
0.0
11
-0.028932
21
0.120762
31
0.0
0
LINE
8
0
6
CONTINUOUS
10
-0.028932
20
0.120762
30
0.0
11
-0.019987
21
0.119805
31
0.0
0
LINE
8
0
6
CONTINUOUS
10
-0.019987
20
0.119805
30
0.0
11
-0.015128
21
0.119284
31
0.0
0
LINE
8
0
6
CONTINUOUS
10
-0.091081
20
0.127461
30
0.0
11
-0.078748
21
0.126149
31
0.0
0
LINE
8
0
6
CONTINUOUS
10
-0.099448
20
0.128355
30
0.0
11
-0.091081
21
0.127461
31
0.0
0
LINE
8
0
6
CONTINUOUS
10
-0.105540
20
0.129010
30
0.0
11
-0.099448
21
0.128355
31
0.0
0
LINE
8
0
6
CONTINUOUS
10
-0.108768
20
0.129360
30
0.0
11
-0.105540
21
0.129010
31
0.0
0
LINE
8
0
6
CONTINUOUS
10
-0.077069
20
0.142062
30
0.0
11
-0.089402
21
0.143374
31
0.0
0
LINE
8
0
6
CONTINUOUS
10
-0.089402
20
0.143374
30
0.0
11
-0.097768
21
0.144267
31
0.0
0
LINE
8
0
6
CONTINUOUS
10
-0.097768
20
0.144267
30
0.0
11
-0.103860
21
0.144922
31
0.0
0
LINE
8
0
6
CONTINUOUS
10
-0.103860
20
0.144922
30
0.0
11
-0.107089
21
0.145272
31
0.0
0
LINE
8
0
6
CONTINUOUS
10
-0.048951
20
0.138984
30
0.0
11
-0.063908
21
0.140662
31
0.0
0
LINE
8
0
6
CONTINUOUS
10
-0.037769
20
0.137794
30
0.0
11
-0.048951
21
0.138984
31
0.0
0
LINE
8
0
6
CONTINUOUS
10
-0.027252
20
0.136673
30
0.0
11
-0.037769
21
0.137794
31
0.0
0
LINE
8
0
6
CONTINUOUS
10
-0.018308
20
0.135717
30
0.0
11
-0.027252
21
0.136673
31
0.0
0
LINE
8
0
6
CONTINUOUS
10
-0.012410
20
0.135084
30
0.0
11
-0.018308
21
0.135717
31
0.0
0
LINE
8
0
6
CONTINUOUS
10
-0.009074
20
0.134827
30
0.0
11
-0.009265
21
0.134851
31
0.0
0
LINE
8
0
6
CONTINUOUS
10
-0.012533
20
0.135261
30
0.0
11
-0.018038
21
0.135954
31
0.0
0
LINE
8
0
6
CONTINUOUS
10
-0.018038
20
0.135954
30
0.0
11
-0.038525
21
0.138113
31
0.0
0
LINE
8
0
6
CONTINUOUS
10
-0.038525
20
0.138113
30
0.0
11
-0.056030
21
0.139955
31
0.0
0
LINE
8
0
6
CONTINUOUS
10
-0.056030
20
0.139955
30
0.0
11
-0.073112
21
0.141749
31
0.0
0
LINE
8
0
6
CONTINUOUS
10
-0.073112
20
0.141749
30
0.0
11
-0.086182
21
0.143121
31
0.0
0
LINE
8
0
6
CONTINUOUS
10
-0.086182
20
0.143121
30
0.0
11
-0.095175
21
0.144059
31
0.0
0
LINE
8
0
6
CONTINUOUS
10
-0.095175
20
0.144059
30
0.0
11
-0.102820
21
0.144854
31
0.0
0
LINE
8
0
6
CONTINUOUS
10
-0.102820
20
0.144854
30
0.0
11
-0.106519
21
0.145233
31
0.0
0
LINE
8
0
6
CONTINUOUS
10
-0.106519
20
0.145233
30
0.0
11
-0.107944
21
0.145373
31
0.0
0
LINE
8
0
6
CONTINUOUS
10
-0.115818
20
0.141276
30
0.0
11
-0.116737
21
0.138256
31
0.0
0
LINE
8
0
6
CONTINUOUS
10
-0.113864
20
0.143584
30
0.0
11
-0.115818
21
0.141276
31
0.0
0
LINE
8
0
6
CONTINUOUS
10
-0.111094
20
0.145101
30
0.0
11
-0.113864
21
0.143584
31
0.0
0
LINE
8
0
6
CONTINUOUS
10
-0.107944
20
0.145373
30
0.0
11
-0.111094
21
0.145101
31
0.0
0
LINE
8
0
6
CONTINUOUS
10
-0.107089
20
0.145272
30
0.0
11
-0.107944
21
0.145373
31
0.0
0
LINE
8
0
6
CONTINUOUS
10
0.048534
20
0.095402
30
0.0
11
0.063571
21
0.095159
31
0.0
0
LINE
8
0
6
CONTINUOUS
10
0.078458
20
0.110736
30
0.0
11
0.065246
21
0.111044
31
0.0
0
LINE
8
0
6
CONTINUOUS
10
0.065246
20
0.111044
30
0.0
11
0.050209
21
0.111288
31
0.0
0
LINE
8
0
6
CONTINUOUS
10
-0.065588
20
0.124750
30
0.0
11
-0.050631
21
0.123074
31
0.0
0
LINE
8
0
6
CONTINUOUS
10
-0.078748
20
0.126149
30
0.0
11
-0.065588
21
0.124750
31
0.0
0
LINE
8
0
6
CONTINUOUS
10
-0.063908
20
0.140662
30
0.0
11
-0.077069
21
0.142062
31
0.0
0
LINE
8
0
6
CONTINUOUS
10
0.000730
20
0.139415
30
0.0
11
0.000302
21
0.139415
31
0.0
0
LINE
8
0
6
CONTINUOUS
10
-0.009004
20
0.135714
30
0.0
11
-0.009315
21
0.135423
31
0.0
0
LINE
8
0
6
CONTINUOUS
10
-0.009315
20
0.135423
30
0.0
11
-0.008725
21
0.134810
31
0.0
0
LINE
8
0
6
CONTINUOUS
10
0.005250
20
0.137365
30
0.0
11
0.005560
21
0.138152
31
0.0
0
LINE
8
0
6
CONTINUOUS
10
0.005560
20
0.138152
30
0.0
11
0.005161
21
0.138305
31
0.0
0
LINE
8
0
6
CONTINUOUS
10
0.005161
20
0.138305
30
0.0
11
0.004362
21
0.138611
31
0.0
0
LINE
8
0
6
CONTINUOUS
10
0.003962
20
0.138764
30
0.0
11
0.003652
21
0.137976
31
0.0
0
LINE
8
0
6
CONTINUOUS
10
0.004362
20
0.138611
30
0.0
11
0.003962
21
0.138764
31
0.0
0
LINE
8
0
6
CONTINUOUS
10
0.008471
20
0.134810
30
0.0
11
0.009061
21
0.135423
31
0.0
0
LINE
8
0
6
CONTINUOUS
10
0.009061
20
0.135423
30
0.0
11
0.008750
21
0.135714
31
0.0
0
LINE
8
0
6
CONTINUOUS
10
0.000302
20
0.139415
30
0.0
11
-0.000556
21
0.139415
31
0.0
0
LINE
8
0
6
CONTINUOUS
10
-0.008382
20
0.136295
30
0.0
11
-0.009004
21
0.135714
31
0.0
0
LINE
8
0
6
CONTINUOUS
10
0.000730
20
0.139415
30
0.0
11
0.000302
21
0.139415
31
0.0
0
LINE
8
0
6
CONTINUOUS
10
0.000302
20
0.139415
30
0.0
11
-0.000556
21
0.139415
31
0.0
0
LINE
8
0
6
CONTINUOUS
10
-0.000556
20
0.139415
30
0.0
11
-0.000984
21
0.139415
31
0.0
0
LINE
8
0
6
CONTINUOUS
10
-0.000556
20
0.139415
30
0.0
11
-0.000984
21
0.139415
31
0.0
0
LINE
8
0
6
CONTINUOUS
10
0.000302
20
0.139415
30
0.0
11
-0.000556
21
0.139415
31
0.0
0
LINE
8
0
6
CONTINUOUS
10
0.000730
20
0.139415
30
0.0
11
0.000302
21
0.139415
31
0.0
0
LINE
8
0
6
CONTINUOUS
10
-0.000556
20
0.139415
30
0.0
11
-0.000984
21
0.139415
31
0.0
0
LINE
8
0
6
CONTINUOUS
10
0.000302
20
0.139415
30
0.0
11
-0.000556
21
0.139415
31
0.0
0
LINE
8
0
6
CONTINUOUS
10
0.000730
20
0.139415
30
0.0
11
0.000302
21
0.139415
31
0.0
0
LINE
8
0
6
CONTINUOUS
10
0.000302
20
0.139415
30
0.0
11
-0.000556
21
0.139415
31
0.0
0
LINE
8
0
6
CONTINUOUS
10
-0.000556
20
0.139415
30
0.0
11
-0.000984
21
0.139415
31
0.0
0
LINE
8
0
6
CONTINUOUS
10
-0.000556
20
0.139415
30
0.0
11
-0.000984
21
0.139415
31
0.0
0
LINE
8
0
6
CONTINUOUS
10
0.000302
20
0.139415
30
0.0
11
-0.000556
21
0.139415
31
0.0
0
LINE
8
0
6
CONTINUOUS
10
0.000730
20
0.139415
30
0.0
11
0.000302
21
0.139415
31
0.0
0
LINE
8
0
6
CONTINUOUS
10
0.000730
20
0.139415
30
0.0
11
0.000302
21
0.139415
31
0.0
0
LINE
8
0
6
CONTINUOUS
10
0.000302
20
0.139415
30
0.0
11
-0.000556
21
0.139415
31
0.0
0
LINE
8
0
6
CONTINUOUS
10
-0.000556
20
0.139415
30
0.0
11
-0.000984
21
0.139415
31
0.0
0
LINE
8
0
6
CONTINUOUS
10
0.000730
20
0.139415
30
0.0
11
0.000302
21
0.139415
31
0.0
0
LINE
8
0
6
CONTINUOUS
10
-0.000556
20
0.139415
30
0.0
11
-0.000984
21
0.139415
31
0.0
0
LINE
8
0
6
CONTINUOUS
10
-0.000556
20
0.139415
30
0.0
11
-0.000984
21
0.139415
31
0.0
0
LINE
8
0
6
CONTINUOUS
10
0.000302
20
0.139415
30
0.0
11
-0.000556
21
0.139415
31
0.0
0
LINE
8
0
6
CONTINUOUS
10
0.000730
20
0.139415
30
0.0
11
0.000302
21
0.139415
31
0.0
0
LINE
8
0
6
CONTINUOUS
10
0.000730
20
0.139415
30
0.0
11
0.000302
21
0.139415
31
0.0
0
LINE
8
0
6
CONTINUOUS
10
0.000302
20
0.139415
30
0.0
11
-0.000556
21
0.139415
31
0.0
0
LINE
8
0
6
CONTINUOUS
10
-0.000556
20
0.139415
30
0.0
11
-0.000984
21
0.139415
31
0.0
0
LINE
8
0
6
CONTINUOUS
10
-0.000556
20
0.139415
30
0.0
11
-0.000984
21
0.139415
31
0.0
0
LINE
8
0
6
CONTINUOUS
10
0.000302
20
0.139415
30
0.0
11
-0.000556
21
0.139415
31
0.0
0
LINE
8
0
6
CONTINUOUS
10
0.000730
20
0.139415
30
0.0
11
0.000302
21
0.139415
31
0.0
0
LINE
8
0
6
CONTINUOUS
10
-0.008071
20
0.136585
30
0.0
11
-0.008382
21
0.136295
31
0.0
0
LINE
8
0
6
CONTINUOUS
10
-0.007481
20
0.135972
30
0.0
11
-0.008071
21
0.136585
31
0.0
0
LINE
8
0
6
CONTINUOUS
10
-0.005415
20
0.138305
30
0.0
11
-0.005814
21
0.138152
31
0.0
0
LINE
8
0
6
CONTINUOUS
10
-0.005814
20
0.138152
30
0.0
11
-0.005504
21
0.137365
31
0.0
0
LINE
8
0
6
CONTINUOUS
10
-0.004616
20
0.138611
30
0.0
11
-0.005415
21
0.138305
31
0.0
0
LINE
8
0
6
CONTINUOUS
10
-0.004216
20
0.138764
30
0.0
11
-0.004616
21
0.138611
31
0.0
0
LINE
8
0
6
CONTINUOUS
10
-0.003906
20
0.137976
30
0.0
11
-0.004216
21
0.138764
31
0.0
0
LINE
8
0
6
CONTINUOUS
10
0.000730
20
0.138570
30
0.0
11
0.000730
21
0.139415
31
0.0
0
LINE
8
0
6
CONTINUOUS
10
0.000730
20
0.139415
30
0.0
11
0.000302
21
0.139415
31
0.0
0
LINE
8
0
6
CONTINUOUS
10
0.000302
20
0.139415
30
0.0
11
-0.000556
21
0.139415
31
0.0
0
LINE
8
0
6
CONTINUOUS
10
-0.000984
20
0.139415
30
0.0
11
-0.000984
21
0.138570
31
0.0
0
LINE
8
0
6
CONTINUOUS
10
-0.000556
20
0.139415
30
0.0
11
-0.000984
21
0.139415
31
0.0
0
LINE
8
0
6
CONTINUOUS
10
0.008750
20
0.135714
30
0.0
11
0.008128
21
0.136295
31
0.0
0
LINE
8
0
6
CONTINUOUS
10
0.007817
20
0.136585
30
0.0
11
0.007227
21
0.135972
31
0.0
0
LINE
8
0
6
CONTINUOUS
10
0.008128
20
0.136295
30
0.0
11
0.007817
21
0.136585
31
0.0
0
LINE
8
0
6
CONTINUOUS
10
-0.011627
20
0.126915
30
0.0
11
-0.011227
21
0.129915
31
0.0
0
LINE
8
0
6
CONTINUOUS
10
-0.011727
20
0.130015
30
0.0
11
-0.012127
21
0.126915
31
0.0
0
LINE
8
0
6
CONTINUOUS
10
-0.011227
20
0.129915
30
0.0
11
-0.010127
21
0.132615
31
0.0
0
LINE
8
0
6
CONTINUOUS
10
-0.010527
20
0.132915
30
0.0
11
-0.011727
21
0.130015
31
0.0
0
LINE
8
0
6
CONTINUOUS
10
-0.010127
20
0.132615
30
0.0
11
-0.008227
21
0.135015
31
0.0
0
LINE
8
0
6
CONTINUOUS
10
-0.008627
20
0.135415
30
0.0
11
-0.010527
21
0.132915
31
0.0
0
LINE
8
0
6
CONTINUOUS
10
-0.003127
20
0.138015
30
0.0
11
-0.000127
21
0.138415
31
0.0
0
LINE
8
0
6
CONTINUOUS
10
-0.000127
20
0.138915
30
0.0
11
-0.003227
21
0.138515
31
0.0
0
LINE
8
0
6
CONTINUOUS
10
-0.005827
20
0.136915
30
0.0
11
-0.003127
21
0.138015
31
0.0
0
LINE
8
0
6
CONTINUOUS
10
-0.003227
20
0.138515
30
0.0
11
-0.006127
21
0.137315
31
0.0
0
LINE
8
0
6
CONTINUOUS
10
-0.008227
20
0.135015
30
0.0
11
-0.005827
21
0.136915
31
0.0
0
LINE
8
0
6
CONTINUOUS
10
-0.006127
20
0.137315
30
0.0
11
-0.008627
21
0.135415
31
0.0
0
LINE
8
0
6
CONTINUOUS
10
-0.000127
20
0.138415
30
0.0
11
0.002873
21
0.138015
31
0.0
0
LINE
8
0
6
CONTINUOUS
10
0.002973
20
0.138515
30
0.0
11
-0.000127
21
0.138915
31
0.0
0
LINE
8
0
6
CONTINUOUS
10
0.002873
20
0.138015
30
0.0
11
0.005573
21
0.136915
31
0.0
0
LINE
8
0
6
CONTINUOUS
10
0.005873
20
0.137315
30
0.0
11
0.002973
21
0.138515
31
0.0
0
LINE
8
0
6
CONTINUOUS
10
0.005573
20
0.136915
30
0.0
11
0.007973
21
0.135015
31
0.0
0
LINE
8
0
6
CONTINUOUS
10
0.008373
20
0.135415
30
0.0
11
0.005873
21
0.137315
31
0.0
0
LINE
8
0
6
CONTINUOUS
10
0.010973
20
0.129915
30
0.0
11
0.011373
21
0.126915
31
0.0
0
LINE
8
0
6
CONTINUOUS
10
0.011873
20
0.126915
30
0.0
11
0.011473
21
0.130015
31
0.0
0
LINE
8
0
6
CONTINUOUS
10
0.009873
20
0.132615
30
0.0
11
0.010973
21
0.129915
31
0.0
0
LINE
8
0
6
CONTINUOUS
10
0.011473
20
0.130015
30
0.0
11
0.010273
21
0.132915
31
0.0
0
LINE
8
0
6
CONTINUOUS
10
0.007973
20
0.135015
30
0.0
11
0.009873
21
0.132615
31
0.0
0
LINE
8
0
6
CONTINUOUS
10
0.010273
20
0.132915
30
0.0
11
0.008373
21
0.135415
31
0.0
0
LINE
8
0
6
CONTINUOUS
10
0.011373
20
0.126915
30
0.0
11
0.010973
21
0.123915
31
0.0
0
LINE
8
0
6
CONTINUOUS
10
0.011473
20
0.123815
30
0.0
11
0.011873
21
0.126915
31
0.0
0
LINE
8
0
6
CONTINUOUS
10
0.010973
20
0.123915
30
0.0
11
0.009873
21
0.121215
31
0.0
0
LINE
8
0
6
CONTINUOUS
10
0.010273
20
0.120915
30
0.0
11
0.011473
21
0.123815
31
0.0
0
LINE
8
0
6
CONTINUOUS
10
0.009873
20
0.121215
30
0.0
11
0.007973
21
0.118815
31
0.0
0
LINE
8
0
6
CONTINUOUS
10
0.008373
20
0.118415
30
0.0
11
0.010273
21
0.120915
31
0.0
0
LINE
8
0
6
CONTINUOUS
10
0.002873
20
0.115815
30
0.0
11
-0.000127
21
0.115415
31
0.0
0
LINE
8
0
6
CONTINUOUS
10
-0.000127
20
0.114915
30
0.0
11
0.002973
21
0.115315
31
0.0
0
LINE
8
0
6
CONTINUOUS
10
0.005573
20
0.116915
30
0.0
11
0.002873
21
0.115815
31
0.0
0
LINE
8
0
6
CONTINUOUS
10
0.002973
20
0.115315
30
0.0
11
0.005873
21
0.116515
31
0.0
0
LINE
8
0
6
CONTINUOUS
10
0.007973
20
0.118815
30
0.0
11
0.005599
21
0.116936
31
0.0
0
LINE
8
0
6
CONTINUOUS
10
0.005873
20
0.116515
30
0.0
11
0.008373
21
0.118415
31
0.0
0
LINE
8
0
6
CONTINUOUS
10
-0.000127
20
0.115415
30
0.0
11
-0.003127
21
0.115815
31
0.0
0
LINE
8
0
6
CONTINUOUS
10
-0.003227
20
0.115315
30
0.0
11
-0.000127
21
0.114915
31
0.0
0
LINE
8
0
6
CONTINUOUS
10
-0.003127
20
0.115815
30
0.0
11
-0.005827
21
0.116915
31
0.0
0
LINE
8
0
6
CONTINUOUS
10
-0.006127
20
0.116515
30
0.0
11
-0.003227
21
0.115315
31
0.0
0
LINE
8
0
6
CONTINUOUS
10
-0.005827
20
0.116915
30
0.0
11
-0.008227
21
0.118815
31
0.0
0
LINE
8
0
6
CONTINUOUS
10
-0.008627
20
0.118415
30
0.0
11
-0.006127
21
0.116515
31
0.0
0
LINE
8
0
6
CONTINUOUS
10
-0.011227
20
0.123915
30
0.0
11
-0.011627
21
0.126915
31
0.0
0
LINE
8
0
6
CONTINUOUS
10
-0.012127
20
0.126915
30
0.0
11
-0.011727
21
0.123815
31
0.0
0
LINE
8
0
6
CONTINUOUS
10
-0.010127
20
0.121215
30
0.0
11
-0.011227
21
0.123915
31
0.0
0
LINE
8
0
6
CONTINUOUS
10
-0.011727
20
0.123815
30
0.0
11
-0.010527
21
0.120915
31
0.0
0
LINE
8
0
6
CONTINUOUS
10
-0.008227
20
0.118815
30
0.0
11
-0.010127
21
0.121215
31
0.0
0
LINE
8
0
6
CONTINUOUS
10
-0.010527
20
0.120915
30
0.0
11
-0.008627
21
0.118415
31
0.0
0
LINE
8
0
6
CONTINUOUS
10
-0.001036
20
0.128989
30
0.0
11
-0.001144
21
0.129176
31
0.0
0
LINE
8
0
6
CONTINUOUS
10
-0.001144
20
0.129176
30
0.0
11
-0.005381
21
0.136515
31
0.0
0
LINE
8
0
6
CONTINUOUS
10
-0.001468
20
0.128739
30
0.0
11
-0.001036
21
0.128989
31
0.0
0
LINE
8
0
6
CONTINUOUS
10
-0.005819
20
0.136273
30
0.0
11
-0.001586
21
0.128943
31
0.0
0
LINE
8
0
6
CONTINUOUS
10
-0.001586
20
0.128943
30
0.0
11
-0.001468
21
0.128739
31
0.0
0
LINE
8
0
6
CONTINUOUS
10
-0.001951
20
0.128256
30
0.0
11
-0.009485
21
0.132607
31
0.0
0
LINE
8
0
6
CONTINUOUS
10
-0.002201
20
0.127824
30
0.0
11
-0.001951
21
0.128256
31
0.0
0
LINE
8
0
6
CONTINUOUS
10
-0.009727
20
0.132168
30
0.0
11
-0.002201
21
0.127824
31
0.0
0
LINE
8
0
6
CONTINUOUS
10
0.000123
20
0.129165
30
0.0
11
0.000123
21
0.137879
31
0.0
0
LINE
8
0
6
CONTINUOUS
10
-0.000377
20
0.129165
30
0.0
11
0.000123
21
0.129165
31
0.0
0
LINE
8
0
6
CONTINUOUS
10
-0.000377
20
0.137879
30
0.0
11
-0.000377
21
0.129165
31
0.0
0
LINE
8
0
6
CONTINUOUS
10
0.001947
20
0.127824
30
0.0
11
0.009473
21
0.132168
31
0.0
0
LINE
8
0
6
CONTINUOUS
10
0.009473
20
0.132168
30
0.0
11
0.007343
21
0.130939
31
0.0
0
LINE
8
0
6
CONTINUOUS
10
0.006876
20
0.130669
30
0.0
11
0.004741
21
0.129437
31
0.0
0
LINE
8
0
6
CONTINUOUS
10
0.004276
20
0.129168
30
0.0
11
0.001947
21
0.127824
31
0.0
0
LINE
8
0
6
CONTINUOUS
10
0.002123
20
0.126665
30
0.0
11
0.010837
21
0.126665
31
0.0
0
LINE
8
0
6
CONTINUOUS
10
0.002123
20
0.127165
30
0.0
11
0.002123
21
0.126665
31
0.0
0
LINE
8
0
6
CONTINUOUS
10
0.010837
20
0.127165
30
0.0
11
0.002123
21
0.127165
31
0.0
0
LINE
8
0
6
CONTINUOUS
10
0.000782
20
0.124841
30
0.0
11
0.005127
21
0.117315
31
0.0
0
LINE
8
0
6
CONTINUOUS
10
0.001214
20
0.125091
30
0.0
11
0.000782
21
0.124841
31
0.0
0
LINE
8
0
6
CONTINUOUS
10
0.005564
20
0.117556
30
0.0
11
0.001214
21
0.125091
31
0.0
0
LINE
8
0
6
CONTINUOUS
10
0.001697
20
0.125574
30
0.0
11
0.009232
21
0.121224
31
0.0
0
LINE
8
0
6
CONTINUOUS
10
0.001947
20
0.126006
30
0.0
11
0.001697
21
0.125574
31
0.0
0
LINE
8
0
6
CONTINUOUS
10
0.009473
20
0.121661
30
0.0
11
0.001947
21
0.126006
31
0.0
0
LINE
8
0
6
CONTINUOUS
10
-0.011127
20
0.126915
30
0.0
11
-0.010727
21
0.129715
31
0.0
0
LINE
8
0
6
CONTINUOUS
10
-0.011227
20
0.129915
30
0.0
11
-0.011627
21
0.126915
31
0.0
0
LINE
8
0
6
CONTINUOUS
10
-0.010727
20
0.129715
30
0.0
11
-0.009627
21
0.132415
31
0.0
0
LINE
8
0
6
CONTINUOUS
10
-0.010127
20
0.132615
30
0.0
11
-0.011227
21
0.129915
31
0.0
0
LINE
8
0
6
CONTINUOUS
10
-0.009627
20
0.132415
30
0.0
11
-0.007949
21
0.134685
31
0.0
0
LINE
8
0
6
CONTINUOUS
10
-0.008227
20
0.135015
30
0.0
11
-0.010127
21
0.132615
31
0.0
0
LINE
8
0
6
CONTINUOUS
10
-0.008127
20
0.126915
30
0.0
11
-0.007827
21
0.129015
31
0.0
0
LINE
8
0
6
CONTINUOUS
10
-0.008327
20
0.129115
30
0.0
11
-0.008627
21
0.126915
31
0.0
0
LINE
8
0
6
CONTINUOUS
10
-0.007827
20
0.129015
30
0.0
11
-0.007027
21
0.130915
31
0.0
0
LINE
8
0
6
CONTINUOUS
10
-0.007527
20
0.131115
30
0.0
11
-0.008327
21
0.129115
31
0.0
0
LINE
8
0
6
CONTINUOUS
10
-0.007027
20
0.130915
30
0.0
11
-0.005727
21
0.132515
31
0.0
0
LINE
8
0
6
CONTINUOUS
10
-0.006127
20
0.132915
30
0.0
11
-0.007527
21
0.131115
31
0.0
0
LINE
8
0
6
CONTINUOUS
10
-0.005127
20
0.126915
30
0.0
11
-0.004927
21
0.128215
31
0.0
0
LINE
8
0
6
CONTINUOUS
10
-0.005427
20
0.128315
30
0.0
11
-0.005627
21
0.126915
31
0.0
0
LINE
8
0
6
CONTINUOUS
10
-0.004927
20
0.128215
30
0.0
11
-0.004427
21
0.129415
31
0.0
0
LINE
8
0
6
CONTINUOUS
10
-0.004927
20
0.129615
30
0.0
11
-0.005427
21
0.128315
31
0.0
0
LINE
8
0
6
CONTINUOUS
10
-0.004427
20
0.129415
30
0.0
11
-0.003627
21
0.130415
31
0.0
0
LINE
8
0
6
CONTINUOUS
10
-0.004027
20
0.130815
30
0.0
11
-0.004927
21
0.129615
31
0.0
0
LINE
8
0
6
CONTINUOUS
10
-0.002127
20
0.126915
30
0.0
11
-0.002027
21
0.127415
31
0.0
0
LINE
8
0
6
CONTINUOUS
10
-0.002527
20
0.127515
30
0.0
11
-0.002627
21
0.126915
31
0.0
0
LINE
8
0
6
CONTINUOUS
10
-0.002027
20
0.127415
30
0.0
11
-0.001827
21
0.127915
31
0.0
0
LINE
8
0
6
CONTINUOUS
10
-0.002327
20
0.128115
30
0.0
11
-0.002527
21
0.127515
31
0.0
0
LINE
8
0
6
CONTINUOUS
10
-0.001827
20
0.127915
30
0.0
11
-0.001527
21
0.128315
31
0.0
0
LINE
8
0
6
CONTINUOUS
10
-0.001927
20
0.128715
30
0.0
11
-0.002327
21
0.128115
31
0.0
0
LINE
8
0
6
CONTINUOUS
10
-0.002927
20
0.137515
30
0.0
11
-0.000127
21
0.137915
31
0.0
0
LINE
8
0
6
CONTINUOUS
10
-0.000127
20
0.138415
30
0.0
11
-0.003127
21
0.138015
31
0.0
0
LINE
8
0
6
CONTINUOUS
10
-0.005627
20
0.136415
30
0.0
11
-0.002927
21
0.137515
31
0.0
0
LINE
8
0
6
CONTINUOUS
10
-0.003127
20
0.138015
30
0.0
11
-0.005827
21
0.136915
31
0.0
0
LINE
8
0
6
CONTINUOUS
10
-0.007927
20
0.134715
30
0.0
11
-0.005627
21
0.136415
31
0.0
0
LINE
8
0
6
CONTINUOUS
10
-0.005827
20
0.136915
30
0.0
11
-0.008227
21
0.135015
31
0.0
0
LINE
8
0
6
CONTINUOUS
10
-0.002227
20
0.134615
30
0.0
11
-0.000127
21
0.134915
31
0.0
0
LINE
8
0
6
CONTINUOUS
10
-0.000127
20
0.135415
30
0.0
11
-0.002327
21
0.135115
31
0.0
0
LINE
8
0
6
CONTINUOUS
10
-0.004127
20
0.133815
30
0.0
11
-0.002227
21
0.134615
31
0.0
0
LINE
8
0
6
CONTINUOUS
10
-0.002327
20
0.135115
30
0.0
11
-0.004327
21
0.134315
31
0.0
0
LINE
8
0
6
CONTINUOUS
10
-0.005727
20
0.132515
30
0.0
11
-0.004127
21
0.133815
31
0.0
0
LINE
8
0
6
CONTINUOUS
10
-0.004327
20
0.134315
30
0.0
11
-0.006127
21
0.132915
31
0.0
0
LINE
8
0
6
CONTINUOUS
10
-0.001427
20
0.131715
30
0.0
11
-0.000127
21
0.131915
31
0.0
0
LINE
8
0
6
CONTINUOUS
10
-0.000127
20
0.132415
30
0.0
11
-0.001527
21
0.132215
31
0.0
0
LINE
8
0
6
CONTINUOUS
10
-0.002627
20
0.131215
30
0.0
11
-0.001427
21
0.131715
31
0.0
0
LINE
8
0
6
CONTINUOUS
10
-0.001527
20
0.132215
30
0.0
11
-0.002827
21
0.131715
31
0.0
0
LINE
8
0
6
CONTINUOUS
10
-0.003627
20
0.130415
30
0.0
11
-0.002627
21
0.131215
31
0.0
0
LINE
8
0
6
CONTINUOUS
10
-0.002827
20
0.131715
30
0.0
11
-0.004027
21
0.130815
31
0.0
0
LINE
8
0
6
CONTINUOUS
10
-0.001327
20
0.129115
30
0.0
11
-0.000727
21
0.129315
31
0.0
0
LINE
8
0
6
CONTINUOUS
10
-0.001927
20
0.128715
30
0.0
11
-0.001327
21
0.129115
31
0.0
0
LINE
8
0
6
CONTINUOUS
10
-0.000627
20
0.128815
30
0.0
11
-0.000127
21
0.128915
31
0.0
0
LINE
8
0
6
CONTINUOUS
10
-0.000127
20
0.129415
30
0.0
11
-0.000727
21
0.129315
31
0.0
0
LINE
8
0
6
CONTINUOUS
10
-0.001127
20
0.128615
30
0.0
11
-0.000627
21
0.128815
31
0.0
0
LINE
8
0
6
CONTINUOUS
10
-0.000727
20
0.129315
30
0.0
11
-0.001327
21
0.129115
31
0.0
0
LINE
8
0
6
CONTINUOUS
10
-0.001527
20
0.128315
30
0.0
11
-0.001127
21
0.128615
31
0.0
0
LINE
8
0
6
CONTINUOUS
10
-0.001327
20
0.129115
30
0.0
11
-0.001927
21
0.128715
31
0.0
0
LINE
8
0
6
CONTINUOUS
10
-0.000127
20
0.137915
30
0.0
11
0.002673
21
0.137515
31
0.0
0
LINE
8
0
6
CONTINUOUS
10
0.002873
20
0.138015
30
0.0
11
-0.000127
21
0.138415
31
0.0
0
LINE
8
0
6
CONTINUOUS
10
0.002673
20
0.137515
30
0.0
11
0.005373
21
0.136415
31
0.0
0
LINE
8
0
6
CONTINUOUS
10
0.005573
20
0.136915
30
0.0
11
0.002873
21
0.138015
31
0.0
0
LINE
8
0
6
CONTINUOUS
10
0.005373
20
0.136415
30
0.0
11
0.007673
21
0.134715
31
0.0
0
LINE
8
0
6
CONTINUOUS
10
0.007973
20
0.135015
30
0.0
11
0.005573
21
0.136915
31
0.0
0
LINE
8
0
6
CONTINUOUS
10
-0.000127
20
0.134915
30
0.0
11
0.001973
21
0.134615
31
0.0
0
LINE
8
0
6
CONTINUOUS
10
0.002073
20
0.135115
30
0.0
11
-0.000127
21
0.135415
31
0.0
0
LINE
8
0
6
CONTINUOUS
10
0.001973
20
0.134615
30
0.0
11
0.003873
21
0.133815
31
0.0
0
LINE
8
0
6
CONTINUOUS
10
0.004073
20
0.134315
30
0.0
11
0.002073
21
0.135115
31
0.0
0
LINE
8
0
6
CONTINUOUS
10
0.003873
20
0.133815
30
0.0
11
0.005473
21
0.132515
31
0.0
0
LINE
8
0
6
CONTINUOUS
10
0.005873
20
0.132915
30
0.0
11
0.004073
21
0.134315
31
0.0
0
LINE
8
0
6
CONTINUOUS
10
-0.000127
20
0.131915
30
0.0
11
0.001173
21
0.131715
31
0.0
0
LINE
8
0
6
CONTINUOUS
10
0.001273
20
0.132215
30
0.0
11
-0.000127
21
0.132415
31
0.0
0
LINE
8
0
6
CONTINUOUS
10
0.001173
20
0.131715
30
0.0
11
0.002373
21
0.131215
31
0.0
0
LINE
8
0
6
CONTINUOUS
10
0.002573
20
0.131715
30
0.0
11
0.001273
21
0.132215
31
0.0
0
LINE
8
0
6
CONTINUOUS
10
0.002373
20
0.131215
30
0.0
11
0.003373
21
0.130415
31
0.0
0
LINE
8
0
6
CONTINUOUS
10
0.003773
20
0.130815
30
0.0
11
0.002573
21
0.131715
31
0.0
0
LINE
8
0
6
CONTINUOUS
10
-0.000127
20
0.128915
30
0.0
11
0.000373
21
0.128815
31
0.0
0
LINE
8
0
6
CONTINUOUS
10
0.000473
20
0.129315
30
0.0
11
-0.000127
21
0.129415
31
0.0
0
LINE
8
0
6
CONTINUOUS
10
0.000373
20
0.128815
30
0.0
11
0.000873
21
0.128615
31
0.0
0
LINE
8
0
6
CONTINUOUS
10
0.001073
20
0.129115
30
0.0
11
0.000473
21
0.129315
31
0.0
0
LINE
8
0
6
CONTINUOUS
10
0.000873
20
0.128615
30
0.0
11
0.001273
21
0.128315
31
0.0
0
LINE
8
0
6
CONTINUOUS
10
0.001673
20
0.128715
30
0.0
11
0.001073
21
0.129115
31
0.0
0
LINE
8
0
6
CONTINUOUS
10
0.010473
20
0.129715
30
0.0
11
0.010873
21
0.126915
31
0.0
0
LINE
8
0
6
CONTINUOUS
10
0.011373
20
0.126915
30
0.0
11
0.010973
21
0.129915
31
0.0
0
LINE
8
0
6
CONTINUOUS
10
0.009373
20
0.132415
30
0.0
11
0.010473
21
0.129715
31
0.0
0
LINE
8
0
6
CONTINUOUS
10
0.010973
20
0.129915
30
0.0
11
0.009873
21
0.132615
31
0.0
0
LINE
8
0
6
CONTINUOUS
10
0.007673
20
0.134715
30
0.0
11
0.009373
21
0.132415
31
0.0
0
LINE
8
0
6
CONTINUOUS
10
0.009873
20
0.132615
30
0.0
11
0.007973
21
0.135015
31
0.0
0
LINE
8
0
6
CONTINUOUS
10
0.007573
20
0.129015
30
0.0
11
0.007873
21
0.126915
31
0.0
0
LINE
8
0
6
CONTINUOUS
10
0.008373
20
0.126915
30
0.0
11
0.008073
21
0.129115
31
0.0
0
LINE
8
0
6
CONTINUOUS
10
0.006773
20
0.130915
30
0.0
11
0.007573
21
0.129015
31
0.0
0
LINE
8
0
6
CONTINUOUS
10
0.008073
20
0.129115
30
0.0
11
0.007343
21
0.130939
31
0.0
0
LINE
8
0
6
CONTINUOUS
10
0.007343
20
0.130939
30
0.0
11
0.007273
21
0.131115
31
0.0
0
LINE
8
0
6
CONTINUOUS
10
0.005473
20
0.132515
30
0.0
11
0.006773
21
0.130915
31
0.0
0
LINE
8
0
6
CONTINUOUS
10
0.007273
20
0.131115
30
0.0
11
0.005873
21
0.132915
31
0.0
0
LINE
8
0
6
CONTINUOUS
10
0.004673
20
0.128215
30
0.0
11
0.004873
21
0.126915
31
0.0
0
LINE
8
0
6
CONTINUOUS
10
0.005373
20
0.126915
30
0.0
11
0.005173
21
0.128315
31
0.0
0
LINE
8
0
6
CONTINUOUS
10
0.004173
20
0.129415
30
0.0
11
0.004673
21
0.128215
31
0.0
0
LINE
8
0
6
CONTINUOUS
10
0.005173
20
0.128315
30
0.0
11
0.004741
21
0.129437
31
0.0
0
LINE
8
0
6
CONTINUOUS
10
0.004741
20
0.129437
30
0.0
11
0.004673
21
0.129615
31
0.0
0
LINE
8
0
6
CONTINUOUS
10
0.003373
20
0.130415
30
0.0
11
0.004173
21
0.129415
31
0.0
0
LINE
8
0
6
CONTINUOUS
10
0.004673
20
0.129615
30
0.0
11
0.003773
21
0.130815
31
0.0
0
LINE
8
0
6
CONTINUOUS
10
0.001773
20
0.127415
30
0.0
11
0.001873
21
0.126915
31
0.0
0
LINE
8
0
6
CONTINUOUS
10
0.002373
20
0.126915
30
0.0
11
0.002273
21
0.127515
31
0.0
0
LINE
8
0
6
CONTINUOUS
10
0.001573
20
0.127915
30
0.0
11
0.001773
21
0.127415
31
0.0
0
LINE
8
0
6
CONTINUOUS
10
0.002273
20
0.127515
30
0.0
11
0.002134
21
0.127932
31
0.0
0
LINE
8
0
6
CONTINUOUS
10
0.002134
20
0.127932
30
0.0
11
0.002073
21
0.128115
31
0.0
0
LINE
8
0
6
CONTINUOUS
10
0.001273
20
0.128315
30
0.0
11
0.001573
21
0.127915
31
0.0
0
LINE
8
0
6
CONTINUOUS
10
0.002073
20
0.128115
30
0.0
11
0.001673
21
0.128715
31
0.0
0
LINE
8
0
6
CONTINUOUS
10
0.002673
20
0.116315
30
0.0
11
-0.000127
21
0.115915
31
0.0
0
LINE
8
0
6
CONTINUOUS
10
-0.000127
20
0.115415
30
0.0
11
0.002873
21
0.115815
31
0.0
0
LINE
8
0
6
CONTINUOUS
10
0.005373
20
0.117415
30
0.0
11
0.002673
21
0.116315
31
0.0
0
LINE
8
0
6
CONTINUOUS
10
0.002873
20
0.115815
30
0.0
11
0.005573
21
0.116915
31
0.0
0
LINE
8
0
6
CONTINUOUS
10
0.007673
20
0.119115
30
0.0
11
0.005373
21
0.117415
31
0.0
0
LINE
8
0
6
CONTINUOUS
10
0.005573
20
0.116915
30
0.0
11
0.007973
21
0.118815
31
0.0
0
LINE
8
0
6
CONTINUOUS
10
0.001973
20
0.119215
30
0.0
11
-0.000127
21
0.118915
31
0.0
0
LINE
8
0
6
CONTINUOUS
10
-0.000127
20
0.118415
30
0.0
11
0.002073
21
0.118715
31
0.0
0
LINE
8
0
6
CONTINUOUS
10
0.003873
20
0.120015
30
0.0
11
0.001973
21
0.119215
31
0.0
0
LINE
8
0
6
CONTINUOUS
10
0.002073
20
0.118715
30
0.0
11
0.004073
21
0.119515
31
0.0
0
LINE
8
0
6
CONTINUOUS
10
0.005473
20
0.121315
30
0.0
11
0.003873
21
0.120015
31
0.0
0
LINE
8
0
6
CONTINUOUS
10
0.004073
20
0.119515
30
0.0
11
0.005873
21
0.120915
31
0.0
0
LINE
8
0
6
CONTINUOUS
10
0.001173
20
0.122115
30
0.0
11
-0.000127
21
0.121915
31
0.0
0
LINE
8
0
6
CONTINUOUS
10
-0.000127
20
0.121415
30
0.0
11
0.001273
21
0.121615
31
0.0
0
LINE
8
0
6
CONTINUOUS
10
0.002373
20
0.122615
30
0.0
11
0.001173
21
0.122115
31
0.0
0
LINE
8
0
6
CONTINUOUS
10
0.001273
20
0.121615
30
0.0
11
0.002573
21
0.122115
31
0.0
0
LINE
8
0
6
CONTINUOUS
10
0.003373
20
0.123415
30
0.0
11
0.002373
21
0.122615
31
0.0
0
LINE
8
0
6
CONTINUOUS
10
0.002573
20
0.122115
30
0.0
11
0.003773
21
0.123015
31
0.0
0
LINE
8
0
6
CONTINUOUS
10
0.000373
20
0.125015
30
0.0
11
-0.000127
21
0.124915
31
0.0
0
LINE
8
0
6
CONTINUOUS
10
-0.000127
20
0.124415
30
0.0
11
0.000473
21
0.124515
31
0.0
0
LINE
8
0
6
CONTINUOUS
10
0.000873
20
0.125215
30
0.0
11
0.000373
21
0.125015
31
0.0
0
LINE
8
0
6
CONTINUOUS
10
0.000473
20
0.124515
30
0.0
11
0.001073
21
0.124715
31
0.0
0
LINE
8
0
6
CONTINUOUS
10
0.001273
20
0.125515
30
0.0
11
0.000873
21
0.125215
31
0.0
0
LINE
8
0
6
CONTINUOUS
10
0.001073
20
0.124715
30
0.0
11
0.001673
21
0.125115
31
0.0
0
LINE
8
0
6
CONTINUOUS
10
0.010873
20
0.126915
30
0.0
11
0.010473
21
0.124115
31
0.0
0
LINE
8
0
6
CONTINUOUS
10
0.010973
20
0.123915
30
0.0
11
0.011373
21
0.126915
31
0.0
0
LINE
8
0
6
CONTINUOUS
10
0.010473
20
0.124115
30
0.0
11
0.009373
21
0.121415
31
0.0
0
LINE
8
0
6
CONTINUOUS
10
0.009873
20
0.121215
30
0.0
11
0.010973
21
0.123915
31
0.0
0
LINE
8
0
6
CONTINUOUS
10
0.009373
20
0.121415
30
0.0
11
0.007673
21
0.119115
31
0.0
0
LINE
8
0
6
CONTINUOUS
10
0.007973
20
0.118815
30
0.0
11
0.009873
21
0.121215
31
0.0
0
LINE
8
0
6
CONTINUOUS
10
0.007873
20
0.126915
30
0.0
11
0.007573
21
0.124815
31
0.0
0
LINE
8
0
6
CONTINUOUS
10
0.008073
20
0.124715
30
0.0
11
0.008373
21
0.126915
31
0.0
0
LINE
8
0
6
CONTINUOUS
10
0.007573
20
0.124815
30
0.0
11
0.006773
21
0.122915
31
0.0
0
LINE
8
0
6
CONTINUOUS
10
0.007273
20
0.122715
30
0.0
11
0.008073
21
0.124715
31
0.0
0
LINE
8
0
6
CONTINUOUS
10
0.006773
20
0.122915
30
0.0
11
0.005473
21
0.121315
31
0.0
0
LINE
8
0
6
CONTINUOUS
10
0.005873
20
0.120915
30
0.0
11
0.007273
21
0.122715
31
0.0
0
LINE
8
0
6
CONTINUOUS
10
0.004873
20
0.126915
30
0.0
11
0.004673
21
0.125615
31
0.0
0
LINE
8
0
6
CONTINUOUS
10
0.005173
20
0.125515
30
0.0
11
0.005373
21
0.126915
31
0.0
0
LINE
8
0
6
CONTINUOUS
10
0.004673
20
0.125615
30
0.0
11
0.004173
21
0.124415
31
0.0
0
LINE
8
0
6
CONTINUOUS
10
0.004673
20
0.124215
30
0.0
11
0.005173
21
0.125515
31
0.0
0
LINE
8
0
6
CONTINUOUS
10
0.004173
20
0.124415
30
0.0
11
0.003373
21
0.123415
31
0.0
0
LINE
8
0
6
CONTINUOUS
10
0.003773
20
0.123015
30
0.0
11
0.004673
21
0.124215
31
0.0
0
LINE
8
0
6
CONTINUOUS
10
0.001873
20
0.126915
30
0.0
11
0.001773
21
0.126415
31
0.0
0
LINE
8
0
6
CONTINUOUS
10
0.002273
20
0.126315
30
0.0
11
0.002373
21
0.126915
31
0.0
0
LINE
8
0
6
CONTINUOUS
10
0.001773
20
0.126415
30
0.0
11
0.001573
21
0.125915
31
0.0
0
LINE
8
0
6
CONTINUOUS
10
0.002073
20
0.125715
30
0.0
11
0.002273
21
0.126315
31
0.0
0
LINE
8
0
6
CONTINUOUS
10
0.001573
20
0.125915
30
0.0
11
0.001273
21
0.125515
31
0.0
0
LINE
8
0
6
CONTINUOUS
10
0.001673
20
0.125115
30
0.0
11
0.002073
21
0.125715
31
0.0
0
LINE
8
0
6
CONTINUOUS
10
-0.000127
20
0.115915
30
0.0
11
-0.002927
21
0.116315
31
0.0
0
LINE
8
0
6
CONTINUOUS
10
-0.003127
20
0.115815
30
0.0
11
-0.000127
21
0.115415
31
0.0
0
LINE
8
0
6
CONTINUOUS
10
-0.002927
20
0.116315
30
0.0
11
-0.005627
21
0.117415
31
0.0
0
LINE
8
0
6
CONTINUOUS
10
-0.005827
20
0.116915
30
0.0
11
-0.003127
21
0.115815
31
0.0
0
LINE
8
0
6
CONTINUOUS
10
-0.005627
20
0.117415
30
0.0
11
-0.007927
21
0.119115
31
0.0
0
LINE
8
0
6
CONTINUOUS
10
-0.008227
20
0.118815
30
0.0
11
-0.005827
21
0.116915
31
0.0
0
LINE
8
0
6
CONTINUOUS
10
-0.000127
20
0.118915
30
0.0
11
-0.002227
21
0.119215
31
0.0
0
LINE
8
0
6
CONTINUOUS
10
-0.002327
20
0.118715
30
0.0
11
-0.000127
21
0.118415
31
0.0
0
LINE
8
0
6
CONTINUOUS
10
-0.002227
20
0.119215
30
0.0
11
-0.004127
21
0.120015
31
0.0
0
LINE
8
0
6
CONTINUOUS
10
-0.004327
20
0.119515
30
0.0
11
-0.002327
21
0.118715
31
0.0
0
LINE
8
0
6
CONTINUOUS
10
-0.004127
20
0.120015
30
0.0
11
-0.005727
21
0.121315
31
0.0
0
LINE
8
0
6
CONTINUOUS
10
-0.006127
20
0.120915
30
0.0
11
-0.004327
21
0.119515
31
0.0
0
LINE
8
0
6
CONTINUOUS
10
-0.000127
20
0.121915
30
0.0
11
-0.001427
21
0.122115
31
0.0
0
LINE
8
0
6
CONTINUOUS
10
-0.001527
20
0.121615
30
0.0
11
-0.000127
21
0.121415
31
0.0
0
LINE
8
0
6
CONTINUOUS
10
-0.001427
20
0.122115
30
0.0
11
-0.002627
21
0.122615
31
0.0
0
LINE
8
0
6
CONTINUOUS
10
-0.002827
20
0.122115
30
0.0
11
-0.001527
21
0.121615
31
0.0
0
LINE
8
0
6
CONTINUOUS
10
-0.002627
20
0.122615
30
0.0
11
-0.003627
21
0.123415
31
0.0
0
LINE
8
0
6
CONTINUOUS
10
-0.004027
20
0.123015
30
0.0
11
-0.002827
21
0.122115
31
0.0
0
LINE
8
0
6
CONTINUOUS
10
-0.000127
20
0.124915
30
0.0
11
-0.000627
21
0.125015
31
0.0
0
LINE
8
0
6
CONTINUOUS
10
-0.000727
20
0.124515
30
0.0
11
-0.000127
21
0.124415
31
0.0
0
LINE
8
0
6
CONTINUOUS
10
-0.000627
20
0.125015
30
0.0
11
-0.001127
21
0.125215
31
0.0
0
LINE
8
0
6
CONTINUOUS
10
-0.001327
20
0.124715
30
0.0
11
-0.000727
21
0.124515
31
0.0
0
LINE
8
0
6
CONTINUOUS
10
-0.001127
20
0.125215
30
0.0
11
-0.001527
21
0.125515
31
0.0
0
LINE
8
0
6
CONTINUOUS
10
-0.001927
20
0.125115
30
0.0
11
-0.001327
21
0.124715
31
0.0
0
LINE
8
0
6
CONTINUOUS
10
-0.010727
20
0.124115
30
0.0
11
-0.011127
21
0.126915
31
0.0
0
LINE
8
0
6
CONTINUOUS
10
-0.011627
20
0.126915
30
0.0
11
-0.011227
21
0.123915
31
0.0
0
LINE
8
0
6
CONTINUOUS
10
-0.009627
20
0.121415
30
0.0
11
-0.010727
21
0.124115
31
0.0
0
LINE
8
0
6
CONTINUOUS
10
-0.011227
20
0.123915
30
0.0
11
-0.010127
21
0.121215
31
0.0
0
LINE
8
0
6
CONTINUOUS
10
-0.007927
20
0.119115
30
0.0
11
-0.009627
21
0.121415
31
0.0
0
LINE
8
0
6
CONTINUOUS
10
-0.010127
20
0.121215
30
0.0
11
-0.008227
21
0.118815
31
0.0
0
LINE
8
0
6
CONTINUOUS
10
-0.007827
20
0.124815
30
0.0
11
-0.008127
21
0.126915
31
0.0
0
LINE
8
0
6
CONTINUOUS
10
-0.008627
20
0.126915
30
0.0
11
-0.008327
21
0.124715
31
0.0
0
LINE
8
0
6
CONTINUOUS
10
-0.007027
20
0.122915
30
0.0
11
-0.007827
21
0.124815
31
0.0
0
LINE
8
0
6
CONTINUOUS
10
-0.008327
20
0.124715
30
0.0
11
-0.007527
21
0.122715
31
0.0
0
LINE
8
0
6
CONTINUOUS
10
-0.005727
20
0.121315
30
0.0
11
-0.007027
21
0.122915
31
0.0
0
LINE
8
0
6
CONTINUOUS
10
-0.007527
20
0.122715
30
0.0
11
-0.006127
21
0.120915
31
0.0
0
LINE
8
0
6
CONTINUOUS
10
-0.004927
20
0.125615
30
0.0
11
-0.005127
21
0.126915
31
0.0
0
LINE
8
0
6
CONTINUOUS
10
-0.005627
20
0.126915
30
0.0
11
-0.005427
21
0.125515
31
0.0
0
LINE
8
0
6
CONTINUOUS
10
-0.004427
20
0.124415
30
0.0
11
-0.004927
21
0.125615
31
0.0
0
LINE
8
0
6
CONTINUOUS
10
-0.005427
20
0.125515
30
0.0
11
-0.004927
21
0.124215
31
0.0
0
LINE
8
0
6
CONTINUOUS
10
-0.003627
20
0.123415
30
0.0
11
-0.004427
21
0.124415
31
0.0
0
LINE
8
0
6
CONTINUOUS
10
-0.004927
20
0.124215
30
0.0
11
-0.004027
21
0.123015
31
0.0
0
LINE
8
0
6
CONTINUOUS
10
-0.002027
20
0.126415
30
0.0
11
-0.002127
21
0.126915
31
0.0
0
LINE
8
0
6
CONTINUOUS
10
-0.002627
20
0.126915
30
0.0
11
-0.002527
21
0.126315
31
0.0
0
LINE
8
0
6
CONTINUOUS
10
-0.001827
20
0.125915
30
0.0
11
-0.002027
21
0.126415
31
0.0
0
LINE
8
0
6
CONTINUOUS
10
-0.002527
20
0.126315
30
0.0
11
-0.002327
21
0.125715
31
0.0
0
LINE
8
0
6
CONTINUOUS
10
-0.001527
20
0.125515
30
0.0
11
-0.001827
21
0.125915
31
0.0
0
LINE
8
0
6
CONTINUOUS
10
-0.002327
20
0.125715
30
0.0
11
-0.001927
21
0.125115
31
0.0
0
LINE
8
0
6
CONTINUOUS
10
0.014513
20
0.124435
30
0.0
11
0.014659
21
0.126790
31
0.0
0
LINE
8
0
6
CONTINUOUS
10
0.002805
20
0.112640
30
0.0
11
0.005936
21
0.113698
31
0.0
0
LINE
8
0
6
CONTINUOUS
10
0.005936
20
0.113698
30
0.0
11
0.007935
21
0.114969
31
0.0
0
LINE
8
0
6
CONTINUOUS
10
0.009810
20
0.116418
30
0.0
11
0.011524
21
0.118054
31
0.0
0
LINE
8
0
6
CONTINUOUS
10
0.013857
20
0.122153
30
0.0
11
0.014513
21
0.124435
31
0.0
0
LINE
8
0
6
CONTINUOUS
10
-0.000127
20
0.112360
30
0.0
11
0.002805
21
0.112640
31
0.0
0
LINE
8
0
6
CONTINUOUS
10
0.012862
20
0.120006
30
0.0
11
0.013857
21
0.122153
31
0.0
0
LINE
8
0
6
CONTINUOUS
10
0.014566
20
0.129151
30
0.0
11
0.013952
21
0.131434
31
0.0
0
LINE
8
0
6
CONTINUOUS
10
0.011524
20
0.118054
30
0.0
11
0.012862
21
0.120006
31
0.0
0
LINE
8
0
6
CONTINUOUS
10
0.013952
20
0.131434
30
0.0
11
0.012999
21
0.133601
31
0.0
0
LINE
8
0
6
CONTINUOUS
10
0.012999
20
0.133601
30
0.0
11
0.011718
21
0.135856
31
0.0
0
LINE
8
0
6
CONTINUOUS
10
0.007935
20
0.114969
30
0.0
11
0.009810
21
0.116418
31
0.0
0
LINE
8
0
6
CONTINUOUS
10
0.008771
20
0.139051
30
0.0
11
0.008434
21
0.139062
31
0.0
0
LINE
8
0
6
CONTINUOUS
10
0.008434
20
0.139062
30
0.0
11
0.008422
21
0.138666
31
0.0
0
LINE
8
0
6
CONTINUOUS
10
0.008504
20
0.136972
30
0.0
11
0.008605
21
0.135653
31
0.0
0
LINE
8
0
6
CONTINUOUS
10
0.011493
20
0.136222
30
0.0
11
0.011413
21
0.137405
31
0.0
0
LINE
8
0
6
CONTINUOUS
10
0.014659
20
0.126790
30
0.0
11
0.014566
21
0.129151
31
0.0
0
LINE
8
0
6
CONTINUOUS
10
0.011413
20
0.137405
30
0.0
11
0.011342
21
0.138556
31
0.0
0
LINE
8
0
6
CONTINUOUS
10
0.011342
20
0.138556
30
0.0
11
0.011316
21
0.138978
31
0.0
0
LINE
8
0
6
CONTINUOUS
10
0.011316
20
0.138978
30
0.0
11
0.011058
21
0.138986
31
0.0
0
LINE
8
0
6
CONTINUOUS
10
0.011718
20
0.135856
30
0.0
11
0.011493
21
0.136222
31
0.0
0
LINE
8
0
6
CONTINUOUS
10
0.011058
20
0.138986
30
0.0
11
0.008771
21
0.139051
31
0.0
0
LINE
8
0
6
CONTINUOUS
10
0.008891
20
0.135034
30
0.0
11
0.009823
21
0.133606
31
0.0
0
LINE
8
0
6
CONTINUOUS
10
0.013830
20
0.132292
30
0.0
11
0.013111
21
0.133873
31
0.0
0
LINE
8
0
6
CONTINUOUS
10
0.014850
20
0.128731
30
0.0
11
0.014481
21
0.130564
31
0.0
0
LINE
8
0
6
CONTINUOUS
10
0.014882
20
0.126862
30
0.0
11
0.014850
21
0.128731
31
0.0
0
LINE
8
0
6
CONTINUOUS
10
0.014875
20
0.124993
30
0.0
11
0.014882
21
0.126862
31
0.0
0
LINE
8
0
6
CONTINUOUS
10
0.014874
20
0.123124
30
0.0
11
0.014875
21
0.124993
31
0.0
0
LINE
8
0
6
CONTINUOUS
10
0.011904
20
0.135824
30
0.0
11
0.011363
21
0.136762
31
0.0
0
LINE
8
0
6
CONTINUOUS
10
0.013111
20
0.133873
30
0.0
11
0.012547
21
0.134859
31
0.0
0
LINE
8
0
6
CONTINUOUS
10
0.012547
20
0.134859
30
0.0
11
0.011904
21
0.135824
31
0.0
0
LINE
8
0
6
CONTINUOUS
10
0.014481
20
0.130564
30
0.0
11
0.013830
21
0.132292
31
0.0
0
LINE
8
0
6
CONTINUOUS
10
0.014871
20
0.090095
30
0.0
11
0.014874
21
0.123124
31
0.0
0
LINE
8
0
6
CONTINUOUS
10
-0.014913
20
0.126790
30
0.0
11
-0.014767
21
0.124435
31
0.0
0
LINE
8
0
6
CONTINUOUS
10
-0.006190
20
0.113698
30
0.0
11
-0.003059
21
0.112640
31
0.0
0
LINE
8
0
6
CONTINUOUS
10
-0.008189
20
0.114969
30
0.0
11
-0.006190
21
0.113698
31
0.0
0
LINE
8
0
6
CONTINUOUS
10
-0.011778
20
0.118054
30
0.0
11
-0.010064
21
0.116418
31
0.0
0
LINE
8
0
6
CONTINUOUS
10
-0.014767
20
0.124435
30
0.0
11
-0.014111
21
0.122153
31
0.0
0
LINE
8
0
6
CONTINUOUS
10
-0.003059
20
0.112640
30
0.0
11
-0.000127
21
0.112360
31
0.0
0
LINE
8
0
6
CONTINUOUS
10
-0.014111
20
0.122153
30
0.0
11
-0.013116
21
0.120006
31
0.0
0
LINE
8
0
6
CONTINUOUS
10
-0.014206
20
0.131434
30
0.0
11
-0.014820
21
0.129151
31
0.0
0
LINE
8
0
6
CONTINUOUS
10
-0.013116
20
0.120006
30
0.0
11
-0.011778
21
0.118054
31
0.0
0
LINE
8
0
6
CONTINUOUS
10
-0.013253
20
0.133601
30
0.0
11
-0.014206
21
0.131434
31
0.0
0
LINE
8
0
6
CONTINUOUS
10
-0.011972
20
0.135856
30
0.0
11
-0.013253
21
0.133601
31
0.0
0
LINE
8
0
6
CONTINUOUS
10
-0.010064
20
0.116418
30
0.0
11
-0.008189
21
0.114969
31
0.0
0
LINE
8
0
6
CONTINUOUS
10
-0.008688
20
0.139062
30
0.0
11
-0.009025
21
0.139051
31
0.0
0
LINE
8
0
6
CONTINUOUS
10
-0.008676
20
0.138666
30
0.0
11
-0.008688
21
0.139062
31
0.0
0
LINE
8
0
6
CONTINUOUS
10
-0.008859
20
0.135653
30
0.0
11
-0.008758
21
0.136972
31
0.0
0
LINE
8
0
6
CONTINUOUS
10
-0.011667
20
0.137405
30
0.0
11
-0.011747
21
0.136222
31
0.0
0
LINE
8
0
6
CONTINUOUS
10
-0.014820
20
0.129151
30
0.0
11
-0.014913
21
0.126790
31
0.0
0
LINE
8
0
6
CONTINUOUS
10
-0.011596
20
0.138556
30
0.0
11
-0.011667
21
0.137405
31
0.0
0
LINE
8
0
6
CONTINUOUS
10
-0.011312
20
0.138986
30
0.0
11
-0.011570
21
0.138978
31
0.0
0
LINE
8
0
6
CONTINUOUS
10
-0.011570
20
0.138978
30
0.0
11
-0.011596
21
0.138556
31
0.0
0
LINE
8
0
6
CONTINUOUS
10
-0.011747
20
0.136222
30
0.0
11
-0.011972
21
0.135856
31
0.0
0
LINE
8
0
6
CONTINUOUS
10
-0.009025
20
0.139051
30
0.0
11
-0.011312
21
0.138986
31
0.0
0
LINE
8
0
6
CONTINUOUS
10
-0.010077
20
0.133606
30
0.0
11
-0.009146
21
0.135034
31
0.0
0
LINE
8
0
6
CONTINUOUS
10
-0.013366
20
0.133873
30
0.0
11
-0.014084
21
0.132292
31
0.0
0
LINE
8
0
6
CONTINUOUS
10
-0.014735
20
0.130564
30
0.0
11
-0.015104
21
0.128731
31
0.0
0
LINE
8
0
6
CONTINUOUS
10
-0.015104
20
0.128731
30
0.0
11
-0.015136
21
0.126862
31
0.0
0
LINE
8
0
6
CONTINUOUS
10
-0.015136
20
0.126862
30
0.0
11
-0.015129
21
0.124993
31
0.0
0
LINE
8
0
6
CONTINUOUS
10
-0.015129
20
0.124993
30
0.0
11
-0.015128
21
0.123124
31
0.0
0
LINE
8
0
6
CONTINUOUS
10
-0.011617
20
0.136762
30
0.0
11
-0.012158
21
0.135824
31
0.0
0
LINE
8
0
6
CONTINUOUS
10
-0.012801
20
0.134859
30
0.0
11
-0.013366
21
0.133873
31
0.0
0
LINE
8
0
6
CONTINUOUS
10
-0.012158
20
0.135824
30
0.0
11
-0.012801
21
0.134859
31
0.0
0
LINE
8
0
6
CONTINUOUS
10
-0.014084
20
0.132292
30
0.0
11
-0.014735
21
0.130564
31
0.0
0
LINE
8
0
6
CONTINUOUS
10
-0.015128
20
0.123124
30
0.0
11
-0.015125
21
0.090095
31
0.0
0
LINE
8
0
6
CONTINUOUS
10
0.043395
20
0.063988
30
0.0
11
0.043395
21
0.064833
31
0.0
0
LINE
8
0
6
CONTINUOUS
10
0.043806
20
0.053130
30
0.0
11
0.043396
21
0.053580
31
0.0
0
LINE
8
0
6
CONTINUOUS
10
0.041011
20
0.046442
30
0.0
11
0.041495
21
0.047022
31
0.0
0
LINE
8
0
6
CONTINUOUS
10
0.039888
20
0.044401
30
0.0
11
0.040818
21
0.046125
31
0.0
0
LINE
8
0
6
CONTINUOUS
10
0.066963
20
0.046481
30
0.0
11
0.067025
21
0.046467
31
0.0
0
LINE
8
0
6
CONTINUOUS
10
-0.072539
20
0.046484
30
0.0
11
-0.072477
21
0.046470
31
0.0
0
ENDSEC
0
EOF
