999
unknown String-ID: 20550
0
SECTION
2
HEADER
9
$ACADVER
1
AC1009
9
$DWGCODEPAGE
3
unknown String-ID: 20561
0
ENDSEC
0
SECTION
2
TABLES
0
TABLE
2
LAYER
70
1
0
LAYER
2
0
70
0
62
7
6
CONTINUOUS
0
ENDTAB
0
ENDSEC
0
SECTION
2
ENTITIES
0
LINE
8
0
6
CONTINUOUS
10
-0.090095
20
0.372037
30
0.0
11
-0.090095
21
0.368527
31
0.0
0
LINE
8
0
6
CONTINUOUS
10
-0.050239
20
0.367926
30
0.0
11
-0.050095
21
0.368275
31
0.0
0
LINE
8
0
6
CONTINUOUS
10
-0.050587
20
0.367782
30
0.0
11
-0.050239
21
0.367926
31
0.0
0
LINE
8
0
6
CONTINUOUS
10
-0.050239
20
0.372638
30
0.0
11
-0.050587
21
0.372782
31
0.0
0
LINE
8
0
6
CONTINUOUS
10
-0.050095
20
0.372289
30
0.0
11
-0.050239
21
0.372638
31
0.0
0
LINE
8
0
6
CONTINUOUS
10
-0.050095
20
0.368527
30
0.0
11
-0.050095
21
0.372037
31
0.0
0
LINE
8
0
6
CONTINUOUS
10
-0.089602
20
0.372782
30
0.0
11
-0.089950
21
0.372638
31
0.0
0
LINE
8
0
6
CONTINUOUS
10
-0.089375
20
0.372782
30
0.0
11
-0.089602
21
0.372782
31
0.0
0
LINE
8
0
6
CONTINUOUS
10
-0.089950
20
0.372638
30
0.0
11
-0.090095
21
0.372289
31
0.0
0
LINE
8
0
6
CONTINUOUS
10
-0.089950
20
0.367926
30
0.0
11
-0.089602
21
0.367782
31
0.0
0
LINE
8
0
6
CONTINUOUS
10
-0.089602
20
0.367782
30
0.0
11
-0.089375
21
0.367782
31
0.0
0
LINE
8
0
6
CONTINUOUS
10
-0.090095
20
0.368275
30
0.0
11
-0.089950
21
0.367926
31
0.0
0
LINE
8
0
6
CONTINUOUS
10
-0.088736
20
0.372782
30
0.0
11
-0.089375
21
0.372782
31
0.0
0
LINE
8
0
6
CONTINUOUS
10
-0.089375
20
0.367782
30
0.0
11
-0.088736
21
0.367782
31
0.0
0
LINE
8
0
6
CONTINUOUS
10
-0.087740
20
0.372782
30
0.0
11
-0.088736
21
0.372782
31
0.0
0
LINE
8
0
6
CONTINUOUS
10
-0.088736
20
0.367782
30
0.0
11
-0.087740
21
0.367782
31
0.0
0
LINE
8
0
6
CONTINUOUS
10
-0.086484
20
0.372782
30
0.0
11
-0.087740
21
0.372782
31
0.0
0
LINE
8
0
6
CONTINUOUS
10
-0.087740
20
0.367782
30
0.0
11
-0.086484
21
0.367782
31
0.0
0
LINE
8
0
6
CONTINUOUS
10
-0.085054
20
0.372782
30
0.0
11
-0.086484
21
0.372782
31
0.0
0
LINE
8
0
6
CONTINUOUS
10
-0.086484
20
0.367782
30
0.0
11
-0.085054
21
0.367782
31
0.0
0
LINE
8
0
6
CONTINUOUS
10
-0.050839
20
0.372782
30
0.0
11
-0.085054
21
0.372782
31
0.0
0
LINE
8
0
6
CONTINUOUS
10
-0.050839
20
0.367782
30
0.0
11
-0.050587
21
0.367782
31
0.0
0
LINE
8
0
6
CONTINUOUS
10
-0.050095
20
0.368275
30
0.0
11
-0.050095
21
0.368527
31
0.0
0
LINE
8
0
6
CONTINUOUS
10
-0.050095
20
0.372037
30
0.0
11
-0.050095
21
0.372289
31
0.0
0
LINE
8
0
6
CONTINUOUS
10
-0.090095
20
0.372289
30
0.0
11
-0.090095
21
0.372037
31
0.0
0
LINE
8
0
6
CONTINUOUS
10
-0.090095
20
0.368527
30
0.0
11
-0.090095
21
0.368275
31
0.0
0
LINE
8
0
6
CONTINUOUS
10
-0.050587
20
0.372782
30
0.0
11
-0.050839
21
0.372782
31
0.0
0
LINE
8
0
6
CONTINUOUS
10
-0.085054
20
0.367782
30
0.0
11
-0.050839
21
0.367782
31
0.0
0
LINE
8
0
6
CONTINUOUS
10
-0.037095
20
0.226402
30
0.0
11
-0.037095
21
0.238677
31
0.0
0
LINE
8
0
6
CONTINUOUS
10
-0.037095
20
0.276340
30
0.0
11
-0.037094
21
0.285289
31
0.0
0
LINE
8
0
6
CONTINUOUS
10
-0.037095
20
0.267048
30
0.0
11
-0.037095
21
0.276340
31
0.0
0
LINE
8
0
6
CONTINUOUS
10
-0.037095
20
0.249411
30
0.0
11
-0.037095
21
0.255244
31
0.0
0
LINE
8
0
6
CONTINUOUS
10
-0.037095
20
0.255244
30
0.0
11
-0.037095
21
0.267048
31
0.0
0
LINE
8
0
6
CONTINUOUS
10
-0.037095
20
0.238677
30
0.0
11
-0.037095
21
0.249411
31
0.0
0
LINE
8
0
6
CONTINUOUS
10
-0.037094
20
0.285289
30
0.0
11
-0.037094
21
0.289622
31
0.0
0
LINE
8
0
6
CONTINUOUS
10
-0.079263
20
0.255244
30
0.0
11
-0.079263
21
0.249411
31
0.0
0
LINE
8
0
6
CONTINUOUS
10
-0.079263
20
0.263882
30
0.0
11
-0.079263
21
0.255244
31
0.0
0
LINE
8
0
6
CONTINUOUS
10
-0.079263
20
0.249411
30
0.0
11
-0.079263
21
0.238677
31
0.0
0
LINE
8
0
6
CONTINUOUS
10
0.126126
20
0.371196
30
0.0
11
0.119715
21
0.372786
31
0.0
0
LINE
8
0
6
CONTINUOUS
10
-0.035144
20
0.322794
30
0.0
11
-0.031573
21
0.329028
31
0.0
0
LINE
8
0
6
CONTINUOUS
10
-0.037095
20
0.308995
30
0.0
11
-0.035144
21
0.322794
31
0.0
0
LINE
8
0
6
CONTINUOUS
10
-0.026546
20
0.334720
30
0.0
11
-0.022658
21
0.337869
31
0.0
0
LINE
8
0
6
CONTINUOUS
10
-0.031573
20
0.329028
30
0.0
11
-0.026546
21
0.334720
31
0.0
0
LINE
8
0
6
CONTINUOUS
10
-0.013970
20
0.342461
30
0.0
11
-0.009230
21
0.343593
31
0.0
0
LINE
8
0
6
CONTINUOUS
10
-0.037095
20
0.298783
30
0.0
11
-0.037095
21
0.308995
31
0.0
0
LINE
8
0
6
CONTINUOUS
10
-0.001355
20
0.344368
30
0.0
11
0.099556
21
0.352713
31
0.0
0
LINE
8
0
6
CONTINUOUS
10
0.105938
20
0.350855
30
0.0
11
0.110008
21
0.348242
31
0.0
0
LINE
8
0
6
CONTINUOUS
10
0.099556
20
0.352713
30
0.0
11
0.102833
21
0.352069
31
0.0
0
LINE
8
0
6
CONTINUOUS
10
0.113014
20
0.345232
30
0.0
11
0.115400
21
0.341341
31
0.0
0
LINE
8
0
6
CONTINUOUS
10
0.110008
20
0.348242
30
0.0
11
0.113014
21
0.345232
31
0.0
0
LINE
8
0
6
CONTINUOUS
10
0.102833
20
0.352069
30
0.0
11
0.105938
21
0.350855
31
0.0
0
LINE
8
0
6
CONTINUOUS
10
0.140487
20
0.356955
30
0.0
11
0.137230
21
0.362836
31
0.0
0
LINE
8
0
6
CONTINUOUS
10
0.119715
20
0.372786
30
0.0
11
0.099505
21
0.372747
31
0.0
0
LINE
8
0
6
CONTINUOUS
10
0.132479
20
0.367650
30
0.0
11
0.126126
21
0.371196
31
0.0
0
LINE
8
0
6
CONTINUOUS
10
0.142793
20
0.348771
30
0.0
11
0.140487
21
0.356955
31
0.0
0
LINE
8
0
6
CONTINUOUS
10
-0.009230
20
0.343593
30
0.0
11
-0.001355
21
0.344368
31
0.0
0
LINE
8
0
6
CONTINUOUS
10
-0.074171
20
0.367282
30
0.0
11
-0.077564
21
0.367282
31
0.0
0
LINE
8
0
6
CONTINUOUS
10
-0.079263
20
0.336779
30
0.0
11
-0.079263
21
0.333497
31
0.0
0
LINE
8
0
6
CONTINUOUS
10
-0.079263
20
0.323707
30
0.0
11
-0.079263
21
0.318428
31
0.0
0
LINE
8
0
6
CONTINUOUS
10
-0.001151
20
0.372782
30
0.0
11
-0.023809
21
0.372782
31
0.0
0
LINE
8
0
6
CONTINUOUS
10
-0.079093
20
0.367282
30
0.0
11
-0.079093
21
0.365992
31
0.0
0
LINE
8
0
6
CONTINUOUS
10
-0.077564
20
0.367282
30
0.0
11
-0.079093
21
0.367282
31
0.0
0
LINE
8
0
6
CONTINUOUS
10
-0.079263
20
0.346584
30
0.0
11
-0.079263
21
0.336779
31
0.0
0
LINE
8
0
6
CONTINUOUS
10
0.115400
20
0.341341
30
0.0
11
0.116980
21
0.336806
31
0.0
0
LINE
8
0
6
CONTINUOUS
10
0.137230
20
0.362836
30
0.0
11
0.132479
21
0.367650
31
0.0
0
LINE
8
0
6
CONTINUOUS
10
-0.079093
20
0.365992
30
0.0
11
-0.079094
21
0.359954
31
0.0
0
LINE
8
0
6
CONTINUOUS
10
-0.068763
20
0.367282
30
0.0
11
-0.074171
21
0.367282
31
0.0
0
LINE
8
0
6
CONTINUOUS
10
0.099505
20
0.372747
30
0.0
11
-0.001151
21
0.372782
31
0.0
0
LINE
8
0
6
CONTINUOUS
10
-0.022658
20
0.337869
30
0.0
11
-0.018544
21
0.340509
31
0.0
0
LINE
8
0
6
CONTINUOUS
10
-0.062511
20
0.367282
30
0.0
11
-0.068763
21
0.367282
31
0.0
0
LINE
8
0
6
CONTINUOUS
10
-0.023809
20
0.372782
30
0.0
11
-0.048585
21
0.372782
31
0.0
0
LINE
8
0
6
CONTINUOUS
10
-0.056105
20
0.367282
30
0.0
11
-0.062511
21
0.367282
31
0.0
0
LINE
8
0
6
CONTINUOUS
10
-0.079094
20
0.359954
30
0.0
11
-0.079263
21
0.346584
31
0.0
0
LINE
8
0
6
CONTINUOUS
10
-0.049595
20
0.367282
30
0.0
11
-0.056105
21
0.367282
31
0.0
0
LINE
8
0
6
CONTINUOUS
10
-0.049595
20
0.372782
30
0.0
11
-0.049595
21
0.371456
31
0.0
0
LINE
8
0
6
CONTINUOUS
10
-0.018544
20
0.340509
30
0.0
11
-0.013970
21
0.342461
31
0.0
0
LINE
8
0
6
CONTINUOUS
10
0.145373
20
0.339031
30
0.0
11
0.145299
21
0.339310
31
0.0
0
LINE
8
0
6
CONTINUOUS
10
-0.049595
20
0.371456
30
0.0
11
-0.049595
21
0.367282
31
0.0
0
LINE
8
0
6
CONTINUOUS
10
0.118235
20
0.332256
30
0.0
11
0.118311
21
0.331978
31
0.0
0
LINE
8
0
6
CONTINUOUS
10
0.118732
20
0.331440
30
0.0
11
0.119408
21
0.331344
31
0.0
0
LINE
8
0
6
CONTINUOUS
10
0.118311
20
0.331978
30
0.0
11
0.118732
21
0.331440
31
0.0
0
LINE
8
0
6
CONTINUOUS
10
0.137584
20
0.336081
30
0.0
11
0.141591
21
0.337127
31
0.0
0
LINE
8
0
6
CONTINUOUS
10
0.116980
20
0.336806
30
0.0
11
0.118235
21
0.332256
31
0.0
0
LINE
8
0
6
CONTINUOUS
10
0.145299
20
0.339310
30
0.0
11
0.142793
21
0.348771
31
0.0
0
LINE
8
0
6
CONTINUOUS
10
-0.079263
20
0.238677
30
0.0
11
-0.079263
21
0.226402
31
0.0
0
LINE
8
0
6
CONTINUOUS
10
-0.079263
20
0.318428
30
0.0
11
-0.079263
21
0.308682
31
0.0
0
LINE
8
0
6
CONTINUOUS
10
-0.037339
20
-0.477338
30
0.0
11
-0.037095
21
0.226402
31
0.0
0
LINE
8
0
6
CONTINUOUS
10
-0.079263
20
0.226402
30
0.0
11
-0.079263
21
-0.477338
31
0.0
0
LINE
8
0
6
CONTINUOUS
10
-0.038434
20
0.275487
30
0.0
11
-0.039174
21
0.280324
31
0.0
0
LINE
8
0
6
CONTINUOUS
10
-0.077015
20
0.280325
30
0.0
11
-0.077723
21
0.275486
31
0.0
0
LINE
8
0
6
CONTINUOUS
10
-0.039174
20
0.280324
30
0.0
11
-0.039315
21
0.285475
31
0.0
0
LINE
8
0
6
CONTINUOUS
10
-0.076874
20
0.285475
30
0.0
11
-0.077015
21
0.280325
31
0.0
0
LINE
8
0
6
CONTINUOUS
10
-0.039315
20
0.285475
30
0.0
11
-0.039314
21
0.289519
31
0.0
0
LINE
8
0
6
CONTINUOUS
10
0.120753
20
0.331694
30
0.0
11
0.121073
21
0.331778
31
0.0
0
LINE
8
0
6
CONTINUOUS
10
0.120753
20
0.331694
30
0.0
11
0.121073
21
0.331778
31
0.0
0
LINE
8
0
6
CONTINUOUS
10
-0.040921
20
-0.490716
30
0.0
11
-0.034382
21
-0.490716
31
0.0
0
LINE
8
0
6
CONTINUOUS
10
-0.034382
20
-0.490716
30
0.0
11
-0.027878
21
-0.490716
31
0.0
0
LINE
8
0
6
CONTINUOUS
10
-0.027878
20
-0.490716
30
0.0
11
-0.021360
21
-0.490716
31
0.0
0
LINE
8
0
6
CONTINUOUS
10
-0.021360
20
-0.490716
30
0.0
11
-0.014931
21
-0.490716
31
0.0
0
LINE
8
0
6
CONTINUOUS
10
-0.014931
20
-0.490716
30
0.0
11
-0.008811
21
-0.490716
31
0.0
0
LINE
8
0
6
CONTINUOUS
10
-0.008811
20
-0.490716
30
0.0
11
-0.003517
21
-0.490716
31
0.0
0
LINE
8
0
6
CONTINUOUS
10
-0.003517
20
-0.490716
30
0.0
11
0.000280
21
-0.490716
31
0.0
0
LINE
8
0
6
CONTINUOUS
10
0.000280
20
-0.490716
30
0.0
11
0.002477
21
-0.490716
31
0.0
0
LINE
8
0
6
CONTINUOUS
10
0.002477
20
-0.490716
30
0.0
11
0.003547
21
-0.490716
31
0.0
0
LINE
8
0
6
CONTINUOUS
10
0.003547
20
-0.490716
30
0.0
11
0.003964
21
-0.490716
31
0.0
0
LINE
8
0
6
CONTINUOUS
10
0.003964
20
-0.490716
30
0.0
11
0.004070
21
-0.490716
31
0.0
0
LINE
8
0
6
CONTINUOUS
10
0.004079
20
-0.490716
30
0.0
11
0.004079
21
-0.490254
31
0.0
0
LINE
8
0
6
CONTINUOUS
10
-0.120268
20
-0.477984
30
0.0
11
-0.120268
21
-0.490254
31
0.0
0
LINE
8
0
6
CONTINUOUS
10
-0.120268
20
-0.477357
30
0.0
11
-0.120268
21
-0.477984
31
0.0
0
LINE
8
0
6
CONTINUOUS
10
0.004079
20
-0.490254
30
0.0
11
0.004079
21
-0.477984
31
0.0
0
LINE
8
0
6
CONTINUOUS
10
-0.041112
20
-0.477338
30
0.0
11
-0.075096
21
-0.477338
31
0.0
0
LINE
8
0
6
CONTINUOUS
10
-0.075096
20
-0.477338
30
0.0
11
-0.081591
21
-0.477338
31
0.0
0
LINE
8
0
6
CONTINUOUS
10
-0.081591
20
-0.477338
30
0.0
11
-0.088049
21
-0.477338
31
0.0
0
LINE
8
0
6
CONTINUOUS
10
-0.088049
20
-0.477338
30
0.0
11
-0.094519
21
-0.477338
31
0.0
0
LINE
8
0
6
CONTINUOUS
10
-0.094519
20
-0.477338
30
0.0
11
-0.100900
21
-0.477338
31
0.0
0
LINE
8
0
6
CONTINUOUS
10
-0.100900
20
-0.477338
30
0.0
11
-0.106974
21
-0.477338
31
0.0
0
LINE
8
0
6
CONTINUOUS
10
-0.106974
20
-0.477338
30
0.0
11
-0.112229
21
-0.477338
31
0.0
0
LINE
8
0
6
CONTINUOUS
10
-0.112229
20
-0.477338
30
0.0
11
-0.116001
21
-0.477338
31
0.0
0
LINE
8
0
6
CONTINUOUS
10
-0.116001
20
-0.477338
30
0.0
11
-0.118189
21
-0.477338
31
0.0
0
LINE
8
0
6
CONTINUOUS
10
-0.118189
20
-0.477338
30
0.0
11
-0.119259
21
-0.477338
31
0.0
0
LINE
8
0
6
CONTINUOUS
10
-0.119259
20
-0.477338
30
0.0
11
-0.119681
21
-0.477338
31
0.0
0
LINE
8
0
6
CONTINUOUS
10
-0.119681
20
-0.477338
30
0.0
11
-0.119792
21
-0.477338
31
0.0
0
LINE
8
0
6
CONTINUOUS
10
-0.119803
20
-0.477338
30
0.0
11
-0.120268
21
-0.477357
31
0.0
0
LINE
8
0
6
CONTINUOUS
10
-0.034641
20
-0.477338
30
0.0
11
-0.041112
21
-0.477338
31
0.0
0
LINE
8
0
6
CONTINUOUS
10
-0.028174
20
-0.477338
30
0.0
11
-0.034641
21
-0.477338
31
0.0
0
LINE
8
0
6
CONTINUOUS
10
-0.021718
20
-0.477338
30
0.0
11
-0.028174
21
-0.477338
31
0.0
0
LINE
8
0
6
CONTINUOUS
10
-0.015326
20
-0.477338
30
0.0
11
-0.021718
21
-0.477338
31
0.0
0
LINE
8
0
6
CONTINUOUS
10
-0.009236
20
-0.477338
30
0.0
11
-0.015326
21
-0.477338
31
0.0
0
LINE
8
0
6
CONTINUOUS
10
-0.003964
20
-0.477338
30
0.0
11
-0.009236
21
-0.477338
31
0.0
0
LINE
8
0
6
CONTINUOUS
10
-0.000203
20
-0.477338
30
0.0
11
-0.003964
21
-0.477338
31
0.0
0
LINE
8
0
6
CONTINUOUS
10
0.001985
20
-0.477338
30
0.0
11
-0.000203
21
-0.477338
31
0.0
0
LINE
8
0
6
CONTINUOUS
10
0.003059
20
-0.477338
30
0.0
11
0.001985
21
-0.477338
31
0.0
0
LINE
8
0
6
CONTINUOUS
10
0.003485
20
-0.477338
30
0.0
11
0.003059
21
-0.477338
31
0.0
0
LINE
8
0
6
CONTINUOUS
10
0.003599
20
-0.477338
30
0.0
11
0.003485
21
-0.477338
31
0.0
0
LINE
8
0
6
CONTINUOUS
10
0.004079
20
-0.477357
30
0.0
11
0.003612
21
-0.477338
31
0.0
0
LINE
8
0
6
CONTINUOUS
10
-0.075268
20
-0.490716
30
0.0
11
-0.040921
21
-0.490716
31
0.0
0
LINE
8
0
6
CONTINUOUS
10
-0.081784
20
-0.490716
30
0.0
11
-0.075268
21
-0.490716
31
0.0
0
LINE
8
0
6
CONTINUOUS
10
-0.088296
20
-0.490716
30
0.0
11
-0.081784
21
-0.490716
31
0.0
0
LINE
8
0
6
CONTINUOUS
10
-0.094798
20
-0.490716
30
0.0
11
-0.088296
21
-0.490716
31
0.0
0
LINE
8
0
6
CONTINUOUS
10
-0.101237
20
-0.490716
30
0.0
11
-0.094798
21
-0.490716
31
0.0
0
LINE
8
0
6
CONTINUOUS
10
-0.107373
20
-0.490716
30
0.0
11
-0.101237
21
-0.490716
31
0.0
0
LINE
8
0
6
CONTINUOUS
10
-0.112682
20
-0.490716
30
0.0
11
-0.107373
21
-0.490716
31
0.0
0
LINE
8
0
6
CONTINUOUS
10
-0.116466
20
-0.490716
30
0.0
11
-0.112682
21
-0.490716
31
0.0
0
LINE
8
0
6
CONTINUOUS
10
-0.118661
20
-0.490716
30
0.0
11
-0.116466
21
-0.490716
31
0.0
0
LINE
8
0
6
CONTINUOUS
10
-0.119732
20
-0.490716
30
0.0
11
-0.118661
21
-0.490716
31
0.0
0
LINE
8
0
6
CONTINUOUS
10
-0.120152
20
-0.490716
30
0.0
11
-0.119732
21
-0.490716
31
0.0
0
LINE
8
0
6
CONTINUOUS
10
-0.120259
20
-0.490716
30
0.0
11
-0.120152
21
-0.490716
31
0.0
0
LINE
8
0
6
CONTINUOUS
10
-0.120268
20
-0.490254
30
0.0
11
-0.120268
21
-0.490716
31
0.0
0
LINE
8
0
6
CONTINUOUS
10
0.004079
20
-0.477984
30
0.0
11
0.004079
21
-0.477357
31
0.0
0
LINE
8
0
6
CONTINUOUS
10
-0.036230
20
0.289423
30
0.0
11
-0.035316
21
0.290219
31
0.0
0
LINE
8
0
6
CONTINUOUS
10
-0.035003
20
0.290632
30
0.0
11
-0.034868
21
0.290930
31
0.0
0
LINE
8
0
6
CONTINUOUS
10
-0.035214
20
0.290307
30
0.0
11
-0.035003
21
0.290632
31
0.0
0
LINE
8
0
6
CONTINUOUS
10
-0.034877
20
0.295813
30
0.0
11
-0.035002
21
0.296300
31
0.0
0
LINE
8
0
6
CONTINUOUS
10
-0.035002
20
0.296300
30
0.0
11
-0.035339
21
0.296902
31
0.0
0
LINE
8
0
6
CONTINUOUS
10
-0.035339
20
0.296902
30
0.0
11
-0.035845
21
0.297548
31
0.0
0
LINE
8
0
6
CONTINUOUS
10
-0.035316
20
0.290219
30
0.0
11
-0.035214
21
0.290307
31
0.0
0
LINE
8
0
6
CONTINUOUS
10
-0.037144
20
0.288628
30
0.0
11
-0.036230
21
0.289423
31
0.0
0
LINE
8
0
6
CONTINUOUS
10
-0.080846
20
0.325413
30
0.0
11
-0.080341
21
0.324767
31
0.0
0
LINE
8
0
6
CONTINUOUS
10
-0.036233
20
0.289423
30
0.0
11
-0.035319
21
0.290219
31
0.0
0
LINE
8
0
6
CONTINUOUS
10
-0.036094
20
0.289730
30
0.0
11
-0.036233
21
0.289423
31
0.0
0
LINE
8
0
6
CONTINUOUS
10
-0.035007
20
0.290632
30
0.0
11
-0.034872
21
0.290930
31
0.0
0
LINE
8
0
6
CONTINUOUS
10
-0.035217
20
0.290307
30
0.0
11
-0.035007
21
0.290632
31
0.0
0
LINE
8
0
6
CONTINUOUS
10
-0.034880
20
0.295813
30
0.0
11
-0.035005
21
0.296300
31
0.0
0
LINE
8
0
6
CONTINUOUS
10
-0.035005
20
0.296300
30
0.0
11
-0.035343
21
0.296902
31
0.0
0
LINE
8
0
6
CONTINUOUS
10
-0.035343
20
0.296902
30
0.0
11
-0.035848
21
0.297548
31
0.0
0
LINE
8
0
6
CONTINUOUS
10
-0.035848
20
0.297548
30
0.0
11
-0.036442
21
0.298192
31
0.0
0
LINE
8
0
6
CONTINUOUS
10
-0.036442
20
0.298192
30
0.0
11
-0.039404
21
0.300877
31
0.0
0
LINE
8
0
6
CONTINUOUS
10
-0.036650
20
0.298103
30
0.0
11
-0.043667
21
0.304867
31
0.0
0
LINE
8
0
6
CONTINUOUS
10
-0.043886
20
0.305138
30
0.0
11
-0.051581
21
0.312209
31
0.0
0
LINE
8
0
6
CONTINUOUS
10
-0.037951
20
0.332084
30
0.0
11
-0.044979
21
0.326244
31
0.0
0
LINE
8
0
6
CONTINUOUS
10
-0.035229
20
0.331990
30
0.0
11
-0.035331
21
0.332078
31
0.0
0
LINE
8
0
6
CONTINUOUS
10
-0.051581
20
0.317486
30
0.0
11
-0.043887
21
0.324557
31
0.0
0
LINE
8
0
6
CONTINUOUS
10
-0.034995
20
0.325996
30
0.0
11
-0.034872
21
0.326484
31
0.0
0
LINE
8
0
6
CONTINUOUS
10
-0.035332
20
0.325395
30
0.0
11
-0.034995
21
0.325996
31
0.0
0
LINE
8
0
6
CONTINUOUS
10
-0.035836
20
0.324749
30
0.0
11
-0.035332
21
0.325395
31
0.0
0
LINE
8
0
6
CONTINUOUS
10
-0.036431
20
0.324104
30
0.0
11
-0.035836
21
0.324749
31
0.0
0
LINE
8
0
6
CONTINUOUS
10
-0.035018
20
0.331664
30
0.0
11
-0.035229
21
0.331990
31
0.0
0
LINE
8
0
6
CONTINUOUS
10
-0.034881
20
0.331367
30
0.0
11
-0.035018
21
0.331664
31
0.0
0
LINE
8
0
6
CONTINUOUS
10
-0.043669
20
0.324688
30
0.0
11
-0.043514
21
0.324707
31
0.0
0
LINE
8
0
6
CONTINUOUS
10
-0.043514
20
0.324707
30
0.0
11
-0.043460
21
0.324593
31
0.0
0
LINE
8
0
6
CONTINUOUS
10
-0.040791
20
0.320385
30
0.0
11
-0.036431
21
0.324104
31
0.0
0
LINE
8
0
6
CONTINUOUS
10
-0.051581
20
0.317134
30
0.0
11
-0.052462
21
0.315923
31
0.0
0
LINE
8
0
6
CONTINUOUS
10
-0.052462
20
0.315923
30
0.0
11
-0.052771
21
0.314495
31
0.0
0
LINE
8
0
6
CONTINUOUS
10
-0.051783
20
0.313299
30
0.0
11
-0.052042
21
0.314495
31
0.0
0
LINE
8
0
6
CONTINUOUS
10
-0.051014
20
0.312241
30
0.0
11
-0.051783
21
0.313299
31
0.0
0
LINE
8
0
6
CONTINUOUS
10
-0.043069
20
0.324051
30
0.0
11
-0.043462
21
0.324595
31
0.0
0
LINE
8
0
6
CONTINUOUS
10
-0.043462
20
0.324595
30
0.0
11
-0.051581
21
0.317134
31
0.0
0
LINE
8
0
6
CONTINUOUS
10
-0.043461
20
0.304395
30
0.0
11
-0.043068
21
0.304939
31
0.0
0
LINE
8
0
6
CONTINUOUS
10
-0.043068
20
0.304939
30
0.0
11
-0.051014
21
0.312241
31
0.0
0
LINE
8
0
6
CONTINUOUS
10
-0.043493
20
0.305682
30
0.0
11
-0.043274
21
0.305411
31
0.0
0
LINE
8
0
6
CONTINUOUS
10
-0.041801
20
0.308024
30
0.0
11
-0.043491
21
0.305684
31
0.0
0
LINE
8
0
6
CONTINUOUS
10
-0.039407
20
0.314495
30
0.0
11
-0.039876
21
0.318111
31
0.0
0
LINE
8
0
6
CONTINUOUS
10
-0.041258
20
0.321545
30
0.0
11
-0.041324
21
0.321677
31
0.0
0
LINE
8
0
6
CONTINUOUS
10
-0.039876
20
0.318111
30
0.0
11
-0.041258
21
0.321545
31
0.0
0
LINE
8
0
6
CONTINUOUS
10
-0.039876
20
0.310879
30
0.0
11
-0.039407
21
0.314495
31
0.0
0
LINE
8
0
6
CONTINUOUS
10
-0.040463
20
0.318347
30
0.0
11
-0.040010
21
0.314848
31
0.0
0
LINE
8
0
6
CONTINUOUS
10
-0.041258
20
0.307444
30
0.0
11
-0.039876
21
0.310879
31
0.0
0
LINE
8
0
6
CONTINUOUS
10
-0.043121
20
0.324163
30
0.0
11
-0.043275
21
0.324144
31
0.0
0
LINE
8
0
6
CONTINUOUS
10
-0.041324
20
0.321677
30
0.0
11
-0.043121
21
0.324163
31
0.0
0
LINE
8
0
6
CONTINUOUS
10
-0.041801
20
0.321671
30
0.0
11
-0.040463
21
0.318347
31
0.0
0
LINE
8
0
6
CONTINUOUS
10
-0.040010
20
0.314848
30
0.0
11
-0.040463
21
0.311348
31
0.0
0
LINE
8
0
6
CONTINUOUS
10
-0.043068
20
0.304939
30
0.0
11
-0.041258
21
0.307444
31
0.0
0
LINE
8
0
6
CONTINUOUS
10
-0.043119
20
0.305146
30
0.0
11
-0.043068
21
0.304939
31
0.0
0
LINE
8
0
6
CONTINUOUS
10
-0.040463
20
0.311348
30
0.0
11
-0.041801
21
0.308024
31
0.0
0
LINE
8
0
6
CONTINUOUS
10
-0.043274
20
0.305411
30
0.0
11
-0.043119
21
0.305146
31
0.0
0
LINE
8
0
6
CONTINUOUS
10
-0.043275
20
0.324144
30
0.0
11
-0.043494
21
0.324013
31
0.0
0
LINE
8
0
6
CONTINUOUS
10
-0.043494
20
0.324013
30
0.0
11
-0.041801
21
0.321671
31
0.0
0
LINE
8
0
6
CONTINUOUS
10
-0.039877
20
0.289005
30
0.0
11
-0.039830
21
0.289368
31
0.0
0
LINE
8
0
6
CONTINUOUS
10
-0.039876
20
0.310879
30
0.0
11
-0.041258
21
0.307444
31
0.0
0
LINE
8
0
6
CONTINUOUS
10
-0.040463
20
0.311348
30
0.0
11
-0.040010
21
0.314848
31
0.0
0
LINE
8
0
6
CONTINUOUS
10
-0.041801
20
0.308024
30
0.0
11
-0.040463
21
0.311348
31
0.0
0
LINE
8
0
6
CONTINUOUS
10
-0.043493
20
0.305682
30
0.0
11
-0.041801
21
0.308024
31
0.0
0
LINE
8
0
6
CONTINUOUS
10
-0.051014
20
0.312594
30
0.0
11
-0.043493
21
0.305682
31
0.0
0
LINE
8
0
6
CONTINUOUS
10
-0.051783
20
0.313652
30
0.0
11
-0.051014
21
0.312594
31
0.0
0
LINE
8
0
6
CONTINUOUS
10
-0.052042
20
0.314848
30
0.0
11
-0.051783
21
0.313652
31
0.0
0
LINE
8
0
6
CONTINUOUS
10
-0.051783
20
0.316044
30
0.0
11
-0.052042
21
0.314848
31
0.0
0
LINE
8
0
6
CONTINUOUS
10
-0.051014
20
0.317102
30
0.0
11
-0.051783
21
0.316044
31
0.0
0
LINE
8
0
6
CONTINUOUS
10
-0.043494
20
0.324013
30
0.0
11
-0.051014
21
0.317102
31
0.0
0
LINE
8
0
6
CONTINUOUS
10
-0.041801
20
0.321671
30
0.0
11
-0.043493
21
0.324011
31
0.0
0
LINE
8
0
6
CONTINUOUS
10
-0.040463
20
0.318347
30
0.0
11
-0.041801
21
0.321671
31
0.0
0
LINE
8
0
6
CONTINUOUS
10
-0.040010
20
0.314848
30
0.0
11
-0.040463
21
0.318347
31
0.0
0
LINE
8
0
6
CONTINUOUS
10
-0.043485
20
0.282489
30
0.0
11
-0.041259
21
0.285570
31
0.0
0
LINE
8
0
6
CONTINUOUS
10
-0.051581
20
0.317486
30
0.0
11
-0.052462
21
0.316276
31
0.0
0
LINE
8
0
6
CONTINUOUS
10
-0.052462
20
0.315923
30
0.0
11
-0.051581
21
0.317134
31
0.0
0
LINE
8
0
6
CONTINUOUS
10
-0.052462
20
0.316276
30
0.0
11
-0.052771
21
0.314848
31
0.0
0
LINE
8
0
6
CONTINUOUS
10
-0.052771
20
0.314495
30
0.0
11
-0.052462
21
0.315923
31
0.0
0
LINE
8
0
6
CONTINUOUS
10
-0.051783
20
0.313652
30
0.0
11
-0.052042
21
0.314848
31
0.0
0
LINE
8
0
6
CONTINUOUS
10
-0.052042
20
0.314495
30
0.0
11
-0.051783
21
0.313299
31
0.0
0
LINE
8
0
6
CONTINUOUS
10
-0.052042
20
0.314848
30
0.0
11
-0.052042
21
0.314495
31
0.0
0
LINE
8
0
6
CONTINUOUS
10
-0.051014
20
0.312594
30
0.0
11
-0.051783
21
0.313652
31
0.0
0
LINE
8
0
6
CONTINUOUS
10
-0.051783
20
0.313299
30
0.0
11
-0.051014
21
0.312241
31
0.0
0
LINE
8
0
6
CONTINUOUS
10
-0.044979
20
0.303433
30
0.0
11
-0.037950
21
0.297004
31
0.0
0
LINE
8
0
6
CONTINUOUS
10
-0.052771
20
0.314848
30
0.0
11
-0.052462
21
0.316276
31
0.0
0
LINE
8
0
6
CONTINUOUS
10
-0.043887
20
0.324557
30
0.0
11
-0.051581
21
0.317486
31
0.0
0
LINE
8
0
6
CONTINUOUS
10
-0.043669
20
0.324688
30
0.0
11
-0.043887
21
0.324557
31
0.0
0
LINE
8
0
6
CONTINUOUS
10
-0.043514
20
0.324707
30
0.0
11
-0.043669
21
0.324688
31
0.0
0
LINE
8
0
6
CONTINUOUS
10
-0.043462
20
0.324595
30
0.0
11
-0.043514
21
0.324707
31
0.0
0
LINE
8
0
6
CONTINUOUS
10
-0.051581
20
0.317134
30
0.0
11
-0.043462
21
0.324595
31
0.0
0
LINE
8
0
6
CONTINUOUS
10
-0.043493
20
0.305682
30
0.0
11
-0.051014
21
0.312594
31
0.0
0
LINE
8
0
6
CONTINUOUS
10
-0.043274
20
0.305411
30
0.0
11
-0.043493
21
0.305682
31
0.0
0
LINE
8
0
6
CONTINUOUS
10
-0.043119
20
0.305146
30
0.0
11
-0.043274
21
0.305411
31
0.0
0
LINE
8
0
6
CONTINUOUS
10
-0.043068
20
0.304939
30
0.0
11
-0.043119
21
0.305146
31
0.0
0
LINE
8
0
6
CONTINUOUS
10
-0.051014
20
0.312241
30
0.0
11
-0.043068
21
0.304939
31
0.0
0
LINE
8
0
6
CONTINUOUS
10
-0.052462
20
0.316276
30
0.0
11
-0.051581
21
0.317486
31
0.0
0
LINE
8
0
6
CONTINUOUS
10
-0.045407
20
0.303815
30
0.0
11
-0.044979
21
0.303433
31
0.0
0
LINE
8
0
6
CONTINUOUS
10
-0.043667
20
0.304867
30
0.0
11
-0.043886
21
0.305138
31
0.0
0
LINE
8
0
6
CONTINUOUS
10
-0.043887
20
0.324557
30
0.0
11
-0.043669
21
0.324688
31
0.0
0
LINE
8
0
6
CONTINUOUS
10
-0.052461
20
0.313420
30
0.0
11
-0.052771
21
0.314848
31
0.0
0
LINE
8
0
6
CONTINUOUS
10
-0.037245
20
0.332612
30
0.0
11
-0.037951
21
0.332084
31
0.0
0
LINE
8
0
6
CONTINUOUS
10
-0.035331
20
0.332078
30
0.0
11
-0.036245
21
0.332874
31
0.0
0
LINE
8
0
6
CONTINUOUS
10
-0.036245
20
0.332874
30
0.0
11
-0.036646
21
0.332890
31
0.0
0
LINE
8
0
6
CONTINUOUS
10
-0.036646
20
0.332890
30
0.0
11
-0.037245
21
0.332612
31
0.0
0
LINE
8
0
6
CONTINUOUS
10
-0.045408
20
0.325880
30
0.0
11
-0.053322
21
0.318999
31
0.0
0
LINE
8
0
6
CONTINUOUS
10
-0.044979
20
0.326244
30
0.0
11
-0.045408
21
0.325880
31
0.0
0
LINE
8
0
6
CONTINUOUS
10
-0.054458
20
0.318011
30
0.0
11
-0.055433
21
0.317163
31
0.0
0
LINE
8
0
6
CONTINUOUS
10
-0.055433
20
0.317163
30
0.0
11
-0.055700
21
0.316931
31
0.0
0
LINE
8
0
6
CONTINUOUS
10
-0.053322
20
0.318999
30
0.0
11
-0.054458
21
0.318011
31
0.0
0
LINE
8
0
6
CONTINUOUS
10
-0.054457
20
0.311684
30
0.0
11
-0.053321
21
0.310696
31
0.0
0
LINE
8
0
6
CONTINUOUS
10
-0.036244
20
0.294827
30
0.0
11
-0.036103
21
0.294276
31
0.0
0
LINE
8
0
6
CONTINUOUS
10
-0.036103
20
0.294276
30
0.0
11
-0.036094
21
0.289730
31
0.0
0
LINE
8
0
6
CONTINUOUS
10
-0.037244
20
0.296304
30
0.0
11
-0.036645
21
0.295540
31
0.0
0
LINE
8
0
6
CONTINUOUS
10
-0.037950
20
0.297004
30
0.0
11
-0.037244
21
0.296304
31
0.0
0
LINE
8
0
6
CONTINUOUS
10
-0.036645
20
0.295540
30
0.0
11
-0.036244
21
0.294827
31
0.0
0
LINE
8
0
6
CONTINUOUS
10
-0.035319
20
0.290219
30
0.0
11
-0.035217
21
0.290307
31
0.0
0
LINE
8
0
6
CONTINUOUS
10
-0.053321
20
0.310696
30
0.0
11
-0.045407
21
0.303815
31
0.0
0
LINE
8
0
6
CONTINUOUS
10
-0.055699
20
0.312764
30
0.0
11
-0.055433
21
0.312532
31
0.0
0
LINE
8
0
6
CONTINUOUS
10
-0.055433
20
0.312532
30
0.0
11
-0.054457
21
0.311684
31
0.0
0
LINE
8
0
6
CONTINUOUS
10
-0.055700
20
0.316931
30
0.0
11
-0.058096
21
0.314847
31
0.0
0
LINE
8
0
6
CONTINUOUS
10
-0.058096
20
0.314847
30
0.0
11
-0.055699
21
0.312764
31
0.0
0
LINE
8
0
6
CONTINUOUS
10
-0.051581
20
0.312209
30
0.0
11
-0.052461
21
0.313420
31
0.0
0
LINE
8
0
6
CONTINUOUS
10
-0.069708
20
0.295422
30
0.0
11
-0.069709
21
0.301680
31
0.0
0
LINE
8
0
6
CONTINUOUS
10
-0.079947
20
0.289441
30
0.0
11
-0.079033
21
0.288645
31
0.0
0
LINE
8
0
6
CONTINUOUS
10
-0.080089
20
0.289748
30
0.0
11
-0.079947
21
0.289441
31
0.0
0
LINE
8
0
6
CONTINUOUS
10
-0.077839
20
0.288415
30
0.0
11
-0.077332
21
0.288649
31
0.0
0
LINE
8
0
6
CONTINUOUS
10
-0.078578
20
0.288391
30
0.0
11
-0.078194
21
0.288375
31
0.0
0
LINE
8
0
6
CONTINUOUS
10
-0.078194
20
0.288375
30
0.0
11
-0.077839
21
0.288415
31
0.0
0
LINE
8
0
6
CONTINUOUS
10
-0.078932
20
0.288557
30
0.0
11
-0.078578
21
0.288391
31
0.0
0
LINE
8
0
6
CONTINUOUS
10
-0.077332
20
0.288649
30
0.0
11
-0.076674
21
0.289093
31
0.0
0
LINE
8
0
6
CONTINUOUS
10
-0.076674
20
0.289093
30
0.0
11
-0.069776
21
0.295225
31
0.0
0
LINE
8
0
6
CONTINUOUS
10
-0.069709
20
0.301767
30
0.0
11
-0.069657
21
0.301974
31
0.0
0
LINE
8
0
6
CONTINUOUS
10
-0.069657
20
0.301974
30
0.0
11
-0.069493
21
0.302231
31
0.0
0
LINE
8
0
6
CONTINUOUS
10
-0.069262
20
0.302492
30
0.0
11
-0.061130
21
0.309183
31
0.0
0
LINE
8
0
6
CONTINUOUS
10
-0.037950
20
0.297004
30
0.0
11
-0.044978
21
0.303433
31
0.0
0
LINE
8
0
6
CONTINUOUS
10
-0.046482
20
0.301681
30
0.0
11
-0.046482
21
0.295424
31
0.0
0
LINE
8
0
6
CONTINUOUS
10
-0.037249
20
0.288540
30
0.0
11
-0.037147
21
0.288628
31
0.0
0
LINE
8
0
6
CONTINUOUS
10
-0.055061
20
0.309183
30
0.0
11
-0.046928
21
0.302492
31
0.0
0
LINE
8
0
6
CONTINUOUS
10
-0.037602
20
0.288374
30
0.0
11
-0.037249
21
0.288540
31
0.0
0
LINE
8
0
6
CONTINUOUS
10
-0.037985
20
0.288359
30
0.0
11
-0.037602
21
0.288374
31
0.0
0
LINE
8
0
6
CONTINUOUS
10
-0.038341
20
0.288399
30
0.0
11
-0.037985
21
0.288359
31
0.0
0
LINE
8
0
6
CONTINUOUS
10
-0.038847
20
0.288633
30
0.0
11
-0.038341
21
0.288399
31
0.0
0
LINE
8
0
6
CONTINUOUS
10
-0.039500
20
0.289075
30
0.0
11
-0.038847
21
0.288633
31
0.0
0
LINE
8
0
6
CONTINUOUS
10
-0.046697
20
0.302232
30
0.0
11
-0.046534
21
0.301974
31
0.0
0
LINE
8
0
6
CONTINUOUS
10
-0.046534
20
0.301974
30
0.0
11
-0.046482
21
0.301768
31
0.0
0
LINE
8
0
6
CONTINUOUS
10
-0.046415
20
0.295227
30
0.0
11
-0.039500
21
0.289075
31
0.0
0
LINE
8
0
6
CONTINUOUS
10
-0.055061
20
0.308830
30
0.0
11
-0.056453
21
0.309595
31
0.0
0
LINE
8
0
6
CONTINUOUS
10
-0.056453
20
0.309595
30
0.0
11
-0.058095
21
0.309864
31
0.0
0
LINE
8
0
6
CONTINUOUS
10
-0.058095
20
0.309864
30
0.0
11
-0.059738
21
0.309595
31
0.0
0
LINE
8
0
6
CONTINUOUS
10
-0.059738
20
0.309595
30
0.0
11
-0.061130
21
0.308830
31
0.0
0
LINE
8
0
6
CONTINUOUS
10
-0.047105
20
0.301428
30
0.0
11
-0.046479
21
0.301770
31
0.0
0
LINE
8
0
6
CONTINUOUS
10
-0.046479
20
0.301770
30
0.0
11
-0.055061
21
0.308830
31
0.0
0
LINE
8
0
6
CONTINUOUS
10
-0.069711
20
0.301769
30
0.0
11
-0.069085
21
0.301427
31
0.0
0
LINE
8
0
6
CONTINUOUS
10
-0.061130
20
0.308830
30
0.0
11
-0.069709
21
0.301771
31
0.0
0
LINE
8
0
6
CONTINUOUS
10
-0.068636
20
0.302150
30
0.0
11
-0.068867
21
0.301889
31
0.0
0
LINE
8
0
6
CONTINUOUS
10
-0.065943
20
0.300678
30
0.0
11
-0.068636
21
0.302150
31
0.0
0
LINE
8
0
6
CONTINUOUS
10
-0.058095
20
0.298245
30
0.0
11
-0.053937
21
0.298652
31
0.0
0
LINE
8
0
6
CONTINUOUS
10
-0.053937
20
0.298652
30
0.0
11
-0.049987
21
0.299854
31
0.0
0
LINE
8
0
6
CONTINUOUS
10
-0.062254
20
0.298652
30
0.0
11
-0.058095
21
0.298245
31
0.0
0
LINE
8
0
6
CONTINUOUS
10
-0.047105
20
0.301428
30
0.0
11
-0.047160
21
0.301632
31
0.0
0
LINE
8
0
6
CONTINUOUS
10
-0.049987
20
0.299854
30
0.0
11
-0.047105
21
0.301428
31
0.0
0
LINE
8
0
6
CONTINUOUS
10
-0.054071
20
0.299515
30
0.0
11
-0.058095
21
0.299121
31
0.0
0
LINE
8
0
6
CONTINUOUS
10
-0.066204
20
0.299854
30
0.0
11
-0.062254
21
0.298652
31
0.0
0
LINE
8
0
6
CONTINUOUS
10
-0.047160
20
0.301632
30
0.0
11
-0.047323
21
0.301890
31
0.0
0
LINE
8
0
6
CONTINUOUS
10
-0.050248
20
0.300679
30
0.0
11
-0.054071
21
0.299515
31
0.0
0
LINE
8
0
6
CONTINUOUS
10
-0.058095
20
0.299121
30
0.0
11
-0.062120
21
0.299515
31
0.0
0
LINE
8
0
6
CONTINUOUS
10
-0.069085
20
0.301427
30
0.0
11
-0.066204
21
0.299854
31
0.0
0
LINE
8
0
6
CONTINUOUS
10
-0.069031
20
0.301632
30
0.0
11
-0.069085
21
0.301427
31
0.0
0
LINE
8
0
6
CONTINUOUS
10
-0.062120
20
0.299515
30
0.0
11
-0.065943
21
0.300678
31
0.0
0
LINE
8
0
6
CONTINUOUS
10
-0.068867
20
0.301889
30
0.0
11
-0.069031
21
0.301632
31
0.0
0
LINE
8
0
6
CONTINUOUS
10
-0.047323
20
0.301890
30
0.0
11
-0.047554
21
0.302151
31
0.0
0
LINE
8
0
6
CONTINUOUS
10
-0.047554
20
0.302151
30
0.0
11
-0.050248
21
0.300679
31
0.0
0
LINE
8
0
6
CONTINUOUS
10
-0.049987
20
0.299854
30
0.0
11
-0.053937
21
0.298652
31
0.0
0
LINE
8
0
6
CONTINUOUS
10
-0.062255
20
0.276778
30
0.0
11
-0.058096
21
0.276371
31
0.0
0
LINE
8
0
6
CONTINUOUS
10
-0.062254
20
0.298652
30
0.0
11
-0.066204
21
0.299854
31
0.0
0
LINE
8
0
6
CONTINUOUS
10
-0.062120
20
0.299515
30
0.0
11
-0.058095
21
0.299121
31
0.0
0
LINE
8
0
6
CONTINUOUS
10
-0.065943
20
0.300678
30
0.0
11
-0.062120
21
0.299515
31
0.0
0
LINE
8
0
6
CONTINUOUS
10
-0.068636
20
0.302150
30
0.0
11
-0.065943
21
0.300678
31
0.0
0
LINE
8
0
6
CONTINUOUS
10
-0.060688
20
0.308689
30
0.0
11
-0.068636
21
0.302150
31
0.0
0
LINE
8
0
6
CONTINUOUS
10
-0.059471
20
0.309358
30
0.0
11
-0.060688
21
0.308689
31
0.0
0
LINE
8
0
6
CONTINUOUS
10
-0.058095
20
0.309583
30
0.0
11
-0.059471
21
0.309358
31
0.0
0
LINE
8
0
6
CONTINUOUS
10
-0.056720
20
0.309358
30
0.0
11
-0.058095
21
0.309583
31
0.0
0
LINE
8
0
6
CONTINUOUS
10
-0.055503
20
0.308689
30
0.0
11
-0.056720
21
0.309358
31
0.0
0
LINE
8
0
6
CONTINUOUS
10
-0.047554
20
0.302151
30
0.0
11
-0.055503
21
0.308689
31
0.0
0
LINE
8
0
6
CONTINUOUS
10
-0.050248
20
0.300679
30
0.0
11
-0.047554
21
0.302151
31
0.0
0
LINE
8
0
6
CONTINUOUS
10
-0.054071
20
0.299515
30
0.0
11
-0.050248
21
0.300679
31
0.0
0
LINE
8
0
6
CONTINUOUS
10
-0.058095
20
0.299121
30
0.0
11
-0.054071
21
0.299515
31
0.0
0
LINE
8
0
6
CONTINUOUS
10
-0.044965
20
0.281400
30
0.0
11
-0.044968
21
0.293939
31
0.0
0
LINE
8
0
6
CONTINUOUS
10
-0.046479
20
0.301770
30
0.0
11
-0.049987
21
0.299854
31
0.0
0
LINE
8
0
6
CONTINUOUS
10
-0.069749
20
0.279916
30
0.0
11
-0.066205
21
0.277980
31
0.0
0
LINE
8
0
6
CONTINUOUS
10
-0.055061
20
0.309183
30
0.0
11
-0.056453
21
0.309948
31
0.0
0
LINE
8
0
6
CONTINUOUS
10
-0.056453
20
0.309595
30
0.0
11
-0.055061
21
0.308830
31
0.0
0
LINE
8
0
6
CONTINUOUS
10
-0.056453
20
0.309948
30
0.0
11
-0.058095
21
0.310217
31
0.0
0
LINE
8
0
6
CONTINUOUS
10
-0.058095
20
0.309864
30
0.0
11
-0.056453
21
0.309595
31
0.0
0
LINE
8
0
6
CONTINUOUS
10
-0.058095
20
0.310217
30
0.0
11
-0.059738
21
0.309948
31
0.0
0
LINE
8
0
6
CONTINUOUS
10
-0.059738
20
0.309595
30
0.0
11
-0.058095
21
0.309864
31
0.0
0
LINE
8
0
6
CONTINUOUS
10
-0.059738
20
0.309948
30
0.0
11
-0.061130
21
0.309183
31
0.0
0
LINE
8
0
6
CONTINUOUS
10
-0.061130
20
0.308830
30
0.0
11
-0.059738
21
0.309595
31
0.0
0
LINE
8
0
6
CONTINUOUS
10
-0.071213
20
0.303433
30
0.0
11
-0.078255
21
0.297021
31
0.0
0
LINE
8
0
6
CONTINUOUS
10
-0.058095
20
0.310217
30
0.0
11
-0.056453
21
0.309948
31
0.0
0
LINE
8
0
6
CONTINUOUS
10
-0.046928
20
0.302492
30
0.0
11
-0.055061
21
0.309183
31
0.0
0
LINE
8
0
6
CONTINUOUS
10
-0.046697
20
0.302232
30
0.0
11
-0.046928
21
0.302492
31
0.0
0
LINE
8
0
6
CONTINUOUS
10
-0.046534
20
0.301974
30
0.0
11
-0.046697
21
0.302232
31
0.0
0
LINE
8
0
6
CONTINUOUS
10
-0.046479
20
0.301770
30
0.0
11
-0.046534
21
0.301974
31
0.0
0
LINE
8
0
6
CONTINUOUS
10
-0.055061
20
0.308830
30
0.0
11
-0.046479
21
0.301770
31
0.0
0
LINE
8
0
6
CONTINUOUS
10
-0.069657
20
0.301974
30
0.0
11
-0.069711
21
0.301769
31
0.0
0
LINE
8
0
6
CONTINUOUS
10
-0.069493
20
0.302231
30
0.0
11
-0.069657
21
0.301974
31
0.0
0
LINE
8
0
6
CONTINUOUS
10
-0.069262
20
0.302492
30
0.0
11
-0.069493
21
0.302231
31
0.0
0
LINE
8
0
6
CONTINUOUS
10
-0.061130
20
0.309183
30
0.0
11
-0.069262
21
0.302492
31
0.0
0
LINE
8
0
6
CONTINUOUS
10
-0.069711
20
0.301769
30
0.0
11
-0.061130
21
0.308830
31
0.0
0
LINE
8
0
6
CONTINUOUS
10
-0.056453
20
0.309948
30
0.0
11
-0.055061
21
0.309183
31
0.0
0
LINE
8
0
6
CONTINUOUS
10
-0.053937
20
0.298652
30
0.0
11
-0.058095
21
0.298244
31
0.0
0
LINE
8
0
6
CONTINUOUS
10
-0.070783
20
0.303814
30
0.0
11
-0.071213
21
0.303433
31
0.0
0
LINE
8
0
6
CONTINUOUS
10
-0.069493
20
0.302231
30
0.0
11
-0.069262
21
0.302492
31
0.0
0
LINE
8
0
6
CONTINUOUS
10
-0.046928
20
0.302492
30
0.0
11
-0.046697
21
0.302232
31
0.0
0
LINE
8
0
6
CONTINUOUS
10
-0.046482
20
0.301768
30
0.0
11
-0.046482
21
0.301681
31
0.0
0
LINE
8
0
6
CONTINUOUS
10
-0.046482
20
0.295424
30
0.0
11
-0.046482
21
0.295337
31
0.0
0
LINE
8
0
6
CONTINUOUS
10
-0.069708
20
0.295336
30
0.0
11
-0.069708
21
0.295422
31
0.0
0
LINE
8
0
6
CONTINUOUS
10
-0.069709
20
0.301680
30
0.0
11
-0.069709
21
0.301767
31
0.0
0
LINE
8
0
6
CONTINUOUS
10
-0.059738
20
0.309948
30
0.0
11
-0.058095
21
0.310217
31
0.0
0
LINE
8
0
6
CONTINUOUS
10
-0.036103
20
0.294276
30
0.0
11
-0.036244
21
0.294827
31
0.0
0
LINE
8
0
6
CONTINUOUS
10
-0.036094
20
0.289730
30
0.0
11
-0.036103
21
0.294276
31
0.0
0
LINE
8
0
6
CONTINUOUS
10
-0.037244
20
0.296304
30
0.0
11
-0.037950
21
0.297004
31
0.0
0
LINE
8
0
6
CONTINUOUS
10
-0.036244
20
0.294827
30
0.0
11
-0.036645
21
0.295540
31
0.0
0
LINE
8
0
6
CONTINUOUS
10
-0.037147
20
0.288628
30
0.0
11
-0.036233
21
0.289423
31
0.0
0
LINE
8
0
6
CONTINUOUS
10
-0.036233
20
0.289423
30
0.0
11
-0.036094
21
0.289730
31
0.0
0
LINE
8
0
6
CONTINUOUS
10
-0.036645
20
0.295540
30
0.0
11
-0.037244
21
0.296304
31
0.0
0
LINE
8
0
6
CONTINUOUS
10
-0.045407
20
0.303815
30
0.0
11
-0.053321
21
0.310696
31
0.0
0
LINE
8
0
6
CONTINUOUS
10
-0.044978
20
0.303433
30
0.0
11
-0.045407
21
0.303815
31
0.0
0
LINE
8
0
6
CONTINUOUS
10
-0.054457
20
0.311684
30
0.0
11
-0.055433
21
0.312532
31
0.0
0
LINE
8
0
6
CONTINUOUS
10
-0.055433
20
0.312532
30
0.0
11
-0.055699
21
0.312764
31
0.0
0
LINE
8
0
6
CONTINUOUS
10
-0.053321
20
0.310696
30
0.0
11
-0.054457
21
0.311684
31
0.0
0
LINE
8
0
6
CONTINUOUS
10
-0.061734
20
0.311684
30
0.0
11
-0.062870
21
0.310696
31
0.0
0
LINE
8
0
6
CONTINUOUS
10
-0.079958
20
0.294845
30
0.0
11
-0.080098
21
0.294293
31
0.0
0
LINE
8
0
6
CONTINUOUS
10
-0.080098
20
0.294293
30
0.0
11
-0.080089
21
0.289748
31
0.0
0
LINE
8
0
6
CONTINUOUS
10
-0.078961
20
0.296321
30
0.0
11
-0.079559
21
0.295557
31
0.0
0
LINE
8
0
6
CONTINUOUS
10
-0.078255
20
0.297021
30
0.0
11
-0.078961
21
0.296321
31
0.0
0
LINE
8
0
6
CONTINUOUS
10
-0.079559
20
0.295557
30
0.0
11
-0.079958
21
0.294845
31
0.0
0
LINE
8
0
6
CONTINUOUS
10
-0.079033
20
0.288645
30
0.0
11
-0.078932
21
0.288557
31
0.0
0
LINE
8
0
6
CONTINUOUS
10
-0.062870
20
0.310696
30
0.0
11
-0.070783
21
0.303814
31
0.0
0
LINE
8
0
6
CONTINUOUS
10
-0.060492
20
0.312763
30
0.0
11
-0.060758
21
0.312532
31
0.0
0
LINE
8
0
6
CONTINUOUS
10
-0.060758
20
0.312532
30
0.0
11
-0.061734
21
0.311684
31
0.0
0
LINE
8
0
6
CONTINUOUS
10
-0.055699
20
0.312764
30
0.0
11
-0.058096
21
0.314847
31
0.0
0
LINE
8
0
6
CONTINUOUS
10
-0.058096
20
0.314847
30
0.0
11
-0.060492
21
0.312763
31
0.0
0
LINE
8
0
6
CONTINUOUS
10
-0.061130
20
0.309183
30
0.0
11
-0.059738
21
0.309948
31
0.0
0
LINE
8
0
6
CONTINUOUS
10
-0.080873
20
0.332096
30
0.0
11
-0.080975
21
0.332008
31
0.0
0
LINE
8
0
6
CONTINUOUS
10
-0.080849
20
0.325413
30
0.0
11
-0.080345
21
0.324767
31
0.0
0
LINE
8
0
6
CONTINUOUS
10
-0.081187
20
0.326015
30
0.0
11
-0.080849
21
0.325413
31
0.0
0
LINE
8
0
6
CONTINUOUS
10
-0.081312
20
0.326502
30
0.0
11
-0.081187
21
0.326015
31
0.0
0
LINE
8
0
6
CONTINUOUS
10
-0.080345
20
0.324767
30
0.0
11
-0.079745
21
0.324117
31
0.0
0
LINE
8
0
6
CONTINUOUS
10
-0.081186
20
0.331683
30
0.0
11
-0.081321
21
0.331386
31
0.0
0
LINE
8
0
6
CONTINUOUS
10
-0.081321
20
0.331386
30
0.0
11
-0.081321
21
0.331014
31
0.0
0
LINE
8
0
6
CONTINUOUS
10
-0.080975
20
0.332008
30
0.0
11
-0.081186
21
0.331683
31
0.0
0
LINE
8
0
6
CONTINUOUS
10
-0.081321
20
0.331014
30
0.0
11
-0.081312
21
0.326502
31
0.0
0
LINE
8
0
6
CONTINUOUS
10
-0.079745
20
0.324117
30
0.0
11
-0.075398
21
0.320391
31
0.0
0
LINE
8
0
6
CONTINUOUS
10
-0.072734
20
0.324592
30
0.0
11
-0.072679
21
0.324706
31
0.0
0
LINE
8
0
6
CONTINUOUS
10
-0.072679
20
0.324706
30
0.0
11
-0.072524
21
0.324687
31
0.0
0
LINE
8
0
6
CONTINUOUS
10
-0.072306
20
0.324556
30
0.0
11
-0.064611
21
0.317485
31
0.0
0
LINE
8
0
6
CONTINUOUS
10
-0.078255
20
0.297021
30
0.0
11
-0.071213
21
0.303433
31
0.0
0
LINE
8
0
6
CONTINUOUS
10
-0.080963
20
0.290326
30
0.0
11
-0.080862
21
0.290237
31
0.0
0
LINE
8
0
6
CONTINUOUS
10
-0.064610
20
0.312208
30
0.0
11
-0.072305
21
0.305137
31
0.0
0
LINE
8
0
6
CONTINUOUS
10
-0.081174
20
0.290651
30
0.0
11
-0.080963
21
0.290326
31
0.0
0
LINE
8
0
6
CONTINUOUS
10
-0.081311
20
0.290948
30
0.0
11
-0.081174
21
0.290651
31
0.0
0
LINE
8
0
6
CONTINUOUS
10
-0.080356
20
0.297566
30
0.0
11
-0.080860
21
0.296921
31
0.0
0
LINE
8
0
6
CONTINUOUS
10
-0.080860
20
0.296921
30
0.0
11
-0.081197
21
0.296319
31
0.0
0
LINE
8
0
6
CONTINUOUS
10
-0.081320
20
0.295831
30
0.0
11
-0.081320
21
0.295484
31
0.0
0
LINE
8
0
6
CONTINUOUS
10
-0.081197
20
0.296319
30
0.0
11
-0.081320
21
0.295831
31
0.0
0
LINE
8
0
6
CONTINUOUS
10
-0.079758
20
0.298213
30
0.0
11
-0.080356
21
0.297566
31
0.0
0
LINE
8
0
6
CONTINUOUS
10
-0.081320
20
0.295484
30
0.0
11
-0.081311
21
0.290948
31
0.0
0
LINE
8
0
6
CONTINUOUS
10
-0.072523
20
0.304866
30
0.0
11
-0.079758
21
0.298213
31
0.0
0
LINE
8
0
6
CONTINUOUS
10
-0.064408
20
0.313298
30
0.0
11
-0.065178
21
0.312240
31
0.0
0
LINE
8
0
6
CONTINUOUS
10
-0.064150
20
0.314494
30
0.0
11
-0.064408
21
0.313298
31
0.0
0
LINE
8
0
6
CONTINUOUS
10
-0.063421
20
0.314494
30
0.0
11
-0.063730
21
0.315922
31
0.0
0
LINE
8
0
6
CONTINUOUS
10
-0.063730
20
0.315922
30
0.0
11
-0.064611
21
0.317133
31
0.0
0
LINE
8
0
6
CONTINUOUS
10
-0.073123
20
0.304938
30
0.0
11
-0.072730
21
0.304394
31
0.0
0
LINE
8
0
6
CONTINUOUS
10
-0.065178
20
0.312240
30
0.0
11
-0.073121
21
0.304940
31
0.0
0
LINE
8
0
6
CONTINUOUS
10
-0.072731
20
0.324594
30
0.0
11
-0.073124
21
0.324050
31
0.0
0
LINE
8
0
6
CONTINUOUS
10
-0.064611
20
0.317133
30
0.0
11
-0.072731
21
0.324594
31
0.0
0
LINE
8
0
6
CONTINUOUS
10
-0.072699
20
0.324012
30
0.0
11
-0.072918
21
0.324143
31
0.0
0
LINE
8
0
6
CONTINUOUS
10
-0.074391
20
0.321670
30
0.0
11
-0.072699
21
0.324012
31
0.0
0
LINE
8
0
6
CONTINUOUS
10
-0.076785
20
0.314494
30
0.0
11
-0.076316
21
0.310878
31
0.0
0
LINE
8
0
6
CONTINUOUS
10
-0.076316
20
0.310878
30
0.0
11
-0.074934
21
0.307444
31
0.0
0
LINE
8
0
6
CONTINUOUS
10
-0.076316
20
0.318110
30
0.0
11
-0.076785
21
0.314494
31
0.0
0
LINE
8
0
6
CONTINUOUS
10
-0.073123
20
0.304938
30
0.0
11
-0.073071
21
0.305145
31
0.0
0
LINE
8
0
6
CONTINUOUS
10
-0.074934
20
0.307444
30
0.0
11
-0.073123
21
0.304938
31
0.0
0
LINE
8
0
6
CONTINUOUS
10
-0.075729
20
0.311347
30
0.0
11
-0.076182
21
0.314847
31
0.0
0
LINE
8
0
6
CONTINUOUS
10
-0.074934
20
0.321545
30
0.0
11
-0.076316
21
0.318110
31
0.0
0
LINE
8
0
6
CONTINUOUS
10
-0.074868
20
0.321677
30
0.0
11
-0.074934
21
0.321545
31
0.0
0
LINE
8
0
6
CONTINUOUS
10
-0.073071
20
0.305145
30
0.0
11
-0.072917
21
0.305410
31
0.0
0
LINE
8
0
6
CONTINUOUS
10
-0.074391
20
0.308024
30
0.0
11
-0.075729
21
0.311347
31
0.0
0
LINE
8
0
6
CONTINUOUS
10
-0.076182
20
0.314847
30
0.0
11
-0.075729
21
0.318346
31
0.0
0
LINE
8
0
6
CONTINUOUS
10
-0.075729
20
0.318346
30
0.0
11
-0.074391
21
0.321670
31
0.0
0
LINE
8
0
6
CONTINUOUS
10
-0.073073
20
0.324162
30
0.0
11
-0.074868
21
0.321677
31
0.0
0
LINE
8
0
6
CONTINUOUS
10
-0.072918
20
0.324143
30
0.0
11
-0.073073
21
0.324162
31
0.0
0
LINE
8
0
6
CONTINUOUS
10
-0.072917
20
0.305410
30
0.0
11
-0.072698
21
0.305681
31
0.0
0
LINE
8
0
6
CONTINUOUS
10
-0.072698
20
0.305681
30
0.0
11
-0.074391
21
0.308024
31
0.0
0
LINE
8
0
6
CONTINUOUS
10
-0.074934
20
0.307444
30
0.0
11
-0.076316
21
0.310878
31
0.0
0
LINE
8
0
6
CONTINUOUS
10
-0.075729
20
0.318346
30
0.0
11
-0.076182
21
0.314847
31
0.0
0
LINE
8
0
6
CONTINUOUS
10
-0.074391
20
0.321670
30
0.0
11
-0.075729
21
0.318346
31
0.0
0
LINE
8
0
6
CONTINUOUS
10
-0.072699
20
0.324012
30
0.0
11
-0.074391
21
0.321670
31
0.0
0
LINE
8
0
6
CONTINUOUS
10
-0.065178
20
0.317101
30
0.0
11
-0.072697
21
0.324010
31
0.0
0
LINE
8
0
6
CONTINUOUS
10
-0.064409
20
0.316043
30
0.0
11
-0.065178
21
0.317101
31
0.0
0
LINE
8
0
6
CONTINUOUS
10
-0.064150
20
0.314847
30
0.0
11
-0.064409
21
0.316043
31
0.0
0
LINE
8
0
6
CONTINUOUS
10
-0.064408
20
0.313651
30
0.0
11
-0.064150
21
0.314847
31
0.0
0
LINE
8
0
6
CONTINUOUS
10
-0.065178
20
0.312593
30
0.0
11
-0.064408
21
0.313651
31
0.0
0
LINE
8
0
6
CONTINUOUS
10
-0.072698
20
0.305681
30
0.0
11
-0.065178
21
0.312593
31
0.0
0
LINE
8
0
6
CONTINUOUS
10
-0.074391
20
0.308024
30
0.0
11
-0.072698
21
0.305681
31
0.0
0
LINE
8
0
6
CONTINUOUS
10
-0.075729
20
0.311347
30
0.0
11
-0.074391
21
0.308024
31
0.0
0
LINE
8
0
6
CONTINUOUS
10
-0.076182
20
0.314847
30
0.0
11
-0.075729
21
0.311347
31
0.0
0
LINE
8
0
6
CONTINUOUS
10
-0.072851
20
0.304562
30
0.0
11
-0.074934
21
0.307444
31
0.0
0
LINE
8
0
6
CONTINUOUS
10
-0.064408
20
0.313651
30
0.0
11
-0.065178
21
0.312593
31
0.0
0
LINE
8
0
6
CONTINUOUS
10
-0.065178
20
0.312240
30
0.0
11
-0.064408
21
0.313298
31
0.0
0
LINE
8
0
6
CONTINUOUS
10
-0.064150
20
0.314847
30
0.0
11
-0.064408
21
0.313651
31
0.0
0
LINE
8
0
6
CONTINUOUS
10
-0.064150
20
0.314494
30
0.0
11
-0.064150
21
0.314847
31
0.0
0
LINE
8
0
6
CONTINUOUS
10
-0.064408
20
0.313298
30
0.0
11
-0.064150
21
0.314494
31
0.0
0
LINE
8
0
6
CONTINUOUS
10
-0.063421
20
0.314847
30
0.0
11
-0.063730
21
0.316275
31
0.0
0
LINE
8
0
6
CONTINUOUS
10
-0.063730
20
0.315922
30
0.0
11
-0.063421
21
0.314494
31
0.0
0
LINE
8
0
6
CONTINUOUS
10
-0.063730
20
0.316275
30
0.0
11
-0.064611
21
0.317485
31
0.0
0
LINE
8
0
6
CONTINUOUS
10
-0.064611
20
0.317133
30
0.0
11
-0.063730
21
0.315922
31
0.0
0
LINE
8
0
6
CONTINUOUS
10
-0.071213
20
0.326244
30
0.0
11
-0.078255
21
0.332100
31
0.0
0
LINE
8
0
6
CONTINUOUS
10
-0.063421
20
0.314847
30
0.0
11
-0.063730
21
0.313419
31
0.0
0
LINE
8
0
6
CONTINUOUS
10
-0.073071
20
0.305145
30
0.0
11
-0.073123
21
0.304938
31
0.0
0
LINE
8
0
6
CONTINUOUS
10
-0.072917
20
0.305410
30
0.0
11
-0.073071
21
0.305145
31
0.0
0
LINE
8
0
6
CONTINUOUS
10
-0.072698
20
0.305681
30
0.0
11
-0.072917
21
0.305410
31
0.0
0
LINE
8
0
6
CONTINUOUS
10
-0.065178
20
0.312593
30
0.0
11
-0.072696
21
0.305683
31
0.0
0
LINE
8
0
6
CONTINUOUS
10
-0.073123
20
0.304938
30
0.0
11
-0.065178
21
0.312240
31
0.0
0
LINE
8
0
6
CONTINUOUS
10
-0.072679
20
0.324706
30
0.0
11
-0.072731
21
0.324594
31
0.0
0
LINE
8
0
6
CONTINUOUS
10
-0.072524
20
0.324687
30
0.0
11
-0.072679
21
0.324706
31
0.0
0
LINE
8
0
6
CONTINUOUS
10
-0.072306
20
0.324556
30
0.0
11
-0.072524
21
0.324687
31
0.0
0
LINE
8
0
6
CONTINUOUS
10
-0.064611
20
0.317485
30
0.0
11
-0.072306
21
0.324556
31
0.0
0
LINE
8
0
6
CONTINUOUS
10
-0.072731
20
0.324594
30
0.0
11
-0.064611
21
0.317133
31
0.0
0
LINE
8
0
6
CONTINUOUS
10
-0.063730
20
0.313419
30
0.0
11
-0.064610
21
0.312208
31
0.0
0
LINE
8
0
6
CONTINUOUS
10
-0.076785
20
0.314494
30
0.0
11
-0.076785
21
0.300947
31
0.0
0
LINE
8
0
6
CONTINUOUS
10
-0.076316
20
0.310878
30
0.0
11
-0.076781
21
0.314469
31
0.0
0
LINE
8
0
6
CONTINUOUS
10
-0.070785
20
0.325879
30
0.0
11
-0.071213
21
0.326244
31
0.0
0
LINE
8
0
6
CONTINUOUS
10
-0.072524
20
0.324687
30
0.0
11
-0.072306
21
0.324556
31
0.0
0
LINE
8
0
6
CONTINUOUS
10
-0.072305
20
0.305137
30
0.0
11
-0.072523
21
0.304866
31
0.0
0
LINE
8
0
6
CONTINUOUS
10
-0.063730
20
0.316275
30
0.0
11
-0.063421
21
0.314847
31
0.0
0
LINE
8
0
6
CONTINUOUS
10
-0.080098
20
0.294293
30
0.0
11
-0.079958
21
0.294845
31
0.0
0
LINE
8
0
6
CONTINUOUS
10
-0.080089
20
0.289748
30
0.0
11
-0.080098
21
0.294293
31
0.0
0
LINE
8
0
6
CONTINUOUS
10
-0.078961
20
0.296321
30
0.0
11
-0.078255
21
0.297021
31
0.0
0
LINE
8
0
6
CONTINUOUS
10
-0.079958
20
0.294845
30
0.0
11
-0.079559
21
0.295557
31
0.0
0
LINE
8
0
6
CONTINUOUS
10
-0.080862
20
0.290237
30
0.0
11
-0.079947
21
0.289441
31
0.0
0
LINE
8
0
6
CONTINUOUS
10
-0.079947
20
0.289441
30
0.0
11
-0.080089
21
0.289748
31
0.0
0
LINE
8
0
6
CONTINUOUS
10
-0.079559
20
0.295557
30
0.0
11
-0.078961
21
0.296321
31
0.0
0
LINE
8
0
6
CONTINUOUS
10
-0.070783
20
0.303814
30
0.0
11
-0.062870
21
0.310695
31
0.0
0
LINE
8
0
6
CONTINUOUS
10
-0.071213
20
0.303433
30
0.0
11
-0.070783
21
0.303814
31
0.0
0
LINE
8
0
6
CONTINUOUS
10
-0.061734
20
0.311683
30
0.0
11
-0.060759
21
0.312532
31
0.0
0
LINE
8
0
6
CONTINUOUS
10
-0.060759
20
0.312532
30
0.0
11
-0.060492
21
0.312763
31
0.0
0
LINE
8
0
6
CONTINUOUS
10
-0.062870
20
0.310695
30
0.0
11
-0.061734
21
0.311683
31
0.0
0
LINE
8
0
6
CONTINUOUS
10
-0.061734
20
0.318011
30
0.0
11
-0.062871
21
0.318999
31
0.0
0
LINE
8
0
6
CONTINUOUS
10
-0.078961
20
0.332629
30
0.0
11
-0.079560
21
0.332907
31
0.0
0
LINE
8
0
6
CONTINUOUS
10
-0.078255
20
0.332100
30
0.0
11
-0.078961
21
0.332629
31
0.0
0
LINE
8
0
6
CONTINUOUS
10
-0.079959
20
0.332892
30
0.0
11
-0.080873
21
0.332096
31
0.0
0
LINE
8
0
6
CONTINUOUS
10
-0.079560
20
0.332907
30
0.0
11
-0.079959
21
0.332892
31
0.0
0
LINE
8
0
6
CONTINUOUS
10
-0.062871
20
0.318999
30
0.0
11
-0.070785
21
0.325879
31
0.0
0
LINE
8
0
6
CONTINUOUS
10
-0.060492
20
0.316931
30
0.0
11
-0.060759
21
0.317162
31
0.0
0
LINE
8
0
6
CONTINUOUS
10
-0.060759
20
0.317162
30
0.0
11
-0.061734
21
0.318011
31
0.0
0
LINE
8
0
6
CONTINUOUS
10
-0.060492
20
0.312763
30
0.0
11
-0.058096
21
0.314847
31
0.0
0
LINE
8
0
6
CONTINUOUS
10
-0.058096
20
0.314847
30
0.0
11
-0.060492
21
0.316931
31
0.0
0
LINE
8
0
6
CONTINUOUS
10
-0.064611
20
0.317485
30
0.0
11
-0.063730
21
0.316275
31
0.0
0
LINE
8
0
6
CONTINUOUS
10
-0.037159
20
0.333670
30
0.0
11
-0.037261
21
0.333759
31
0.0
0
LINE
8
0
6
CONTINUOUS
10
-0.037614
20
0.333924
30
0.0
11
-0.037998
21
0.333940
31
0.0
0
LINE
8
0
6
CONTINUOUS
10
-0.037261
20
0.333759
30
0.0
11
-0.037614
21
0.333924
31
0.0
0
LINE
8
0
6
CONTINUOUS
10
-0.038353
20
0.333900
30
0.0
11
-0.038860
21
0.333667
31
0.0
0
LINE
8
0
6
CONTINUOUS
10
-0.037998
20
0.333940
30
0.0
11
-0.038353
21
0.333900
31
0.0
0
LINE
8
0
6
CONTINUOUS
10
-0.038860
20
0.333667
30
0.0
11
-0.039512
21
0.333226
31
0.0
0
LINE
8
0
6
CONTINUOUS
10
-0.039512
20
0.333226
30
0.0
11
-0.046535
21
0.327334
31
0.0
0
LINE
8
0
6
CONTINUOUS
10
-0.039266
20
0.333170
30
0.0
11
-0.046699
21
0.327322
31
0.0
0
LINE
8
0
6
CONTINUOUS
10
-0.046930
20
0.327203
30
0.0
11
-0.055062
21
0.320512
31
0.0
0
LINE
8
0
6
CONTINUOUS
10
-0.078255
20
0.332100
30
0.0
11
-0.071213
21
0.326244
31
0.0
0
LINE
8
0
6
CONTINUOUS
10
-0.078943
20
0.333776
30
0.0
11
-0.079045
21
0.333687
31
0.0
0
LINE
8
0
6
CONTINUOUS
10
-0.061131
20
0.320512
30
0.0
11
-0.069264
21
0.327202
31
0.0
0
LINE
8
0
6
CONTINUOUS
10
-0.077851
20
0.333916
30
0.0
11
-0.078207
21
0.333956
31
0.0
0
LINE
8
0
6
CONTINUOUS
10
-0.077346
20
0.333682
30
0.0
11
-0.077851
21
0.333916
31
0.0
0
LINE
8
0
6
CONTINUOUS
10
-0.078590
20
0.333941
30
0.0
11
-0.078943
21
0.333776
31
0.0
0
LINE
8
0
6
CONTINUOUS
10
-0.078207
20
0.333956
30
0.0
11
-0.078590
21
0.333941
31
0.0
0
LINE
8
0
6
CONTINUOUS
10
-0.076689
20
0.333237
30
0.0
11
-0.077346
21
0.333682
31
0.0
0
LINE
8
0
6
CONTINUOUS
10
-0.069495
20
0.327322
30
0.0
11
-0.076689
21
0.333237
31
0.0
0
LINE
8
0
6
CONTINUOUS
10
-0.059472
20
0.319983
30
0.0
11
-0.060689
21
0.320652
31
0.0
0
LINE
8
0
6
CONTINUOUS
10
-0.058097
20
0.319758
30
0.0
11
-0.059472
21
0.319983
31
0.0
0
LINE
8
0
6
CONTINUOUS
10
-0.056721
20
0.319983
30
0.0
11
-0.058097
21
0.319758
31
0.0
0
LINE
8
0
6
CONTINUOUS
10
-0.055504
20
0.320652
30
0.0
11
-0.056721
21
0.319983
31
0.0
0
LINE
8
0
6
CONTINUOUS
10
-0.069087
20
0.327561
30
0.0
11
-0.069713
21
0.327219
31
0.0
0
LINE
8
0
6
CONTINUOUS
10
-0.060689
20
0.320652
30
0.0
11
-0.069087
21
0.327561
31
0.0
0
LINE
8
0
6
CONTINUOUS
10
-0.046481
20
0.327219
30
0.0
11
-0.047107
21
0.327561
31
0.0
0
LINE
8
0
6
CONTINUOUS
10
-0.047107
20
0.327561
30
0.0
11
-0.055504
21
0.320652
31
0.0
0
LINE
8
0
6
CONTINUOUS
10
-0.047556
20
0.327545
30
0.0
11
-0.047325
21
0.327664
31
0.0
0
LINE
8
0
6
CONTINUOUS
10
-0.050249
20
0.329016
30
0.0
11
-0.047556
21
0.327545
31
0.0
0
LINE
8
0
6
CONTINUOUS
10
-0.058097
20
0.330840
30
0.0
11
-0.062239
21
0.330434
31
0.0
0
LINE
8
0
6
CONTINUOUS
10
-0.062239
20
0.330434
30
0.0
11
-0.066174
21
0.329237
31
0.0
0
LINE
8
0
6
CONTINUOUS
10
-0.062121
20
0.330179
30
0.0
11
-0.058097
21
0.330573
31
0.0
0
LINE
8
0
6
CONTINUOUS
10
-0.053954
20
0.330435
30
0.0
11
-0.058097
21
0.330840
31
0.0
0
LINE
8
0
6
CONTINUOUS
10
-0.069032
20
0.327675
30
0.0
11
-0.068869
21
0.327664
31
0.0
0
LINE
8
0
6
CONTINUOUS
10
-0.066174
20
0.329237
30
0.0
11
-0.069032
21
0.327675
31
0.0
0
LINE
8
0
6
CONTINUOUS
10
-0.065944
20
0.329016
30
0.0
11
-0.062121
21
0.330179
31
0.0
0
LINE
8
0
6
CONTINUOUS
10
-0.058097
20
0.330573
30
0.0
11
-0.054072
21
0.330179
31
0.0
0
LINE
8
0
6
CONTINUOUS
10
-0.050019
20
0.329237
30
0.0
11
-0.053954
21
0.330435
31
0.0
0
LINE
8
0
6
CONTINUOUS
10
-0.054072
20
0.330179
30
0.0
11
-0.050249
21
0.329016
31
0.0
0
LINE
8
0
6
CONTINUOUS
10
-0.047161
20
0.327676
30
0.0
11
-0.050019
21
0.329237
31
0.0
0
LINE
8
0
6
CONTINUOUS
10
-0.047325
20
0.327664
30
0.0
11
-0.047161
21
0.327676
31
0.0
0
LINE
8
0
6
CONTINUOUS
10
-0.068869
20
0.327664
30
0.0
11
-0.068638
21
0.327544
31
0.0
0
LINE
8
0
6
CONTINUOUS
10
-0.068638
20
0.327544
30
0.0
11
-0.065944
21
0.329016
31
0.0
0
LINE
8
0
6
CONTINUOUS
10
-0.054072
20
0.330179
30
0.0
11
-0.058097
21
0.330573
31
0.0
0
LINE
8
0
6
CONTINUOUS
10
-0.050249
20
0.329016
30
0.0
11
-0.054072
21
0.330179
31
0.0
0
LINE
8
0
6
CONTINUOUS
10
-0.047556
20
0.327545
30
0.0
11
-0.050249
21
0.329016
31
0.0
0
LINE
8
0
6
CONTINUOUS
10
-0.055504
20
0.321005
30
0.0
11
-0.047556
21
0.327545
31
0.0
0
LINE
8
0
6
CONTINUOUS
10
-0.056721
20
0.320336
30
0.0
11
-0.055504
21
0.321005
31
0.0
0
LINE
8
0
6
CONTINUOUS
10
-0.058097
20
0.320111
30
0.0
11
-0.056721
21
0.320336
31
0.0
0
LINE
8
0
6
CONTINUOUS
10
-0.059472
20
0.320336
30
0.0
11
-0.058097
21
0.320111
31
0.0
0
LINE
8
0
6
CONTINUOUS
10
-0.060689
20
0.321005
30
0.0
11
-0.059472
21
0.320336
31
0.0
0
LINE
8
0
6
CONTINUOUS
10
-0.068638
20
0.327544
30
0.0
11
-0.060689
21
0.321005
31
0.0
0
LINE
8
0
6
CONTINUOUS
10
-0.065944
20
0.329016
30
0.0
11
-0.068638
21
0.327544
31
0.0
0
LINE
8
0
6
CONTINUOUS
10
-0.062121
20
0.330179
30
0.0
11
-0.065944
21
0.329016
31
0.0
0
LINE
8
0
6
CONTINUOUS
10
-0.058097
20
0.330573
30
0.0
11
-0.062121
21
0.330179
31
0.0
0
LINE
8
0
6
CONTINUOUS
10
-0.059472
20
0.320336
30
0.0
11
-0.060689
21
0.321005
31
0.0
0
LINE
8
0
6
CONTINUOUS
10
-0.060689
20
0.320652
30
0.0
11
-0.059472
21
0.319983
31
0.0
0
LINE
8
0
6
CONTINUOUS
10
-0.058097
20
0.320111
30
0.0
11
-0.059472
21
0.320336
31
0.0
0
LINE
8
0
6
CONTINUOUS
10
-0.059472
20
0.319983
30
0.0
11
-0.058097
21
0.319758
31
0.0
0
LINE
8
0
6
CONTINUOUS
10
-0.056721
20
0.320336
30
0.0
11
-0.058097
21
0.320111
31
0.0
0
LINE
8
0
6
CONTINUOUS
10
-0.058097
20
0.319758
30
0.0
11
-0.056721
21
0.319983
31
0.0
0
LINE
8
0
6
CONTINUOUS
10
-0.055504
20
0.321005
30
0.0
11
-0.056721
21
0.320336
31
0.0
0
LINE
8
0
6
CONTINUOUS
10
-0.056721
20
0.319983
30
0.0
11
-0.055504
21
0.320652
31
0.0
0
LINE
8
0
6
CONTINUOUS
10
-0.044979
20
0.326244
30
0.0
11
-0.037951
21
0.332084
31
0.0
0
LINE
8
0
6
CONTINUOUS
10
-0.058097
20
0.319478
30
0.0
11
-0.059739
21
0.319746
31
0.0
0
LINE
8
0
6
CONTINUOUS
10
-0.069032
20
0.327675
30
0.0
11
-0.069087
21
0.327561
31
0.0
0
LINE
8
0
6
CONTINUOUS
10
-0.068869
20
0.327664
30
0.0
11
-0.069032
21
0.327675
31
0.0
0
LINE
8
0
6
CONTINUOUS
10
-0.068638
20
0.327544
30
0.0
11
-0.068869
21
0.327664
31
0.0
0
LINE
8
0
6
CONTINUOUS
10
-0.060689
20
0.321005
30
0.0
11
-0.068638
21
0.327544
31
0.0
0
LINE
8
0
6
CONTINUOUS
10
-0.069087
20
0.327561
30
0.0
11
-0.060689
21
0.320652
31
0.0
0
LINE
8
0
6
CONTINUOUS
10
-0.047556
20
0.327545
30
0.0
11
-0.055504
21
0.321005
31
0.0
0
LINE
8
0
6
CONTINUOUS
10
-0.047325
20
0.327664
30
0.0
11
-0.047556
21
0.327545
31
0.0
0
LINE
8
0
6
CONTINUOUS
10
-0.047161
20
0.327676
30
0.0
11
-0.047325
21
0.327664
31
0.0
0
LINE
8
0
6
CONTINUOUS
10
-0.047107
20
0.327561
30
0.0
11
-0.047161
21
0.327676
31
0.0
0
LINE
8
0
6
CONTINUOUS
10
-0.055504
20
0.320652
30
0.0
11
-0.047107
21
0.327561
31
0.0
0
LINE
8
0
6
CONTINUOUS
10
-0.059739
20
0.319746
30
0.0
11
-0.061131
21
0.320512
31
0.0
0
LINE
8
0
6
CONTINUOUS
10
-0.045408
20
0.325880
30
0.0
11
-0.044979
21
0.326244
31
0.0
0
LINE
8
0
6
CONTINUOUS
10
-0.046699
20
0.327322
30
0.0
11
-0.046930
21
0.327203
31
0.0
0
LINE
8
0
6
CONTINUOUS
10
-0.069264
20
0.327202
30
0.0
11
-0.069495
21
0.327322
31
0.0
0
LINE
8
0
6
CONTINUOUS
10
-0.056454
20
0.319746
30
0.0
11
-0.058097
21
0.319478
31
0.0
0
LINE
8
0
6
CONTINUOUS
10
-0.078961
20
0.332629
30
0.0
11
-0.078255
21
0.332100
31
0.0
0
LINE
8
0
6
CONTINUOUS
10
-0.079045
20
0.333687
30
0.0
11
-0.079959
21
0.332892
31
0.0
0
LINE
8
0
6
CONTINUOUS
10
-0.079959
20
0.332892
30
0.0
11
-0.079560
21
0.332907
31
0.0
0
LINE
8
0
6
CONTINUOUS
10
-0.079560
20
0.332907
30
0.0
11
-0.078961
21
0.332629
31
0.0
0
LINE
8
0
6
CONTINUOUS
10
-0.070785
20
0.325879
30
0.0
11
-0.062871
21
0.318999
31
0.0
0
LINE
8
0
6
CONTINUOUS
10
-0.071213
20
0.326244
30
0.0
11
-0.070785
21
0.325879
31
0.0
0
LINE
8
0
6
CONTINUOUS
10
-0.061735
20
0.318011
30
0.0
11
-0.060759
21
0.317162
31
0.0
0
LINE
8
0
6
CONTINUOUS
10
-0.060759
20
0.317162
30
0.0
11
-0.060493
21
0.316931
31
0.0
0
LINE
8
0
6
CONTINUOUS
10
-0.062871
20
0.318999
30
0.0
11
-0.061735
21
0.318011
31
0.0
0
LINE
8
0
6
CONTINUOUS
10
-0.054458
20
0.318011
30
0.0
11
-0.053322
21
0.318999
31
0.0
0
LINE
8
0
6
CONTINUOUS
10
-0.037245
20
0.332612
30
0.0
11
-0.036646
21
0.332890
31
0.0
0
LINE
8
0
6
CONTINUOUS
10
-0.037951
20
0.332084
30
0.0
11
-0.037245
21
0.332612
31
0.0
0
LINE
8
0
6
CONTINUOUS
10
-0.036245
20
0.332874
30
0.0
11
-0.037159
21
0.333670
31
0.0
0
LINE
8
0
6
CONTINUOUS
10
-0.036646
20
0.332890
30
0.0
11
-0.036245
21
0.332874
31
0.0
0
LINE
8
0
6
CONTINUOUS
10
-0.053322
20
0.318999
30
0.0
11
-0.045408
21
0.325880
31
0.0
0
LINE
8
0
6
CONTINUOUS
10
-0.055700
20
0.316931
30
0.0
11
-0.055433
21
0.317162
31
0.0
0
LINE
8
0
6
CONTINUOUS
10
-0.055433
20
0.317162
30
0.0
11
-0.054458
21
0.318011
31
0.0
0
LINE
8
0
6
CONTINUOUS
10
-0.060493
20
0.316931
30
0.0
11
-0.058096
21
0.314847
31
0.0
0
LINE
8
0
6
CONTINUOUS
10
-0.058096
20
0.314847
30
0.0
11
-0.055700
21
0.316931
31
0.0
0
LINE
8
0
6
CONTINUOUS
10
-0.055062
20
0.320512
30
0.0
11
-0.056454
21
0.319746
31
0.0
0
LINE
8
0
6
CONTINUOUS
10
-0.044968
20
0.293942
30
0.0
11
-0.044965
21
0.281397
31
0.0
0
LINE
8
0
6
CONTINUOUS
10
-0.053938
20
0.276778
30
0.0
11
-0.049988
21
0.277980
31
0.0
0
LINE
8
0
6
CONTINUOUS
10
-0.058095
20
0.298244
30
0.0
11
-0.062254
21
0.298652
31
0.0
0
LINE
8
0
6
CONTINUOUS
10
-0.066205
20
0.277980
30
0.0
11
-0.062255
21
0.276778
31
0.0
0
LINE
8
0
6
CONTINUOUS
10
-0.071228
20
0.281202
30
0.0
11
-0.069749
21
0.279916
31
0.0
0
LINE
8
0
6
CONTINUOUS
10
-0.046444
20
0.279916
30
0.0
11
-0.044965
21
0.281202
31
0.0
0
LINE
8
0
6
CONTINUOUS
10
-0.044965
20
0.281202
30
0.0
11
-0.044965
21
0.281400
31
0.0
0
LINE
8
0
6
CONTINUOUS
10
-0.049988
20
0.277980
30
0.0
11
-0.046444
21
0.279916
31
0.0
0
LINE
8
0
6
CONTINUOUS
10
-0.066204
20
0.299854
30
0.0
11
-0.069711
21
0.301769
31
0.0
0
LINE
8
0
6
CONTINUOUS
10
-0.058096
20
0.276371
30
0.0
11
-0.053938
21
0.276778
31
0.0
0
LINE
8
0
6
CONTINUOUS
10
-0.076317
20
0.289004
30
0.0
11
-0.074935
21
0.285570
31
0.0
0
LINE
8
0
6
CONTINUOUS
10
-0.074935
20
0.285570
30
0.0
11
-0.072708
21
0.282489
31
0.0
0
LINE
8
0
6
CONTINUOUS
10
-0.076364
20
0.289369
30
0.0
11
-0.076317
21
0.289004
31
0.0
0
LINE
8
0
6
CONTINUOUS
10
-0.072708
20
0.282489
30
0.0
11
-0.071228
21
0.281202
31
0.0
0
LINE
8
0
6
CONTINUOUS
10
-0.039408
20
0.300880
30
0.0
11
-0.039407
21
0.314469
31
0.0
0
LINE
8
0
6
CONTINUOUS
10
-0.039407
20
0.314495
30
0.0
11
-0.039876
21
0.310879
31
0.0
0
LINE
8
0
6
CONTINUOUS
10
-0.041259
20
0.285570
30
0.0
11
-0.039877
21
0.289005
31
0.0
0
LINE
8
0
6
CONTINUOUS
10
-0.041258
20
0.307444
30
0.0
11
-0.043067
21
0.304941
31
0.0
0
LINE
8
0
6
CONTINUOUS
10
-0.043068
20
0.304939
30
0.0
11
-0.043461
21
0.304395
31
0.0
0
LINE
8
0
6
CONTINUOUS
10
-0.044965
20
0.281397
30
0.0
11
-0.044965
21
0.281202
31
0.0
0
LINE
8
0
6
CONTINUOUS
10
-0.044965
20
0.281202
30
0.0
11
-0.043485
21
0.282489
31
0.0
0
LINE
8
0
6
CONTINUOUS
10
-0.122827
20
-0.326299
30
0.0
11
-0.117970
21
-0.322533
31
0.0
0
LINE
8
0
6
CONTINUOUS
10
-0.117970
20
-0.322533
30
0.0
11
-0.116117
21
-0.320105
31
0.0
0
LINE
8
0
6
CONTINUOUS
10
-0.113401
20
-0.311331
30
0.0
11
-0.112780
21
-0.308585
31
0.0
0
LINE
8
0
6
CONTINUOUS
10
-0.116117
20
-0.320105
30
0.0
11
-0.113401
21
-0.311331
31
0.0
0
LINE
8
0
6
CONTINUOUS
10
-0.112780
20
-0.308585
30
0.0
11
-0.110282
21
-0.297256
31
0.0
0
LINE
8
0
6
CONTINUOUS
10
-0.110282
20
-0.297256
30
0.0
11
-0.107430
21
-0.279042
31
0.0
0
LINE
8
0
6
CONTINUOUS
10
-0.107430
20
-0.279042
30
0.0
11
-0.105048
21
-0.261641
31
0.0
0
LINE
8
0
6
CONTINUOUS
10
-0.105048
20
-0.261641
30
0.0
11
-0.102890
21
-0.240642
31
0.0
0
LINE
8
0
6
CONTINUOUS
10
-0.102890
20
-0.240642
30
0.0
11
-0.100737
21
-0.217273
31
0.0
0
LINE
8
0
6
CONTINUOUS
10
-0.100737
20
-0.217273
30
0.0
11
-0.099028
21
-0.194407
31
0.0
0
LINE
8
0
6
CONTINUOUS
10
-0.099028
20
-0.194407
30
0.0
11
-0.097573
21
-0.171774
31
0.0
0
LINE
8
0
6
CONTINUOUS
10
-0.097573
20
-0.171774
30
0.0
11
-0.096535
21
-0.152187
31
0.0
0
LINE
8
0
6
CONTINUOUS
10
-0.123315
20
-0.278121
30
0.0
11
-0.124840
21
-0.287863
31
0.0
0
LINE
8
0
6
CONTINUOUS
10
-0.120935
20
-0.260720
30
0.0
11
-0.123315
21
-0.278121
31
0.0
0
LINE
8
0
6
CONTINUOUS
10
-0.118775
20
-0.239722
30
0.0
11
-0.120935
21
-0.260720
31
0.0
0
LINE
8
0
6
CONTINUOUS
10
-0.116622
20
-0.216352
30
0.0
11
-0.118775
21
-0.239722
31
0.0
0
LINE
8
0
6
CONTINUOUS
10
-0.114914
20
-0.193486
30
0.0
11
-0.116622
21
-0.216352
31
0.0
0
LINE
8
0
6
CONTINUOUS
10
-0.113460
20
-0.170854
30
0.0
11
-0.114914
21
-0.193486
31
0.0
0
LINE
8
0
6
CONTINUOUS
10
-0.112421
20
-0.151266
30
0.0
11
-0.113460
21
-0.170854
31
0.0
0
LINE
8
0
6
CONTINUOUS
10
-0.095402
20
-0.027651
30
0.0
11
-0.095491
21
-0.008720
31
0.0
0
LINE
8
0
6
CONTINUOUS
10
-0.095491
20
-0.008720
30
0.0
11
-0.095325
21
0.013392
31
0.0
0
LINE
8
0
6
CONTINUOUS
10
-0.095325
20
0.013392
30
0.0
11
-0.094869
21
0.037673
31
0.0
0
LINE
8
0
6
CONTINUOUS
10
-0.094869
20
0.037673
30
0.0
11
-0.094261
21
0.061808
31
0.0
0
LINE
8
0
6
CONTINUOUS
10
-0.094261
20
0.061808
30
0.0
11
-0.093561
21
0.084316
31
0.0
0
LINE
8
0
6
CONTINUOUS
10
-0.093561
20
0.084316
30
0.0
11
-0.092244
21
0.116899
31
0.0
0
LINE
8
0
6
CONTINUOUS
10
-0.094849
20
-0.068026
30
0.0
11
-0.095159
21
-0.049297
31
0.0
0
LINE
8
0
6
CONTINUOUS
10
-0.094778
20
-0.089350
30
0.0
11
-0.094849
21
-0.068026
31
0.0
0
LINE
8
0
6
CONTINUOUS
10
-0.095142
20
-0.110978
30
0.0
11
-0.094778
21
-0.089350
31
0.0
0
LINE
8
0
6
CONTINUOUS
10
-0.095761
20
-0.132841
30
0.0
11
-0.095142
21
-0.110978
31
0.0
0
LINE
8
0
6
CONTINUOUS
10
-0.096535
20
-0.152187
30
0.0
11
-0.095761
21
-0.132841
31
0.0
0
LINE
8
0
6
CONTINUOUS
10
-0.110736
20
-0.067106
30
0.0
11
-0.110664
21
-0.088429
31
0.0
0
LINE
8
0
6
CONTINUOUS
10
-0.110664
20
-0.088429
30
0.0
11
-0.111028
21
-0.110059
31
0.0
0
LINE
8
0
6
CONTINUOUS
10
-0.111028
20
-0.110059
30
0.0
11
-0.111646
21
-0.131921
31
0.0
0
LINE
8
0
6
CONTINUOUS
10
-0.111646
20
-0.131921
30
0.0
11
-0.112421
21
-0.151266
31
0.0
0
LINE
8
0
6
CONTINUOUS
10
-0.111288
20
-0.026730
30
0.0
11
-0.111044
21
-0.048377
31
0.0
0
LINE
8
0
6
CONTINUOUS
10
-0.111376
20
-0.007799
30
0.0
11
-0.111288
21
-0.026730
31
0.0
0
LINE
8
0
6
CONTINUOUS
10
-0.111211
20
0.014313
30
0.0
11
-0.111376
21
-0.007799
31
0.0
0
LINE
8
0
6
CONTINUOUS
10
-0.110755
20
0.038592
30
0.0
11
-0.111211
21
0.014313
31
0.0
0
LINE
8
0
6
CONTINUOUS
10
-0.110146
20
0.062728
30
0.0
11
-0.110755
21
0.038592
31
0.0
0
LINE
8
0
6
CONTINUOUS
10
-0.109447
20
0.085237
30
0.0
11
-0.110146
21
0.062728
31
0.0
0
LINE
8
0
6
CONTINUOUS
10
-0.108129
20
0.117819
30
0.0
11
-0.109447
21
0.085237
31
0.0
0
LINE
8
0
6
CONTINUOUS
10
-0.125924
20
-0.326763
30
0.0
11
-0.122827
21
-0.326299
31
0.0
0
LINE
8
0
6
CONTINUOUS
10
-0.120553
20
-0.313175
30
0.0
11
-0.122651
21
-0.304731
31
0.0
0
LINE
8
0
6
CONTINUOUS
10
-0.122202
20
-0.307399
30
0.0
11
-0.124044
21
-0.295992
31
0.0
0
LINE
8
0
6
CONTINUOUS
10
-0.124044
20
-0.295992
30
0.0
11
-0.125837
21
-0.277691
31
0.0
0
LINE
8
0
6
CONTINUOUS
10
-0.125837
20
-0.277691
30
0.0
11
-0.127208
21
-0.260218
31
0.0
0
LINE
8
0
6
CONTINUOUS
10
-0.127208
20
-0.260218
30
0.0
11
-0.128148
21
-0.239154
31
0.0
0
LINE
8
0
6
CONTINUOUS
10
-0.128148
20
-0.239154
30
0.0
11
-0.128943
21
-0.215719
31
0.0
0
LINE
8
0
6
CONTINUOUS
10
-0.128943
20
-0.215719
30
0.0
11
-0.129322
21
-0.192803
31
0.0
0
LINE
8
0
6
CONTINUOUS
10
-0.129322
20
-0.192803
30
0.0
11
-0.129460
21
-0.170128
31
0.0
0
LINE
8
0
6
CONTINUOUS
10
-0.129460
20
-0.170128
30
0.0
11
-0.129360
21
-0.150511
31
0.0
0
LINE
8
0
6
CONTINUOUS
10
-0.123074
20
-0.025958
30
0.0
11
-0.121883
21
-0.007032
31
0.0
0
LINE
8
0
6
CONTINUOUS
10
-0.121883
20
-0.007032
30
0.0
11
-0.120762
21
0.015081
31
0.0
0
LINE
8
0
6
CONTINUOUS
10
-0.120762
20
0.015081
30
0.0
11
-0.119805
21
0.039373
31
0.0
0
LINE
8
0
6
CONTINUOUS
10
-0.119805
20
0.039373
30
0.0
11
-0.119008
21
0.063523
31
0.0
0
LINE
8
0
6
CONTINUOUS
10
-0.119008
20
0.063523
30
0.0
11
-0.118400
21
0.086050
31
0.0
0
LINE
8
0
6
CONTINUOUS
10
-0.118400
20
0.086050
30
0.0
11
-0.117823
21
0.118669
31
0.0
0
LINE
8
0
6
CONTINUOUS
10
-0.127461
20
-0.087629
30
0.0
11
-0.126149
21
-0.066311
31
0.0
0
LINE
8
0
6
CONTINUOUS
10
-0.128355
20
-0.109265
30
0.0
11
-0.127461
21
-0.087629
31
0.0
0
LINE
8
0
6
CONTINUOUS
10
-0.129010
20
-0.131144
30
0.0
11
-0.128355
21
-0.109265
31
0.0
0
LINE
8
0
6
CONTINUOUS
10
-0.129360
20
-0.150511
30
0.0
11
-0.129010
21
-0.131144
31
0.0
0
LINE
8
0
6
CONTINUOUS
10
-0.142062
20
-0.066303
30
0.0
11
-0.143374
21
-0.087620
31
0.0
0
LINE
8
0
6
CONTINUOUS
10
-0.143374
20
-0.087620
30
0.0
11
-0.144267
21
-0.109258
31
0.0
0
LINE
8
0
6
CONTINUOUS
10
-0.144267
20
-0.109258
30
0.0
11
-0.144922
21
-0.131136
31
0.0
0
LINE
8
0
6
CONTINUOUS
10
-0.144922
20
-0.131136
30
0.0
11
-0.145272
21
-0.150502
31
0.0
0
LINE
8
0
6
CONTINUOUS
10
-0.138984
20
-0.025949
30
0.0
11
-0.140662
21
-0.047588
31
0.0
0
LINE
8
0
6
CONTINUOUS
10
-0.137794
20
-0.007023
30
0.0
11
-0.138984
21
-0.025949
31
0.0
0
LINE
8
0
6
CONTINUOUS
10
-0.136673
20
0.015090
30
0.0
11
-0.137794
21
-0.007023
31
0.0
0
LINE
8
0
6
CONTINUOUS
10
-0.135717
20
0.039380
30
0.0
11
-0.136673
21
0.015090
31
0.0
0
LINE
8
0
6
CONTINUOUS
10
-0.134920
20
0.063530
30
0.0
11
-0.135717
21
0.039380
31
0.0
0
LINE
8
0
6
CONTINUOUS
10
-0.134312
20
0.086058
30
0.0
11
-0.134920
21
0.063530
31
0.0
0
LINE
8
0
6
CONTINUOUS
10
-0.133733
20
0.118676
30
0.0
11
-0.134312
21
0.086058
31
0.0
0
LINE
8
0
6
CONTINUOUS
10
-0.128968
20
-0.326253
30
0.0
11
-0.125924
21
-0.326763
31
0.0
0
LINE
8
0
6
CONTINUOUS
10
-0.131367
20
-0.324217
30
0.0
11
-0.128968
21
-0.326253
31
0.0
0
LINE
8
0
6
CONTINUOUS
10
-0.133736
20
-0.321564
30
0.0
11
-0.131367
21
-0.324217
31
0.0
0
LINE
8
0
6
CONTINUOUS
10
-0.135444
20
-0.319031
30
0.0
11
-0.133736
21
-0.321564
31
0.0
0
LINE
8
0
6
CONTINUOUS
10
-0.137654
20
-0.310172
30
0.0
11
-0.135444
21
-0.319031
31
0.0
0
LINE
8
0
6
CONTINUOUS
10
-0.139556
20
-0.298501
30
0.0
11
-0.137654
21
-0.310172
31
0.0
0
LINE
8
0
6
CONTINUOUS
10
-0.139955
20
-0.295984
30
0.0
11
-0.139556
21
-0.298501
31
0.0
0
LINE
8
0
6
CONTINUOUS
10
-0.141749
20
-0.277682
30
0.0
11
-0.139955
21
-0.295984
31
0.0
0
LINE
8
0
6
CONTINUOUS
10
-0.143121
20
-0.260209
30
0.0
11
-0.141749
21
-0.277682
31
0.0
0
LINE
8
0
6
CONTINUOUS
10
-0.144059
20
-0.239145
30
0.0
11
-0.143121
21
-0.260209
31
0.0
0
LINE
8
0
6
CONTINUOUS
10
-0.144854
20
-0.215711
30
0.0
11
-0.144059
21
-0.239145
31
0.0
0
LINE
8
0
6
CONTINUOUS
10
-0.145233
20
-0.192795
30
0.0
11
-0.144854
21
-0.215711
31
0.0
0
LINE
8
0
6
CONTINUOUS
10
-0.145373
20
-0.170121
30
0.0
11
-0.145233
21
-0.192795
31
0.0
0
LINE
8
0
6
CONTINUOUS
10
-0.145272
20
-0.150502
30
0.0
11
-0.145373
21
-0.170121
31
0.0
0
LINE
8
0
6
CONTINUOUS
10
-0.133419
20
0.262721
30
0.0
11
-0.133733
21
0.118676
31
0.0
0
LINE
8
0
6
CONTINUOUS
10
-0.095159
20
-0.049297
30
0.0
11
-0.095402
21
-0.027651
31
0.0
0
LINE
8
0
6
CONTINUOUS
10
-0.124750
20
-0.047595
30
0.0
11
-0.123074
21
-0.025958
31
0.0
0
LINE
8
0
6
CONTINUOUS
10
-0.126149
20
-0.066311
30
0.0
11
-0.124750
21
-0.047595
31
0.0
0
LINE
8
0
6
CONTINUOUS
10
-0.111044
20
-0.048377
30
0.0
11
-0.110736
21
-0.067106
31
0.0
0
LINE
8
0
6
CONTINUOUS
10
-0.140662
20
-0.047588
30
0.0
11
-0.142062
21
-0.066303
31
0.0
0
LINE
8
0
6
CONTINUOUS
10
-0.117823
20
0.118669
30
0.0
11
-0.118074
21
0.262721
31
0.0
0
LINE
8
0
6
CONTINUOUS
10
-0.108129
20
0.237047
30
0.0
11
-0.108129
21
0.117819
31
0.0
0
LINE
8
0
6
CONTINUOUS
10
-0.092244
20
0.116899
30
0.0
11
-0.092244
21
0.237048
31
0.0
0
LINE
8
0
6
CONTINUOUS
10
-0.139415
20
0.425916
30
0.0
11
-0.138915
21
0.425916
31
0.0
0
LINE
8
0
6
CONTINUOUS
10
-0.139415
20
0.426416
30
0.0
11
-0.139415
21
0.425916
31
0.0
0
LINE
8
0
6
CONTINUOUS
10
-0.137518
20
0.400716
30
0.0
11
-0.138305
21
0.400716
31
0.0
0
LINE
8
0
6
CONTINUOUS
10
-0.138305
20
0.400716
30
0.0
11
-0.138152
21
0.400216
31
0.0
0
LINE
8
0
6
CONTINUOUS
10
-0.135101
20
0.400716
30
0.0
11
-0.135714
21
0.400716
31
0.0
0
LINE
8
0
6
CONTINUOUS
10
-0.135714
20
0.400716
30
0.0
11
-0.135423
21
0.400216
31
0.0
0
LINE
8
0
6
CONTINUOUS
10
-0.138305
20
0.407516
30
0.0
11
-0.138152
21
0.407016
31
0.0
0
LINE
8
0
6
CONTINUOUS
10
-0.137518
20
0.407516
30
0.0
11
-0.138305
21
0.407516
31
0.0
0
LINE
8
0
6
CONTINUOUS
10
-0.138152
20
0.406016
30
0.0
11
-0.138305
21
0.405516
31
0.0
0
LINE
8
0
6
CONTINUOUS
10
-0.138305
20
0.405516
30
0.0
11
-0.137518
21
0.405516
31
0.0
0
LINE
8
0
6
CONTINUOUS
10
-0.138152
20
0.407016
30
0.0
11
-0.138152
21
0.406016
31
0.0
0
LINE
8
0
6
CONTINUOUS
10
-0.135714
20
0.414316
30
0.0
11
-0.135423
21
0.413816
31
0.0
0
LINE
8
0
6
CONTINUOUS
10
-0.135101
20
0.414316
30
0.0
11
-0.135714
21
0.414316
31
0.0
0
LINE
8
0
6
CONTINUOUS
10
-0.135423
20
0.412816
30
0.0
11
-0.135713
21
0.412316
31
0.0
0
LINE
8
0
6
CONTINUOUS
10
-0.135713
20
0.412316
30
0.0
11
-0.135101
21
0.412316
31
0.0
0
LINE
8
0
6
CONTINUOUS
10
-0.135423
20
0.413816
30
0.0
11
-0.135423
21
0.412816
31
0.0
0
LINE
8
0
6
CONTINUOUS
10
-0.139415
20
0.413816
30
0.0
11
-0.139415
21
0.412816
31
0.0
0
LINE
8
0
6
CONTINUOUS
10
-0.135423
20
0.420616
30
0.0
11
-0.135423
21
0.419616
31
0.0
0
LINE
8
0
6
CONTINUOUS
10
-0.135101
20
0.421116
30
0.0
11
-0.135714
21
0.421116
31
0.0
0
LINE
8
0
6
CONTINUOUS
10
-0.135714
20
0.421116
30
0.0
11
-0.135423
21
0.420616
31
0.0
0
LINE
8
0
6
CONTINUOUS
10
-0.139415
20
0.420616
30
0.0
11
-0.139415
21
0.419616
31
0.0
0
LINE
8
0
6
CONTINUOUS
10
-0.138305
20
0.427916
30
0.0
11
-0.138152
21
0.427416
31
0.0
0
LINE
8
0
6
CONTINUOUS
10
-0.137518
20
0.427916
30
0.0
11
-0.138305
21
0.427916
31
0.0
0
LINE
8
0
6
CONTINUOUS
10
-0.139415
20
0.427416
30
0.0
11
-0.139415
21
0.426416
31
0.0
0
LINE
8
0
6
CONTINUOUS
10
-0.135101
20
0.441516
30
0.0
11
-0.135714
21
0.441516
31
0.0
0
LINE
8
0
6
CONTINUOUS
10
-0.135714
20
0.441516
30
0.0
11
-0.135423
21
0.441016
31
0.0
0
LINE
8
0
6
CONTINUOUS
10
-0.138305
20
0.448316
30
0.0
11
-0.138152
21
0.447816
31
0.0
0
LINE
8
0
6
CONTINUOUS
10
-0.137518
20
0.448316
30
0.0
11
-0.138305
21
0.448316
31
0.0
0
LINE
8
0
6
CONTINUOUS
10
-0.138152
20
0.447816
30
0.0
11
-0.138152
21
0.446816
31
0.0
0
LINE
8
0
6
CONTINUOUS
10
-0.139415
20
0.446316
30
0.0
11
-0.138915
21
0.446316
31
0.0
0
LINE
8
0
6
CONTINUOUS
10
-0.139415
20
0.446816
30
0.0
11
-0.139415
21
0.446316
31
0.0
0
LINE
8
0
6
CONTINUOUS
10
-0.139415
20
0.447816
30
0.0
11
-0.139415
21
0.446816
31
0.0
0
LINE
8
0
6
CONTINUOUS
10
-0.139415
20
0.453616
30
0.0
11
-0.139415
21
0.453116
31
0.0
0
LINE
8
0
6
CONTINUOUS
10
-0.139415
20
0.453116
30
0.0
11
-0.138915
21
0.453116
31
0.0
0
LINE
8
0
6
CONTINUOUS
10
-0.138305
20
0.453116
30
0.0
11
-0.137518
21
0.453116
31
0.0
0
LINE
8
0
6
CONTINUOUS
10
-0.138152
20
0.453616
30
0.0
11
-0.138305
21
0.453116
31
0.0
0
LINE
8
0
6
CONTINUOUS
10
-0.135423
20
0.453616
30
0.0
11
-0.135713
21
0.453116
31
0.0
0
LINE
8
0
6
CONTINUOUS
10
-0.135713
20
0.453116
30
0.0
11
-0.135101
21
0.453116
31
0.0
0
LINE
8
0
6
CONTINUOUS
10
-0.138152
20
0.461416
30
0.0
11
-0.138152
21
0.460416
31
0.0
0
LINE
8
0
6
CONTINUOUS
10
-0.135423
20
0.461416
30
0.0
11
-0.135423
21
0.460416
31
0.0
0
LINE
8
0
6
CONTINUOUS
10
-0.135423
20
0.454616
30
0.0
11
-0.135423
21
0.453616
31
0.0
0
LINE
8
0
6
CONTINUOUS
10
-0.135714
20
0.455116
30
0.0
11
-0.135423
21
0.454616
31
0.0
0
LINE
8
0
6
CONTINUOUS
10
-0.135101
20
0.455116
30
0.0
11
-0.135714
21
0.455116
31
0.0
0
LINE
8
0
6
CONTINUOUS
10
-0.135423
20
0.460416
30
0.0
11
-0.135713
21
0.459916
31
0.0
0
LINE
8
0
6
CONTINUOUS
10
-0.135713
20
0.459916
30
0.0
11
-0.135101
21
0.459916
31
0.0
0
LINE
8
0
6
CONTINUOUS
10
-0.138305
20
0.461916
30
0.0
11
-0.138152
21
0.461416
31
0.0
0
LINE
8
0
6
CONTINUOUS
10
-0.137518
20
0.461916
30
0.0
11
-0.138305
21
0.461916
31
0.0
0
LINE
8
0
6
CONTINUOUS
10
-0.135423
20
0.468216
30
0.0
11
-0.135423
21
0.467216
31
0.0
0
LINE
8
0
6
CONTINUOUS
10
-0.135423
20
0.467216
30
0.0
11
-0.135713
21
0.466716
31
0.0
0
LINE
8
0
6
CONTINUOUS
10
-0.135713
20
0.466716
30
0.0
11
-0.135101
21
0.466716
31
0.0
0
LINE
8
0
6
CONTINUOUS
10
-0.135714
20
0.468716
30
0.0
11
-0.135423
21
0.468216
31
0.0
0
LINE
8
0
6
CONTINUOUS
10
-0.135101
20
0.468716
30
0.0
11
-0.135714
21
0.468716
31
0.0
0
LINE
8
0
6
CONTINUOUS
10
-0.138152
20
0.413816
30
0.0
11
-0.138305
21
0.414316
31
0.0
0
LINE
8
0
6
CONTINUOUS
10
-0.138152
20
0.412816
30
0.0
11
-0.138152
21
0.413816
31
0.0
0
LINE
8
0
6
CONTINUOUS
10
-0.138305
20
0.412316
30
0.0
11
-0.138152
21
0.412816
31
0.0
0
LINE
8
0
6
CONTINUOUS
10
-0.138611
20
0.412316
30
0.0
11
-0.138305
21
0.412316
31
0.0
0
LINE
8
0
6
CONTINUOUS
10
-0.138764
20
0.412816
30
0.0
11
-0.138611
21
0.412316
31
0.0
0
LINE
8
0
6
CONTINUOUS
10
-0.138764
20
0.413816
30
0.0
11
-0.138764
21
0.412816
31
0.0
0
LINE
8
0
6
CONTINUOUS
10
-0.138611
20
0.414316
30
0.0
11
-0.138764
21
0.413816
31
0.0
0
LINE
8
0
6
CONTINUOUS
10
-0.138305
20
0.414316
30
0.0
11
-0.138611
21
0.414316
31
0.0
0
LINE
8
0
6
CONTINUOUS
10
-0.138611
20
0.455116
30
0.0
11
-0.138764
21
0.454616
31
0.0
0
LINE
8
0
6
CONTINUOUS
10
-0.138305
20
0.455116
30
0.0
11
-0.138611
21
0.455116
31
0.0
0
LINE
8
0
6
CONTINUOUS
10
-0.138152
20
0.454616
30
0.0
11
-0.138305
21
0.455116
31
0.0
0
LINE
8
0
6
CONTINUOUS
10
-0.138152
20
0.453616
30
0.0
11
-0.138152
21
0.454616
31
0.0
0
LINE
8
0
6
CONTINUOUS
10
-0.138305
20
0.453116
30
0.0
11
-0.138152
21
0.453616
31
0.0
0
LINE
8
0
6
CONTINUOUS
10
-0.138611
20
0.453116
30
0.0
11
-0.138305
21
0.453116
31
0.0
0
LINE
8
0
6
CONTINUOUS
10
-0.138764
20
0.453616
30
0.0
11
-0.138611
21
0.453116
31
0.0
0
LINE
8
0
6
CONTINUOUS
10
-0.138764
20
0.454616
30
0.0
11
-0.138764
21
0.453616
31
0.0
0
LINE
8
0
6
CONTINUOUS
10
-0.135423
20
0.426416
30
0.0
11
-0.135423
21
0.427416
31
0.0
0
LINE
8
0
6
CONTINUOUS
10
-0.135713
20
0.425916
30
0.0
11
-0.135423
21
0.426416
31
0.0
0
LINE
8
0
6
CONTINUOUS
10
-0.136295
20
0.425916
30
0.0
11
-0.135713
21
0.425916
31
0.0
0
LINE
8
0
6
CONTINUOUS
10
-0.136585
20
0.426416
30
0.0
11
-0.136295
21
0.425916
31
0.0
0
LINE
8
0
6
CONTINUOUS
10
-0.136585
20
0.427416
30
0.0
11
-0.136585
21
0.426416
31
0.0
0
LINE
8
0
6
CONTINUOUS
10
-0.136295
20
0.427916
30
0.0
11
-0.136585
21
0.427416
31
0.0
0
LINE
8
0
6
CONTINUOUS
10
-0.135714
20
0.427916
30
0.0
11
-0.136295
21
0.427916
31
0.0
0
LINE
8
0
6
CONTINUOUS
10
-0.135423
20
0.427416
30
0.0
11
-0.135714
21
0.427916
31
0.0
0
LINE
8
0
6
CONTINUOUS
10
-0.138305
20
0.434716
30
0.0
11
-0.138152
21
0.434216
31
0.0
0
LINE
8
0
6
CONTINUOUS
10
-0.137518
20
0.434716
30
0.0
11
-0.138305
21
0.434716
31
0.0
0
LINE
8
0
6
CONTINUOUS
10
-0.138152
20
0.440016
30
0.0
11
-0.138305
21
0.439516
31
0.0
0
LINE
8
0
6
CONTINUOUS
10
-0.138305
20
0.439516
30
0.0
11
-0.137518
21
0.439516
31
0.0
0
LINE
8
0
6
CONTINUOUS
10
-0.137518
20
0.455116
30
0.0
11
-0.138305
21
0.455116
31
0.0
0
LINE
8
0
6
CONTINUOUS
10
-0.138305
20
0.455116
30
0.0
11
-0.138152
21
0.454616
31
0.0
0
LINE
8
0
6
CONTINUOUS
10
-0.135423
20
0.460416
30
0.0
11
-0.135423
21
0.461416
31
0.0
0
LINE
8
0
6
CONTINUOUS
10
-0.135713
20
0.459916
30
0.0
11
-0.135423
21
0.460416
31
0.0
0
LINE
8
0
6
CONTINUOUS
10
-0.136295
20
0.459916
30
0.0
11
-0.135713
21
0.459916
31
0.0
0
LINE
8
0
6
CONTINUOUS
10
-0.136585
20
0.460416
30
0.0
11
-0.136295
21
0.459916
31
0.0
0
LINE
8
0
6
CONTINUOUS
10
-0.136585
20
0.461416
30
0.0
11
-0.136585
21
0.460416
31
0.0
0
LINE
8
0
6
CONTINUOUS
10
-0.136295
20
0.461916
30
0.0
11
-0.136585
21
0.461416
31
0.0
0
LINE
8
0
6
CONTINUOUS
10
-0.135714
20
0.461916
30
0.0
11
-0.136295
21
0.461916
31
0.0
0
LINE
8
0
6
CONTINUOUS
10
-0.135423
20
0.461416
30
0.0
11
-0.135714
21
0.461916
31
0.0
0
LINE
8
0
6
CONTINUOUS
10
-0.139415
20
0.399216
30
0.0
11
-0.139415
21
0.398716
31
0.0
0
LINE
8
0
6
CONTINUOUS
10
-0.139415
20
0.398716
30
0.0
11
-0.138915
21
0.398716
31
0.0
0
LINE
8
0
6
CONTINUOUS
10
-0.139415
20
0.400716
30
0.0
11
-0.139415
21
0.400216
31
0.0
0
LINE
8
0
6
CONTINUOUS
10
-0.138915
20
0.400716
30
0.0
11
-0.139415
21
0.400716
31
0.0
0
LINE
8
0
6
CONTINUOUS
10
-0.139415
20
0.400216
30
0.0
11
-0.139415
21
0.399216
31
0.0
0
LINE
8
0
6
CONTINUOUS
10
-0.135714
20
0.400716
30
0.0
11
-0.136295
21
0.400716
31
0.0
0
LINE
8
0
6
CONTINUOUS
10
-0.135423
20
0.400216
30
0.0
11
-0.135714
21
0.400716
31
0.0
0
LINE
8
0
6
CONTINUOUS
10
-0.135423
20
0.399216
30
0.0
11
-0.135423
21
0.400216
31
0.0
0
LINE
8
0
6
CONTINUOUS
10
-0.135713
20
0.398716
30
0.0
11
-0.135423
21
0.399216
31
0.0
0
LINE
8
0
6
CONTINUOUS
10
-0.136295
20
0.398716
30
0.0
11
-0.135713
21
0.398716
31
0.0
0
LINE
8
0
6
CONTINUOUS
10
-0.136585
20
0.399216
30
0.0
11
-0.136295
21
0.398716
31
0.0
0
LINE
8
0
6
CONTINUOUS
10
-0.136585
20
0.400216
30
0.0
11
-0.136585
21
0.399216
31
0.0
0
LINE
8
0
6
CONTINUOUS
10
-0.136295
20
0.400716
30
0.0
11
-0.136585
21
0.400216
31
0.0
0
LINE
8
0
6
CONTINUOUS
10
-0.138305
20
0.398716
30
0.0
11
-0.137518
21
0.398716
31
0.0
0
LINE
8
0
6
CONTINUOUS
10
-0.138152
20
0.399216
30
0.0
11
-0.138305
21
0.398716
31
0.0
0
LINE
8
0
6
CONTINUOUS
10
-0.138152
20
0.400216
30
0.0
11
-0.138152
21
0.399216
31
0.0
0
LINE
8
0
6
CONTINUOUS
10
-0.135714
20
0.441516
30
0.0
11
-0.136295
21
0.441516
31
0.0
0
LINE
8
0
6
CONTINUOUS
10
-0.135423
20
0.441016
30
0.0
11
-0.135714
21
0.441516
31
0.0
0
LINE
8
0
6
CONTINUOUS
10
-0.135423
20
0.440016
30
0.0
11
-0.135423
21
0.441016
31
0.0
0
LINE
8
0
6
CONTINUOUS
10
-0.135713
20
0.439516
30
0.0
11
-0.135423
21
0.440016
31
0.0
0
LINE
8
0
6
CONTINUOUS
10
-0.136295
20
0.439516
30
0.0
11
-0.135713
21
0.439516
31
0.0
0
LINE
8
0
6
CONTINUOUS
10
-0.136585
20
0.440016
30
0.0
11
-0.136295
21
0.439516
31
0.0
0
LINE
8
0
6
CONTINUOUS
10
-0.136585
20
0.441016
30
0.0
11
-0.136585
21
0.440016
31
0.0
0
LINE
8
0
6
CONTINUOUS
10
-0.136295
20
0.441516
30
0.0
11
-0.136585
21
0.441016
31
0.0
0
LINE
8
0
6
CONTINUOUS
10
-0.135713
20
0.398716
30
0.0
11
-0.135101
21
0.398716
31
0.0
0
LINE
8
0
6
CONTINUOUS
10
-0.135423
20
0.399216
30
0.0
11
-0.135713
21
0.398716
31
0.0
0
LINE
8
0
6
CONTINUOUS
10
-0.135423
20
0.400216
30
0.0
11
-0.135423
21
0.399216
31
0.0
0
LINE
8
0
6
CONTINUOUS
10
-0.135714
20
0.407516
30
0.0
11
-0.135423
21
0.407016
31
0.0
0
LINE
8
0
6
CONTINUOUS
10
-0.135101
20
0.407516
30
0.0
11
-0.135714
21
0.407516
31
0.0
0
LINE
8
0
6
CONTINUOUS
10
-0.135423
20
0.406016
30
0.0
11
-0.135713
21
0.405516
31
0.0
0
LINE
8
0
6
CONTINUOUS
10
-0.135713
20
0.405516
30
0.0
11
-0.135101
21
0.405516
31
0.0
0
LINE
8
0
6
CONTINUOUS
10
-0.135423
20
0.407016
30
0.0
11
-0.135423
21
0.406016
31
0.0
0
LINE
8
0
6
CONTINUOUS
10
-0.138152
20
0.461416
30
0.0
11
-0.138305
21
0.461916
31
0.0
0
LINE
8
0
6
CONTINUOUS
10
-0.138152
20
0.460416
30
0.0
11
-0.138152
21
0.461416
31
0.0
0
LINE
8
0
6
CONTINUOUS
10
-0.138305
20
0.459916
30
0.0
11
-0.138152
21
0.460416
31
0.0
0
LINE
8
0
6
CONTINUOUS
10
-0.138611
20
0.459916
30
0.0
11
-0.138305
21
0.459916
31
0.0
0
LINE
8
0
6
CONTINUOUS
10
-0.138764
20
0.460416
30
0.0
11
-0.138611
21
0.459916
31
0.0
0
LINE
8
0
6
CONTINUOUS
10
-0.138764
20
0.461416
30
0.0
11
-0.138764
21
0.460416
31
0.0
0
LINE
8
0
6
CONTINUOUS
10
-0.138611
20
0.461916
30
0.0
11
-0.138764
21
0.461416
31
0.0
0
LINE
8
0
6
CONTINUOUS
10
-0.138305
20
0.461916
30
0.0
11
-0.138611
21
0.461916
31
0.0
0
LINE
8
0
6
CONTINUOUS
10
-0.138915
20
0.407516
30
0.0
11
-0.139415
21
0.407516
31
0.0
0
LINE
8
0
6
CONTINUOUS
10
-0.139415
20
0.407516
30
0.0
11
-0.139415
21
0.407016
31
0.0
0
LINE
8
0
6
CONTINUOUS
10
-0.139415
20
0.405516
30
0.0
11
-0.138915
21
0.405516
31
0.0
0
LINE
8
0
6
CONTINUOUS
10
-0.139415
20
0.406016
30
0.0
11
-0.139415
21
0.405516
31
0.0
0
LINE
8
0
6
CONTINUOUS
10
-0.139415
20
0.407016
30
0.0
11
-0.139415
21
0.406016
31
0.0
0
LINE
8
0
6
CONTINUOUS
10
-0.135423
20
0.406016
30
0.0
11
-0.135423
21
0.407016
31
0.0
0
LINE
8
0
6
CONTINUOUS
10
-0.135713
20
0.405516
30
0.0
11
-0.135423
21
0.406016
31
0.0
0
LINE
8
0
6
CONTINUOUS
10
-0.136295
20
0.405516
30
0.0
11
-0.135713
21
0.405516
31
0.0
0
LINE
8
0
6
CONTINUOUS
10
-0.136585
20
0.406016
30
0.0
11
-0.136295
21
0.405516
31
0.0
0
LINE
8
0
6
CONTINUOUS
10
-0.136585
20
0.407016
30
0.0
11
-0.136585
21
0.406016
31
0.0
0
LINE
8
0
6
CONTINUOUS
10
-0.136295
20
0.407516
30
0.0
11
-0.136585
21
0.407016
31
0.0
0
LINE
8
0
6
CONTINUOUS
10
-0.135714
20
0.407516
30
0.0
11
-0.136295
21
0.407516
31
0.0
0
LINE
8
0
6
CONTINUOUS
10
-0.135423
20
0.407016
30
0.0
11
-0.135714
21
0.407516
31
0.0
0
LINE
8
0
6
CONTINUOUS
10
-0.138305
20
0.414316
30
0.0
11
-0.138152
21
0.413816
31
0.0
0
LINE
8
0
6
CONTINUOUS
10
-0.137518
20
0.414316
30
0.0
11
-0.138305
21
0.414316
31
0.0
0
LINE
8
0
6
CONTINUOUS
10
-0.138152
20
0.412816
30
0.0
11
-0.138305
21
0.412316
31
0.0
0
LINE
8
0
6
CONTINUOUS
10
-0.138305
20
0.412316
30
0.0
11
-0.137518
21
0.412316
31
0.0
0
LINE
8
0
6
CONTINUOUS
10
-0.138152
20
0.413816
30
0.0
11
-0.138152
21
0.412816
31
0.0
0
LINE
8
0
6
CONTINUOUS
10
-0.138915
20
0.414316
30
0.0
11
-0.139415
21
0.414316
31
0.0
0
LINE
8
0
6
CONTINUOUS
10
-0.139415
20
0.414316
30
0.0
11
-0.139415
21
0.413816
31
0.0
0
LINE
8
0
6
CONTINUOUS
10
-0.139415
20
0.412316
30
0.0
11
-0.138915
21
0.412316
31
0.0
0
LINE
8
0
6
CONTINUOUS
10
-0.139415
20
0.412816
30
0.0
11
-0.139415
21
0.412316
31
0.0
0
LINE
8
0
6
CONTINUOUS
10
-0.135713
20
0.419116
30
0.0
11
-0.135101
21
0.419116
31
0.0
0
LINE
8
0
6
CONTINUOUS
10
-0.135423
20
0.419616
30
0.0
11
-0.135713
21
0.419116
31
0.0
0
LINE
8
0
6
CONTINUOUS
10
-0.138152
20
0.420616
30
0.0
11
-0.138152
21
0.419616
31
0.0
0
LINE
8
0
6
CONTINUOUS
10
-0.138152
20
0.419616
30
0.0
11
-0.138305
21
0.419116
31
0.0
0
LINE
8
0
6
CONTINUOUS
10
-0.138305
20
0.419116
30
0.0
11
-0.137518
21
0.419116
31
0.0
0
LINE
8
0
6
CONTINUOUS
10
-0.138305
20
0.421116
30
0.0
11
-0.138152
21
0.420616
31
0.0
0
LINE
8
0
6
CONTINUOUS
10
-0.137518
20
0.421116
30
0.0
11
-0.138305
21
0.421116
31
0.0
0
LINE
8
0
6
CONTINUOUS
10
-0.139415
20
0.419116
30
0.0
11
-0.138915
21
0.419116
31
0.0
0
LINE
8
0
6
CONTINUOUS
10
-0.139415
20
0.419616
30
0.0
11
-0.139415
21
0.419116
31
0.0
0
LINE
8
0
6
CONTINUOUS
10
-0.138915
20
0.421116
30
0.0
11
-0.139415
21
0.421116
31
0.0
0
LINE
8
0
6
CONTINUOUS
10
-0.139415
20
0.421116
30
0.0
11
-0.139415
21
0.420616
31
0.0
0
LINE
8
0
6
CONTINUOUS
10
-0.135714
20
0.421116
30
0.0
11
-0.136295
21
0.421116
31
0.0
0
LINE
8
0
6
CONTINUOUS
10
-0.135423
20
0.420616
30
0.0
11
-0.135714
21
0.421116
31
0.0
0
LINE
8
0
6
CONTINUOUS
10
-0.135423
20
0.419616
30
0.0
11
-0.135423
21
0.420616
31
0.0
0
LINE
8
0
6
CONTINUOUS
10
-0.135713
20
0.419116
30
0.0
11
-0.135423
21
0.419616
31
0.0
0
LINE
8
0
6
CONTINUOUS
10
-0.136295
20
0.419116
30
0.0
11
-0.135713
21
0.419116
31
0.0
0
LINE
8
0
6
CONTINUOUS
10
-0.136585
20
0.419616
30
0.0
11
-0.136295
21
0.419116
31
0.0
0
LINE
8
0
6
CONTINUOUS
10
-0.136585
20
0.420616
30
0.0
11
-0.136585
21
0.419616
31
0.0
0
LINE
8
0
6
CONTINUOUS
10
-0.136295
20
0.421116
30
0.0
11
-0.136585
21
0.420616
31
0.0
0
LINE
8
0
6
CONTINUOUS
10
-0.135714
20
0.427916
30
0.0
11
-0.135423
21
0.427416
31
0.0
0
LINE
8
0
6
CONTINUOUS
10
-0.135101
20
0.427916
30
0.0
11
-0.135714
21
0.427916
31
0.0
0
LINE
8
0
6
CONTINUOUS
10
-0.135423
20
0.426416
30
0.0
11
-0.135713
21
0.425916
31
0.0
0
LINE
8
0
6
CONTINUOUS
10
-0.135713
20
0.425916
30
0.0
11
-0.135101
21
0.425916
31
0.0
0
LINE
8
0
6
CONTINUOUS
10
-0.135423
20
0.427416
30
0.0
11
-0.135423
21
0.426416
31
0.0
0
LINE
8
0
6
CONTINUOUS
10
-0.138152
20
0.426416
30
0.0
11
-0.138305
21
0.425916
31
0.0
0
LINE
8
0
6
CONTINUOUS
10
-0.138305
20
0.425916
30
0.0
11
-0.137518
21
0.425916
31
0.0
0
LINE
8
0
6
CONTINUOUS
10
-0.138152
20
0.427416
30
0.0
11
-0.138152
21
0.426416
31
0.0
0
LINE
8
0
6
CONTINUOUS
10
-0.138611
20
0.400716
30
0.0
11
-0.138764
21
0.400216
31
0.0
0
LINE
8
0
6
CONTINUOUS
10
-0.138305
20
0.400716
30
0.0
11
-0.138611
21
0.400716
31
0.0
0
LINE
8
0
6
CONTINUOUS
10
-0.138152
20
0.400216
30
0.0
11
-0.138305
21
0.400716
31
0.0
0
LINE
8
0
6
CONTINUOUS
10
-0.138152
20
0.399216
30
0.0
11
-0.138152
21
0.400216
31
0.0
0
LINE
8
0
6
CONTINUOUS
10
-0.138305
20
0.398716
30
0.0
11
-0.138152
21
0.399216
31
0.0
0
LINE
8
0
6
CONTINUOUS
10
-0.138611
20
0.398716
30
0.0
11
-0.138305
21
0.398716
31
0.0
0
LINE
8
0
6
CONTINUOUS
10
-0.138764
20
0.399216
30
0.0
11
-0.138611
21
0.398716
31
0.0
0
LINE
8
0
6
CONTINUOUS
10
-0.138764
20
0.400216
30
0.0
11
-0.138764
21
0.399216
31
0.0
0
LINE
8
0
6
CONTINUOUS
10
-0.138915
20
0.427916
30
0.0
11
-0.139415
21
0.427916
31
0.0
0
LINE
8
0
6
CONTINUOUS
10
-0.139415
20
0.427916
30
0.0
11
-0.139415
21
0.427416
31
0.0
0
LINE
8
0
6
CONTINUOUS
10
-0.135423
20
0.434216
30
0.0
11
-0.135423
21
0.433216
31
0.0
0
LINE
8
0
6
CONTINUOUS
10
-0.135713
20
0.432716
30
0.0
11
-0.135101
21
0.432716
31
0.0
0
LINE
8
0
6
CONTINUOUS
10
-0.135423
20
0.433216
30
0.0
11
-0.135713
21
0.432716
31
0.0
0
LINE
8
0
6
CONTINUOUS
10
-0.135101
20
0.434716
30
0.0
11
-0.135714
21
0.434716
31
0.0
0
LINE
8
0
6
CONTINUOUS
10
-0.135714
20
0.434716
30
0.0
11
-0.135423
21
0.434216
31
0.0
0
LINE
8
0
6
CONTINUOUS
10
-0.138152
20
0.434216
30
0.0
11
-0.138152
21
0.433216
31
0.0
0
LINE
8
0
6
CONTINUOUS
10
-0.138152
20
0.433216
30
0.0
11
-0.138305
21
0.432716
31
0.0
0
LINE
8
0
6
CONTINUOUS
10
-0.138305
20
0.432716
30
0.0
11
-0.137518
21
0.432716
31
0.0
0
LINE
8
0
6
CONTINUOUS
10
-0.139415
20
0.434216
30
0.0
11
-0.139415
21
0.433216
31
0.0
0
LINE
8
0
6
CONTINUOUS
10
-0.139415
20
0.432716
30
0.0
11
-0.138915
21
0.432716
31
0.0
0
LINE
8
0
6
CONTINUOUS
10
-0.139415
20
0.433216
30
0.0
11
-0.139415
21
0.432716
31
0.0
0
LINE
8
0
6
CONTINUOUS
10
-0.138915
20
0.434716
30
0.0
11
-0.139415
21
0.434716
31
0.0
0
LINE
8
0
6
CONTINUOUS
10
-0.139415
20
0.434716
30
0.0
11
-0.139415
21
0.434216
31
0.0
0
LINE
8
0
6
CONTINUOUS
10
-0.135423
20
0.441016
30
0.0
11
-0.135423
21
0.440016
31
0.0
0
LINE
8
0
6
CONTINUOUS
10
-0.135713
20
0.439516
30
0.0
11
-0.135101
21
0.439516
31
0.0
0
LINE
8
0
6
CONTINUOUS
10
-0.135423
20
0.440016
30
0.0
11
-0.135713
21
0.439516
31
0.0
0
LINE
8
0
6
CONTINUOUS
10
-0.138152
20
0.441016
30
0.0
11
-0.138152
21
0.440016
31
0.0
0
LINE
8
0
6
CONTINUOUS
10
-0.138305
20
0.441516
30
0.0
11
-0.138152
21
0.441016
31
0.0
0
LINE
8
0
6
CONTINUOUS
10
-0.137518
20
0.441516
30
0.0
11
-0.138305
21
0.441516
31
0.0
0
LINE
8
0
6
CONTINUOUS
10
-0.139415
20
0.441016
30
0.0
11
-0.139415
21
0.440016
31
0.0
0
LINE
8
0
6
CONTINUOUS
10
-0.139415
20
0.439516
30
0.0
11
-0.138915
21
0.439516
31
0.0
0
LINE
8
0
6
CONTINUOUS
10
-0.139415
20
0.440016
30
0.0
11
-0.139415
21
0.439516
31
0.0
0
LINE
8
0
6
CONTINUOUS
10
-0.138915
20
0.441516
30
0.0
11
-0.139415
21
0.441516
31
0.0
0
LINE
8
0
6
CONTINUOUS
10
-0.139415
20
0.441516
30
0.0
11
-0.139415
21
0.441016
31
0.0
0
LINE
8
0
6
CONTINUOUS
10
-0.135714
20
0.448316
30
0.0
11
-0.135423
21
0.447816
31
0.0
0
LINE
8
0
6
CONTINUOUS
10
-0.135101
20
0.448316
30
0.0
11
-0.135714
21
0.448316
31
0.0
0
LINE
8
0
6
CONTINUOUS
10
-0.135423
20
0.446816
30
0.0
11
-0.135713
21
0.446316
31
0.0
0
LINE
8
0
6
CONTINUOUS
10
-0.135713
20
0.446316
30
0.0
11
-0.135101
21
0.446316
31
0.0
0
LINE
8
0
6
CONTINUOUS
10
-0.135423
20
0.447816
30
0.0
11
-0.135423
21
0.446816
31
0.0
0
LINE
8
0
6
CONTINUOUS
10
-0.138152
20
0.446816
30
0.0
11
-0.138305
21
0.446316
31
0.0
0
LINE
8
0
6
CONTINUOUS
10
-0.138305
20
0.446316
30
0.0
11
-0.137518
21
0.446316
31
0.0
0
LINE
8
0
6
CONTINUOUS
10
-0.138764
20
0.427416
30
0.0
11
-0.138764
21
0.426416
31
0.0
0
LINE
8
0
6
CONTINUOUS
10
-0.138611
20
0.427916
30
0.0
11
-0.138764
21
0.427416
31
0.0
0
LINE
8
0
6
CONTINUOUS
10
-0.138305
20
0.427916
30
0.0
11
-0.138611
21
0.427916
31
0.0
0
LINE
8
0
6
CONTINUOUS
10
-0.138152
20
0.427416
30
0.0
11
-0.138305
21
0.427916
31
0.0
0
LINE
8
0
6
CONTINUOUS
10
-0.138152
20
0.426416
30
0.0
11
-0.138152
21
0.427416
31
0.0
0
LINE
8
0
6
CONTINUOUS
10
-0.138305
20
0.425916
30
0.0
11
-0.138152
21
0.426416
31
0.0
0
LINE
8
0
6
CONTINUOUS
10
-0.138611
20
0.425916
30
0.0
11
-0.138305
21
0.425916
31
0.0
0
LINE
8
0
6
CONTINUOUS
10
-0.138764
20
0.426416
30
0.0
11
-0.138611
21
0.425916
31
0.0
0
LINE
8
0
6
CONTINUOUS
10
-0.138915
20
0.448316
30
0.0
11
-0.139415
21
0.448316
31
0.0
0
LINE
8
0
6
CONTINUOUS
10
-0.139415
20
0.448316
30
0.0
11
-0.139415
21
0.447816
31
0.0
0
LINE
8
0
6
CONTINUOUS
10
-0.138764
20
0.440016
30
0.0
11
-0.138611
21
0.439516
31
0.0
0
LINE
8
0
6
CONTINUOUS
10
-0.138764
20
0.441016
30
0.0
11
-0.138764
21
0.440016
31
0.0
0
LINE
8
0
6
CONTINUOUS
10
-0.138611
20
0.441516
30
0.0
11
-0.138764
21
0.441016
31
0.0
0
LINE
8
0
6
CONTINUOUS
10
-0.138305
20
0.441516
30
0.0
11
-0.138611
21
0.441516
31
0.0
0
LINE
8
0
6
CONTINUOUS
10
-0.138152
20
0.441016
30
0.0
11
-0.138305
21
0.441516
31
0.0
0
LINE
8
0
6
CONTINUOUS
10
-0.138152
20
0.440016
30
0.0
11
-0.138152
21
0.441016
31
0.0
0
LINE
8
0
6
CONTINUOUS
10
-0.138305
20
0.439516
30
0.0
11
-0.138152
21
0.440016
31
0.0
0
LINE
8
0
6
CONTINUOUS
10
-0.138611
20
0.439516
30
0.0
11
-0.138305
21
0.439516
31
0.0
0
LINE
8
0
6
CONTINUOUS
10
-0.138305
20
0.468716
30
0.0
11
-0.138611
21
0.468716
31
0.0
0
LINE
8
0
6
CONTINUOUS
10
-0.138152
20
0.468216
30
0.0
11
-0.138305
21
0.468716
31
0.0
0
LINE
8
0
6
CONTINUOUS
10
-0.138152
20
0.467216
30
0.0
11
-0.138152
21
0.468216
31
0.0
0
LINE
8
0
6
CONTINUOUS
10
-0.138305
20
0.466716
30
0.0
11
-0.138152
21
0.467216
31
0.0
0
LINE
8
0
6
CONTINUOUS
10
-0.138611
20
0.466716
30
0.0
11
-0.138305
21
0.466716
31
0.0
0
LINE
8
0
6
CONTINUOUS
10
-0.138764
20
0.467216
30
0.0
11
-0.138611
21
0.466716
31
0.0
0
LINE
8
0
6
CONTINUOUS
10
-0.138764
20
0.468216
30
0.0
11
-0.138764
21
0.467216
31
0.0
0
LINE
8
0
6
CONTINUOUS
10
-0.138611
20
0.468716
30
0.0
11
-0.138764
21
0.468216
31
0.0
0
LINE
8
0
6
CONTINUOUS
10
-0.135423
20
0.446816
30
0.0
11
-0.135423
21
0.447816
31
0.0
0
LINE
8
0
6
CONTINUOUS
10
-0.135713
20
0.446316
30
0.0
11
-0.135423
21
0.446816
31
0.0
0
LINE
8
0
6
CONTINUOUS
10
-0.136295
20
0.446316
30
0.0
11
-0.135713
21
0.446316
31
0.0
0
LINE
8
0
6
CONTINUOUS
10
-0.136585
20
0.446816
30
0.0
11
-0.136295
21
0.446316
31
0.0
0
LINE
8
0
6
CONTINUOUS
10
-0.136585
20
0.447816
30
0.0
11
-0.136585
21
0.446816
31
0.0
0
LINE
8
0
6
CONTINUOUS
10
-0.136295
20
0.448316
30
0.0
11
-0.136585
21
0.447816
31
0.0
0
LINE
8
0
6
CONTINUOUS
10
-0.135714
20
0.448316
30
0.0
11
-0.136295
21
0.448316
31
0.0
0
LINE
8
0
6
CONTINUOUS
10
-0.135423
20
0.447816
30
0.0
11
-0.135714
21
0.448316
31
0.0
0
LINE
8
0
6
CONTINUOUS
10
-0.138764
20
0.433216
30
0.0
11
-0.138611
21
0.432716
31
0.0
0
LINE
8
0
6
CONTINUOUS
10
-0.138764
20
0.434216
30
0.0
11
-0.138764
21
0.433216
31
0.0
0
LINE
8
0
6
CONTINUOUS
10
-0.138611
20
0.434716
30
0.0
11
-0.138764
21
0.434216
31
0.0
0
LINE
8
0
6
CONTINUOUS
10
-0.138305
20
0.434716
30
0.0
11
-0.138611
21
0.434716
31
0.0
0
LINE
8
0
6
CONTINUOUS
10
-0.138152
20
0.434216
30
0.0
11
-0.138305
21
0.434716
31
0.0
0
LINE
8
0
6
CONTINUOUS
10
-0.138152
20
0.433216
30
0.0
11
-0.138152
21
0.434216
31
0.0
0
LINE
8
0
6
CONTINUOUS
10
-0.138305
20
0.432716
30
0.0
11
-0.138152
21
0.433216
31
0.0
0
LINE
8
0
6
CONTINUOUS
10
-0.138611
20
0.432716
30
0.0
11
-0.138305
21
0.432716
31
0.0
0
LINE
8
0
6
CONTINUOUS
10
-0.139415
20
0.461416
30
0.0
11
-0.139415
21
0.460416
31
0.0
0
LINE
8
0
6
CONTINUOUS
10
-0.135714
20
0.434716
30
0.0
11
-0.136295
21
0.434716
31
0.0
0
LINE
8
0
6
CONTINUOUS
10
-0.135423
20
0.434216
30
0.0
11
-0.135714
21
0.434716
31
0.0
0
LINE
8
0
6
CONTINUOUS
10
-0.135423
20
0.433216
30
0.0
11
-0.135423
21
0.434216
31
0.0
0
LINE
8
0
6
CONTINUOUS
10
-0.135713
20
0.432716
30
0.0
11
-0.135423
21
0.433216
31
0.0
0
LINE
8
0
6
CONTINUOUS
10
-0.136295
20
0.432716
30
0.0
11
-0.135713
21
0.432716
31
0.0
0
LINE
8
0
6
CONTINUOUS
10
-0.136585
20
0.433216
30
0.0
11
-0.136295
21
0.432716
31
0.0
0
LINE
8
0
6
CONTINUOUS
10
-0.136585
20
0.434216
30
0.0
11
-0.136585
21
0.433216
31
0.0
0
LINE
8
0
6
CONTINUOUS
10
-0.136295
20
0.434716
30
0.0
11
-0.136585
21
0.434216
31
0.0
0
LINE
8
0
6
CONTINUOUS
10
-0.138152
20
0.454616
30
0.0
11
-0.138152
21
0.453616
31
0.0
0
LINE
8
0
6
CONTINUOUS
10
-0.139415
20
0.454616
30
0.0
11
-0.139415
21
0.453616
31
0.0
0
LINE
8
0
6
CONTINUOUS
10
-0.139415
20
0.455116
30
0.0
11
-0.139415
21
0.454616
31
0.0
0
LINE
8
0
6
CONTINUOUS
10
-0.138915
20
0.455116
30
0.0
11
-0.139415
21
0.455116
31
0.0
0
LINE
8
0
6
CONTINUOUS
10
-0.138152
20
0.460416
30
0.0
11
-0.138305
21
0.459916
31
0.0
0
LINE
8
0
6
CONTINUOUS
10
-0.138305
20
0.459916
30
0.0
11
-0.137518
21
0.459916
31
0.0
0
LINE
8
0
6
CONTINUOUS
10
-0.139415
20
0.459916
30
0.0
11
-0.138915
21
0.459916
31
0.0
0
LINE
8
0
6
CONTINUOUS
10
-0.139415
20
0.460416
30
0.0
11
-0.139415
21
0.459916
31
0.0
0
LINE
8
0
6
CONTINUOUS
10
-0.135714
20
0.461916
30
0.0
11
-0.135423
21
0.461416
31
0.0
0
LINE
8
0
6
CONTINUOUS
10
-0.135101
20
0.461916
30
0.0
11
-0.135714
21
0.461916
31
0.0
0
LINE
8
0
6
CONTINUOUS
10
-0.138915
20
0.461916
30
0.0
11
-0.139415
21
0.461916
31
0.0
0
LINE
8
0
6
CONTINUOUS
10
-0.139415
20
0.461916
30
0.0
11
-0.139415
21
0.461416
31
0.0
0
LINE
8
0
6
CONTINUOUS
10
-0.139415
20
0.468216
30
0.0
11
-0.139415
21
0.467216
31
0.0
0
LINE
8
0
6
CONTINUOUS
10
-0.138152
20
0.468216
30
0.0
11
-0.138152
21
0.467216
31
0.0
0
LINE
8
0
6
CONTINUOUS
10
-0.138152
20
0.467216
30
0.0
11
-0.138305
21
0.466716
31
0.0
0
LINE
8
0
6
CONTINUOUS
10
-0.138305
20
0.466716
30
0.0
11
-0.137518
21
0.466716
31
0.0
0
LINE
8
0
6
CONTINUOUS
10
-0.139415
20
0.466716
30
0.0
11
-0.138915
21
0.466716
31
0.0
0
LINE
8
0
6
CONTINUOUS
10
-0.139415
20
0.467216
30
0.0
11
-0.139415
21
0.466716
31
0.0
0
LINE
8
0
6
CONTINUOUS
10
-0.138305
20
0.468716
30
0.0
11
-0.138152
21
0.468216
31
0.0
0
LINE
8
0
6
CONTINUOUS
10
-0.137518
20
0.468716
30
0.0
11
-0.138305
21
0.468716
31
0.0
0
LINE
8
0
6
CONTINUOUS
10
-0.138915
20
0.468716
30
0.0
11
-0.139415
21
0.468716
31
0.0
0
LINE
8
0
6
CONTINUOUS
10
-0.139415
20
0.468716
30
0.0
11
-0.139415
21
0.468216
31
0.0
0
LINE
8
0
6
CONTINUOUS
10
-0.138764
20
0.446816
30
0.0
11
-0.138611
21
0.446316
31
0.0
0
LINE
8
0
6
CONTINUOUS
10
-0.138764
20
0.447816
30
0.0
11
-0.138764
21
0.446816
31
0.0
0
LINE
8
0
6
CONTINUOUS
10
-0.138611
20
0.448316
30
0.0
11
-0.138764
21
0.447816
31
0.0
0
LINE
8
0
6
CONTINUOUS
10
-0.138305
20
0.448316
30
0.0
11
-0.138611
21
0.448316
31
0.0
0
LINE
8
0
6
CONTINUOUS
10
-0.138152
20
0.447816
30
0.0
11
-0.138305
21
0.448316
31
0.0
0
LINE
8
0
6
CONTINUOUS
10
-0.138152
20
0.446816
30
0.0
11
-0.138152
21
0.447816
31
0.0
0
LINE
8
0
6
CONTINUOUS
10
-0.138305
20
0.446316
30
0.0
11
-0.138152
21
0.446816
31
0.0
0
LINE
8
0
6
CONTINUOUS
10
-0.138611
20
0.446316
30
0.0
11
-0.138305
21
0.446316
31
0.0
0
LINE
8
0
6
CONTINUOUS
10
-0.135423
20
0.454616
30
0.0
11
-0.135714
21
0.455116
31
0.0
0
LINE
8
0
6
CONTINUOUS
10
-0.135423
20
0.453616
30
0.0
11
-0.135423
21
0.454616
31
0.0
0
LINE
8
0
6
CONTINUOUS
10
-0.135713
20
0.453116
30
0.0
11
-0.135423
21
0.453616
31
0.0
0
LINE
8
0
6
CONTINUOUS
10
-0.136295
20
0.453116
30
0.0
11
-0.135713
21
0.453116
31
0.0
0
LINE
8
0
6
CONTINUOUS
10
-0.136585
20
0.453616
30
0.0
11
-0.136295
21
0.453116
31
0.0
0
LINE
8
0
6
CONTINUOUS
10
-0.136585
20
0.454616
30
0.0
11
-0.136585
21
0.453616
31
0.0
0
LINE
8
0
6
CONTINUOUS
10
-0.136295
20
0.455116
30
0.0
11
-0.136585
21
0.454616
31
0.0
0
LINE
8
0
6
CONTINUOUS
10
-0.135714
20
0.455116
30
0.0
11
-0.136295
21
0.455116
31
0.0
0
LINE
8
0
6
CONTINUOUS
10
-0.138764
20
0.419616
30
0.0
11
-0.138611
21
0.419116
31
0.0
0
LINE
8
0
6
CONTINUOUS
10
-0.138764
20
0.420616
30
0.0
11
-0.138764
21
0.419616
31
0.0
0
LINE
8
0
6
CONTINUOUS
10
-0.138611
20
0.421116
30
0.0
11
-0.138764
21
0.420616
31
0.0
0
LINE
8
0
6
CONTINUOUS
10
-0.138305
20
0.421116
30
0.0
11
-0.138611
21
0.421116
31
0.0
0
LINE
8
0
6
CONTINUOUS
10
-0.138152
20
0.420616
30
0.0
11
-0.138305
21
0.421116
31
0.0
0
LINE
8
0
6
CONTINUOUS
10
-0.138152
20
0.419616
30
0.0
11
-0.138152
21
0.420616
31
0.0
0
LINE
8
0
6
CONTINUOUS
10
-0.138305
20
0.419116
30
0.0
11
-0.138152
21
0.419616
31
0.0
0
LINE
8
0
6
CONTINUOUS
10
-0.138611
20
0.419116
30
0.0
11
-0.138305
21
0.419116
31
0.0
0
LINE
8
0
6
CONTINUOUS
10
-0.135423
20
0.412816
30
0.0
11
-0.135423
21
0.413816
31
0.0
0
LINE
8
0
6
CONTINUOUS
10
-0.135713
20
0.412316
30
0.0
11
-0.135423
21
0.412816
31
0.0
0
LINE
8
0
6
CONTINUOUS
10
-0.136295
20
0.412316
30
0.0
11
-0.135713
21
0.412316
31
0.0
0
LINE
8
0
6
CONTINUOUS
10
-0.136585
20
0.412816
30
0.0
11
-0.136295
21
0.412316
31
0.0
0
LINE
8
0
6
CONTINUOUS
10
-0.136585
20
0.413816
30
0.0
11
-0.136585
21
0.412816
31
0.0
0
LINE
8
0
6
CONTINUOUS
10
-0.136295
20
0.414316
30
0.0
11
-0.136585
21
0.413816
31
0.0
0
LINE
8
0
6
CONTINUOUS
10
-0.135714
20
0.414316
30
0.0
11
-0.136295
21
0.414316
31
0.0
0
LINE
8
0
6
CONTINUOUS
10
-0.135423
20
0.413816
30
0.0
11
-0.135714
21
0.414316
31
0.0
0
LINE
8
0
6
CONTINUOUS
10
-0.135423
20
0.468216
30
0.0
11
-0.135714
21
0.468716
31
0.0
0
LINE
8
0
6
CONTINUOUS
10
-0.135423
20
0.467216
30
0.0
11
-0.135423
21
0.468216
31
0.0
0
LINE
8
0
6
CONTINUOUS
10
-0.135713
20
0.466716
30
0.0
11
-0.135423
21
0.467216
31
0.0
0
LINE
8
0
6
CONTINUOUS
10
-0.136295
20
0.466716
30
0.0
11
-0.135713
21
0.466716
31
0.0
0
LINE
8
0
6
CONTINUOUS
10
-0.136585
20
0.467216
30
0.0
11
-0.136295
21
0.466716
31
0.0
0
LINE
8
0
6
CONTINUOUS
10
-0.136585
20
0.468216
30
0.0
11
-0.136585
21
0.467216
31
0.0
0
LINE
8
0
6
CONTINUOUS
10
-0.136295
20
0.468716
30
0.0
11
-0.136585
21
0.468216
31
0.0
0
LINE
8
0
6
CONTINUOUS
10
-0.135714
20
0.468716
30
0.0
11
-0.136295
21
0.468716
31
0.0
0
LINE
8
0
6
CONTINUOUS
10
-0.138152
20
0.407016
30
0.0
11
-0.138305
21
0.407516
31
0.0
0
LINE
8
0
6
CONTINUOUS
10
-0.138152
20
0.406016
30
0.0
11
-0.138152
21
0.407016
31
0.0
0
LINE
8
0
6
CONTINUOUS
10
-0.138305
20
0.405516
30
0.0
11
-0.138152
21
0.406016
31
0.0
0
LINE
8
0
6
CONTINUOUS
10
-0.138611
20
0.405516
30
0.0
11
-0.138305
21
0.405516
31
0.0
0
LINE
8
0
6
CONTINUOUS
10
-0.138764
20
0.406016
30
0.0
11
-0.138611
21
0.405516
31
0.0
0
LINE
8
0
6
CONTINUOUS
10
-0.138764
20
0.407016
30
0.0
11
-0.138764
21
0.406016
31
0.0
0
LINE
8
0
6
CONTINUOUS
10
-0.138611
20
0.407516
30
0.0
11
-0.138764
21
0.407016
31
0.0
0
LINE
8
0
6
CONTINUOUS
10
-0.138305
20
0.407516
30
0.0
11
-0.138611
21
0.407516
31
0.0
0
LINE
8
0
6
CONTINUOUS
10
-0.126913
20
0.314714
30
0.0
11
-0.129913
21
0.314714
31
0.0
0
LINE
8
0
6
CONTINUOUS
10
-0.129913
20
0.314714
30
0.0
11
-0.132613
21
0.314714
31
0.0
0
LINE
8
0
6
CONTINUOUS
10
-0.132613
20
0.314714
30
0.0
11
-0.135013
21
0.314714
31
0.0
0
LINE
8
0
6
CONTINUOUS
10
-0.135013
20
0.314714
30
0.0
11
-0.136913
21
0.314714
31
0.0
0
LINE
8
0
6
CONTINUOUS
10
-0.136913
20
0.314714
30
0.0
11
-0.138013
21
0.314714
31
0.0
0
LINE
8
0
6
CONTINUOUS
10
-0.138413
20
0.314714
30
0.0
11
-0.138208
21
0.308555
31
0.0
0
LINE
8
0
6
CONTINUOUS
10
-0.138013
20
0.314714
30
0.0
11
-0.138413
21
0.314714
31
0.0
0
LINE
8
0
6
CONTINUOUS
10
-0.123913
20
0.314714
30
0.0
11
-0.126913
21
0.314714
31
0.0
0
LINE
8
0
6
CONTINUOUS
10
-0.121213
20
0.314714
30
0.0
11
-0.123913
21
0.314714
31
0.0
0
LINE
8
0
6
CONTINUOUS
10
-0.118813
20
0.314714
30
0.0
11
-0.121213
21
0.314714
31
0.0
0
LINE
8
0
6
CONTINUOUS
10
-0.116913
20
0.314714
30
0.0
11
-0.118813
21
0.314714
31
0.0
0
LINE
8
0
6
CONTINUOUS
10
-0.115813
20
0.314714
30
0.0
11
-0.116913
21
0.314714
31
0.0
0
LINE
8
0
6
CONTINUOUS
10
-0.115580
20
0.309690
30
0.0
11
-0.115413
21
0.314714
31
0.0
0
LINE
8
0
6
CONTINUOUS
10
-0.115413
20
0.314714
30
0.0
11
-0.115813
21
0.314714
31
0.0
0
LINE
8
0
6
CONTINUOUS
10
-0.126915
20
0.316716
30
0.0
11
-0.130015
21
0.316716
31
0.0
0
LINE
8
0
6
CONTINUOUS
10
-0.129715
20
0.315716
30
0.0
11
-0.126915
21
0.315716
31
0.0
0
LINE
8
0
6
CONTINUOUS
10
-0.130015
20
0.316716
30
0.0
11
-0.132915
21
0.316716
31
0.0
0
LINE
8
0
6
CONTINUOUS
10
-0.132415
20
0.315716
30
0.0
11
-0.129715
21
0.315716
31
0.0
0
LINE
8
0
6
CONTINUOUS
10
-0.132915
20
0.316716
30
0.0
11
-0.135415
21
0.316716
31
0.0
0
LINE
8
0
6
CONTINUOUS
10
-0.134715
20
0.315716
30
0.0
11
-0.132415
21
0.315716
31
0.0
0
LINE
8
0
6
CONTINUOUS
10
-0.126915
20
0.470216
30
0.0
11
-0.130015
21
0.470216
31
0.0
0
LINE
8
0
6
CONTINUOUS
10
-0.130015
20
0.316716
30
0.0
11
-0.126915
21
0.316716
31
0.0
0
LINE
8
0
6
CONTINUOUS
10
-0.130015
20
0.470216
30
0.0
11
-0.132915
21
0.470216
31
0.0
0
LINE
8
0
6
CONTINUOUS
10
-0.132915
20
0.316716
30
0.0
11
-0.130015
21
0.316716
31
0.0
0
LINE
8
0
6
CONTINUOUS
10
-0.132915
20
0.470216
30
0.0
11
-0.135415
21
0.470216
31
0.0
0
LINE
8
0
6
CONTINUOUS
10
-0.135415
20
0.316716
30
0.0
11
-0.132915
21
0.316716
31
0.0
0
LINE
8
0
6
CONTINUOUS
10
-0.126915
20
0.470716
30
0.0
11
-0.129715
21
0.470716
31
0.0
0
LINE
8
0
6
CONTINUOUS
10
-0.130015
20
0.470216
30
0.0
11
-0.126915
21
0.470216
31
0.0
0
LINE
8
0
6
CONTINUOUS
10
-0.129715
20
0.470716
30
0.0
11
-0.132415
21
0.470716
31
0.0
0
LINE
8
0
6
CONTINUOUS
10
-0.132915
20
0.470216
30
0.0
11
-0.130015
21
0.470216
31
0.0
0
LINE
8
0
6
CONTINUOUS
10
-0.135415
20
0.470216
30
0.0
11
-0.132915
21
0.470216
31
0.0
0
LINE
8
0
6
CONTINUOUS
10
-0.126915
20
0.471216
30
0.0
11
-0.130015
21
0.471216
31
0.0
0
LINE
8
0
6
CONTINUOUS
10
-0.130015
20
0.471216
30
0.0
11
-0.132915
21
0.471216
31
0.0
0
LINE
8
0
6
CONTINUOUS
10
-0.132415
20
0.470716
30
0.0
11
-0.129715
21
0.470716
31
0.0
0
LINE
8
0
6
CONTINUOUS
10
-0.132915
20
0.471216
30
0.0
11
-0.135415
21
0.471216
31
0.0
0
LINE
8
0
6
CONTINUOUS
10
-0.134715
20
0.470716
30
0.0
11
-0.132415
21
0.470716
31
0.0
0
LINE
8
0
6
CONTINUOUS
10
-0.126915
20
0.490216
30
0.0
11
-0.130015
21
0.490216
31
0.0
0
LINE
8
0
6
CONTINUOUS
10
-0.130015
20
0.471216
30
0.0
11
-0.126915
21
0.471216
31
0.0
0
LINE
8
0
6
CONTINUOUS
10
-0.130015
20
0.490216
30
0.0
11
-0.132915
21
0.490216
31
0.0
0
LINE
8
0
6
CONTINUOUS
10
-0.132915
20
0.471216
30
0.0
11
-0.130015
21
0.471216
31
0.0
0
LINE
8
0
6
CONTINUOUS
10
-0.132915
20
0.490216
30
0.0
11
-0.135415
21
0.490216
31
0.0
0
LINE
8
0
6
CONTINUOUS
10
-0.135415
20
0.471216
30
0.0
11
-0.132915
21
0.471216
31
0.0
0
LINE
8
0
6
CONTINUOUS
10
-0.126915
20
0.490716
30
0.0
11
-0.129915
21
0.490716
31
0.0
0
LINE
8
0
6
CONTINUOUS
10
-0.130015
20
0.490216
30
0.0
11
-0.126915
21
0.490216
31
0.0
0
LINE
8
0
6
CONTINUOUS
10
-0.129915
20
0.490716
30
0.0
11
-0.132615
21
0.490716
31
0.0
0
LINE
8
0
6
CONTINUOUS
10
-0.132915
20
0.490216
30
0.0
11
-0.130015
21
0.490216
31
0.0
0
LINE
8
0
6
CONTINUOUS
10
-0.132615
20
0.490716
30
0.0
11
-0.135015
21
0.490716
31
0.0
0
LINE
8
0
6
CONTINUOUS
10
-0.135415
20
0.490216
30
0.0
11
-0.132915
21
0.490216
31
0.0
0
LINE
8
0
6
CONTINUOUS
10
-0.136915
20
0.315716
30
0.0
11
-0.136915
21
0.314714
31
0.0
0
LINE
8
0
6
CONTINUOUS
10
-0.136515
20
0.315716
30
0.0
11
-0.136915
21
0.315716
31
0.0
0
LINE
8
0
6
CONTINUOUS
10
-0.138915
20
0.316716
30
0.0
11
-0.137915
21
0.315716
31
0.0
0
LINE
8
0
6
CONTINUOUS
10
-0.138515
20
0.316716
30
0.0
11
-0.138915
21
0.316716
31
0.0
0
LINE
8
0
6
CONTINUOUS
10
-0.137915
20
0.315716
30
0.0
11
-0.137515
21
0.315716
31
0.0
0
LINE
8
0
6
CONTINUOUS
10
-0.137315
20
0.316716
30
0.0
11
-0.138515
21
0.316716
31
0.0
0
LINE
8
0
6
CONTINUOUS
10
-0.137515
20
0.315716
30
0.0
11
-0.136415
21
0.315716
31
0.0
0
LINE
8
0
6
CONTINUOUS
10
-0.135415
20
0.316716
30
0.0
11
-0.137315
21
0.316716
31
0.0
0
LINE
8
0
6
CONTINUOUS
10
-0.136415
20
0.315716
30
0.0
11
-0.134715
21
0.315716
31
0.0
0
LINE
8
0
6
CONTINUOUS
10
-0.138915
20
0.470216
30
0.0
11
-0.138915
21
0.468716
31
0.0
0
LINE
8
0
6
CONTINUOUS
10
-0.138915
20
0.466716
30
0.0
11
-0.138915
21
0.461916
31
0.0
0
LINE
8
0
6
CONTINUOUS
10
-0.138915
20
0.459916
30
0.0
11
-0.138915
21
0.455116
31
0.0
0
LINE
8
0
6
CONTINUOUS
10
-0.138915
20
0.453116
30
0.0
11
-0.138915
21
0.448316
31
0.0
0
LINE
8
0
6
CONTINUOUS
10
-0.138915
20
0.446316
30
0.0
11
-0.138915
21
0.441516
31
0.0
0
LINE
8
0
6
CONTINUOUS
10
-0.138915
20
0.439516
30
0.0
11
-0.138915
21
0.434716
31
0.0
0
LINE
8
0
6
CONTINUOUS
10
-0.138915
20
0.432716
30
0.0
11
-0.138915
21
0.427916
31
0.0
0
LINE
8
0
6
CONTINUOUS
10
-0.138915
20
0.425916
30
0.0
11
-0.138915
21
0.421116
31
0.0
0
LINE
8
0
6
CONTINUOUS
10
-0.138915
20
0.419116
30
0.0
11
-0.138915
21
0.414316
31
0.0
0
LINE
8
0
6
CONTINUOUS
10
-0.138915
20
0.412316
30
0.0
11
-0.138915
21
0.407516
31
0.0
0
LINE
8
0
6
CONTINUOUS
10
-0.138915
20
0.405516
30
0.0
11
-0.138915
21
0.400716
31
0.0
0
LINE
8
0
6
CONTINUOUS
10
-0.138915
20
0.398716
30
0.0
11
-0.138915
21
0.316716
31
0.0
0
LINE
8
0
6
CONTINUOUS
10
-0.138515
20
0.470216
30
0.0
11
-0.138915
21
0.470216
31
0.0
0
LINE
8
0
6
CONTINUOUS
10
-0.138915
20
0.316716
30
0.0
11
-0.138515
21
0.316716
31
0.0
0
LINE
8
0
6
CONTINUOUS
10
-0.137315
20
0.470216
30
0.0
11
-0.138515
21
0.470216
31
0.0
0
LINE
8
0
6
CONTINUOUS
10
-0.138515
20
0.316716
30
0.0
11
-0.137315
21
0.316716
31
0.0
0
LINE
8
0
6
CONTINUOUS
10
-0.135415
20
0.470216
30
0.0
11
-0.137315
21
0.470216
31
0.0
0
LINE
8
0
6
CONTINUOUS
10
-0.137315
20
0.316716
30
0.0
11
-0.135415
21
0.316716
31
0.0
0
LINE
8
0
6
CONTINUOUS
10
-0.137915
20
0.470716
30
0.0
11
-0.138915
21
0.470216
31
0.0
0
LINE
8
0
6
CONTINUOUS
10
-0.138915
20
0.470216
30
0.0
11
-0.138515
21
0.470216
31
0.0
0
LINE
8
0
6
CONTINUOUS
10
-0.136415
20
0.470716
30
0.0
11
-0.137515
21
0.470716
31
0.0
0
LINE
8
0
6
CONTINUOUS
10
-0.138515
20
0.470216
30
0.0
11
-0.137315
21
0.470216
31
0.0
0
LINE
8
0
6
CONTINUOUS
10
-0.134715
20
0.470716
30
0.0
11
-0.136415
21
0.470716
31
0.0
0
LINE
8
0
6
CONTINUOUS
10
-0.137315
20
0.470216
30
0.0
11
-0.135415
21
0.470216
31
0.0
0
LINE
8
0
6
CONTINUOUS
10
-0.138915
20
0.471216
30
0.0
11
-0.137915
21
0.470716
31
0.0
0
LINE
8
0
6
CONTINUOUS
10
-0.138515
20
0.471216
30
0.0
11
-0.138915
21
0.471216
31
0.0
0
LINE
8
0
6
CONTINUOUS
10
-0.137915
20
0.470716
30
0.0
11
-0.137515
21
0.470716
31
0.0
0
LINE
8
0
6
CONTINUOUS
10
-0.137315
20
0.471216
30
0.0
11
-0.138515
21
0.471216
31
0.0
0
LINE
8
0
6
CONTINUOUS
10
-0.135415
20
0.471216
30
0.0
11
-0.137315
21
0.471216
31
0.0
0
LINE
8
0
6
CONTINUOUS
10
-0.138915
20
0.490216
30
0.0
11
-0.138915
21
0.471216
31
0.0
0
LINE
8
0
6
CONTINUOUS
10
-0.138515
20
0.490216
30
0.0
11
-0.138915
21
0.490216
31
0.0
0
LINE
8
0
6
CONTINUOUS
10
-0.138915
20
0.471216
30
0.0
11
-0.138515
21
0.471216
31
0.0
0
LINE
8
0
6
CONTINUOUS
10
-0.137315
20
0.490216
30
0.0
11
-0.138515
21
0.490216
31
0.0
0
LINE
8
0
6
CONTINUOUS
10
-0.138515
20
0.471216
30
0.0
11
-0.137315
21
0.471216
31
0.0
0
LINE
8
0
6
CONTINUOUS
10
-0.135415
20
0.490216
30
0.0
11
-0.137315
21
0.490216
31
0.0
0
LINE
8
0
6
CONTINUOUS
10
-0.137315
20
0.471216
30
0.0
11
-0.135415
21
0.471216
31
0.0
0
LINE
8
0
6
CONTINUOUS
10
-0.138415
20
0.490716
30
0.0
11
-0.138915
21
0.490216
31
0.0
0
LINE
8
0
6
CONTINUOUS
10
-0.138015
20
0.490716
30
0.0
11
-0.138415
21
0.490716
31
0.0
0
LINE
8
0
6
CONTINUOUS
10
-0.138915
20
0.490216
30
0.0
11
-0.138515
21
0.490216
31
0.0
0
LINE
8
0
6
CONTINUOUS
10
-0.136915
20
0.490716
30
0.0
11
-0.138015
21
0.490716
31
0.0
0
LINE
8
0
6
CONTINUOUS
10
-0.138515
20
0.490216
30
0.0
11
-0.137315
21
0.490216
31
0.0
0
LINE
8
0
6
CONTINUOUS
10
-0.135015
20
0.490716
30
0.0
11
-0.136915
21
0.490716
31
0.0
0
LINE
8
0
6
CONTINUOUS
10
-0.137315
20
0.490216
30
0.0
11
-0.135415
21
0.490216
31
0.0
0
LINE
8
0
6
CONTINUOUS
10
-0.116915
20
0.314714
30
0.0
11
-0.116915
21
0.315716
31
0.0
0
LINE
8
0
6
CONTINUOUS
10
-0.114915
20
0.316716
30
0.0
11
-0.115315
21
0.316716
31
0.0
0
LINE
8
0
6
CONTINUOUS
10
-0.115915
20
0.315716
30
0.0
11
-0.114915
21
0.316716
31
0.0
0
LINE
8
0
6
CONTINUOUS
10
-0.116315
20
0.315716
30
0.0
11
-0.115915
21
0.315716
31
0.0
0
LINE
8
0
6
CONTINUOUS
10
-0.115315
20
0.316716
30
0.0
11
-0.116515
21
0.316716
31
0.0
0
LINE
8
0
6
CONTINUOUS
10
-0.117415
20
0.315716
30
0.0
11
-0.116315
21
0.315716
31
0.0
0
LINE
8
0
6
CONTINUOUS
10
-0.116515
20
0.316716
30
0.0
11
-0.118415
21
0.316716
31
0.0
0
LINE
8
0
6
CONTINUOUS
10
-0.119115
20
0.315716
30
0.0
11
-0.117415
21
0.315716
31
0.0
0
LINE
8
0
6
CONTINUOUS
10
-0.114915
20
0.470216
30
0.0
11
-0.115315
21
0.470216
31
0.0
0
LINE
8
0
6
CONTINUOUS
10
-0.114915
20
0.316716
30
0.0
11
-0.114915
21
0.470216
31
0.0
0
LINE
8
0
6
CONTINUOUS
10
-0.115315
20
0.316716
30
0.0
11
-0.114915
21
0.316716
31
0.0
0
LINE
8
0
6
CONTINUOUS
10
-0.115315
20
0.470216
30
0.0
11
-0.116515
21
0.470216
31
0.0
0
LINE
8
0
6
CONTINUOUS
10
-0.116515
20
0.316716
30
0.0
11
-0.115315
21
0.316716
31
0.0
0
LINE
8
0
6
CONTINUOUS
10
-0.116515
20
0.470216
30
0.0
11
-0.118415
21
0.470216
31
0.0
0
LINE
8
0
6
CONTINUOUS
10
-0.118415
20
0.316716
30
0.0
11
-0.116515
21
0.316716
31
0.0
0
LINE
8
0
6
CONTINUOUS
10
-0.115915
20
0.470716
30
0.0
11
-0.116315
21
0.470716
31
0.0
0
LINE
8
0
6
CONTINUOUS
10
-0.114915
20
0.470216
30
0.0
11
-0.115915
21
0.470716
31
0.0
0
LINE
8
0
6
CONTINUOUS
10
-0.115315
20
0.470216
30
0.0
11
-0.114915
21
0.470216
31
0.0
0
LINE
8
0
6
CONTINUOUS
10
-0.116515
20
0.470216
30
0.0
11
-0.115315
21
0.470216
31
0.0
0
LINE
8
0
6
CONTINUOUS
10
-0.118415
20
0.470216
30
0.0
11
-0.116515
21
0.470216
31
0.0
0
LINE
8
0
6
CONTINUOUS
10
-0.114915
20
0.471216
30
0.0
11
-0.115315
21
0.471216
31
0.0
0
LINE
8
0
6
CONTINUOUS
10
-0.115915
20
0.470716
30
0.0
11
-0.114915
21
0.471216
31
0.0
0
LINE
8
0
6
CONTINUOUS
10
-0.115315
20
0.471216
30
0.0
11
-0.116515
21
0.471216
31
0.0
0
LINE
8
0
6
CONTINUOUS
10
-0.117415
20
0.470716
30
0.0
11
-0.116315
21
0.470716
31
0.0
0
LINE
8
0
6
CONTINUOUS
10
-0.116515
20
0.471216
30
0.0
11
-0.118415
21
0.471216
31
0.0
0
LINE
8
0
6
CONTINUOUS
10
-0.119115
20
0.470716
30
0.0
11
-0.117415
21
0.470716
31
0.0
0
LINE
8
0
6
CONTINUOUS
10
-0.114915
20
0.490216
30
0.0
11
-0.115315
21
0.490216
31
0.0
0
LINE
8
0
6
CONTINUOUS
10
-0.114915
20
0.471216
30
0.0
11
-0.114915
21
0.490216
31
0.0
0
LINE
8
0
6
CONTINUOUS
10
-0.115315
20
0.471216
30
0.0
11
-0.114915
21
0.471216
31
0.0
0
LINE
8
0
6
CONTINUOUS
10
-0.115315
20
0.490216
30
0.0
11
-0.116515
21
0.490216
31
0.0
0
LINE
8
0
6
CONTINUOUS
10
-0.116515
20
0.471216
30
0.0
11
-0.115315
21
0.471216
31
0.0
0
LINE
8
0
6
CONTINUOUS
10
-0.116515
20
0.490216
30
0.0
11
-0.118415
21
0.490216
31
0.0
0
LINE
8
0
6
CONTINUOUS
10
-0.118415
20
0.471216
30
0.0
11
-0.116515
21
0.471216
31
0.0
0
LINE
8
0
6
CONTINUOUS
10
-0.115415
20
0.490716
30
0.0
11
-0.115815
21
0.490716
31
0.0
0
LINE
8
0
6
CONTINUOUS
10
-0.114915
20
0.490216
30
0.0
11
-0.115415
21
0.490716
31
0.0
0
LINE
8
0
6
CONTINUOUS
10
-0.115315
20
0.490216
30
0.0
11
-0.114915
21
0.490216
31
0.0
0
LINE
8
0
6
CONTINUOUS
10
-0.115815
20
0.490716
30
0.0
11
-0.116915
21
0.490716
31
0.0
0
LINE
8
0
6
CONTINUOUS
10
-0.116515
20
0.490216
30
0.0
11
-0.115315
21
0.490216
31
0.0
0
LINE
8
0
6
CONTINUOUS
10
-0.116915
20
0.490716
30
0.0
11
-0.118815
21
0.490716
31
0.0
0
LINE
8
0
6
CONTINUOUS
10
-0.118415
20
0.490216
30
0.0
11
-0.116515
21
0.490216
31
0.0
0
LINE
8
0
6
CONTINUOUS
10
-0.123815
20
0.316716
30
0.0
11
-0.126915
21
0.316716
31
0.0
0
LINE
8
0
6
CONTINUOUS
10
-0.126915
20
0.315716
30
0.0
11
-0.124115
21
0.315716
31
0.0
0
LINE
8
0
6
CONTINUOUS
10
-0.120915
20
0.316716
30
0.0
11
-0.123815
21
0.316716
31
0.0
0
LINE
8
0
6
CONTINUOUS
10
-0.124115
20
0.315716
30
0.0
11
-0.121415
21
0.315716
31
0.0
0
LINE
8
0
6
CONTINUOUS
10
-0.118415
20
0.316716
30
0.0
11
-0.120915
21
0.316716
31
0.0
0
LINE
8
0
6
CONTINUOUS
10
-0.121415
20
0.315716
30
0.0
11
-0.119115
21
0.315716
31
0.0
0
LINE
8
0
6
CONTINUOUS
10
-0.123815
20
0.470216
30
0.0
11
-0.126915
21
0.470216
31
0.0
0
LINE
8
0
6
CONTINUOUS
10
-0.126915
20
0.316716
30
0.0
11
-0.123815
21
0.316716
31
0.0
0
LINE
8
0
6
CONTINUOUS
10
-0.120915
20
0.470216
30
0.0
11
-0.123815
21
0.470216
31
0.0
0
LINE
8
0
6
CONTINUOUS
10
-0.123815
20
0.316716
30
0.0
11
-0.120915
21
0.316716
31
0.0
0
LINE
8
0
6
CONTINUOUS
10
-0.118415
20
0.470216
30
0.0
11
-0.120915
21
0.470216
31
0.0
0
LINE
8
0
6
CONTINUOUS
10
-0.120915
20
0.316716
30
0.0
11
-0.118415
21
0.316716
31
0.0
0
LINE
8
0
6
CONTINUOUS
10
-0.126915
20
0.470216
30
0.0
11
-0.123815
21
0.470216
31
0.0
0
LINE
8
0
6
CONTINUOUS
10
-0.121415
20
0.470716
30
0.0
11
-0.124115
21
0.470716
31
0.0
0
LINE
8
0
6
CONTINUOUS
10
-0.123815
20
0.470216
30
0.0
11
-0.120915
21
0.470216
31
0.0
0
LINE
8
0
6
CONTINUOUS
10
-0.119115
20
0.470716
30
0.0
11
-0.121415
21
0.470716
31
0.0
0
LINE
8
0
6
CONTINUOUS
10
-0.120915
20
0.470216
30
0.0
11
-0.118415
21
0.470216
31
0.0
0
LINE
8
0
6
CONTINUOUS
10
-0.123815
20
0.471216
30
0.0
11
-0.126915
21
0.471216
31
0.0
0
LINE
8
0
6
CONTINUOUS
10
-0.126915
20
0.470716
30
0.0
11
-0.124115
21
0.470716
31
0.0
0
LINE
8
0
6
CONTINUOUS
10
-0.120915
20
0.471216
30
0.0
11
-0.123815
21
0.471216
31
0.0
0
LINE
8
0
6
CONTINUOUS
10
-0.124115
20
0.470716
30
0.0
11
-0.121415
21
0.470716
31
0.0
0
LINE
8
0
6
CONTINUOUS
10
-0.118415
20
0.471216
30
0.0
11
-0.120915
21
0.471216
31
0.0
0
LINE
8
0
6
CONTINUOUS
10
-0.123815
20
0.490216
30
0.0
11
-0.126915
21
0.490216
31
0.0
0
LINE
8
0
6
CONTINUOUS
10
-0.126915
20
0.471216
30
0.0
11
-0.123815
21
0.471216
31
0.0
0
LINE
8
0
6
CONTINUOUS
10
-0.120915
20
0.490216
30
0.0
11
-0.123815
21
0.490216
31
0.0
0
LINE
8
0
6
CONTINUOUS
10
-0.123815
20
0.471216
30
0.0
11
-0.120915
21
0.471216
31
0.0
0
LINE
8
0
6
CONTINUOUS
10
-0.118415
20
0.490216
30
0.0
11
-0.120915
21
0.490216
31
0.0
0
LINE
8
0
6
CONTINUOUS
10
-0.120915
20
0.471216
30
0.0
11
-0.118415
21
0.471216
31
0.0
0
LINE
8
0
6
CONTINUOUS
10
-0.123915
20
0.490716
30
0.0
11
-0.126915
21
0.490716
31
0.0
0
LINE
8
0
6
CONTINUOUS
10
-0.126915
20
0.490216
30
0.0
11
-0.123815
21
0.490216
31
0.0
0
LINE
8
0
6
CONTINUOUS
10
-0.121215
20
0.490716
30
0.0
11
-0.123915
21
0.490716
31
0.0
0
LINE
8
0
6
CONTINUOUS
10
-0.123815
20
0.490216
30
0.0
11
-0.120915
21
0.490216
31
0.0
0
LINE
8
0
6
CONTINUOUS
10
-0.118815
20
0.490716
30
0.0
11
-0.121215
21
0.490716
31
0.0
0
LINE
8
0
6
CONTINUOUS
10
-0.120915
20
0.490216
30
0.0
11
-0.118415
21
0.490216
31
0.0
0
LINE
8
0
6
CONTINUOUS
10
-0.137515
20
0.490716
30
0.0
11
-0.137915
21
0.490716
31
0.0
0
LINE
8
0
6
CONTINUOUS
10
-0.136415
20
0.490716
30
0.0
11
-0.137515
21
0.490716
31
0.0
0
LINE
8
0
6
CONTINUOUS
10
-0.134715
20
0.490716
30
0.0
11
-0.136415
21
0.490716
31
0.0
0
LINE
8
0
6
CONTINUOUS
10
-0.126915
20
0.490716
30
0.0
11
-0.129715
21
0.490716
31
0.0
0
LINE
8
0
6
CONTINUOUS
10
-0.129715
20
0.490716
30
0.0
11
-0.132415
21
0.490716
31
0.0
0
LINE
8
0
6
CONTINUOUS
10
-0.132415
20
0.490716
30
0.0
11
-0.134715
21
0.490716
31
0.0
0
LINE
8
0
6
CONTINUOUS
10
-0.115915
20
0.490716
30
0.0
11
-0.116315
21
0.490716
31
0.0
0
LINE
8
0
6
CONTINUOUS
10
-0.116315
20
0.490716
30
0.0
11
-0.117415
21
0.490716
31
0.0
0
LINE
8
0
6
CONTINUOUS
10
-0.117415
20
0.490716
30
0.0
11
-0.119115
21
0.490716
31
0.0
0
LINE
8
0
6
CONTINUOUS
10
-0.124115
20
0.490716
30
0.0
11
-0.126915
21
0.490716
31
0.0
0
LINE
8
0
6
CONTINUOUS
10
-0.121415
20
0.490716
30
0.0
11
-0.124115
21
0.490716
31
0.0
0
LINE
8
0
6
CONTINUOUS
10
-0.119115
20
0.490716
30
0.0
11
-0.121415
21
0.490716
31
0.0
0
LINE
8
0
6
CONTINUOUS
10
-0.110951
20
0.237047
30
0.0
11
-0.110132
21
0.237047
31
0.0
0
LINE
8
0
6
CONTINUOUS
10
-0.110976
20
0.237629
30
0.0
11
-0.110951
21
0.237047
31
0.0
0
LINE
8
0
6
CONTINUOUS
10
-0.104306
20
0.237048
30
0.0
11
-0.100187
21
0.237048
31
0.0
0
LINE
8
0
6
CONTINUOUS
10
-0.100187
20
0.237048
30
0.0
11
-0.096067
21
0.237048
31
0.0
0
LINE
8
0
6
CONTINUOUS
10
-0.096067
20
0.237048
30
0.0
11
-0.092575
21
0.237048
31
0.0
0
LINE
8
0
6
CONTINUOUS
10
-0.110132
20
0.237047
30
0.0
11
-0.107798
21
0.237047
31
0.0
0
LINE
8
0
6
CONTINUOUS
10
-0.089422
20
0.237048
30
0.0
11
-0.089398
21
0.237630
31
0.0
0
LINE
8
0
6
CONTINUOUS
10
-0.112075
20
0.263882
30
0.0
11
-0.110976
21
0.237629
31
0.0
0
LINE
8
0
6
CONTINUOUS
10
-0.089398
20
0.237630
30
0.0
11
-0.088306
21
0.263882
31
0.0
0
LINE
8
0
6
CONTINUOUS
10
-0.115454
20
0.309690
30
0.0
11
-0.115580
21
0.309690
31
0.0
0
LINE
8
0
6
CONTINUOUS
10
-0.115129
20
0.309690
30
0.0
11
-0.115454
21
0.309690
31
0.0
0
LINE
8
0
6
CONTINUOUS
10
-0.137491
20
0.309270
30
0.0
11
-0.138641
21
0.308122
31
0.0
0
LINE
8
0
6
CONTINUOUS
10
-0.138641
20
0.308122
30
0.0
11
-0.139062
21
0.306554
31
0.0
0
LINE
8
0
6
CONTINUOUS
10
-0.126790
20
0.309690
30
0.0
11
-0.129151
21
0.309690
31
0.0
0
LINE
8
0
6
CONTINUOUS
10
-0.131434
20
0.309690
30
0.0
11
-0.133601
21
0.309690
31
0.0
0
LINE
8
0
6
CONTINUOUS
10
-0.133601
20
0.309690
30
0.0
11
-0.135856
21
0.309690
31
0.0
0
LINE
8
0
6
CONTINUOUS
10
-0.118054
20
0.309690
30
0.0
11
-0.120006
21
0.309690
31
0.0
0
LINE
8
0
6
CONTINUOUS
10
-0.120006
20
0.309690
30
0.0
11
-0.122153
21
0.309690
31
0.0
0
LINE
8
0
6
CONTINUOUS
10
-0.122153
20
0.309690
30
0.0
11
-0.124435
21
0.309690
31
0.0
0
LINE
8
0
6
CONTINUOUS
10
-0.124435
20
0.309690
30
0.0
11
-0.126790
21
0.309690
31
0.0
0
LINE
8
0
6
CONTINUOUS
10
-0.129151
20
0.309690
30
0.0
11
-0.131434
21
0.309690
31
0.0
0
LINE
8
0
6
CONTINUOUS
10
-0.112360
20
0.309690
30
0.0
11
-0.112640
21
0.309690
31
0.0
0
LINE
8
0
6
CONTINUOUS
10
-0.112360
20
0.309240
30
0.0
11
-0.112360
21
0.309690
31
0.0
0
LINE
8
0
6
CONTINUOUS
10
-0.116418
20
0.309690
30
0.0
11
-0.118054
21
0.309690
31
0.0
0
LINE
8
0
6
CONTINUOUS
10
-0.112640
20
0.309690
30
0.0
11
-0.113698
21
0.309690
31
0.0
0
LINE
8
0
6
CONTINUOUS
10
-0.113698
20
0.309690
30
0.0
11
-0.114969
21
0.309690
31
0.0
0
LINE
8
0
6
CONTINUOUS
10
-0.114969
20
0.309690
30
0.0
11
-0.116418
21
0.309690
31
0.0
0
LINE
8
0
6
CONTINUOUS
10
-0.136222
20
0.309690
30
0.0
11
-0.137405
21
0.309270
31
0.0
0
LINE
8
0
6
CONTINUOUS
10
-0.135856
20
0.309690
30
0.0
11
-0.136222
21
0.309690
31
0.0
0
LINE
8
0
6
CONTINUOUS
10
-0.138641
20
0.264289
30
0.0
11
-0.137491
21
0.263141
31
0.0
0
LINE
8
0
6
CONTINUOUS
10
-0.139062
20
0.265858
30
0.0
11
-0.138641
21
0.264289
31
0.0
0
LINE
8
0
6
CONTINUOUS
10
-0.129151
20
0.262721
30
0.0
11
-0.126790
21
0.262721
31
0.0
0
LINE
8
0
6
CONTINUOUS
10
-0.133601
20
0.262721
30
0.0
11
-0.131434
21
0.262721
31
0.0
0
LINE
8
0
6
CONTINUOUS
10
-0.135856
20
0.262721
30
0.0
11
-0.133601
21
0.262721
31
0.0
0
LINE
8
0
6
CONTINUOUS
10
-0.120006
20
0.262721
30
0.0
11
-0.118074
21
0.262721
31
0.0
0
LINE
8
0
6
CONTINUOUS
10
-0.122153
20
0.262721
30
0.0
11
-0.120006
21
0.262721
31
0.0
0
LINE
8
0
6
CONTINUOUS
10
-0.124435
20
0.262721
30
0.0
11
-0.122153
21
0.262721
31
0.0
0
LINE
8
0
6
CONTINUOUS
10
-0.126790
20
0.262721
30
0.0
11
-0.124435
21
0.262721
31
0.0
0
LINE
8
0
6
CONTINUOUS
10
-0.131434
20
0.262721
30
0.0
11
-0.129151
21
0.262721
31
0.0
0
LINE
8
0
6
CONTINUOUS
10
-0.118054
20
0.262721
30
0.0
11
-0.116418
21
0.262721
31
0.0
0
LINE
8
0
6
CONTINUOUS
10
-0.113698
20
0.262721
30
0.0
11
-0.112640
21
0.262721
31
0.0
0
LINE
8
0
6
CONTINUOUS
10
-0.114969
20
0.262721
30
0.0
11
-0.113698
21
0.262721
31
0.0
0
LINE
8
0
6
CONTINUOUS
10
-0.116418
20
0.262721
30
0.0
11
-0.114969
21
0.262721
31
0.0
0
LINE
8
0
6
CONTINUOUS
10
-0.137405
20
0.263141
30
0.0
11
-0.136222
21
0.262721
31
0.0
0
LINE
8
0
6
CONTINUOUS
10
-0.136222
20
0.262721
30
0.0
11
-0.135856
21
0.262721
31
0.0
0
LINE
8
0
6
CONTINUOUS
10
-0.112360
20
0.308682
30
0.0
11
-0.112360
21
0.309240
31
0.0
0
LINE
8
0
6
CONTINUOUS
10
-0.139062
20
0.306554
30
0.0
11
-0.139062
21
0.265858
31
0.0
0
LINE
8
0
6
CONTINUOUS
10
-0.112360
20
0.263171
30
0.0
11
-0.112360
21
0.263882
31
0.0
0
LINE
8
0
6
CONTINUOUS
10
-0.112360
20
0.262721
30
0.0
11
-0.112360
21
0.263171
31
0.0
0
LINE
8
0
6
CONTINUOUS
10
-0.112640
20
0.262721
30
0.0
11
-0.112360
21
0.262721
31
0.0
0
LINE
8
0
6
CONTINUOUS
10
-0.076782
20
0.308682
30
0.0
11
-0.123124
21
0.308682
31
0.0
0
LINE
8
0
6
CONTINUOUS
10
-0.124993
20
0.308682
30
0.0
11
-0.126862
21
0.308682
31
0.0
0
LINE
8
0
6
CONTINUOUS
10
-0.134859
20
0.308682
30
0.0
11
-0.135824
21
0.308682
31
0.0
0
LINE
8
0
6
CONTINUOUS
10
-0.126862
20
0.308682
30
0.0
11
-0.128731
21
0.308682
31
0.0
0
LINE
8
0
6
CONTINUOUS
10
-0.133873
20
0.308682
30
0.0
11
-0.134859
21
0.308682
31
0.0
0
LINE
8
0
6
CONTINUOUS
10
-0.123124
20
0.308682
30
0.0
11
-0.124993
21
0.308682
31
0.0
0
LINE
8
0
6
CONTINUOUS
10
-0.132292
20
0.308682
30
0.0
11
-0.133873
21
0.308682
31
0.0
0
LINE
8
0
6
CONTINUOUS
10
-0.130564
20
0.308682
30
0.0
11
-0.132292
21
0.308682
31
0.0
0
LINE
8
0
6
CONTINUOUS
10
-0.128731
20
0.308682
30
0.0
11
-0.130564
21
0.308682
31
0.0
0
LINE
8
0
6
CONTINUOUS
10
-0.123124
20
0.263882
30
0.0
11
-0.077837
21
0.263882
31
0.0
0
LINE
8
0
6
CONTINUOUS
10
-0.135824
20
0.308682
30
0.0
11
-0.136762
21
0.308682
31
0.0
0
LINE
8
0
6
CONTINUOUS
10
-0.126862
20
0.263882
30
0.0
11
-0.124993
21
0.263882
31
0.0
0
LINE
8
0
6
CONTINUOUS
10
-0.135824
20
0.263882
30
0.0
11
-0.134859
21
0.263882
31
0.0
0
LINE
8
0
6
CONTINUOUS
10
-0.128731
20
0.263882
30
0.0
11
-0.126862
21
0.263882
31
0.0
0
LINE
8
0
6
CONTINUOUS
10
-0.134859
20
0.263882
30
0.0
11
-0.133873
21
0.263882
31
0.0
0
LINE
8
0
6
CONTINUOUS
10
-0.124993
20
0.263882
30
0.0
11
-0.123124
21
0.263882
31
0.0
0
LINE
8
0
6
CONTINUOUS
10
-0.133873
20
0.263882
30
0.0
11
-0.132292
21
0.263882
31
0.0
0
LINE
8
0
6
CONTINUOUS
10
-0.132292
20
0.263882
30
0.0
11
-0.130564
21
0.263882
31
0.0
0
LINE
8
0
6
CONTINUOUS
10
-0.130564
20
0.263882
30
0.0
11
-0.128731
21
0.263882
31
0.0
0
LINE
8
0
6
CONTINUOUS
10
-0.136762
20
0.263882
30
0.0
11
-0.135824
21
0.263882
31
0.0
0
LINE
8
0
6
CONTINUOUS
10
-0.077837
20
0.263882
30
0.0
11
-0.077858
21
0.264339
31
0.0
0
LINE
8
0
6
CONTINUOUS
10
-0.077858
20
0.264339
30
0.0
11
-0.077920
21
0.265677
31
0.0
0
ENDSEC
0
EOF
