999
unknown String-ID: 20550
0
SECTION
2
HEADER
9
$ACADVER
1
AC1009
9
$DWGCODEPAGE
3
unknown String-ID: 20561
0
ENDSEC
0
SECTION
2
TABLES
0
TABLE
2
LAYER
70
1
0
LAYER
2
0
70
0
62
7
6
CONTINUOUS
0
ENDTAB
0
ENDSEC
0
SECTION
2
ENTITIES
0
LINE
8
0
6
CONTINUOUS
10
-0.020835
20
0.372289
30
0.0
11
-0.020835
21
0.372037
31
0.0
0
LINE
8
0
6
CONTINUOUS
10
0.020581
20
0.372037
30
0.0
11
0.020581
21
0.372289
31
0.0
0
LINE
8
0
6
CONTINUOUS
10
0.028238
20
0.302207
30
0.0
11
0.025342
21
0.303097
31
0.0
0
LINE
8
0
6
CONTINUOUS
10
0.025342
20
0.303097
30
0.0
11
0.022481
21
0.304962
31
0.0
0
LINE
8
0
6
CONTINUOUS
10
0.024861
20
0.243644
30
0.0
11
0.026825
21
0.247370
31
0.0
0
LINE
8
0
6
CONTINUOUS
10
0.022481
20
0.304962
30
0.0
11
0.020902
21
0.308100
31
0.0
0
LINE
8
0
6
CONTINUOUS
10
0.026825
20
0.247370
30
0.0
11
0.028867
21
0.250650
31
0.0
0
LINE
8
0
6
CONTINUOUS
10
0.023501
20
0.240558
30
0.0
11
0.024861
21
0.243644
31
0.0
0
LINE
8
0
6
CONTINUOUS
10
0.021589
20
0.234214
30
0.0
11
0.023501
21
0.240558
31
0.0
0
LINE
8
0
6
CONTINUOUS
10
0.020873
20
0.309972
30
0.0
11
0.020864
21
0.310970
31
0.0
0
LINE
8
0
6
CONTINUOUS
10
0.060821
20
0.276434
30
0.0
11
0.059759
21
0.278304
31
0.0
0
LINE
8
0
6
CONTINUOUS
10
0.047832
20
0.299300
30
0.0
11
0.046112
21
0.302329
31
0.0
0
LINE
8
0
6
CONTINUOUS
10
0.061207
20
0.275755
30
0.0
11
0.060821
21
0.276434
31
0.0
0
LINE
8
0
6
CONTINUOUS
10
0.060606
20
0.275407
30
0.0
11
0.061207
21
0.275755
31
0.0
0
LINE
8
0
6
CONTINUOUS
10
0.053204
20
0.289843
30
0.0
11
0.051678
21
0.292531
31
0.0
0
LINE
8
0
6
CONTINUOUS
10
0.058049
20
0.281315
30
0.0
11
0.055819
21
0.285240
31
0.0
0
LINE
8
0
6
CONTINUOUS
10
0.059759
20
0.278304
30
0.0
11
0.058049
21
0.281315
31
0.0
0
LINE
8
0
6
CONTINUOUS
10
0.048961
20
0.297314
30
0.0
11
0.047832
21
0.299300
31
0.0
0
LINE
8
0
6
CONTINUOUS
10
0.042455
20
0.308766
30
0.0
11
0.041852
21
0.308421
31
0.0
0
LINE
8
0
6
CONTINUOUS
10
0.042803
20
0.308154
30
0.0
11
0.042455
21
0.308766
31
0.0
0
LINE
8
0
6
CONTINUOUS
10
0.020902
20
0.308100
30
0.0
11
0.020873
21
0.309972
31
0.0
0
LINE
8
0
6
CONTINUOUS
10
-0.025596
20
0.303097
30
0.0
11
-0.028492
21
0.302207
31
0.0
0
LINE
8
0
6
CONTINUOUS
10
-0.022735
20
0.304962
30
0.0
11
-0.025596
21
0.303097
31
0.0
0
LINE
8
0
6
CONTINUOUS
10
-0.027079
20
0.247370
30
0.0
11
-0.025115
21
0.243644
31
0.0
0
LINE
8
0
6
CONTINUOUS
10
-0.021157
20
0.308100
30
0.0
11
-0.022735
21
0.304962
31
0.0
0
LINE
8
0
6
CONTINUOUS
10
-0.029121
20
0.250650
30
0.0
11
-0.027079
21
0.247370
31
0.0
0
LINE
8
0
6
CONTINUOUS
10
-0.025115
20
0.243644
30
0.0
11
-0.023755
21
0.240558
31
0.0
0
LINE
8
0
6
CONTINUOUS
10
-0.023755
20
0.240558
30
0.0
11
-0.021872
21
0.234198
31
0.0
0
LINE
8
0
6
CONTINUOUS
10
-0.021119
20
0.310970
30
0.0
11
-0.021125
21
0.309972
31
0.0
0
LINE
8
0
6
CONTINUOUS
10
-0.053461
20
0.289854
30
0.0
11
-0.056073
21
0.285256
31
0.0
0
LINE
8
0
6
CONTINUOUS
10
-0.060014
20
0.278318
30
0.0
11
-0.061083
21
0.276436
31
0.0
0
LINE
8
0
6
CONTINUOUS
10
-0.045836
20
0.303276
30
0.0
11
-0.048093
21
0.299304
31
0.0
0
LINE
8
0
6
CONTINUOUS
10
-0.061462
20
0.275768
30
0.0
11
-0.060888
21
0.275430
31
0.0
0
LINE
8
0
6
CONTINUOUS
10
-0.061083
20
0.276436
30
0.0
11
-0.061462
21
0.275768
31
0.0
0
LINE
8
0
6
CONTINUOUS
10
-0.043053
20
0.308175
30
0.0
11
-0.044127
21
0.306285
31
0.0
0
LINE
8
0
6
CONTINUOUS
10
-0.050701
20
0.294711
30
0.0
11
-0.053461
21
0.289854
31
0.0
0
LINE
8
0
6
CONTINUOUS
10
-0.044127
20
0.306285
30
0.0
11
-0.045836
21
0.303276
31
0.0
0
LINE
8
0
6
CONTINUOUS
10
-0.056073
20
0.285256
30
0.0
11
-0.058311
21
0.281316
31
0.0
0
LINE
8
0
6
CONTINUOUS
10
-0.042712
20
0.308775
30
0.0
11
-0.043053
21
0.308175
31
0.0
0
LINE
8
0
6
CONTINUOUS
10
-0.042134
20
0.308444
30
0.0
11
-0.042712
21
0.308775
31
0.0
0
LINE
8
0
6
CONTINUOUS
10
-0.021125
20
0.309972
30
0.0
11
-0.021157
21
0.308100
31
0.0
0
LINE
8
0
6
CONTINUOUS
10
0.020823
20
0.322415
30
0.0
11
0.020792
21
0.332941
31
0.0
0
LINE
8
0
6
CONTINUOUS
10
0.020804
20
0.343847
30
0.0
11
0.020809
21
0.358879
31
0.0
0
LINE
8
0
6
CONTINUOUS
10
0.015013
20
0.335940
30
0.0
11
0.015011
21
0.336220
31
0.0
0
LINE
8
0
6
CONTINUOUS
10
0.015298
20
0.362392
30
0.0
11
0.015575
21
0.368392
31
0.0
0
LINE
8
0
6
CONTINUOUS
10
0.015116
20
0.352734
30
0.0
11
0.015197
21
0.358135
31
0.0
0
LINE
8
0
6
CONTINUOUS
10
0.015197
20
0.358135
30
0.0
11
0.015298
21
0.362392
31
0.0
0
LINE
8
0
6
CONTINUOUS
10
0.015399
20
0.365575
30
0.0
11
0.016035
21
0.369499
31
0.0
0
LINE
8
0
6
CONTINUOUS
10
0.016221
20
0.372747
30
0.0
11
0.015668
21
0.372786
31
0.0
0
LINE
8
0
6
CONTINUOUS
10
0.015389
20
0.367782
30
0.0
11
0.015448
21
0.370531
31
0.0
0
LINE
8
0
6
CONTINUOUS
10
0.007673
20
0.372786
30
0.0
11
-0.000127
21
0.372786
31
0.0
0
LINE
8
0
6
CONTINUOUS
10
0.014924
20
0.339031
30
0.0
11
0.014925
21
0.339310
31
0.0
0
LINE
8
0
6
CONTINUOUS
10
0.020792
20
0.332941
30
0.0
11
0.020804
21
0.343847
31
0.0
0
LINE
8
0
6
CONTINUOUS
10
0.014949
20
0.343762
30
0.0
11
0.015116
21
0.352734
31
0.0
0
LINE
8
0
6
CONTINUOUS
10
0.013895
20
0.372786
30
0.0
11
0.007673
21
0.372786
31
0.0
0
LINE
8
0
6
CONTINUOUS
10
0.020809
20
0.358879
30
0.0
11
0.020807
21
0.365991
31
0.0
0
LINE
8
0
6
CONTINUOUS
10
0.018994
20
0.360316
30
0.0
11
0.020554
21
0.365973
31
0.0
0
LINE
8
0
6
CONTINUOUS
10
0.020807
20
0.367282
30
0.0
11
0.020581
21
0.367282
31
0.0
0
LINE
8
0
6
CONTINUOUS
10
0.020807
20
0.365991
30
0.0
11
0.020807
21
0.367282
31
0.0
0
LINE
8
0
6
CONTINUOUS
10
0.020581
20
0.371456
30
0.0
11
0.020581
21
0.372782
31
0.0
0
LINE
8
0
6
CONTINUOUS
10
0.019149
20
0.356678
30
0.0
11
0.019867
21
0.360903
31
0.0
0
LINE
8
0
6
CONTINUOUS
10
0.019867
20
0.360903
30
0.0
11
0.020538
21
0.366002
31
0.0
0
LINE
8
0
6
CONTINUOUS
10
0.020554
20
0.365973
30
0.0
11
0.020519
21
0.367224
31
0.0
0
LINE
8
0
6
CONTINUOUS
10
0.015205
20
0.362836
30
0.0
11
0.015386
21
0.367650
31
0.0
0
LINE
8
0
6
CONTINUOUS
10
0.015668
20
0.372786
30
0.0
11
0.013895
21
0.372786
31
0.0
0
LINE
8
0
6
CONTINUOUS
10
0.014970
20
0.348771
30
0.0
11
0.015060
21
0.356955
31
0.0
0
LINE
8
0
6
CONTINUOUS
10
0.015060
20
0.356955
30
0.0
11
0.015205
21
0.362836
31
0.0
0
LINE
8
0
6
CONTINUOUS
10
0.020581
20
0.372782
30
0.0
11
0.018193
21
0.372782
31
0.0
0
LINE
8
0
6
CONTINUOUS
10
0.010889
20
0.332474
30
0.0
11
0.013117
21
0.333333
31
0.0
0
LINE
8
0
6
CONTINUOUS
10
0.010424
20
0.332315
30
0.0
11
0.010889
21
0.332474
31
0.0
0
LINE
8
0
6
CONTINUOUS
10
0.013117
20
0.333333
30
0.0
11
0.014649
21
0.334286
31
0.0
0
LINE
8
0
6
CONTINUOUS
10
0.014852
20
0.334905
30
0.0
11
0.015013
21
0.335940
31
0.0
0
LINE
8
0
6
CONTINUOUS
10
0.014649
20
0.334286
30
0.0
11
0.014852
21
0.334905
31
0.0
0
LINE
8
0
6
CONTINUOUS
10
0.014900
20
0.338802
30
0.0
11
0.014924
21
0.339031
31
0.0
0
LINE
8
0
6
CONTINUOUS
10
0.014871
20
0.338026
30
0.0
11
0.014900
21
0.338802
31
0.0
0
LINE
8
0
6
CONTINUOUS
10
0.014925
20
0.339310
30
0.0
11
0.014970
21
0.348771
31
0.0
0
LINE
8
0
6
CONTINUOUS
10
0.015011
20
0.336220
30
0.0
11
0.014952
21
0.345420
31
0.0
0
LINE
8
0
6
CONTINUOUS
10
0.014946
20
0.337263
30
0.0
11
0.014967
21
0.347086
31
0.0
0
LINE
8
0
6
CONTINUOUS
10
-0.021046
20
0.332941
30
0.0
11
-0.021077
21
0.322415
31
0.0
0
LINE
8
0
6
CONTINUOUS
10
-0.021063
20
0.358879
30
0.0
11
-0.021058
21
0.343847
31
0.0
0
LINE
8
0
6
CONTINUOUS
10
-0.015265
20
0.336220
30
0.0
11
-0.015267
21
0.335940
31
0.0
0
LINE
8
0
6
CONTINUOUS
10
-0.015829
20
0.368392
30
0.0
11
-0.015552
21
0.362392
31
0.0
0
LINE
8
0
6
CONTINUOUS
10
-0.015452
20
0.358135
30
0.0
11
-0.015370
21
0.352734
31
0.0
0
LINE
8
0
6
CONTINUOUS
10
-0.015552
20
0.362392
30
0.0
11
-0.015452
21
0.358135
31
0.0
0
LINE
8
0
6
CONTINUOUS
10
-0.016289
20
0.369499
30
0.0
11
-0.015654
21
0.365575
31
0.0
0
LINE
8
0
6
CONTINUOUS
10
-0.015933
20
0.372786
30
0.0
11
-0.016475
21
0.372747
31
0.0
0
LINE
8
0
6
CONTINUOUS
10
-0.000127
20
0.372786
30
0.0
11
-0.007927
21
0.372786
31
0.0
0
LINE
8
0
6
CONTINUOUS
10
-0.015179
20
0.339310
30
0.0
11
-0.015178
21
0.339031
31
0.0
0
LINE
8
0
6
CONTINUOUS
10
-0.021058
20
0.343847
30
0.0
11
-0.021046
21
0.332941
31
0.0
0
LINE
8
0
6
CONTINUOUS
10
-0.015370
20
0.352734
30
0.0
11
-0.015203
21
0.343762
31
0.0
0
LINE
8
0
6
CONTINUOUS
10
-0.015533
20
0.366989
30
0.0
11
-0.015460
21
0.362836
31
0.0
0
LINE
8
0
6
CONTINUOUS
10
-0.007927
20
0.372786
30
0.0
11
-0.014160
21
0.372786
31
0.0
0
LINE
8
0
6
CONTINUOUS
10
-0.021061
20
0.365991
30
0.0
11
-0.021063
21
0.358879
31
0.0
0
LINE
8
0
6
CONTINUOUS
10
-0.020808
20
0.365973
30
0.0
11
-0.019248
21
0.360316
31
0.0
0
LINE
8
0
6
CONTINUOUS
10
-0.021061
20
0.367282
30
0.0
11
-0.021061
21
0.365991
31
0.0
0
LINE
8
0
6
CONTINUOUS
10
-0.020835
20
0.367282
30
0.0
11
-0.021061
21
0.367282
31
0.0
0
LINE
8
0
6
CONTINUOUS
10
-0.020835
20
0.372782
30
0.0
11
-0.020835
21
0.371456
31
0.0
0
LINE
8
0
6
CONTINUOUS
10
-0.020262
20
0.361296
30
0.0
11
-0.019403
21
0.356678
31
0.0
0
LINE
8
0
6
CONTINUOUS
10
-0.020793
20
0.366002
30
0.0
11
-0.020262
21
0.361296
31
0.0
0
LINE
8
0
6
CONTINUOUS
10
-0.020772
20
0.367263
30
0.0
11
-0.020808
21
0.365973
31
0.0
0
LINE
8
0
6
CONTINUOUS
10
-0.014160
20
0.372786
30
0.0
11
-0.015933
21
0.372786
31
0.0
0
LINE
8
0
6
CONTINUOUS
10
-0.015315
20
0.356955
30
0.0
11
-0.015224
21
0.348771
31
0.0
0
LINE
8
0
6
CONTINUOUS
10
-0.015460
20
0.362836
30
0.0
11
-0.015315
21
0.356955
31
0.0
0
LINE
8
0
6
CONTINUOUS
10
-0.018713
20
0.372782
30
0.0
11
-0.020835
21
0.372782
31
0.0
0
LINE
8
0
6
CONTINUOUS
10
-0.011143
20
0.332474
30
0.0
11
-0.010678
21
0.332315
31
0.0
0
LINE
8
0
6
CONTINUOUS
10
-0.013371
20
0.333333
30
0.0
11
-0.011143
21
0.332474
31
0.0
0
LINE
8
0
6
CONTINUOUS
10
-0.014903
20
0.334286
30
0.0
11
-0.013371
21
0.333333
31
0.0
0
LINE
8
0
6
CONTINUOUS
10
-0.015106
20
0.334905
30
0.0
11
-0.014903
21
0.334286
31
0.0
0
LINE
8
0
6
CONTINUOUS
10
-0.015267
20
0.335940
30
0.0
11
-0.015106
21
0.334905
31
0.0
0
LINE
8
0
6
CONTINUOUS
10
-0.015178
20
0.339031
30
0.0
11
-0.015154
21
0.338802
31
0.0
0
LINE
8
0
6
CONTINUOUS
10
-0.015154
20
0.338802
30
0.0
11
-0.015125
21
0.338026
31
0.0
0
LINE
8
0
6
CONTINUOUS
10
-0.015224
20
0.348771
30
0.0
11
-0.015179
21
0.339310
31
0.0
0
LINE
8
0
6
CONTINUOUS
10
-0.015206
20
0.345420
30
0.0
11
-0.015265
21
0.336220
31
0.0
0
LINE
8
0
6
CONTINUOUS
10
-0.015221
20
0.347086
30
0.0
11
-0.015200
21
0.337263
31
0.0
0
LINE
8
0
6
CONTINUOUS
10
0.020667
20
0.226402
30
0.0
11
0.021589
21
0.234214
31
0.0
0
LINE
8
0
6
CONTINUOUS
10
-0.021872
20
0.234198
30
0.0
11
-0.020921
21
0.226402
31
0.0
0
LINE
8
0
6
CONTINUOUS
10
0.020864
20
0.310970
30
0.0
11
0.020823
21
0.322415
31
0.0
0
LINE
8
0
6
CONTINUOUS
10
0.020566
20
-0.477338
30
0.0
11
0.020667
21
0.226402
31
0.0
0
LINE
8
0
6
CONTINUOUS
10
-0.021077
20
0.322415
30
0.0
11
-0.021119
21
0.310970
31
0.0
0
LINE
8
0
6
CONTINUOUS
10
-0.020921
20
0.226402
30
0.0
11
-0.020938
21
-0.477338
31
0.0
0
LINE
8
0
6
CONTINUOUS
10
-0.035696
20
0.258594
30
0.0
11
-0.029121
21
0.250650
31
0.0
0
LINE
8
0
6
CONTINUOUS
10
-0.028492
20
0.302207
30
0.0
11
-0.032246
21
0.302766
31
0.0
0
LINE
8
0
6
CONTINUOUS
10
0.028867
20
0.250650
30
0.0
11
0.036890
21
0.259965
31
0.0
0
LINE
8
0
6
CONTINUOUS
10
0.032587
20
0.303109
30
0.0
11
0.028238
21
0.302207
31
0.0
0
LINE
8
0
6
CONTINUOUS
10
-0.044428
20
0.265759
30
0.0
11
-0.035696
21
0.258594
31
0.0
0
LINE
8
0
6
CONTINUOUS
10
-0.032246
20
0.302766
30
0.0
11
-0.035482
21
0.304633
31
0.0
0
LINE
8
0
6
CONTINUOUS
10
0.036890
20
0.259965
30
0.0
11
0.046362
21
0.267180
31
0.0
0
LINE
8
0
6
CONTINUOUS
10
0.035961
20
0.305051
30
0.0
11
0.032587
21
0.303109
31
0.0
0
LINE
8
0
6
CONTINUOUS
10
0.046362
20
0.267180
30
0.0
11
0.060606
21
0.275407
31
0.0
0
LINE
8
0
6
CONTINUOUS
10
0.041852
20
0.308421
30
0.0
11
0.035961
21
0.305051
31
0.0
0
LINE
8
0
6
CONTINUOUS
10
-0.060888
20
0.275430
30
0.0
11
-0.044428
21
0.265759
31
0.0
0
LINE
8
0
6
CONTINUOUS
10
-0.035482
20
0.304633
30
0.0
11
-0.042134
21
0.308444
31
0.0
0
LINE
8
0
6
CONTINUOUS
10
-0.000127
20
0.331344
30
0.0
11
0.003846
21
0.331390
31
0.0
0
LINE
8
0
6
CONTINUOUS
10
0.003846
20
0.331390
30
0.0
11
0.007496
21
0.331694
31
0.0
0
LINE
8
0
6
CONTINUOUS
10
0.007496
20
0.331694
30
0.0
11
0.010424
21
0.332315
31
0.0
0
LINE
8
0
6
CONTINUOUS
10
0.010509
20
0.335581
30
0.0
11
0.011166
21
0.334910
31
0.0
0
LINE
8
0
6
CONTINUOUS
10
0.005160
20
0.337105
30
0.0
11
0.007416
21
0.336712
31
0.0
0
LINE
8
0
6
CONTINUOUS
10
0.007416
20
0.336712
30
0.0
11
0.009235
21
0.336194
31
0.0
0
LINE
8
0
6
CONTINUOUS
10
-0.000127
20
0.337433
30
0.0
11
0.002595
21
0.337350
31
0.0
0
LINE
8
0
6
CONTINUOUS
10
0.009235
20
0.336194
30
0.0
11
0.010509
21
0.335581
31
0.0
0
LINE
8
0
6
CONTINUOUS
10
0.002595
20
0.337350
30
0.0
11
0.005160
21
0.337105
31
0.0
0
LINE
8
0
6
CONTINUOUS
10
-0.004100
20
0.331390
30
0.0
11
-0.000127
21
0.331344
31
0.0
0
LINE
8
0
6
CONTINUOUS
10
-0.007750
20
0.331694
30
0.0
11
-0.004100
21
0.331390
31
0.0
0
LINE
8
0
6
CONTINUOUS
10
-0.010678
20
0.332315
30
0.0
11
-0.007750
21
0.331694
31
0.0
0
LINE
8
0
6
CONTINUOUS
10
-0.011420
20
0.334218
30
0.0
11
-0.011420
21
0.334910
31
0.0
0
LINE
8
0
6
CONTINUOUS
10
-0.011420
20
0.334910
30
0.0
11
-0.010763
21
0.335581
31
0.0
0
LINE
8
0
6
CONTINUOUS
10
-0.007671
20
0.336712
30
0.0
11
-0.005414
21
0.337105
31
0.0
0
LINE
8
0
6
CONTINUOUS
10
-0.009489
20
0.336194
30
0.0
11
-0.007671
21
0.336712
31
0.0
0
LINE
8
0
6
CONTINUOUS
10
-0.002849
20
0.337350
30
0.0
11
-0.000127
21
0.337433
31
0.0
0
LINE
8
0
6
CONTINUOUS
10
-0.010763
20
0.335581
30
0.0
11
-0.009489
21
0.336194
31
0.0
0
LINE
8
0
6
CONTINUOUS
10
-0.005414
20
0.337105
30
0.0
11
-0.002849
21
0.337350
31
0.0
0
LINE
8
0
6
CONTINUOUS
10
-0.062300
20
-0.490254
30
0.0
11
-0.062300
21
-0.490716
31
0.0
0
LINE
8
0
6
CONTINUOUS
10
-0.062292
20
-0.490716
30
0.0
11
-0.062185
21
-0.490716
31
0.0
0
LINE
8
0
6
CONTINUOUS
10
-0.062185
20
-0.490716
30
0.0
11
-0.061765
21
-0.490716
31
0.0
0
LINE
8
0
6
CONTINUOUS
10
-0.061765
20
-0.490716
30
0.0
11
-0.060694
21
-0.490716
31
0.0
0
LINE
8
0
6
CONTINUOUS
10
-0.060694
20
-0.490716
30
0.0
11
-0.058499
21
-0.490716
31
0.0
0
LINE
8
0
6
CONTINUOUS
10
-0.058499
20
-0.490716
30
0.0
11
-0.054715
21
-0.490716
31
0.0
0
LINE
8
0
6
CONTINUOUS
10
-0.054715
20
-0.490716
30
0.0
11
-0.049405
21
-0.490716
31
0.0
0
LINE
8
0
6
CONTINUOUS
10
-0.049405
20
-0.490716
30
0.0
11
-0.043270
21
-0.490716
31
0.0
0
LINE
8
0
6
CONTINUOUS
10
-0.043270
20
-0.490716
30
0.0
11
-0.036831
21
-0.490716
31
0.0
0
LINE
8
0
6
CONTINUOUS
10
-0.036831
20
-0.490716
30
0.0
11
-0.030329
21
-0.490716
31
0.0
0
LINE
8
0
6
CONTINUOUS
10
-0.030329
20
-0.490716
30
0.0
11
-0.023817
21
-0.490716
31
0.0
0
LINE
8
0
6
CONTINUOUS
10
-0.023817
20
-0.490716
30
0.0
11
-0.017300
21
-0.490716
31
0.0
0
LINE
8
0
6
CONTINUOUS
10
0.062046
20
-0.490254
30
0.0
11
0.062046
21
-0.477984
31
0.0
0
LINE
8
0
6
CONTINUOUS
10
0.062046
20
-0.477984
30
0.0
11
0.062046
21
-0.477357
31
0.0
0
LINE
8
0
6
CONTINUOUS
10
-0.062300
20
-0.477984
30
0.0
11
-0.062300
21
-0.490254
31
0.0
0
LINE
8
0
6
CONTINUOUS
10
0.016855
20
-0.477338
30
0.0
11
-0.017129
21
-0.477338
31
0.0
0
LINE
8
0
6
CONTINUOUS
10
0.062046
20
-0.477357
30
0.0
11
0.061580
21
-0.477338
31
0.0
0
LINE
8
0
6
CONTINUOUS
10
0.061567
20
-0.477338
30
0.0
11
0.061453
21
-0.477338
31
0.0
0
LINE
8
0
6
CONTINUOUS
10
0.061453
20
-0.477338
30
0.0
11
0.061026
21
-0.477338
31
0.0
0
LINE
8
0
6
CONTINUOUS
10
0.061026
20
-0.477338
30
0.0
11
0.059953
21
-0.477338
31
0.0
0
LINE
8
0
6
CONTINUOUS
10
0.059953
20
-0.477338
30
0.0
11
0.057765
21
-0.477338
31
0.0
0
LINE
8
0
6
CONTINUOUS
10
0.057765
20
-0.477338
30
0.0
11
0.054004
21
-0.477338
31
0.0
0
LINE
8
0
6
CONTINUOUS
10
0.054004
20
-0.477338
30
0.0
11
0.048732
21
-0.477338
31
0.0
0
LINE
8
0
6
CONTINUOUS
10
0.048732
20
-0.477338
30
0.0
11
0.042641
21
-0.477338
31
0.0
0
LINE
8
0
6
CONTINUOUS
10
0.042641
20
-0.477338
30
0.0
11
0.036249
21
-0.477338
31
0.0
0
LINE
8
0
6
CONTINUOUS
10
0.036249
20
-0.477338
30
0.0
11
0.029793
21
-0.477338
31
0.0
0
LINE
8
0
6
CONTINUOUS
10
0.029793
20
-0.477338
30
0.0
11
0.023327
21
-0.477338
31
0.0
0
LINE
8
0
6
CONTINUOUS
10
0.023327
20
-0.477338
30
0.0
11
0.016855
21
-0.477338
31
0.0
0
LINE
8
0
6
CONTINUOUS
10
-0.061835
20
-0.477338
30
0.0
11
-0.062300
21
-0.477357
31
0.0
0
LINE
8
0
6
CONTINUOUS
10
-0.061713
20
-0.477338
30
0.0
11
-0.061824
21
-0.477338
31
0.0
0
LINE
8
0
6
CONTINUOUS
10
-0.061292
20
-0.477338
30
0.0
11
-0.061713
21
-0.477338
31
0.0
0
LINE
8
0
6
CONTINUOUS
10
-0.060222
20
-0.477338
30
0.0
11
-0.061292
21
-0.477338
31
0.0
0
LINE
8
0
6
CONTINUOUS
10
-0.058034
20
-0.477338
30
0.0
11
-0.060222
21
-0.477338
31
0.0
0
LINE
8
0
6
CONTINUOUS
10
-0.054261
20
-0.477338
30
0.0
11
-0.058034
21
-0.477338
31
0.0
0
LINE
8
0
6
CONTINUOUS
10
-0.049007
20
-0.477338
30
0.0
11
-0.054261
21
-0.477338
31
0.0
0
LINE
8
0
6
CONTINUOUS
10
-0.042932
20
-0.477338
30
0.0
11
-0.049007
21
-0.477338
31
0.0
0
LINE
8
0
6
CONTINUOUS
10
-0.036552
20
-0.477338
30
0.0
11
-0.042932
21
-0.477338
31
0.0
0
LINE
8
0
6
CONTINUOUS
10
-0.030081
20
-0.477338
30
0.0
11
-0.036552
21
-0.477338
31
0.0
0
LINE
8
0
6
CONTINUOUS
10
-0.023623
20
-0.477338
30
0.0
11
-0.030081
21
-0.477338
31
0.0
0
LINE
8
0
6
CONTINUOUS
10
-0.017129
20
-0.477338
30
0.0
11
-0.023623
21
-0.477338
31
0.0
0
LINE
8
0
6
CONTINUOUS
10
0.062046
20
-0.490716
30
0.0
11
0.062046
21
-0.490254
31
0.0
0
LINE
8
0
6
CONTINUOUS
10
0.061931
20
-0.490716
30
0.0
11
0.062038
21
-0.490716
31
0.0
0
LINE
8
0
6
CONTINUOUS
10
0.061514
20
-0.490716
30
0.0
11
0.061931
21
-0.490716
31
0.0
0
LINE
8
0
6
CONTINUOUS
10
0.060445
20
-0.490716
30
0.0
11
0.061514
21
-0.490716
31
0.0
0
LINE
8
0
6
CONTINUOUS
10
0.058247
20
-0.490716
30
0.0
11
0.060445
21
-0.490716
31
0.0
0
LINE
8
0
6
CONTINUOUS
10
0.054450
20
-0.490716
30
0.0
11
0.058247
21
-0.490716
31
0.0
0
LINE
8
0
6
CONTINUOUS
10
0.049157
20
-0.490716
30
0.0
11
0.054450
21
-0.490716
31
0.0
0
LINE
8
0
6
CONTINUOUS
10
0.043036
20
-0.490716
30
0.0
11
0.049157
21
-0.490716
31
0.0
0
LINE
8
0
6
CONTINUOUS
10
0.036607
20
-0.490716
30
0.0
11
0.043036
21
-0.490716
31
0.0
0
LINE
8
0
6
CONTINUOUS
10
0.030090
20
-0.490716
30
0.0
11
0.036607
21
-0.490716
31
0.0
0
LINE
8
0
6
CONTINUOUS
10
0.023586
20
-0.490716
30
0.0
11
0.030090
21
-0.490716
31
0.0
0
LINE
8
0
6
CONTINUOUS
10
0.017046
20
-0.490716
30
0.0
11
0.023586
21
-0.490716
31
0.0
0
LINE
8
0
6
CONTINUOUS
10
-0.062300
20
-0.477357
30
0.0
11
-0.062300
21
-0.477984
31
0.0
0
LINE
8
0
6
CONTINUOUS
10
-0.017300
20
-0.490716
30
0.0
11
0.017046
21
-0.490716
31
0.0
0
LINE
8
0
6
CONTINUOUS
10
0.053845
20
0.298053
30
0.0
11
0.042829
21
0.304310
31
0.0
0
LINE
8
0
6
CONTINUOUS
10
0.048275
20
0.289423
30
0.0
11
0.049109
21
0.289408
31
0.0
0
LINE
8
0
6
CONTINUOUS
10
0.050327
20
0.290215
30
0.0
11
0.051033
21
0.291432
31
0.0
0
LINE
8
0
6
CONTINUOUS
10
0.051674
20
0.292537
30
0.0
11
0.053860
21
0.296303
31
0.0
0
LINE
8
0
6
CONTINUOUS
10
0.049830
20
0.289686
30
0.0
11
0.050327
21
0.290215
31
0.0
0
LINE
8
0
6
CONTINUOUS
10
0.049109
20
0.289408
30
0.0
11
0.049830
21
0.289686
31
0.0
0
LINE
8
0
6
CONTINUOUS
10
0.047454
20
0.289730
30
0.0
11
0.048275
21
0.289423
31
0.0
0
LINE
8
0
6
CONTINUOUS
10
0.054267
20
0.297736
30
0.0
11
0.053998
21
0.297966
31
0.0
0
LINE
8
0
6
CONTINUOUS
10
0.042676
20
0.304397
30
0.0
11
0.042421
21
0.304602
31
0.0
0
LINE
8
0
6
CONTINUOUS
10
0.042421
20
0.304602
30
0.0
11
0.042285
21
0.304867
31
0.0
0
LINE
8
0
6
CONTINUOUS
10
0.058277
20
0.332084
30
0.0
11
0.054285
21
0.326244
31
0.0
0
LINE
8
0
6
CONTINUOUS
10
0.066826
20
0.319132
30
0.0
11
0.070172
21
0.325295
31
0.0
0
LINE
8
0
6
CONTINUOUS
10
0.054301
20
0.324506
30
0.0
11
0.065316
21
0.318249
31
0.0
0
LINE
8
0
6
CONTINUOUS
10
0.053545
20
0.324688
30
0.0
11
0.053842
21
0.324707
31
0.0
0
LINE
8
0
6
CONTINUOUS
10
0.053842
20
0.324707
30
0.0
11
0.054148
21
0.324593
31
0.0
0
LINE
8
0
6
CONTINUOUS
10
0.065468
20
0.318162
30
0.0
11
0.065804
21
0.318049
31
0.0
0
LINE
8
0
6
CONTINUOUS
10
0.053840
20
0.324051
30
0.0
11
0.054149
21
0.324595
31
0.0
0
LINE
8
0
6
CONTINUOUS
10
0.042675
20
0.304395
30
0.0
11
0.042984
21
0.304939
31
0.0
0
LINE
8
0
6
CONTINUOUS
10
0.042585
20
0.305682
30
0.0
11
0.042594
21
0.305411
31
0.0
0
LINE
8
0
6
CONTINUOUS
10
0.043915
20
0.308024
30
0.0
11
0.042585
21
0.305682
31
0.0
0
LINE
8
0
6
CONTINUOUS
10
0.048412
20
0.314495
30
0.0
11
0.050466
21
0.318111
31
0.0
0
LINE
8
0
6
CONTINUOUS
10
0.050466
20
0.318111
30
0.0
11
0.052417
21
0.321545
31
0.0
0
LINE
8
0
6
CONTINUOUS
10
0.046358
20
0.310879
30
0.0
11
0.048412
21
0.314495
31
0.0
0
LINE
8
0
6
CONTINUOUS
10
0.053840
20
0.324051
30
0.0
11
0.053533
21
0.324163
31
0.0
0
LINE
8
0
6
CONTINUOUS
10
0.052417
20
0.321545
30
0.0
11
0.053840
21
0.324051
31
0.0
0
LINE
8
0
6
CONTINUOUS
10
0.049779
20
0.318347
30
0.0
11
0.047791
21
0.314848
31
0.0
0
LINE
8
0
6
CONTINUOUS
10
0.044407
20
0.307444
30
0.0
11
0.046358
21
0.310879
31
0.0
0
LINE
8
0
6
CONTINUOUS
10
0.053533
20
0.324163
30
0.0
11
0.053235
21
0.324144
31
0.0
0
LINE
8
0
6
CONTINUOUS
10
0.051667
20
0.321671
30
0.0
11
0.049779
21
0.318347
31
0.0
0
LINE
8
0
6
CONTINUOUS
10
0.047791
20
0.314848
30
0.0
11
0.045803
21
0.311348
31
0.0
0
LINE
8
0
6
CONTINUOUS
10
0.042984
20
0.304939
30
0.0
11
0.044407
21
0.307444
31
0.0
0
LINE
8
0
6
CONTINUOUS
10
0.042730
20
0.305146
30
0.0
11
0.042984
21
0.304939
31
0.0
0
LINE
8
0
6
CONTINUOUS
10
0.045803
20
0.311348
30
0.0
11
0.043915
21
0.308024
31
0.0
0
LINE
8
0
6
CONTINUOUS
10
0.042594
20
0.305411
30
0.0
11
0.042730
21
0.305146
31
0.0
0
LINE
8
0
6
CONTINUOUS
10
0.053235
20
0.324144
30
0.0
11
0.052998
21
0.324013
31
0.0
0
LINE
8
0
6
CONTINUOUS
10
0.052998
20
0.324013
30
0.0
11
0.051667
21
0.321671
31
0.0
0
LINE
8
0
6
CONTINUOUS
10
0.052417
20
0.321545
30
0.0
11
0.050466
21
0.318111
31
0.0
0
LINE
8
0
6
CONTINUOUS
10
0.084865
20
0.289005
30
0.0
11
0.086919
21
0.292621
31
0.0
0
LINE
8
0
6
CONTINUOUS
10
0.046358
20
0.310879
30
0.0
11
0.044407
21
0.307444
31
0.0
0
LINE
8
0
6
CONTINUOUS
10
0.045803
20
0.311348
30
0.0
11
0.047791
21
0.314848
31
0.0
0
LINE
8
0
6
CONTINUOUS
10
0.043915
20
0.308024
30
0.0
11
0.045803
21
0.311348
31
0.0
0
LINE
8
0
6
CONTINUOUS
10
0.042585
20
0.305682
30
0.0
11
0.043915
21
0.308024
31
0.0
0
LINE
8
0
6
CONTINUOUS
10
0.051667
20
0.321671
30
0.0
11
0.052998
21
0.324013
31
0.0
0
LINE
8
0
6
CONTINUOUS
10
0.049779
20
0.318347
30
0.0
11
0.051667
21
0.321671
31
0.0
0
LINE
8
0
6
CONTINUOUS
10
0.047791
20
0.314848
30
0.0
11
0.049779
21
0.318347
31
0.0
0
LINE
8
0
6
CONTINUOUS
10
0.054149
20
0.324595
30
0.0
11
0.052417
21
0.321545
31
0.0
0
LINE
8
0
6
CONTINUOUS
10
0.081164
20
0.282489
30
0.0
11
0.082914
21
0.285570
31
0.0
0
LINE
8
0
6
CONTINUOUS
10
0.041328
20
0.303433
30
0.0
11
0.038431
21
0.297004
31
0.0
0
LINE
8
0
6
CONTINUOUS
10
0.053545
20
0.324688
30
0.0
11
0.053307
21
0.324557
31
0.0
0
LINE
8
0
6
CONTINUOUS
10
0.053842
20
0.324707
30
0.0
11
0.053545
21
0.324688
31
0.0
0
LINE
8
0
6
CONTINUOUS
10
0.054149
20
0.324595
30
0.0
11
0.053842
21
0.324707
31
0.0
0
LINE
8
0
6
CONTINUOUS
10
0.042421
20
0.304602
30
0.0
11
0.042675
21
0.304395
31
0.0
0
LINE
8
0
6
CONTINUOUS
10
0.042285
20
0.304867
30
0.0
11
0.042421
21
0.304602
31
0.0
0
LINE
8
0
6
CONTINUOUS
10
0.042276
20
0.305138
30
0.0
11
0.042285
21
0.304867
31
0.0
0
LINE
8
0
6
CONTINUOUS
10
0.050466
20
0.318111
30
0.0
11
0.048412
21
0.314495
31
0.0
0
LINE
8
0
6
CONTINUOUS
10
0.041524
20
0.303815
30
0.0
11
0.041328
21
0.303433
31
0.0
0
LINE
8
0
6
CONTINUOUS
10
0.042285
20
0.304867
30
0.0
11
0.042276
21
0.305138
31
0.0
0
LINE
8
0
6
CONTINUOUS
10
0.053307
20
0.324557
30
0.0
11
0.053545
21
0.324688
31
0.0
0
LINE
8
0
6
CONTINUOUS
10
0.054148
20
0.324593
30
0.0
11
0.054301
21
0.324506
31
0.0
0
LINE
8
0
6
CONTINUOUS
10
0.065316
20
0.318249
30
0.0
11
0.065468
21
0.318162
31
0.0
0
LINE
8
0
6
CONTINUOUS
10
0.053998
20
0.297966
30
0.0
11
0.053845
21
0.298053
31
0.0
0
LINE
8
0
6
CONTINUOUS
10
0.042829
20
0.304310
30
0.0
11
0.042676
21
0.304397
31
0.0
0
LINE
8
0
6
CONTINUOUS
10
0.061153
20
0.332567
30
0.0
11
0.060331
21
0.332874
31
0.0
0
LINE
8
0
6
CONTINUOUS
10
0.070371
20
0.325994
30
0.0
11
0.070240
21
0.326758
31
0.0
0
LINE
8
0
6
CONTINUOUS
10
0.069116
20
0.328022
30
0.0
11
0.061153
21
0.332567
31
0.0
0
LINE
8
0
6
CONTINUOUS
10
0.058775
20
0.332612
30
0.0
11
0.058277
21
0.332084
31
0.0
0
LINE
8
0
6
CONTINUOUS
10
0.060331
20
0.332874
30
0.0
11
0.059496
21
0.332890
31
0.0
0
LINE
8
0
6
CONTINUOUS
10
0.070240
20
0.326758
30
0.0
11
0.069799
21
0.327470
31
0.0
0
LINE
8
0
6
CONTINUOUS
10
0.069799
20
0.327470
30
0.0
11
0.069116
21
0.328022
31
0.0
0
LINE
8
0
6
CONTINUOUS
10
0.059496
20
0.332890
30
0.0
11
0.058775
21
0.332612
31
0.0
0
LINE
8
0
6
CONTINUOUS
10
0.054285
20
0.326244
30
0.0
11
0.054058
21
0.325880
31
0.0
0
LINE
8
0
6
CONTINUOUS
10
0.070172
20
0.325295
30
0.0
11
0.070371
21
0.325994
31
0.0
0
LINE
8
0
6
CONTINUOUS
10
0.038807
20
0.294827
30
0.0
11
0.039490
21
0.294276
31
0.0
0
LINE
8
0
6
CONTINUOUS
10
0.039490
20
0.294276
30
0.0
11
0.047454
21
0.289730
31
0.0
0
LINE
8
0
6
CONTINUOUS
10
0.038234
20
0.296304
30
0.0
11
0.038366
21
0.295540
31
0.0
0
LINE
8
0
6
CONTINUOUS
10
0.038431
20
0.297004
30
0.0
11
0.038234
21
0.296304
31
0.0
0
LINE
8
0
6
CONTINUOUS
10
0.038366
20
0.295540
30
0.0
11
0.038807
21
0.294827
31
0.0
0
LINE
8
0
6
CONTINUOUS
10
0.038431
20
0.297004
30
0.0
11
0.041328
21
0.303433
31
0.0
0
LINE
8
0
6
CONTINUOUS
10
0.037931
20
0.296121
30
0.0
11
0.037732
21
0.295419
31
0.0
0
LINE
8
0
6
CONTINUOUS
10
0.046843
20
0.288672
30
0.0
11
0.047638
21
0.288374
31
0.0
0
LINE
8
0
6
CONTINUOUS
10
0.047638
20
0.288374
30
0.0
11
0.048438
21
0.288359
31
0.0
0
LINE
8
0
6
CONTINUOUS
10
0.049128
20
0.288624
30
0.0
11
0.049328
21
0.288801
31
0.0
0
LINE
8
0
6
CONTINUOUS
10
0.048438
20
0.288359
30
0.0
11
0.049128
21
0.288624
31
0.0
0
LINE
8
0
6
CONTINUOUS
10
0.037683
20
0.295156
30
0.0
11
0.037810
21
0.294424
31
0.0
0
LINE
8
0
6
CONTINUOUS
10
0.037732
20
0.295419
30
0.0
11
0.037683
21
0.295156
31
0.0
0
LINE
8
0
6
CONTINUOUS
10
0.037810
20
0.294424
30
0.0
11
0.038233
21
0.293742
31
0.0
0
LINE
8
0
6
CONTINUOUS
10
0.038233
20
0.293742
30
0.0
11
0.038895
21
0.293208
31
0.0
0
LINE
8
0
6
CONTINUOUS
10
0.080085
20
0.281400
30
0.0
11
0.053860
21
0.296303
31
0.0
0
LINE
8
0
6
CONTINUOUS
10
0.052840
20
0.290485
30
0.0
11
0.077340
21
0.276568
31
0.0
0
LINE
8
0
6
CONTINUOUS
10
0.049328
20
0.288801
30
0.0
11
0.049824
21
0.289330
31
0.0
0
LINE
8
0
6
CONTINUOUS
10
0.040825
20
0.302549
30
0.0
11
0.037931
21
0.296121
31
0.0
0
LINE
8
0
6
CONTINUOUS
10
0.039490
20
0.294276
30
0.0
11
0.038807
21
0.294827
31
0.0
0
LINE
8
0
6
CONTINUOUS
10
0.049830
20
0.289686
30
0.0
11
0.049109
21
0.289408
31
0.0
0
LINE
8
0
6
CONTINUOUS
10
0.047454
20
0.289730
30
0.0
11
0.039490
21
0.294276
31
0.0
0
LINE
8
0
6
CONTINUOUS
10
0.049824
20
0.289330
30
0.0
11
0.050010
21
0.289650
31
0.0
0
LINE
8
0
6
CONTINUOUS
10
0.051678
20
0.292531
30
0.0
11
0.053358
21
0.295433
31
0.0
0
LINE
8
0
6
CONTINUOUS
10
0.038234
20
0.296304
30
0.0
11
0.038431
21
0.297004
31
0.0
0
LINE
8
0
6
CONTINUOUS
10
0.038807
20
0.294827
30
0.0
11
0.038365
21
0.295540
31
0.0
0
LINE
8
0
6
CONTINUOUS
10
0.049109
20
0.289408
30
0.0
11
0.048275
21
0.289423
31
0.0
0
LINE
8
0
6
CONTINUOUS
10
0.048275
20
0.289423
30
0.0
11
0.047454
21
0.289730
31
0.0
0
LINE
8
0
6
CONTINUOUS
10
0.038365
20
0.295540
30
0.0
11
0.038234
21
0.296304
31
0.0
0
LINE
8
0
6
CONTINUOUS
10
0.041328
20
0.303433
30
0.0
11
0.041524
21
0.303815
31
0.0
0
LINE
8
0
6
CONTINUOUS
10
0.050327
20
0.290215
30
0.0
11
0.049830
21
0.289686
31
0.0
0
LINE
8
0
6
CONTINUOUS
10
0.069799
20
0.327470
30
0.0
11
0.070240
21
0.326758
31
0.0
0
LINE
8
0
6
CONTINUOUS
10
0.070172
20
0.325295
30
0.0
11
0.066827
21
0.319131
31
0.0
0
LINE
8
0
6
CONTINUOUS
10
0.059275
20
0.333498
30
0.0
11
0.058777
21
0.332970
31
0.0
0
LINE
8
0
6
CONTINUOUS
10
0.070371
20
0.325994
30
0.0
11
0.070172
21
0.325295
31
0.0
0
LINE
8
0
6
CONTINUOUS
10
0.070240
20
0.326758
30
0.0
11
0.070371
21
0.325994
31
0.0
0
LINE
8
0
6
CONTINUOUS
10
0.069116
20
0.328022
30
0.0
11
0.069799
21
0.327470
31
0.0
0
LINE
8
0
6
CONTINUOUS
10
0.070919
20
0.327143
30
0.0
11
0.070793
21
0.327875
31
0.0
0
LINE
8
0
6
CONTINUOUS
10
0.070871
20
0.326880
30
0.0
11
0.070919
21
0.327143
31
0.0
0
LINE
8
0
6
CONTINUOUS
10
0.070793
20
0.327875
30
0.0
11
0.070371
21
0.328556
31
0.0
0
LINE
8
0
6
CONTINUOUS
10
0.070371
20
0.328556
30
0.0
11
0.069709
21
0.329091
31
0.0
0
LINE
8
0
6
CONTINUOUS
10
0.061761
20
0.333627
30
0.0
11
0.060965
21
0.333924
31
0.0
0
LINE
8
0
6
CONTINUOUS
10
0.060965
20
0.333924
30
0.0
11
0.060165
21
0.333940
31
0.0
0
LINE
8
0
6
CONTINUOUS
10
0.059475
20
0.333675
30
0.0
11
0.059275
21
0.333498
31
0.0
0
LINE
8
0
6
CONTINUOUS
10
0.060165
20
0.333940
30
0.0
11
0.059475
21
0.333675
31
0.0
0
LINE
8
0
6
CONTINUOUS
10
0.060133
20
0.333956
30
0.0
11
0.059444
21
0.333691
31
0.0
0
LINE
8
0
6
CONTINUOUS
10
0.060933
20
0.333941
30
0.0
11
0.060133
21
0.333956
31
0.0
0
LINE
8
0
6
CONTINUOUS
10
0.061728
20
0.333643
30
0.0
11
0.060933
21
0.333941
31
0.0
0
LINE
8
0
6
CONTINUOUS
10
0.059243
20
0.333514
30
0.0
11
0.058745
21
0.332983
31
0.0
0
LINE
8
0
6
CONTINUOUS
10
0.059444
20
0.333691
30
0.0
11
0.059243
21
0.333514
31
0.0
0
LINE
8
0
6
CONTINUOUS
10
0.055839
20
0.329016
30
0.0
11
0.055003
21
0.327545
31
0.0
0
LINE
8
0
6
CONTINUOUS
10
0.057326
20
0.330840
30
0.0
11
0.057001
21
0.330772
31
0.0
0
LINE
8
0
6
CONTINUOUS
10
0.056724
20
0.330573
30
0.0
11
0.056500
21
0.330179
31
0.0
0
LINE
8
0
6
CONTINUOUS
10
0.057001
20
0.330772
30
0.0
11
0.056724
21
0.330573
31
0.0
0
LINE
8
0
6
CONTINUOUS
10
0.056500
20
0.330179
30
0.0
11
0.055839
21
0.329016
31
0.0
0
LINE
8
0
6
CONTINUOUS
10
0.096149
20
0.308870
30
0.0
11
0.095807
21
0.309065
31
0.0
0
LINE
8
0
6
CONTINUOUS
10
0.095918
20
0.308463
30
0.0
11
0.096149
21
0.308870
31
0.0
0
LINE
8
0
6
CONTINUOUS
10
0.056500
20
0.330179
30
0.0
11
0.056724
21
0.330573
31
0.0
0
LINE
8
0
6
CONTINUOUS
10
0.055839
20
0.329016
30
0.0
11
0.056500
21
0.330179
31
0.0
0
LINE
8
0
6
CONTINUOUS
10
0.055003
20
0.327545
30
0.0
11
0.055839
21
0.329016
31
0.0
0
LINE
8
0
6
CONTINUOUS
10
0.094136
20
0.305325
30
0.0
11
0.095235
21
0.307261
31
0.0
0
LINE
8
0
6
CONTINUOUS
10
0.054285
20
0.326244
30
0.0
11
0.058277
21
0.332084
31
0.0
0
LINE
8
0
6
CONTINUOUS
10
0.054058
20
0.325880
30
0.0
11
0.054285
21
0.326244
31
0.0
0
LINE
8
0
6
CONTINUOUS
10
0.060331
20
0.332874
30
0.0
11
0.061153
21
0.332567
31
0.0
0
LINE
8
0
6
CONTINUOUS
10
0.061153
20
0.332567
30
0.0
11
0.069116
21
0.328022
31
0.0
0
LINE
8
0
6
CONTINUOUS
10
0.067325
20
0.320018
30
0.0
11
0.070671
21
0.326179
31
0.0
0
LINE
8
0
6
CONTINUOUS
10
0.058775
20
0.332612
30
0.0
11
0.059496
21
0.332890
31
0.0
0
LINE
8
0
6
CONTINUOUS
10
0.058277
20
0.332084
30
0.0
11
0.058775
21
0.332612
31
0.0
0
LINE
8
0
6
CONTINUOUS
10
0.070671
20
0.326179
30
0.0
11
0.070871
21
0.326880
31
0.0
0
LINE
8
0
6
CONTINUOUS
10
0.059496
20
0.332890
30
0.0
11
0.060331
21
0.332874
31
0.0
0
LINE
8
0
6
CONTINUOUS
10
0.058777
20
0.332970
30
0.0
11
0.054788
21
0.327128
31
0.0
0
LINE
8
0
6
CONTINUOUS
10
0.053859
20
0.296303
30
0.0
11
0.080090
21
0.281397
31
0.0
0
LINE
8
0
6
CONTINUOUS
10
0.077919
20
0.276778
30
0.0
11
0.078602
21
0.277980
31
0.0
0
LINE
8
0
6
CONTINUOUS
10
0.079702
20
0.279916
30
0.0
11
0.080433
21
0.281202
31
0.0
0
LINE
8
0
6
CONTINUOUS
10
0.080433
20
0.281202
30
0.0
11
0.080085
21
0.281400
31
0.0
0
LINE
8
0
6
CONTINUOUS
10
0.078602
20
0.277980
30
0.0
11
0.079702
21
0.279916
31
0.0
0
LINE
8
0
6
CONTINUOUS
10
0.077688
20
0.276371
30
0.0
11
0.077919
21
0.276778
31
0.0
0
LINE
8
0
6
CONTINUOUS
10
0.077340
20
0.276568
30
0.0
11
0.077688
21
0.276371
31
0.0
0
LINE
8
0
6
CONTINUOUS
10
0.088973
20
0.296237
30
0.0
11
0.090924
21
0.299671
31
0.0
0
LINE
8
0
6
CONTINUOUS
10
0.048412
20
0.314495
30
0.0
11
0.046358
21
0.310879
31
0.0
0
LINE
8
0
6
CONTINUOUS
10
0.082914
20
0.285570
30
0.0
11
0.084865
21
0.289005
31
0.0
0
LINE
8
0
6
CONTINUOUS
10
0.092674
20
0.302752
30
0.0
11
0.093405
21
0.304039
31
0.0
0
LINE
8
0
6
CONTINUOUS
10
0.090924
20
0.299671
30
0.0
11
0.092674
21
0.302752
31
0.0
0
LINE
8
0
6
CONTINUOUS
10
0.044407
20
0.307444
30
0.0
11
0.042675
21
0.304395
31
0.0
0
LINE
8
0
6
CONTINUOUS
10
0.086919
20
0.292621
30
0.0
11
0.088973
21
0.296237
31
0.0
0
LINE
8
0
6
CONTINUOUS
10
0.095807
20
0.309065
30
0.0
11
0.069494
21
0.324012
31
0.0
0
LINE
8
0
6
CONTINUOUS
10
0.095235
20
0.307261
30
0.0
11
0.095918
21
0.308463
31
0.0
0
LINE
8
0
6
CONTINUOUS
10
0.080090
20
0.281397
30
0.0
11
0.080433
21
0.281202
31
0.0
0
LINE
8
0
6
CONTINUOUS
10
0.080433
20
0.281202
30
0.0
11
0.081164
21
0.282489
31
0.0
0
LINE
8
0
6
CONTINUOUS
10
0.093405
20
0.304039
30
0.0
11
0.094136
21
0.305325
31
0.0
0
LINE
8
0
6
CONTINUOUS
10
0.099657
20
0.301569
30
0.0
11
0.100716
21
0.303433
31
0.0
0
LINE
8
0
6
CONTINUOUS
10
0.083816
20
0.273683
30
0.0
11
0.084039
21
0.274076
31
0.0
0
LINE
8
0
6
CONTINUOUS
10
0.078029
20
0.276971
30
0.0
11
0.083816
21
0.273683
31
0.0
0
LINE
8
0
6
CONTINUOUS
10
0.096564
20
0.296123
30
0.0
11
0.098249
21
0.299091
31
0.0
0
LINE
8
0
6
CONTINUOUS
10
0.086460
20
0.278337
30
0.0
11
0.087164
21
0.279576
31
0.0
0
LINE
8
0
6
CONTINUOUS
10
0.101596
20
0.304983
30
0.0
11
0.095808
21
0.308270
31
0.0
0
LINE
8
0
6
CONTINUOUS
10
0.101373
20
0.304590
30
0.0
11
0.101596
21
0.304983
31
0.0
0
LINE
8
0
6
CONTINUOUS
10
0.084039
20
0.274076
30
0.0
11
0.084697
21
0.275233
31
0.0
0
LINE
8
0
6
CONTINUOUS
10
0.088850
20
0.282543
30
0.0
11
0.090729
21
0.285851
31
0.0
0
LINE
8
0
6
CONTINUOUS
10
0.092707
20
0.289333
30
0.0
11
0.094685
21
0.292816
31
0.0
0
LINE
8
0
6
CONTINUOUS
10
0.094685
20
0.292816
30
0.0
11
0.096564
21
0.296123
31
0.0
0
LINE
8
0
6
CONTINUOUS
10
0.087164
20
0.279576
30
0.0
11
0.088850
21
0.282543
31
0.0
0
LINE
8
0
6
CONTINUOUS
10
0.098953
20
0.300330
30
0.0
11
0.099657
21
0.301569
31
0.0
0
LINE
8
0
6
CONTINUOUS
10
0.100716
20
0.303433
30
0.0
11
0.101373
21
0.304590
31
0.0
0
LINE
8
0
6
CONTINUOUS
10
0.098249
20
0.299091
30
0.0
11
0.098953
21
0.300330
31
0.0
0
LINE
8
0
6
CONTINUOUS
10
0.090729
20
0.285851
30
0.0
11
0.092707
21
0.289333
31
0.0
0
LINE
8
0
6
CONTINUOUS
10
0.085756
20
0.277098
30
0.0
11
0.086460
21
0.278337
31
0.0
0
LINE
8
0
6
CONTINUOUS
10
0.084697
20
0.275233
30
0.0
11
0.085756
21
0.277098
31
0.0
0
LINE
8
0
6
CONTINUOUS
10
-0.085657
20
0.298053
30
0.0
11
-0.096673
21
0.304310
31
0.0
0
LINE
8
0
6
CONTINUOUS
10
-0.091227
20
0.289423
30
0.0
11
-0.090393
21
0.289408
31
0.0
0
LINE
8
0
6
CONTINUOUS
10
-0.089176
20
0.290215
30
0.0
11
-0.085642
21
0.296303
31
0.0
0
LINE
8
0
6
CONTINUOUS
10
-0.089672
20
0.289686
30
0.0
11
-0.089176
21
0.290215
31
0.0
0
LINE
8
0
6
CONTINUOUS
10
-0.090393
20
0.289408
30
0.0
11
-0.089672
21
0.289686
31
0.0
0
LINE
8
0
6
CONTINUOUS
10
-0.092049
20
0.289730
30
0.0
11
-0.091227
21
0.289423
31
0.0
0
LINE
8
0
6
CONTINUOUS
10
-0.085235
20
0.297736
30
0.0
11
-0.085505
21
0.297966
31
0.0
0
LINE
8
0
6
CONTINUOUS
10
-0.096826
20
0.304397
30
0.0
11
-0.097081
21
0.304602
31
0.0
0
LINE
8
0
6
CONTINUOUS
10
-0.097081
20
0.304602
30
0.0
11
-0.097217
21
0.304867
31
0.0
0
LINE
8
0
6
CONTINUOUS
10
-0.081226
20
0.332084
30
0.0
11
-0.085217
21
0.326244
31
0.0
0
LINE
8
0
6
CONTINUOUS
10
-0.072676
20
0.319132
30
0.0
11
-0.069330
21
0.325295
31
0.0
0
LINE
8
0
6
CONTINUOUS
10
-0.085201
20
0.324506
30
0.0
11
-0.074186
21
0.318249
31
0.0
0
LINE
8
0
6
CONTINUOUS
10
-0.085958
20
0.324688
30
0.0
11
-0.085660
21
0.324707
31
0.0
0
LINE
8
0
6
CONTINUOUS
10
-0.085660
20
0.324707
30
0.0
11
-0.085354
21
0.324593
31
0.0
0
LINE
8
0
6
CONTINUOUS
10
-0.074034
20
0.318162
30
0.0
11
-0.073698
21
0.318049
31
0.0
0
LINE
8
0
6
CONTINUOUS
10
-0.085662
20
0.324051
30
0.0
11
-0.085353
21
0.324595
31
0.0
0
LINE
8
0
6
CONTINUOUS
10
-0.096828
20
0.304395
30
0.0
11
-0.096518
21
0.304939
31
0.0
0
LINE
8
0
6
CONTINUOUS
10
-0.096917
20
0.305682
30
0.0
11
-0.096908
21
0.305411
31
0.0
0
LINE
8
0
6
CONTINUOUS
10
-0.095587
20
0.308024
30
0.0
11
-0.096917
21
0.305682
31
0.0
0
LINE
8
0
6
CONTINUOUS
10
-0.091090
20
0.314495
30
0.0
11
-0.089036
21
0.318111
31
0.0
0
LINE
8
0
6
CONTINUOUS
10
-0.089036
20
0.318111
30
0.0
11
-0.087085
21
0.321545
31
0.0
0
LINE
8
0
6
CONTINUOUS
10
-0.093144
20
0.310879
30
0.0
11
-0.091090
21
0.314495
31
0.0
0
LINE
8
0
6
CONTINUOUS
10
-0.085662
20
0.324051
30
0.0
11
-0.085969
21
0.324163
31
0.0
0
LINE
8
0
6
CONTINUOUS
10
-0.087085
20
0.321545
30
0.0
11
-0.085662
21
0.324051
31
0.0
0
LINE
8
0
6
CONTINUOUS
10
-0.089723
20
0.318347
30
0.0
11
-0.091711
21
0.314848
31
0.0
0
LINE
8
0
6
CONTINUOUS
10
-0.095095
20
0.307444
30
0.0
11
-0.093144
21
0.310879
31
0.0
0
LINE
8
0
6
CONTINUOUS
10
-0.085969
20
0.324163
30
0.0
11
-0.086267
21
0.324144
31
0.0
0
LINE
8
0
6
CONTINUOUS
10
-0.087835
20
0.321671
30
0.0
11
-0.089723
21
0.318347
31
0.0
0
LINE
8
0
6
CONTINUOUS
10
-0.091711
20
0.314848
30
0.0
11
-0.093699
21
0.311348
31
0.0
0
LINE
8
0
6
CONTINUOUS
10
-0.096518
20
0.304939
30
0.0
11
-0.095095
21
0.307444
31
0.0
0
LINE
8
0
6
CONTINUOUS
10
-0.096772
20
0.305146
30
0.0
11
-0.096518
21
0.304939
31
0.0
0
LINE
8
0
6
CONTINUOUS
10
-0.093699
20
0.311348
30
0.0
11
-0.095587
21
0.308024
31
0.0
0
LINE
8
0
6
CONTINUOUS
10
-0.096908
20
0.305411
30
0.0
11
-0.096772
21
0.305146
31
0.0
0
LINE
8
0
6
CONTINUOUS
10
-0.086267
20
0.324144
30
0.0
11
-0.086505
21
0.324013
31
0.0
0
LINE
8
0
6
CONTINUOUS
10
-0.086505
20
0.324013
30
0.0
11
-0.087835
21
0.321671
31
0.0
0
LINE
8
0
6
CONTINUOUS
10
-0.087085
20
0.321545
30
0.0
11
-0.089036
21
0.318111
31
0.0
0
LINE
8
0
6
CONTINUOUS
10
-0.054637
20
0.289005
30
0.0
11
-0.052583
21
0.292621
31
0.0
0
LINE
8
0
6
CONTINUOUS
10
-0.093144
20
0.310879
30
0.0
11
-0.095095
21
0.307444
31
0.0
0
LINE
8
0
6
CONTINUOUS
10
-0.093699
20
0.311348
30
0.0
11
-0.091711
21
0.314848
31
0.0
0
LINE
8
0
6
CONTINUOUS
10
-0.095587
20
0.308024
30
0.0
11
-0.093699
21
0.311348
31
0.0
0
LINE
8
0
6
CONTINUOUS
10
-0.096917
20
0.305682
30
0.0
11
-0.095587
21
0.308024
31
0.0
0
LINE
8
0
6
CONTINUOUS
10
-0.087835
20
0.321671
30
0.0
11
-0.086505
21
0.324013
31
0.0
0
LINE
8
0
6
CONTINUOUS
10
-0.089723
20
0.318347
30
0.0
11
-0.087835
21
0.321671
31
0.0
0
LINE
8
0
6
CONTINUOUS
10
-0.091711
20
0.314848
30
0.0
11
-0.089723
21
0.318347
31
0.0
0
LINE
8
0
6
CONTINUOUS
10
-0.085353
20
0.324595
30
0.0
11
-0.087085
21
0.321545
31
0.0
0
LINE
8
0
6
CONTINUOUS
10
-0.058338
20
0.282489
30
0.0
11
-0.056588
21
0.285570
31
0.0
0
LINE
8
0
6
CONTINUOUS
10
-0.098175
20
0.303433
30
0.0
11
-0.101071
21
0.297004
31
0.0
0
LINE
8
0
6
CONTINUOUS
10
-0.085958
20
0.324688
30
0.0
11
-0.086196
21
0.324557
31
0.0
0
LINE
8
0
6
CONTINUOUS
10
-0.085660
20
0.324707
30
0.0
11
-0.085958
21
0.324688
31
0.0
0
LINE
8
0
6
CONTINUOUS
10
-0.085353
20
0.324595
30
0.0
11
-0.085660
21
0.324707
31
0.0
0
LINE
8
0
6
CONTINUOUS
10
-0.097081
20
0.304602
30
0.0
11
-0.096828
21
0.304395
31
0.0
0
LINE
8
0
6
CONTINUOUS
10
-0.097217
20
0.304867
30
0.0
11
-0.097081
21
0.304602
31
0.0
0
LINE
8
0
6
CONTINUOUS
10
-0.097227
20
0.305138
30
0.0
11
-0.097217
21
0.304867
31
0.0
0
LINE
8
0
6
CONTINUOUS
10
-0.089036
20
0.318111
30
0.0
11
-0.091090
21
0.314495
31
0.0
0
LINE
8
0
6
CONTINUOUS
10
-0.097978
20
0.303815
30
0.0
11
-0.098175
21
0.303433
31
0.0
0
LINE
8
0
6
CONTINUOUS
10
-0.097217
20
0.304867
30
0.0
11
-0.097227
21
0.305138
31
0.0
0
LINE
8
0
6
CONTINUOUS
10
-0.086196
20
0.324557
30
0.0
11
-0.085958
21
0.324688
31
0.0
0
LINE
8
0
6
CONTINUOUS
10
-0.085354
20
0.324593
30
0.0
11
-0.085201
21
0.324506
31
0.0
0
LINE
8
0
6
CONTINUOUS
10
-0.074186
20
0.318249
30
0.0
11
-0.074034
21
0.318162
31
0.0
0
LINE
8
0
6
CONTINUOUS
10
-0.085505
20
0.297966
30
0.0
11
-0.085657
21
0.298053
31
0.0
0
LINE
8
0
6
CONTINUOUS
10
-0.096673
20
0.304310
30
0.0
11
-0.096826
21
0.304397
31
0.0
0
LINE
8
0
6
CONTINUOUS
10
-0.078350
20
0.332567
30
0.0
11
-0.079171
21
0.332874
31
0.0
0
LINE
8
0
6
CONTINUOUS
10
-0.069132
20
0.325994
30
0.0
11
-0.069262
21
0.326758
31
0.0
0
LINE
8
0
6
CONTINUOUS
10
-0.070386
20
0.328022
30
0.0
11
-0.078350
21
0.332567
31
0.0
0
LINE
8
0
6
CONTINUOUS
10
-0.080728
20
0.332612
30
0.0
11
-0.081226
21
0.332084
31
0.0
0
LINE
8
0
6
CONTINUOUS
10
-0.079171
20
0.332874
30
0.0
11
-0.080006
21
0.332890
31
0.0
0
LINE
8
0
6
CONTINUOUS
10
-0.069262
20
0.326758
30
0.0
11
-0.069703
21
0.327470
31
0.0
0
LINE
8
0
6
CONTINUOUS
10
-0.069703
20
0.327470
30
0.0
11
-0.070386
21
0.328022
31
0.0
0
LINE
8
0
6
CONTINUOUS
10
-0.080006
20
0.332890
30
0.0
11
-0.080728
21
0.332612
31
0.0
0
LINE
8
0
6
CONTINUOUS
10
-0.085217
20
0.326244
30
0.0
11
-0.085444
21
0.325880
31
0.0
0
LINE
8
0
6
CONTINUOUS
10
-0.069330
20
0.325295
30
0.0
11
-0.069132
21
0.325994
31
0.0
0
LINE
8
0
6
CONTINUOUS
10
-0.100696
20
0.294827
30
0.0
11
-0.100012
21
0.294276
31
0.0
0
LINE
8
0
6
CONTINUOUS
10
-0.100012
20
0.294276
30
0.0
11
-0.092049
21
0.289730
31
0.0
0
LINE
8
0
6
CONTINUOUS
10
-0.101269
20
0.296304
30
0.0
11
-0.101137
21
0.295540
31
0.0
0
LINE
8
0
6
CONTINUOUS
10
-0.101071
20
0.297004
30
0.0
11
-0.101269
21
0.296304
31
0.0
0
LINE
8
0
6
CONTINUOUS
10
-0.101137
20
0.295540
30
0.0
11
-0.100696
21
0.294827
31
0.0
0
LINE
8
0
6
CONTINUOUS
10
-0.101302
20
0.293759
30
0.0
11
-0.100640
21
0.293225
31
0.0
0
LINE
8
0
6
CONTINUOUS
10
-0.101724
20
0.294440
30
0.0
11
-0.101302
21
0.293759
31
0.0
0
LINE
8
0
6
CONTINUOUS
10
-0.101850
20
0.295172
30
0.0
11
-0.101724
21
0.294440
31
0.0
0
LINE
8
0
6
CONTINUOUS
10
-0.101802
20
0.295435
30
0.0
11
-0.101850
21
0.295172
31
0.0
0
LINE
8
0
6
CONTINUOUS
10
-0.101604
20
0.296134
30
0.0
11
-0.101802
21
0.295435
31
0.0
0
LINE
8
0
6
CONTINUOUS
10
-0.101071
20
0.297004
30
0.0
11
-0.098175
21
0.303433
31
0.0
0
LINE
8
0
6
CONTINUOUS
10
-0.101572
20
0.296121
30
0.0
11
-0.101770
21
0.295419
31
0.0
0
LINE
8
0
6
CONTINUOUS
10
-0.092659
20
0.288672
30
0.0
11
-0.091864
21
0.288374
31
0.0
0
LINE
8
0
6
CONTINUOUS
10
-0.091864
20
0.288374
30
0.0
11
-0.091064
21
0.288359
31
0.0
0
LINE
8
0
6
CONTINUOUS
10
-0.090374
20
0.288624
30
0.0
11
-0.090174
21
0.288801
31
0.0
0
LINE
8
0
6
CONTINUOUS
10
-0.091064
20
0.288359
30
0.0
11
-0.090374
21
0.288624
31
0.0
0
LINE
8
0
6
CONTINUOUS
10
-0.101819
20
0.295156
30
0.0
11
-0.101692
21
0.294424
31
0.0
0
LINE
8
0
6
CONTINUOUS
10
-0.101770
20
0.295419
30
0.0
11
-0.101819
21
0.295156
31
0.0
0
LINE
8
0
6
CONTINUOUS
10
-0.101692
20
0.294424
30
0.0
11
-0.101269
21
0.293742
31
0.0
0
LINE
8
0
6
CONTINUOUS
10
-0.101269
20
0.293742
30
0.0
11
-0.100607
21
0.293208
31
0.0
0
LINE
8
0
6
CONTINUOUS
10
-0.100674
20
0.298781
30
0.0
11
-0.100566
21
0.298467
31
0.0
0
LINE
8
0
6
CONTINUOUS
10
-0.100421
20
0.299515
30
0.0
11
-0.100645
21
0.299121
31
0.0
0
LINE
8
0
6
CONTINUOUS
10
-0.100645
20
0.299121
30
0.0
11
-0.100674
21
0.298781
31
0.0
0
LINE
8
0
6
CONTINUOUS
10
-0.099760
20
0.300679
30
0.0
11
-0.100421
21
0.299515
31
0.0
0
LINE
8
0
6
CONTINUOUS
10
-0.098908
20
0.301890
30
0.0
11
-0.098924
21
0.302151
31
0.0
0
LINE
8
0
6
CONTINUOUS
10
-0.098924
20
0.302151
30
0.0
11
-0.099760
21
0.300679
31
0.0
0
LINE
8
0
6
CONTINUOUS
10
-0.099760
20
0.300679
30
0.0
11
-0.098924
21
0.302151
31
0.0
0
LINE
8
0
6
CONTINUOUS
10
-0.100421
20
0.299515
30
0.0
11
-0.099760
21
0.300679
31
0.0
0
LINE
8
0
6
CONTINUOUS
10
-0.100645
20
0.299121
30
0.0
11
-0.100421
21
0.299515
31
0.0
0
LINE
8
0
6
CONTINUOUS
10
-0.059418
20
0.281400
30
0.0
11
-0.085642
21
0.296303
31
0.0
0
LINE
8
0
6
CONTINUOUS
10
-0.098924
20
0.302151
30
0.0
11
-0.098908
21
0.301890
31
0.0
0
LINE
8
0
6
CONTINUOUS
10
-0.088447
20
0.291499
30
0.0
11
-0.062163
21
0.276568
31
0.0
0
LINE
8
0
6
CONTINUOUS
10
-0.090174
20
0.288801
30
0.0
11
-0.089678
21
0.289330
31
0.0
0
LINE
8
0
6
CONTINUOUS
10
-0.098677
20
0.302549
30
0.0
11
-0.101572
21
0.296121
31
0.0
0
LINE
8
0
6
CONTINUOUS
10
-0.100012
20
0.294276
30
0.0
11
-0.100696
21
0.294827
31
0.0
0
LINE
8
0
6
CONTINUOUS
10
-0.089672
20
0.289686
30
0.0
11
-0.090393
21
0.289408
31
0.0
0
LINE
8
0
6
CONTINUOUS
10
-0.092049
20
0.289730
30
0.0
11
-0.100012
21
0.294276
31
0.0
0
LINE
8
0
6
CONTINUOUS
10
-0.089678
20
0.289330
30
0.0
11
-0.086144
21
0.295433
31
0.0
0
LINE
8
0
6
CONTINUOUS
10
-0.101269
20
0.296304
30
0.0
11
-0.101071
21
0.297004
31
0.0
0
LINE
8
0
6
CONTINUOUS
10
-0.100696
20
0.294827
30
0.0
11
-0.101137
21
0.295540
31
0.0
0
LINE
8
0
6
CONTINUOUS
10
-0.090393
20
0.289408
30
0.0
11
-0.091227
21
0.289423
31
0.0
0
LINE
8
0
6
CONTINUOUS
10
-0.091227
20
0.289423
30
0.0
11
-0.092049
21
0.289730
31
0.0
0
LINE
8
0
6
CONTINUOUS
10
-0.101137
20
0.295540
30
0.0
11
-0.101269
21
0.296304
31
0.0
0
LINE
8
0
6
CONTINUOUS
10
-0.098175
20
0.303433
30
0.0
11
-0.097978
21
0.303815
31
0.0
0
LINE
8
0
6
CONTINUOUS
10
-0.089176
20
0.290215
30
0.0
11
-0.089672
21
0.289686
31
0.0
0
LINE
8
0
6
CONTINUOUS
10
-0.069703
20
0.327470
30
0.0
11
-0.069262
21
0.326758
31
0.0
0
LINE
8
0
6
CONTINUOUS
10
-0.069330
20
0.325295
30
0.0
11
-0.072675
21
0.319131
31
0.0
0
LINE
8
0
6
CONTINUOUS
10
-0.080227
20
0.333498
30
0.0
11
-0.080725
21
0.332970
31
0.0
0
LINE
8
0
6
CONTINUOUS
10
-0.069132
20
0.325994
30
0.0
11
-0.069330
21
0.325295
31
0.0
0
LINE
8
0
6
CONTINUOUS
10
-0.069262
20
0.326758
30
0.0
11
-0.069132
21
0.325994
31
0.0
0
LINE
8
0
6
CONTINUOUS
10
-0.070386
20
0.328022
30
0.0
11
-0.069703
21
0.327470
31
0.0
0
LINE
8
0
6
CONTINUOUS
10
-0.068583
20
0.327143
30
0.0
11
-0.068709
21
0.327875
31
0.0
0
LINE
8
0
6
CONTINUOUS
10
-0.068631
20
0.326880
30
0.0
11
-0.068583
21
0.327143
31
0.0
0
LINE
8
0
6
CONTINUOUS
10
-0.068709
20
0.327875
30
0.0
11
-0.069131
21
0.328556
31
0.0
0
LINE
8
0
6
CONTINUOUS
10
-0.069131
20
0.328556
30
0.0
11
-0.069793
21
0.329091
31
0.0
0
LINE
8
0
6
CONTINUOUS
10
-0.077741
20
0.333627
30
0.0
11
-0.078537
21
0.333924
31
0.0
0
LINE
8
0
6
CONTINUOUS
10
-0.078537
20
0.333924
30
0.0
11
-0.079337
21
0.333940
31
0.0
0
LINE
8
0
6
CONTINUOUS
10
-0.080028
20
0.333675
30
0.0
11
-0.080227
21
0.333498
31
0.0
0
LINE
8
0
6
CONTINUOUS
10
-0.079337
20
0.333940
30
0.0
11
-0.080028
21
0.333675
31
0.0
0
LINE
8
0
6
CONTINUOUS
10
-0.079369
20
0.333956
30
0.0
11
-0.080059
21
0.333691
31
0.0
0
LINE
8
0
6
CONTINUOUS
10
-0.078569
20
0.333941
30
0.0
11
-0.079369
21
0.333956
31
0.0
0
LINE
8
0
6
CONTINUOUS
10
-0.077774
20
0.333643
30
0.0
11
-0.078569
21
0.333941
31
0.0
0
LINE
8
0
6
CONTINUOUS
10
-0.080259
20
0.333514
30
0.0
11
-0.080757
21
0.332983
31
0.0
0
LINE
8
0
6
CONTINUOUS
10
-0.080059
20
0.333691
30
0.0
11
-0.080259
21
0.333514
31
0.0
0
LINE
8
0
6
CONTINUOUS
10
-0.083663
20
0.329016
30
0.0
11
-0.084499
21
0.327545
31
0.0
0
LINE
8
0
6
CONTINUOUS
10
-0.082177
20
0.330840
30
0.0
11
-0.082502
21
0.330772
31
0.0
0
LINE
8
0
6
CONTINUOUS
10
-0.082779
20
0.330573
30
0.0
11
-0.083002
21
0.330179
31
0.0
0
LINE
8
0
6
CONTINUOUS
10
-0.082502
20
0.330772
30
0.0
11
-0.082779
21
0.330573
31
0.0
0
LINE
8
0
6
CONTINUOUS
10
-0.083002
20
0.330179
30
0.0
11
-0.083663
21
0.329016
31
0.0
0
LINE
8
0
6
CONTINUOUS
10
-0.043353
20
0.308870
30
0.0
11
-0.043695
21
0.309065
31
0.0
0
LINE
8
0
6
CONTINUOUS
10
-0.043584
20
0.308463
30
0.0
11
-0.043353
21
0.308870
31
0.0
0
LINE
8
0
6
CONTINUOUS
10
-0.083002
20
0.330179
30
0.0
11
-0.082779
21
0.330573
31
0.0
0
LINE
8
0
6
CONTINUOUS
10
-0.083663
20
0.329016
30
0.0
11
-0.083002
21
0.330179
31
0.0
0
LINE
8
0
6
CONTINUOUS
10
-0.084499
20
0.327545
30
0.0
11
-0.083663
21
0.329016
31
0.0
0
LINE
8
0
6
CONTINUOUS
10
-0.045366
20
0.305325
30
0.0
11
-0.044267
21
0.307261
31
0.0
0
LINE
8
0
6
CONTINUOUS
10
-0.085217
20
0.326244
30
0.0
11
-0.081226
21
0.332084
31
0.0
0
LINE
8
0
6
CONTINUOUS
10
-0.085444
20
0.325880
30
0.0
11
-0.085217
21
0.326244
31
0.0
0
LINE
8
0
6
CONTINUOUS
10
-0.079171
20
0.332874
30
0.0
11
-0.078350
21
0.332567
31
0.0
0
LINE
8
0
6
CONTINUOUS
10
-0.078350
20
0.332567
30
0.0
11
-0.070386
21
0.328022
31
0.0
0
LINE
8
0
6
CONTINUOUS
10
-0.072178
20
0.320018
30
0.0
11
-0.068831
21
0.326179
31
0.0
0
LINE
8
0
6
CONTINUOUS
10
-0.080728
20
0.332612
30
0.0
11
-0.080006
21
0.332890
31
0.0
0
LINE
8
0
6
CONTINUOUS
10
-0.081226
20
0.332084
30
0.0
11
-0.080728
21
0.332612
31
0.0
0
LINE
8
0
6
CONTINUOUS
10
-0.068831
20
0.326179
30
0.0
11
-0.068631
21
0.326880
31
0.0
0
LINE
8
0
6
CONTINUOUS
10
-0.080006
20
0.332890
30
0.0
11
-0.079171
21
0.332874
31
0.0
0
LINE
8
0
6
CONTINUOUS
10
-0.080725
20
0.332970
30
0.0
11
-0.084715
21
0.327128
31
0.0
0
LINE
8
0
6
CONTINUOUS
10
-0.085644
20
0.296303
30
0.0
11
-0.059412
21
0.281397
31
0.0
0
LINE
8
0
6
CONTINUOUS
10
-0.061583
20
0.276778
30
0.0
11
-0.060900
21
0.277980
31
0.0
0
LINE
8
0
6
CONTINUOUS
10
-0.059800
20
0.279916
30
0.0
11
-0.059069
21
0.281202
31
0.0
0
LINE
8
0
6
CONTINUOUS
10
-0.059069
20
0.281202
30
0.0
11
-0.059418
21
0.281400
31
0.0
0
LINE
8
0
6
CONTINUOUS
10
-0.060900
20
0.277980
30
0.0
11
-0.059800
21
0.279916
31
0.0
0
LINE
8
0
6
CONTINUOUS
10
-0.061814
20
0.276371
30
0.0
11
-0.061583
21
0.276778
31
0.0
0
LINE
8
0
6
CONTINUOUS
10
-0.062163
20
0.276568
30
0.0
11
-0.061814
21
0.276371
31
0.0
0
LINE
8
0
6
CONTINUOUS
10
-0.050529
20
0.296237
30
0.0
11
-0.048578
21
0.299671
31
0.0
0
LINE
8
0
6
CONTINUOUS
10
-0.091090
20
0.314495
30
0.0
11
-0.093144
21
0.310879
31
0.0
0
LINE
8
0
6
CONTINUOUS
10
-0.056588
20
0.285570
30
0.0
11
-0.054637
21
0.289005
31
0.0
0
LINE
8
0
6
CONTINUOUS
10
-0.046828
20
0.302752
30
0.0
11
-0.046097
21
0.304039
31
0.0
0
LINE
8
0
6
CONTINUOUS
10
-0.048578
20
0.299671
30
0.0
11
-0.046828
21
0.302752
31
0.0
0
LINE
8
0
6
CONTINUOUS
10
-0.095095
20
0.307444
30
0.0
11
-0.096828
21
0.304395
31
0.0
0
LINE
8
0
6
CONTINUOUS
10
-0.052583
20
0.292621
30
0.0
11
-0.050529
21
0.296237
31
0.0
0
LINE
8
0
6
CONTINUOUS
10
-0.043695
20
0.309065
30
0.0
11
-0.070008
21
0.324012
31
0.0
0
LINE
8
0
6
CONTINUOUS
10
-0.044267
20
0.307261
30
0.0
11
-0.043584
21
0.308463
31
0.0
0
LINE
8
0
6
CONTINUOUS
10
-0.059412
20
0.281397
30
0.0
11
-0.059069
21
0.281202
31
0.0
0
LINE
8
0
6
CONTINUOUS
10
-0.059069
20
0.281202
30
0.0
11
-0.058338
21
0.282489
31
0.0
0
LINE
8
0
6
CONTINUOUS
10
-0.046097
20
0.304039
30
0.0
11
-0.045366
21
0.305325
31
0.0
0
LINE
8
0
6
CONTINUOUS
10
-0.061473
20
0.276971
30
0.0
11
-0.060949
21
0.276673
31
0.0
0
LINE
8
0
6
CONTINUOUS
10
-0.043169
20
0.307972
30
0.0
11
-0.043694
21
0.308270
31
0.0
0
LINE
8
0
6
CONTINUOUS
10
0.020588
20
-0.324561
30
0.0
11
0.021511
21
-0.324454
31
0.0
0
LINE
8
0
6
CONTINUOUS
10
0.021511
20
-0.324454
30
0.0
11
0.043218
21
-0.315301
31
0.0
0
LINE
8
0
6
CONTINUOUS
10
0.036176
20
-0.300960
30
0.0
11
0.020590
21
-0.307551
31
0.0
0
LINE
8
0
6
CONTINUOUS
10
0.043218
20
-0.315301
30
0.0
11
0.061922
21
-0.303342
31
0.0
0
LINE
8
0
6
CONTINUOUS
10
0.052526
20
-0.290348
30
0.0
11
0.036176
21
-0.300960
31
0.0
0
LINE
8
0
6
CONTINUOUS
10
0.061922
20
-0.303342
30
0.0
11
0.079924
21
-0.283925
31
0.0
0
LINE
8
0
6
CONTINUOUS
10
0.068458
20
-0.273050
30
0.0
11
0.052526
21
-0.290348
31
0.0
0
LINE
8
0
6
CONTINUOUS
10
0.079924
20
-0.283925
30
0.0
11
0.093860
21
-0.265727
31
0.0
0
LINE
8
0
6
CONTINUOUS
10
0.080696
20
-0.256733
30
0.0
11
0.068458
21
-0.273050
31
0.0
0
LINE
8
0
6
CONTINUOUS
10
0.093860
20
-0.265727
30
0.0
11
0.103458
21
-0.243456
31
0.0
0
LINE
8
0
6
CONTINUOUS
10
0.088858
20
-0.236918
30
0.0
11
0.080696
21
-0.256733
31
0.0
0
LINE
8
0
6
CONTINUOUS
10
0.103458
20
-0.243456
30
0.0
11
0.111503
21
-0.218833
31
0.0
0
LINE
8
0
6
CONTINUOUS
10
0.096083
20
-0.214891
30
0.0
11
0.088858
21
-0.236918
31
0.0
0
LINE
8
0
6
CONTINUOUS
10
0.111503
20
-0.218833
30
0.0
11
0.115383
21
-0.194537
31
0.0
0
LINE
8
0
6
CONTINUOUS
10
0.099463
20
-0.193356
30
0.0
11
0.096083
21
-0.214891
31
0.0
0
LINE
8
0
6
CONTINUOUS
10
0.115383
20
-0.194537
30
0.0
11
0.116737
21
-0.170901
31
0.0
0
LINE
8
0
6
CONTINUOUS
10
0.100833
20
-0.171728
30
0.0
11
0.099463
21
-0.193356
31
0.0
0
LINE
8
0
6
CONTINUOUS
10
0.116737
20
-0.170901
30
0.0
11
0.115785
21
-0.150915
31
0.0
0
LINE
8
0
6
CONTINUOUS
10
0.099966
20
-0.152537
30
0.0
11
0.100833
21
-0.171728
31
0.0
0
LINE
8
0
6
CONTINUOUS
10
0.055296
20
-0.021864
30
0.0
11
0.044301
21
-0.003309
31
0.0
0
LINE
8
0
6
CONTINUOUS
10
0.031982
20
-0.013308
30
0.0
11
0.043447
21
-0.032517
31
0.0
0
LINE
8
0
6
CONTINUOUS
10
0.044301
20
-0.003309
30
0.0
11
0.034052
21
0.018535
31
0.0
0
LINE
8
0
6
CONTINUOUS
10
0.021163
20
0.009180
30
0.0
11
0.031982
21
-0.013308
31
0.0
0
LINE
8
0
6
CONTINUOUS
10
0.034052
20
0.018535
30
0.0
11
0.025312
21
0.042140
31
0.0
0
LINE
8
0
6
CONTINUOUS
10
0.020636
20
0.010563
30
0.0
11
0.021163
21
0.009180
31
0.0
0
LINE
8
0
6
CONTINUOUS
10
0.025312
20
0.042140
30
0.0
11
0.020643
21
0.057563
31
0.0
0
LINE
8
0
6
CONTINUOUS
10
0.058921
20
-0.054521
30
0.0
11
0.071128
21
-0.072248
31
0.0
0
LINE
8
0
6
CONTINUOUS
10
0.097129
20
-0.085349
30
0.0
11
0.084015
21
-0.062894
31
0.0
0
LINE
8
0
6
CONTINUOUS
10
0.071128
20
-0.072248
30
0.0
11
0.082886
21
-0.092331
31
0.0
0
LINE
8
0
6
CONTINUOUS
10
0.106101
20
-0.108328
30
0.0
11
0.097129
21
-0.085349
31
0.0
0
LINE
8
0
6
CONTINUOUS
10
0.082886
20
-0.092331
30
0.0
11
0.090779
21
-0.112709
31
0.0
0
LINE
8
0
6
CONTINUOUS
10
0.112460
20
-0.131173
30
0.0
11
0.106101
21
-0.108328
31
0.0
0
LINE
8
0
6
CONTINUOUS
10
0.090779
20
-0.112709
30
0.0
11
0.096726
21
-0.133589
31
0.0
0
LINE
8
0
6
CONTINUOUS
10
0.115785
20
-0.150915
30
0.0
11
0.112460
21
-0.131173
31
0.0
0
LINE
8
0
6
CONTINUOUS
10
0.096726
20
-0.133589
30
0.0
11
0.099966
21
-0.152537
31
0.0
0
LINE
8
0
6
CONTINUOUS
10
-0.021085
20
-0.323812
30
0.0
11
-0.020935
21
-0.323832
31
0.0
0
LINE
8
0
6
CONTINUOUS
10
-0.042817
20
-0.314572
30
0.0
11
-0.021085
21
-0.323812
31
0.0
0
LINE
8
0
6
CONTINUOUS
10
-0.020934
20
-0.306575
30
0.0
11
-0.035814
21
-0.300230
31
0.0
0
LINE
8
0
6
CONTINUOUS
10
-0.061555
20
-0.302530
30
0.0
11
-0.042817
21
-0.314572
31
0.0
0
LINE
8
0
6
CONTINUOUS
10
-0.035814
20
-0.300230
30
0.0
11
-0.052195
21
-0.289545
31
0.0
0
LINE
8
0
6
CONTINUOUS
10
-0.079611
20
-0.283020
30
0.0
11
-0.061555
21
-0.302530
31
0.0
0
LINE
8
0
6
CONTINUOUS
10
-0.052195
20
-0.289545
30
0.0
11
-0.068174
21
-0.272165
31
0.0
0
LINE
8
0
6
CONTINUOUS
10
-0.093596
20
-0.264745
30
0.0
11
-0.079611
21
-0.283020
31
0.0
0
LINE
8
0
6
CONTINUOUS
10
-0.068174
20
-0.272165
30
0.0
11
-0.080457
21
-0.255780
31
0.0
0
LINE
8
0
6
CONTINUOUS
10
-0.103256
20
-0.242404
30
0.0
11
-0.093596
21
-0.264745
31
0.0
0
LINE
8
0
6
CONTINUOUS
10
-0.080457
20
-0.255780
30
0.0
11
-0.088675
21
-0.235905
31
0.0
0
LINE
8
0
6
CONTINUOUS
10
-0.111369
20
-0.217713
30
0.0
11
-0.103256
21
-0.242404
31
0.0
0
LINE
8
0
6
CONTINUOUS
10
-0.088675
20
-0.235905
30
0.0
11
-0.095961
21
-0.213816
31
0.0
0
LINE
8
0
6
CONTINUOUS
10
-0.115318
20
-0.193364
30
0.0
11
-0.111369
21
-0.217713
31
0.0
0
LINE
8
0
6
CONTINUOUS
10
-0.095961
20
-0.213816
30
0.0
11
-0.099400
21
-0.192235
31
0.0
0
LINE
8
0
6
CONTINUOUS
10
-0.116737
20
-0.169684
30
0.0
11
-0.115318
21
-0.193364
31
0.0
0
LINE
8
0
6
CONTINUOUS
10
-0.099400
20
-0.192235
30
0.0
11
-0.100830
21
-0.170565
31
0.0
0
LINE
8
0
6
CONTINUOUS
10
-0.115841
20
-0.149668
30
0.0
11
-0.116737
21
-0.169684
31
0.0
0
LINE
8
0
6
CONTINUOUS
10
-0.100830
20
-0.170565
30
0.0
11
-0.100016
21
-0.151345
31
0.0
0
LINE
8
0
6
CONTINUOUS
10
-0.055730
20
-0.020598
30
0.0
11
-0.070239
21
-0.041781
31
0.0
0
LINE
8
0
6
CONTINUOUS
10
-0.059247
20
-0.053303
30
0.0
11
-0.043852
21
-0.031309
31
0.0
0
LINE
8
0
6
CONTINUOUS
10
-0.044787
20
-0.002049
30
0.0
11
-0.055730
21
-0.020598
31
0.0
0
LINE
8
0
6
CONTINUOUS
10
-0.043852
20
-0.031309
30
0.0
11
-0.032440
21
-0.012105
31
0.0
0
LINE
8
0
6
CONTINUOUS
10
-0.034598
20
0.019797
30
0.0
11
-0.044787
21
-0.002049
31
0.0
0
LINE
8
0
6
CONTINUOUS
10
-0.032440
20
-0.012105
30
0.0
11
-0.021685
21
0.010384
31
0.0
0
LINE
8
0
6
CONTINUOUS
10
-0.025925
20
0.043413
30
0.0
11
-0.034598
21
0.019797
31
0.0
0
LINE
8
0
6
CONTINUOUS
10
-0.021685
20
0.010384
30
0.0
11
-0.020926
21
0.012388
31
0.0
0
LINE
8
0
6
CONTINUOUS
10
-0.020925
20
0.060090
30
0.0
11
-0.025925
21
0.043413
31
0.0
0
LINE
8
0
6
CONTINUOUS
10
-0.084316
20
-0.061606
30
0.0
11
-0.097367
21
-0.084054
31
0.0
0
LINE
8
0
6
CONTINUOUS
10
-0.083105
20
-0.091096
30
0.0
11
-0.071402
21
-0.071018
31
0.0
0
LINE
8
0
6
CONTINUOUS
10
-0.097367
20
-0.084054
30
0.0
11
-0.106275
21
-0.107041
31
0.0
0
LINE
8
0
6
CONTINUOUS
10
-0.090941
20
-0.111482
30
0.0
11
-0.083105
21
-0.091096
31
0.0
0
LINE
8
0
6
CONTINUOUS
10
-0.106275
20
-0.107041
30
0.0
11
-0.112570
21
-0.129904
31
0.0
0
LINE
8
0
6
CONTINUOUS
10
-0.096829
20
-0.132376
30
0.0
11
-0.090941
21
-0.111482
31
0.0
0
LINE
8
0
6
CONTINUOUS
10
-0.112570
20
-0.129904
30
0.0
11
-0.115841
21
-0.149668
31
0.0
0
LINE
8
0
6
CONTINUOUS
10
-0.100016
20
-0.151345
30
0.0
11
-0.096829
21
-0.132376
31
0.0
0
LINE
8
0
6
CONTINUOUS
10
0.069883
20
-0.043054
30
0.0
11
0.055296
21
-0.021864
31
0.0
0
LINE
8
0
6
CONTINUOUS
10
0.084015
20
-0.062894
30
0.0
11
0.069883
21
-0.043054
31
0.0
0
LINE
8
0
6
CONTINUOUS
10
0.043447
20
-0.032517
30
0.0
11
0.058921
21
-0.054521
31
0.0
0
LINE
8
0
6
CONTINUOUS
10
-0.070239
20
-0.041781
30
0.0
11
-0.084316
21
-0.061606
31
0.0
0
LINE
8
0
6
CONTINUOUS
10
-0.071402
20
-0.071018
30
0.0
11
-0.059247
21
-0.053303
31
0.0
0
LINE
8
0
6
CONTINUOUS
10
0.011873
20
0.372747
30
0.0
11
0.011873
21
0.470216
31
0.0
0
LINE
8
0
6
CONTINUOUS
10
0.011473
20
0.470216
30
0.0
11
0.010273
21
0.470216
31
0.0
0
LINE
8
0
6
CONTINUOUS
10
0.010273
20
0.470216
30
0.0
11
0.008373
21
0.470216
31
0.0
0
LINE
8
0
6
CONTINUOUS
10
0.010873
20
0.470716
30
0.0
11
0.010473
21
0.470716
31
0.0
0
LINE
8
0
6
CONTINUOUS
10
0.011873
20
0.470216
30
0.0
11
0.010873
21
0.470716
31
0.0
0
LINE
8
0
6
CONTINUOUS
10
0.011473
20
0.470216
30
0.0
11
0.011873
21
0.470216
31
0.0
0
LINE
8
0
6
CONTINUOUS
10
0.010273
20
0.470216
30
0.0
11
0.011473
21
0.470216
31
0.0
0
LINE
8
0
6
CONTINUOUS
10
0.008373
20
0.470216
30
0.0
11
0.010273
21
0.470216
31
0.0
0
LINE
8
0
6
CONTINUOUS
10
0.011873
20
0.471216
30
0.0
11
0.011473
21
0.471216
31
0.0
0
LINE
8
0
6
CONTINUOUS
10
0.010873
20
0.470716
30
0.0
11
0.011873
21
0.471216
31
0.0
0
LINE
8
0
6
CONTINUOUS
10
0.011473
20
0.471216
30
0.0
11
0.010273
21
0.471216
31
0.0
0
LINE
8
0
6
CONTINUOUS
10
0.009373
20
0.470716
30
0.0
11
0.010473
21
0.470716
31
0.0
0
LINE
8
0
6
CONTINUOUS
10
0.010273
20
0.471216
30
0.0
11
0.008373
21
0.471216
31
0.0
0
LINE
8
0
6
CONTINUOUS
10
0.007673
20
0.470716
30
0.0
11
0.009373
21
0.470716
31
0.0
0
LINE
8
0
6
CONTINUOUS
10
0.011873
20
0.471216
30
0.0
11
0.011873
21
0.490216
31
0.0
0
LINE
8
0
6
CONTINUOUS
10
0.011473
20
0.471216
30
0.0
11
0.011873
21
0.471216
31
0.0
0
LINE
8
0
6
CONTINUOUS
10
0.011473
20
0.490216
30
0.0
11
0.010273
21
0.490216
31
0.0
0
LINE
8
0
6
CONTINUOUS
10
0.010273
20
0.471216
30
0.0
11
0.011473
21
0.471216
31
0.0
0
LINE
8
0
6
CONTINUOUS
10
0.010273
20
0.490216
30
0.0
11
0.008373
21
0.490216
31
0.0
0
LINE
8
0
6
CONTINUOUS
10
0.008373
20
0.471216
30
0.0
11
0.010273
21
0.471216
31
0.0
0
LINE
8
0
6
CONTINUOUS
10
0.011373
20
0.490716
30
0.0
11
0.010973
21
0.490716
31
0.0
0
LINE
8
0
6
CONTINUOUS
10
0.011873
20
0.490216
30
0.0
11
0.011373
21
0.490716
31
0.0
0
LINE
8
0
6
CONTINUOUS
10
0.011473
20
0.490216
30
0.0
11
0.011873
21
0.490216
31
0.0
0
LINE
8
0
6
CONTINUOUS
10
0.010973
20
0.490716
30
0.0
11
0.009873
21
0.490716
31
0.0
0
LINE
8
0
6
CONTINUOUS
10
0.010273
20
0.490216
30
0.0
11
0.011473
21
0.490216
31
0.0
0
LINE
8
0
6
CONTINUOUS
10
0.009873
20
0.490716
30
0.0
11
0.007973
21
0.490716
31
0.0
0
LINE
8
0
6
CONTINUOUS
10
0.008373
20
0.490216
30
0.0
11
0.010273
21
0.490216
31
0.0
0
LINE
8
0
6
CONTINUOUS
10
0.002973
20
0.470216
30
0.0
11
-0.000127
21
0.470216
31
0.0
0
LINE
8
0
6
CONTINUOUS
10
0.005873
20
0.470216
30
0.0
11
0.002973
21
0.470216
31
0.0
0
LINE
8
0
6
CONTINUOUS
10
0.008373
20
0.470216
30
0.0
11
0.005873
21
0.470216
31
0.0
0
LINE
8
0
6
CONTINUOUS
10
-0.000127
20
0.470216
30
0.0
11
0.002973
21
0.470216
31
0.0
0
LINE
8
0
6
CONTINUOUS
10
0.005373
20
0.470716
30
0.0
11
0.002673
21
0.470716
31
0.0
0
LINE
8
0
6
CONTINUOUS
10
0.002973
20
0.470216
30
0.0
11
0.005873
21
0.470216
31
0.0
0
LINE
8
0
6
CONTINUOUS
10
0.007673
20
0.470716
30
0.0
11
0.005373
21
0.470716
31
0.0
0
LINE
8
0
6
CONTINUOUS
10
0.005873
20
0.470216
30
0.0
11
0.008373
21
0.470216
31
0.0
0
LINE
8
0
6
CONTINUOUS
10
0.002973
20
0.471216
30
0.0
11
-0.000127
21
0.471216
31
0.0
0
LINE
8
0
6
CONTINUOUS
10
-0.000127
20
0.470716
30
0.0
11
0.002673
21
0.470716
31
0.0
0
LINE
8
0
6
CONTINUOUS
10
0.005873
20
0.471216
30
0.0
11
0.002973
21
0.471216
31
0.0
0
LINE
8
0
6
CONTINUOUS
10
0.002673
20
0.470716
30
0.0
11
0.005373
21
0.470716
31
0.0
0
LINE
8
0
6
CONTINUOUS
10
0.008373
20
0.471216
30
0.0
11
0.005873
21
0.471216
31
0.0
0
LINE
8
0
6
CONTINUOUS
10
0.002973
20
0.490216
30
0.0
11
-0.000127
21
0.490216
31
0.0
0
LINE
8
0
6
CONTINUOUS
10
-0.000127
20
0.471216
30
0.0
11
0.002973
21
0.471216
31
0.0
0
LINE
8
0
6
CONTINUOUS
10
0.005873
20
0.490216
30
0.0
11
0.002973
21
0.490216
31
0.0
0
LINE
8
0
6
CONTINUOUS
10
0.002973
20
0.471216
30
0.0
11
0.005873
21
0.471216
31
0.0
0
LINE
8
0
6
CONTINUOUS
10
0.008373
20
0.490216
30
0.0
11
0.005873
21
0.490216
31
0.0
0
LINE
8
0
6
CONTINUOUS
10
0.005873
20
0.471216
30
0.0
11
0.008373
21
0.471216
31
0.0
0
LINE
8
0
6
CONTINUOUS
10
0.002873
20
0.490716
30
0.0
11
-0.000127
21
0.490716
31
0.0
0
LINE
8
0
6
CONTINUOUS
10
-0.000127
20
0.490216
30
0.0
11
0.002973
21
0.490216
31
0.0
0
LINE
8
0
6
CONTINUOUS
10
0.005573
20
0.490716
30
0.0
11
0.002873
21
0.490716
31
0.0
0
LINE
8
0
6
CONTINUOUS
10
0.002973
20
0.490216
30
0.0
11
0.005873
21
0.490216
31
0.0
0
LINE
8
0
6
CONTINUOUS
10
0.007973
20
0.490716
30
0.0
11
0.005573
21
0.490716
31
0.0
0
LINE
8
0
6
CONTINUOUS
10
0.005873
20
0.490216
30
0.0
11
0.008373
21
0.490216
31
0.0
0
LINE
8
0
6
CONTINUOUS
10
-0.000127
20
0.470216
30
0.0
11
-0.003227
21
0.470216
31
0.0
0
LINE
8
0
6
CONTINUOUS
10
-0.003227
20
0.470216
30
0.0
11
-0.006127
21
0.470216
31
0.0
0
LINE
8
0
6
CONTINUOUS
10
-0.006127
20
0.470216
30
0.0
11
-0.008627
21
0.470216
31
0.0
0
LINE
8
0
6
CONTINUOUS
10
-0.000127
20
0.470716
30
0.0
11
-0.002927
21
0.470716
31
0.0
0
LINE
8
0
6
CONTINUOUS
10
-0.003227
20
0.470216
30
0.0
11
-0.000127
21
0.470216
31
0.0
0
LINE
8
0
6
CONTINUOUS
10
-0.002927
20
0.470716
30
0.0
11
-0.005627
21
0.470716
31
0.0
0
LINE
8
0
6
CONTINUOUS
10
-0.006127
20
0.470216
30
0.0
11
-0.003227
21
0.470216
31
0.0
0
LINE
8
0
6
CONTINUOUS
10
-0.008627
20
0.470216
30
0.0
11
-0.006127
21
0.470216
31
0.0
0
LINE
8
0
6
CONTINUOUS
10
-0.000127
20
0.471216
30
0.0
11
-0.003227
21
0.471216
31
0.0
0
LINE
8
0
6
CONTINUOUS
10
-0.003227
20
0.471216
30
0.0
11
-0.006127
21
0.471216
31
0.0
0
LINE
8
0
6
CONTINUOUS
10
-0.005627
20
0.470716
30
0.0
11
-0.002927
21
0.470716
31
0.0
0
LINE
8
0
6
CONTINUOUS
10
-0.006127
20
0.471216
30
0.0
11
-0.008627
21
0.471216
31
0.0
0
LINE
8
0
6
CONTINUOUS
10
-0.007927
20
0.470716
30
0.0
11
-0.005627
21
0.470716
31
0.0
0
LINE
8
0
6
CONTINUOUS
10
-0.000127
20
0.490216
30
0.0
11
-0.003227
21
0.490216
31
0.0
0
LINE
8
0
6
CONTINUOUS
10
-0.003227
20
0.471216
30
0.0
11
-0.000127
21
0.471216
31
0.0
0
LINE
8
0
6
CONTINUOUS
10
-0.003227
20
0.490216
30
0.0
11
-0.006127
21
0.490216
31
0.0
0
LINE
8
0
6
CONTINUOUS
10
-0.006127
20
0.471216
30
0.0
11
-0.003227
21
0.471216
31
0.0
0
LINE
8
0
6
CONTINUOUS
10
-0.006127
20
0.490216
30
0.0
11
-0.008627
21
0.490216
31
0.0
0
LINE
8
0
6
CONTINUOUS
10
-0.008627
20
0.471216
30
0.0
11
-0.006127
21
0.471216
31
0.0
0
LINE
8
0
6
CONTINUOUS
10
-0.000127
20
0.490716
30
0.0
11
-0.003127
21
0.490716
31
0.0
0
LINE
8
0
6
CONTINUOUS
10
-0.003227
20
0.490216
30
0.0
11
-0.000127
21
0.490216
31
0.0
0
LINE
8
0
6
CONTINUOUS
10
-0.003127
20
0.490716
30
0.0
11
-0.005827
21
0.490716
31
0.0
0
LINE
8
0
6
CONTINUOUS
10
-0.006127
20
0.490216
30
0.0
11
-0.003227
21
0.490216
31
0.0
0
LINE
8
0
6
CONTINUOUS
10
-0.005827
20
0.490716
30
0.0
11
-0.008227
21
0.490716
31
0.0
0
LINE
8
0
6
CONTINUOUS
10
-0.008627
20
0.490216
30
0.0
11
-0.006127
21
0.490216
31
0.0
0
LINE
8
0
6
CONTINUOUS
10
-0.012127
20
0.470216
30
0.0
11
-0.012127
21
0.372786
31
0.0
0
LINE
8
0
6
CONTINUOUS
10
-0.011727
20
0.470216
30
0.0
11
-0.012127
21
0.470216
31
0.0
0
LINE
8
0
6
CONTINUOUS
10
-0.008627
20
0.470216
30
0.0
11
-0.010527
21
0.470216
31
0.0
0
LINE
8
0
6
CONTINUOUS
10
-0.011127
20
0.470716
30
0.0
11
-0.012127
21
0.470216
31
0.0
0
LINE
8
0
6
CONTINUOUS
10
-0.012127
20
0.470216
30
0.0
11
-0.011727
21
0.470216
31
0.0
0
LINE
8
0
6
CONTINUOUS
10
-0.009627
20
0.470716
30
0.0
11
-0.010727
21
0.470716
31
0.0
0
LINE
8
0
6
CONTINUOUS
10
-0.011727
20
0.470216
30
0.0
11
-0.010527
21
0.470216
31
0.0
0
LINE
8
0
6
CONTINUOUS
10
-0.007927
20
0.470716
30
0.0
11
-0.009627
21
0.470716
31
0.0
0
LINE
8
0
6
CONTINUOUS
10
-0.010527
20
0.470216
30
0.0
11
-0.008627
21
0.470216
31
0.0
0
LINE
8
0
6
CONTINUOUS
10
-0.012127
20
0.471216
30
0.0
11
-0.011127
21
0.470716
31
0.0
0
LINE
8
0
6
CONTINUOUS
10
-0.011727
20
0.471216
30
0.0
11
-0.012127
21
0.471216
31
0.0
0
LINE
8
0
6
CONTINUOUS
10
-0.011127
20
0.470716
30
0.0
11
-0.010727
21
0.470716
31
0.0
0
LINE
8
0
6
CONTINUOUS
10
-0.010527
20
0.471216
30
0.0
11
-0.011727
21
0.471216
31
0.0
0
LINE
8
0
6
CONTINUOUS
10
-0.008627
20
0.471216
30
0.0
11
-0.010527
21
0.471216
31
0.0
0
LINE
8
0
6
CONTINUOUS
10
-0.012127
20
0.490216
30
0.0
11
-0.012127
21
0.471216
31
0.0
0
LINE
8
0
6
CONTINUOUS
10
-0.011727
20
0.490216
30
0.0
11
-0.012127
21
0.490216
31
0.0
0
LINE
8
0
6
CONTINUOUS
10
-0.012127
20
0.471216
30
0.0
11
-0.011727
21
0.471216
31
0.0
0
LINE
8
0
6
CONTINUOUS
10
-0.011727
20
0.471216
30
0.0
11
-0.010527
21
0.471216
31
0.0
0
LINE
8
0
6
CONTINUOUS
10
-0.008627
20
0.490216
30
0.0
11
-0.010527
21
0.490216
31
0.0
0
LINE
8
0
6
CONTINUOUS
10
-0.010527
20
0.471216
30
0.0
11
-0.008627
21
0.471216
31
0.0
0
LINE
8
0
6
CONTINUOUS
10
-0.011627
20
0.490716
30
0.0
11
-0.012127
21
0.490216
31
0.0
0
LINE
8
0
6
CONTINUOUS
10
-0.011227
20
0.490716
30
0.0
11
-0.011627
21
0.490716
31
0.0
0
LINE
8
0
6
CONTINUOUS
10
-0.012127
20
0.490216
30
0.0
11
-0.011727
21
0.490216
31
0.0
0
LINE
8
0
6
CONTINUOUS
10
-0.010127
20
0.490716
30
0.0
11
-0.011227
21
0.490716
31
0.0
0
LINE
8
0
6
CONTINUOUS
10
-0.011727
20
0.490216
30
0.0
11
-0.010527
21
0.490216
31
0.0
0
LINE
8
0
6
CONTINUOUS
10
-0.008227
20
0.490716
30
0.0
11
-0.010127
21
0.490716
31
0.0
0
LINE
8
0
6
CONTINUOUS
10
-0.010527
20
0.490216
30
0.0
11
-0.008627
21
0.490216
31
0.0
0
LINE
8
0
6
CONTINUOUS
10
-0.001036
20
0.490216
30
0.0
11
-0.001468
21
0.490216
31
0.0
0
LINE
8
0
6
CONTINUOUS
10
-0.001951
20
0.490216
30
0.0
11
-0.002201
21
0.490216
31
0.0
0
LINE
8
0
6
CONTINUOUS
10
0.005127
20
0.490216
30
0.0
11
0.003628
21
0.490216
31
0.0
0
LINE
8
0
6
CONTINUOUS
10
0.006622
20
0.490216
30
0.0
11
0.004025
21
0.490216
31
0.0
0
LINE
8
0
6
CONTINUOUS
10
-0.001951
20
0.490216
30
0.0
11
-0.002201
21
0.490216
31
0.0
0
LINE
8
0
6
CONTINUOUS
10
-0.001036
20
0.490216
30
0.0
11
-0.001468
21
0.490216
31
0.0
0
LINE
8
0
6
CONTINUOUS
10
0.005714
20
0.490216
30
0.0
11
0.005282
21
0.490216
31
0.0
0
LINE
8
0
6
CONTINUOUS
10
0.005282
20
0.490216
30
0.0
11
0.003898
21
0.490216
31
0.0
0
LINE
8
0
6
CONTINUOUS
10
-0.010727
20
0.490716
30
0.0
11
-0.011127
21
0.490716
31
0.0
0
LINE
8
0
6
CONTINUOUS
10
-0.009627
20
0.490716
30
0.0
11
-0.010727
21
0.490716
31
0.0
0
LINE
8
0
6
CONTINUOUS
10
-0.007927
20
0.490716
30
0.0
11
-0.009627
21
0.490716
31
0.0
0
LINE
8
0
6
CONTINUOUS
10
-0.002027
20
0.490216
30
0.0
11
-0.002127
21
0.490216
31
0.0
0
LINE
8
0
6
CONTINUOUS
10
-0.001827
20
0.490216
30
0.0
11
-0.002027
21
0.490216
31
0.0
0
LINE
8
0
6
CONTINUOUS
10
-0.001527
20
0.490216
30
0.0
11
-0.001827
21
0.490216
31
0.0
0
LINE
8
0
6
CONTINUOUS
10
-0.000127
20
0.490716
30
0.0
11
-0.002927
21
0.490716
31
0.0
0
LINE
8
0
6
CONTINUOUS
10
-0.002927
20
0.490716
30
0.0
11
-0.005627
21
0.490716
31
0.0
0
LINE
8
0
6
CONTINUOUS
10
-0.005627
20
0.490716
30
0.0
11
-0.007927
21
0.490716
31
0.0
0
LINE
8
0
6
CONTINUOUS
10
-0.000127
20
0.490216
30
0.0
11
-0.002227
21
0.490216
31
0.0
0
LINE
8
0
6
CONTINUOUS
10
-0.000127
20
0.490216
30
0.0
11
-0.001427
21
0.490216
31
0.0
0
LINE
8
0
6
CONTINUOUS
10
-0.001427
20
0.490216
30
0.0
11
-0.002627
21
0.490216
31
0.0
0
LINE
8
0
6
CONTINUOUS
10
-0.000127
20
0.490216
30
0.0
11
-0.000627
21
0.490216
31
0.0
0
LINE
8
0
6
CONTINUOUS
10
-0.000627
20
0.490216
30
0.0
11
-0.001127
21
0.490216
31
0.0
0
LINE
8
0
6
CONTINUOUS
10
-0.001127
20
0.490216
30
0.0
11
-0.001527
21
0.490216
31
0.0
0
LINE
8
0
6
CONTINUOUS
10
0.002673
20
0.490716
30
0.0
11
-0.000127
21
0.490716
31
0.0
0
LINE
8
0
6
CONTINUOUS
10
0.005373
20
0.490716
30
0.0
11
0.002673
21
0.490716
31
0.0
0
LINE
8
0
6
CONTINUOUS
10
0.007673
20
0.490716
30
0.0
11
0.005373
21
0.490716
31
0.0
0
LINE
8
0
6
CONTINUOUS
10
0.005473
20
0.490216
30
0.0
11
0.003873
21
0.490216
31
0.0
0
LINE
8
0
6
CONTINUOUS
10
0.010873
20
0.490716
30
0.0
11
0.010473
21
0.490716
31
0.0
0
LINE
8
0
6
CONTINUOUS
10
0.010473
20
0.490716
30
0.0
11
0.009373
21
0.490716
31
0.0
0
LINE
8
0
6
CONTINUOUS
10
0.009373
20
0.490716
30
0.0
11
0.007673
21
0.490716
31
0.0
0
LINE
8
0
6
CONTINUOUS
10
0.004873
20
0.490216
30
0.0
11
0.004673
21
0.490216
31
0.0
0
LINE
8
0
6
CONTINUOUS
10
0.004673
20
0.490216
30
0.0
11
0.004173
21
0.490216
31
0.0
0
LINE
8
0
6
CONTINUOUS
10
0.005873
20
0.490216
30
0.0
11
0.004073
21
0.490216
31
0.0
0
LINE
8
0
6
CONTINUOUS
10
0.005373
20
0.490216
30
0.0
11
0.005173
21
0.490216
31
0.0
0
LINE
8
0
6
CONTINUOUS
10
0.005173
20
0.490216
30
0.0
11
0.004673
21
0.490216
31
0.0
0
LINE
8
0
6
CONTINUOUS
10
-0.000127
20
0.490216
30
0.0
11
-0.002327
21
0.490216
31
0.0
0
LINE
8
0
6
CONTINUOUS
10
-0.000127
20
0.490216
30
0.0
11
-0.001527
21
0.490216
31
0.0
0
LINE
8
0
6
CONTINUOUS
10
-0.001527
20
0.490216
30
0.0
11
-0.002827
21
0.490216
31
0.0
0
LINE
8
0
6
CONTINUOUS
10
-0.000127
20
0.490216
30
0.0
11
-0.000727
21
0.490216
31
0.0
0
LINE
8
0
6
CONTINUOUS
10
-0.000727
20
0.490216
30
0.0
11
-0.001327
21
0.490216
31
0.0
0
LINE
8
0
6
CONTINUOUS
10
-0.001327
20
0.490216
30
0.0
11
-0.001927
21
0.490216
31
0.0
0
LINE
8
0
6
CONTINUOUS
10
-0.002527
20
0.490216
30
0.0
11
-0.002627
21
0.490216
31
0.0
0
LINE
8
0
6
CONTINUOUS
10
-0.002327
20
0.490216
30
0.0
11
-0.002527
21
0.490216
31
0.0
0
LINE
8
0
6
CONTINUOUS
10
-0.001927
20
0.490216
30
0.0
11
-0.002327
21
0.490216
31
0.0
0
LINE
8
0
6
CONTINUOUS
10
0.050010
20
0.289650
30
0.0
11
0.050112
21
0.289828
31
0.0
0
LINE
8
0
6
CONTINUOUS
10
0.050112
20
0.289828
30
0.0
11
0.051033
21
0.291432
31
0.0
0
LINE
8
0
6
CONTINUOUS
10
0.051033
20
0.291432
30
0.0
11
0.051270
21
0.291843
31
0.0
0
LINE
8
0
6
CONTINUOUS
10
0.066827
20
0.319131
30
0.0
11
0.067275
21
0.319930
31
0.0
0
LINE
8
0
6
CONTINUOUS
10
-0.072675
20
0.319131
30
0.0
11
-0.072227
21
0.319930
31
0.0
0
ENDSEC
0
EOF
