  0
SECTION
  2
HEADER
  9
$ACADVER
  1
AC1015
  9
$ACADMAINTVER
 70
     6
  9
$DWGCODEPAGE
  3
ANSI_1252
  9
$INSBASE
 10
0.0
 20
0.0
 30
0.0
  9
$EXTMIN
 10
0.0
 20
0.0
 30
0.0
  9
$EXTMAX
 10
280.0
 20
808.0
 30
0.0
  9
$LIMMIN
 10
0.0
 20
0.0
  9
$LIMMAX
 10
12.0
 20
9.0
  9
$ORTHOMODE
 70
     0
  9
$REGENMODE
 70
     1
  9
$FILLMODE
 70
     1
  9
$QTEXTMODE
 70
     0
  9
$MIRRTEXT
 70
     1
  9
$LTSCALE
 40
1.0
  9
$ATTMODE
 70
     1
  9
$TEXTSIZE
 40
0.2
  9
$TRACEWID
 40
0.05
  9
$TEXTSTYLE
  7
Standard
  9
$CLAYER
  8
0
  9
$CELTYPE
  6
ByBlock
  9
$CECOLOR
 62
   256
  9
$CELTSCALE
 40
1.0
  9
$DISPSILH
 70
     0
  9
$DIMSCALE
 40
1.0
  9
$DIMASZ
 40
0.18
  9
$DIMEXO
 40
0.0625
  9
$DIMDLI
 40
0.38
  9
$DIMRND
 40
0.0
  9
$DIMDLE
 40
0.0
  9
$DIMEXE
 40
0.18
  9
$DIMTP
 40
0.0
  9
$DIMTM
 40
0.0
  9
$DIMTXT
 40
0.18
  9
$DIMCEN
 40
0.09
  9
$DIMTSZ
 40
0.0
  9
$DIMTOL
 70
     0
  9
$DIMLIM
 70
     0
  9
$DIMTIH
 70
     1
  9
$DIMTOH
 70
     1
  9
$DIMSE1
 70
     0
  9
$DIMSE2
 70
     0
  9
$DIMTAD
 70
     0
  9
$DIMZIN
 70
     0
  9
$DIMBLK
  1

  9
$DIMASO
 70
     1
  9
$DIMSHO
 70
     1
  9
$DIMPOST
  1

  9
$DIMAPOST
  1

  9
$DIMALT
 70
     0
  9
$DIMALTD
 70
     2
  9
$DIMALTF
 40
25.4
  9
$DIMLFAC
 40
1.0
  9
$DIMTOFL
 70
     0
  9
$DIMTVP
 40
0.0
  9
$DIMTIX
 70
     0
  9
$DIMSOXD
 70
     0
  9
$DIMSAH
 70
     0
  9
$DIMBLK1
  1

  9
$DIMBLK2
  1

  9
$DIMSTYLE
  2
Standard
  9
$DIMCLRD
 70
     0
  9
$DIMCLRE
 70
     0
  9
$DIMCLRT
 70
     0
  9
$DIMTFAC
 40
1.0
  9
$DIMGAP
 40
0.09
  9
$DIMJUST
 70
     0
  9
$DIMSD1
 70
     0
  9
$DIMSD2
 70
     0
  9
$DIMTOLJ
 70
     1
  9
$DIMTZIN
 70
     0
  9
$DIMALTZ
 70
     0
  9
$DIMALTTZ
 70
     0
  9
$DIMUPT
 70
     0
  9
$DIMDEC
 70
     4
  9
$DIMTDEC
 70
     4
  9
$DIMALTU
 70
     2
  9
$DIMALTTD
 70
     2
  9
$DIMTXSTY
  7
Standard
  9
$DIMAUNIT
 70
     0
  9
$DIMADEC
 70
     0
  9
$DIMALTRND
 40
0.0
  9
$DIMAZIN
 70
     0
  9
$DIMDSEP
 70
    46
  9
$DIMATFIT
 70
     3
  9
$DIMFRAC
 70
     0
  9
$DIMLDRBLK
  1

  9
$DIMLUNIT
 70
     2
  9
$DIMLWD
 70
    -2
  9
$DIMLWE
 70
    -2
  9
$DIMTMOVE
 70
     2
  9
$LUNITS
 70
     2
  9
$LUPREC
 70
     4
  9
$SKETCHINC
 40
0.1
  9
$FILLETRAD
 40
0.5
  9
$AUNITS
 70
     0
  9
$AUPREC
 70
     0
  9
$MENU
  1
.
  9
$ELEVATION
 40
0.0
  9
$PELEVATION
 40
0.0
  9
$THICKNESS
 40
0.0
  9
$LIMCHECK
 70
     0
  9
$CHAMFERA
 40
0.5
  9
$CHAMFERB
 40
0.5
  9
$CHAMFERC
 40
1.0
  9
$CHAMFERD
 40
0.0
  9
$SKPOLY
 70
     0
  9
$TDCREATE
 40
2456645.86771809
  9
$TDUCREATE
 40
2456645.826051424
  9
$TDUPDATE
 40
2456645.869725648
  9
$TDUUPDATE
 40
2456645.828058981
  9
$TDINDWG
 40
0.0020073843
  9
$TDUSRTIMER
 40
0.0020073843
  9
$USRTIMER
 70
     1
  9
$ANGBASE
 50
0.0
  9
$ANGDIR
 70
     0
  9
$PDMODE
 70
     0
  9
$PDSIZE
 40
0.0
  9
$PLINEWID
 40
0.0
  9
$SPLFRAME
 70
     0
  9
$SPLINETYPE
 70
     6
  9
$SPLINESEGS
 70
     8
  9
$HANDSEED
  5
3FE
  9
$SURFTAB1
 70
     6
  9
$SURFTAB2
 70
     6
  9
$SURFTYPE
 70
     6
  9
$SURFU
 70
     6
  9
$SURFV
 70
     6
  9
$UCSBASE
  2

  9
$UCSNAME
  2

  9
$UCSORG
 10
0.0
 20
0.0
 30
0.0
  9
$UCSXDIR
 10
1.0
 20
0.0
 30
0.0
  9
$UCSYDIR
 10
0.0
 20
1.0
 30
0.0
  9
$UCSORTHOREF
  2

  9
$UCSORTHOVIEW
 70
     0
  9
$UCSORGTOP
 10
0.0
 20
0.0
 30
0.0
  9
$UCSORGBOTTOM
 10
0.0
 20
0.0
 30
0.0
  9
$UCSORGLEFT
 10
0.0
 20
0.0
 30
0.0
  9
$UCSORGRIGHT
 10
0.0
 20
0.0
 30
0.0
  9
$UCSORGFRONT
 10
0.0
 20
0.0
 30
0.0
  9
$UCSORGBACK
 10
0.0
 20
0.0
 30
0.0
  9
$PUCSBASE
  2

  9
$PUCSNAME
  2

  9
$PUCSORG
 10
0.0
 20
0.0
 30
0.0
  9
$PUCSXDIR
 10
1.0
 20
0.0
 30
0.0
  9
$PUCSYDIR
 10
0.0
 20
1.0
 30
0.0
  9
$PUCSORTHOREF
  2

  9
$PUCSORTHOVIEW
 70
     0
  9
$PUCSORGTOP
 10
0.0
 20
0.0
 30
0.0
  9
$PUCSORGBOTTOM
 10
0.0
 20
0.0
 30
0.0
  9
$PUCSORGLEFT
 10
0.0
 20
0.0
 30
0.0
  9
$PUCSORGRIGHT
 10
0.0
 20
0.0
 30
0.0
  9
$PUCSORGFRONT
 10
0.0
 20
0.0
 30
0.0
  9
$PUCSORGBACK
 10
0.0
 20
0.0
 30
0.0
  9
$USERI1
 70
     0
  9
$USERI2
 70
     0
  9
$USERI3
 70
     0
  9
$USERI4
 70
     0
  9
$USERI5
 70
     0
  9
$USERR1
 40
0.0
  9
$USERR2
 40
0.0
  9
$USERR3
 40
0.0
  9
$USERR4
 40
0.0
  9
$USERR5
 40
0.0
  9
$WORLDVIEW
 70
     1
  9
$SHADEDGE
 70
     3
  9
$SHADEDIF
 70
    70
  9
$TILEMODE
 70
     1
  9
$MAXACTVP
 70
    64
  9
$PINSBASE
 10
0.0
 20
0.0
 30
0.0
  9
$PLIMCHECK
 70
     0
  9
$PEXTMIN
 10
1.000000000000E+20
 20
1.000000000000E+20
 30
1.000000000000E+20
  9
$PEXTMAX
 10
-1.000000000000E+20
 20
-1.000000000000E+20
 30
-1.000000000000E+20
  9
$PLIMMIN
 10
0.0
 20
0.0
  9
$PLIMMAX
 10
12.0
 20
9.0
  9
$UNITMODE
 70
     0
  9
$VISRETAIN
 70
     1
  9
$PLINEGEN
 70
     0
  9
$PSLTSCALE
 70
     1
  9
$TREEDEPTH
 70
  3020
  9
$CMLSTYLE
  2
Standard
  9
$CMLJUST
 70
     0
  9
$CMLSCALE
 40
1.0
  9
$PROXYGRAPHICS
 70
     1
  9
$MEASUREMENT
 70
     0
  9
$CELWEIGHT
370
    -1
  9
$ENDCAPS
280
     0
  9
$JOINSTYLE
280
     0
  9
$LWDISPLAY
290
     0
  9
$INSUNITS
 70
     0
  9
$HYPERLINKBASE
  1

  9
$STYLESHEET
  1

  9
$XEDIT
290
     1
  9
$CEPSNTYPE
380
     0
  9
$PSTYLEMODE
290
     1
  9
$FINGERPRINTGUID
  2
{7A8EDE41-56D4-48E1-A51D-7069B804E5FB}
  9
$VERSIONGUID
  2
{FAEB1C32-E019-11D5-929B-00C0DF256EC4}
  9
$EXTNAMES
290
     1
  9
$PSVPSCALE
 40
0.0
  9
$OLESTARTUP
290
     0
  0
ENDSEC
  0
SECTION
  2
CLASSES
  0
CLASS
  1
ACDBDICTIONARYWDFLT
  2
AcDbDictionaryWithDefault
  3
ObjectDBX Classes
 90
        0
280
     0
281
     0
  0
CLASS
  1
SCALE
  2
AcDbScale
  3
ObjectDBX Classes
 90
     1153
280
     0
281
     0
  0
CLASS
  1
DICTIONARYVAR
  2
AcDbDictionaryVar
  3
ObjectDBX Classes
 90
        0
280
     0
281
     0
  0
CLASS
  1
ACDBPLACEHOLDER
  2
AcDbPlaceHolder
  3
ObjectDBX Classes
 90
        0
280
     0
281
     0
  0
CLASS
  1
LAYOUT
  2
AcDbLayout
  3
ObjectDBX Classes
 90
        0
280
     0
281
     0
  0
ENDSEC
  0
SECTION
  2
TABLES
  0
TABLE
  2
VPORT
  5
8
330
0
100
AcDbSymbolTable
 70
     1
  0
VPORT
  5
3CD
330
8
100
AcDbSymbolTableRecord
100
AcDbViewportTableRecord
  2
*Active
 70
     0
 10
0.0
 20
0.0
 11
1.0
 21
1.0
 12
140.0
 22
404.0
 13
0.0
 23
0.0
 14
0.5
 24
0.5
 15
0.5
 25
0.5
 16
0.0
 26
0.0
 36
1.0
 17
0.0
 27
0.0
 37
0.0
 40
824.16
 41
1.729542302358
 42
50.0
 43
0.0
 44
0.0
 50
0.0
 51
0.0
 71
    16
 72
   100
 73
     1
 74
     3
 75
     0
 76
     0
 77
     0
 78
     0
281
     0
 65
     1
110
0.0
120
0.0
130
0.0
111
1.0
121
0.0
131
0.0
112
0.0
122
1.0
132
0.0
 79
     0
146
0.0
  0
ENDTAB
  0
TABLE
  2
LTYPE
  5
5
330
0
100
AcDbSymbolTable
 70
     1
  0
LTYPE
  5
14
330
5
100
AcDbSymbolTableRecord
100
AcDbLinetypeTableRecord
  2
ByBlock
 70
     0
  3

 72
    65
 73
     0
 40
0.0
  0
LTYPE
  5
15
330
5
100
AcDbSymbolTableRecord
100
AcDbLinetypeTableRecord
  2
ByLayer
 70
     0
  3

 72
    65
 73
     0
 40
0.0
  0
LTYPE
  5
16
330
5
100
AcDbSymbolTableRecord
100
AcDbLinetypeTableRecord
  2
Continuous
 70
     0
  3
Solid line
 72
    65
 73
     0
 40
0.0
  0
ENDTAB
  0
TABLE
  2
LAYER
  5
2
330
0
100
AcDbSymbolTable
 70
     1
  0
LAYER
  5
10
330
2
100
AcDbSymbolTableRecord
100
AcDbLayerTableRecord
  2
0
 70
     0
 62
     7
  6
Continuous
370
    -3
390
F
  0
ENDTAB
  0
TABLE
  2
STYLE
  5
3
330
0
100
AcDbSymbolTable
 70
     1
  0
STYLE
  5
11
330
3
100
AcDbSymbolTableRecord
100
AcDbTextStyleTableRecord
  2
Standard
 70
     0
 40
0.0
 41
1.0
 50
0.0
 71
     0
 42
0.2
  3
txt
  4

  0
ENDTAB
  0
TABLE
  2
VIEW
  5
6
330
0
100
AcDbSymbolTable
 70
     0
  0
ENDTAB
  0
TABLE
  2
UCS
  5
7
330
0
100
AcDbSymbolTable
 70
     0
  0
ENDTAB
  0
TABLE
  2
APPID
  5
9
330
0
100
AcDbSymbolTable
 70
     1
  0
APPID
  5
12
330
9
100
AcDbSymbolTableRecord
100
AcDbRegAppTableRecord
  2
ACAD
 70
     0
  0
ENDTAB
  0
TABLE
  2
DIMSTYLE
  5
A
330
0
100
AcDbSymbolTable
 70
     1
100
AcDbDimStyleTable
  0
DIMSTYLE
105
20
330
A
100
AcDbSymbolTableRecord
100
AcDbDimStyleTableRecord
  2
Standard
 70
     0
340
11
  0
ENDTAB
  0
TABLE
  2
BLOCK_RECORD
  5
1
330
0
100
AcDbSymbolTable
 70
     0
  0
BLOCK_RECORD
  5
1D
330
1
100
AcDbSymbolTableRecord
100
AcDbBlockTableRecord
  2
*Model_Space
340
1E
  0
BLOCK_RECORD
  5
1B
330
1
100
AcDbSymbolTableRecord
100
AcDbBlockTableRecord
  2
*Paper_Space
340
1C
  0
ENDTAB
  0
ENDSEC
  0
SECTION
  2
BLOCKS
  0
BLOCK
  5
3D0
330
1D
100
AcDbEntity
  8
0
100
AcDbBlockBegin
  2
*Model_Space
 70
     0
 10
0.0
 20
0.0
 30
0.0
  3
*Model_Space
  1
*Model_Space
  0
ENDBLK
  5
3D1
330
1D
100
AcDbEntity
  8
0
100
AcDbBlockEnd
  0
BLOCK
  5
3CE
330
1B
100
AcDbEntity
 67
     1
  8
0
100
AcDbBlockBegin
  2
*Paper_Space
 70
     0
 10
0.0
 20
0.0
 30
0.0
  3
*Paper_Space
  1
*Paper_Space
  0
ENDBLK
  5
3CF
330
1B
100
AcDbEntity
 67
     1
  8
0
100
AcDbBlockEnd
  0
ENDSEC
  0
SECTION
  2
ENTITIES
  0
LINE
  5
21
330
1D
100
AcDbEntity
  8
0
100
AcDbLine
 10
1.18061
 20
119.9874
 30
0.0
 11
4.70224
 21
102.283
 31
0.0
  0
LINE
  5
22
330
1D
100
AcDbEntity
  8
0
100
AcDbLine
 10
10.5046
 20
85.1897
 30
0.0
 11
18.4885
 21
69.0
 31
0.0
  0
LINE
  5
23
330
1D
100
AcDbEntity
  8
0
100
AcDbLine
 10
4.70224
 20
102.283
 30
0.0
 11
10.5046
 21
85.1897
 31
0.0
  0
LINE
  5
24
330
1D
100
AcDbEntity
  8
0
100
AcDbLine
 10
0.0
 20
138.0
 30
0.0
 11
1.18061
 21
119.9874
 31
0.0
  0
LINE
  5
25
330
1D
100
AcDbEntity
  8
0
100
AcDbLine
 10
0.0
 20
138.0
 30
0.0
 11
1.18061
 21
156.013
 31
0.0
  0
LINE
  5
26
330
1D
100
AcDbEntity
  8
0
100
AcDbLine
 10
64.9486
 20
42.7976
 30
0.0
 11
78.0
 21
34.07695
 31
0.0
  0
LINE
  5
27
330
1D
100
AcDbEntity
  8
0
100
AcDbLine
 10
53.9909
 20
28.51724
 30
0.0
 11
69.0
 21
18.4885
 31
0.0
  0
LINE
  5
28
330
1D
100
AcDbEntity
  8
0
100
AcDbLine
 10
122.337
 20
19.0266
 30
0.0
 11
138.0
 21
18.0
 31
0.0
  0
LINE
  5
29
330
1D
100
AcDbEntity
  8
0
100
AcDbLine
 10
119.987
 20
1.1806
 30
0.0
 11
138.0
 21
0.0
 31
0.0
  0
LINE
  5
2A
330
1D
100
AcDbEntity
  8
0
100
AcDbLine
 10
106.942
 20
22.0889
 30
0.0
 11
122.337
 21
19.0266
 31
0.0
  0
LINE
  5
2B
330
1D
100
AcDbEntity
  8
0
100
AcDbLine
 10
102.283
 20
4.7022
 30
0.0
 11
119.987
 21
1.1806
 31
0.0
  0
LINE
  5
2C
330
1D
100
AcDbEntity
  8
0
100
AcDbLine
 10
92.078
 20
27.13446
 30
0.0
 11
106.942
 21
22.0889
 31
0.0
  0
LINE
  5
2D
330
1D
100
AcDbEntity
  8
0
100
AcDbLine
 10
85.1897
 20
10.5046
 30
0.0
 11
102.283
 21
4.7022
 31
0.0
  0
LINE
  5
2E
330
1D
100
AcDbEntity
  8
0
100
AcDbLine
 10
78.0
 20
34.07695
 30
0.0
 11
92.078
 21
27.13446
 31
0.0
  0
LINE
  5
2F
330
1D
100
AcDbEntity
  8
0
100
AcDbLine
 10
69.0
 20
18.4885
 30
0.0
 11
85.1897
 21
10.5046
 31
0.0
  0
LINE
  5
30
330
1D
100
AcDbEntity
  8
0
100
AcDbLine
 10
53.1472
 20
53.1472
 30
0.0
 11
64.9486
 21
42.7976
 31
0.0
  0
LINE
  5
31
330
1D
100
AcDbEntity
  8
0
100
AcDbLine
 10
40.4193
 20
40.4193
 30
0.0
 11
53.9909
 21
28.51724
 31
0.0
  0
LINE
  5
32
330
1D
100
AcDbEntity
  8
0
100
AcDbLine
 10
27.1345
 20
92.078
 30
0.0
 11
34.077
 21
78.0
 31
0.0
  0
LINE
  5
33
330
1D
100
AcDbEntity
  8
0
100
AcDbLine
 10
34.077
 20
78.0
 30
0.0
 11
42.7976
 21
64.9486
 31
0.0
  0
LINE
  5
34
330
1D
100
AcDbEntity
  8
0
100
AcDbLine
 10
18.4885
 20
69.0
 30
0.0
 11
28.5172
 21
53.9909
 31
0.0
  0
LINE
  5
35
330
1D
100
AcDbEntity
  8
0
100
AcDbLine
 10
19.0266
 20
122.3369
 30
0.0
 11
22.0889
 21
106.9417
 31
0.0
  0
LINE
  5
36
330
1D
100
AcDbEntity
  8
0
100
AcDbLine
 10
22.0889
 20
106.9417
 30
0.0
 11
27.1345
 21
92.078
 31
0.0
  0
LINE
  5
37
330
1D
100
AcDbEntity
  8
0
100
AcDbLine
 10
42.7976
 20
64.9486
 30
0.0
 11
53.1472
 21
53.1472
 31
0.0
  0
LINE
  5
38
330
1D
100
AcDbEntity
  8
0
100
AcDbLine
 10
28.5172
 20
53.9909
 30
0.0
 11
40.4193
 21
40.4193
 31
0.0
  0
LINE
  5
39
330
1D
100
AcDbEntity
  8
0
100
AcDbLine
 10
18.0
 20
138.0
 30
0.0
 11
19.0266
 21
153.663
 31
0.0
  0
LINE
  5
3A
330
1D
100
AcDbEntity
  8
0
100
AcDbLine
 10
18.0
 20
138.0
 30
0.0
 11
19.0266
 21
122.3369
 31
0.0
  0
LINE
  5
3B
330
1D
100
AcDbEntity
  8
0
100
AcDbLine
 10
1.18061
 20
156.013
 30
0.0
 11
4.70224
 21
173.717
 31
0.0
  0
LINE
  5
3C
330
1D
100
AcDbEntity
  8
0
100
AcDbLine
 10
19.0266
 20
153.663
 30
0.0
 11
22.0889
 21
169.058
 31
0.0
  0
LINE
  5
3D
330
1D
100
AcDbEntity
  8
0
100
AcDbLine
 10
10.5046
 20
190.81
 30
0.0
 11
26.0134
 21
216.376
 31
0.0
  0
LINE
  5
3E
330
1D
100
AcDbEntity
  8
0
100
AcDbLine
 10
22.0889
 20
169.058
 30
0.0
 11
27.1345
 21
183.922
 31
0.0
  0
LINE
  5
3F
330
1D
100
AcDbEntity
  8
0
100
AcDbLine
 10
4.70224
 20
173.717
 30
0.0
 11
10.5046
 21
190.81
 31
0.0
  0
LINE
  5
40
330
1D
100
AcDbEntity
  8
0
100
AcDbLine
 10
1.18061
 20
156.013
 30
0.0
 11
4.70224
 21
173.717
 31
0.0
  0
LINE
  5
41
330
1D
100
AcDbEntity
  8
0
100
AcDbLine
 10
27.1345
 20
183.922
 30
0.0
 11
41.3841
 21
207.009
 31
0.0
  0
LINE
  5
42
330
1D
100
AcDbEntity
  8
0
100
AcDbLine
 10
99.3796
 20
279.047
 30
0.0
 11
125.192
 21
321.455
 31
0.0
  0
LINE
  5
43
330
1D
100
AcDbEntity
  8
0
100
AcDbLine
 10
83.878
 20
288.196
 30
0.0
 11
108.562
 21
328.343
 31
0.0
  0
LINE
  5
44
330
1D
100
AcDbEntity
  8
0
100
AcDbLine
 10
72.0941
 20
243.446
 30
0.0
 11
99.3796
 21
279.047
 31
0.0
  0
LINE
  5
45
330
1D
100
AcDbEntity
  8
0
100
AcDbLine
 10
57.1367
 20
253.459
 30
0.0
 11
83.878
 21
288.196
 31
0.0
  0
LINE
  5
46
330
1D
100
AcDbEntity
  8
0
100
AcDbLine
 10
41.3841
 20
207.009
 30
0.0
 11
72.0941
 21
243.446
 31
0.0
  0
LINE
  5
47
330
1D
100
AcDbEntity
  8
0
100
AcDbLine
 10
26.0134
 20
216.376
 30
0.0
 11
57.1367
 21
253.459
 31
0.0
  0
LINE
  5
48
330
1D
100
AcDbEntity
  8
0
100
AcDbLine
 10
0.0
 20
138.0
 30
0.0
 11
1.18061
 21
156.013
 31
0.0
  0
LINE
  5
49
330
1D
100
AcDbEntity
  8
0
100
AcDbLine
 10
0.0
 20
138.0
 30
0.0
 11
1.18061
 21
119.9874
 31
0.0
  0
LINE
  5
4A
330
1D
100
AcDbEntity
  8
0
100
AcDbLine
 10
125.192
 20
321.455
 30
0.0
 11
149.883
 21
370.698
 31
0.0
  0
LINE
  5
4B
330
1D
100
AcDbEntity
  8
0
100
AcDbLine
 10
108.562
 20
328.343
 30
0.0
 11
132.684
 21
376.005
 31
0.0
  0
LINE
  5
4C
330
1D
100
AcDbEntity
  8
0
100
AcDbLine
 10
138.0
 20
18.0
 30
0.0
 11
153.663
 21
19.0266
 31
0.0
  0
LINE
  5
4D
330
1D
100
AcDbEntity
  8
0
100
AcDbLine
 10
153.663
 20
19.0266
 30
0.0
 11
169.058
 21
22.0889
 31
0.0
  0
LINE
  5
4E
330
1D
100
AcDbEntity
  8
0
100
AcDbLine
 10
156.013
 20
1.1806
 30
0.0
 11
173.717
 21
4.7022
 31
0.0
  0
LINE
  5
4F
330
1D
100
AcDbEntity
  8
0
100
AcDbLine
 10
169.058
 20
22.0889
 30
0.0
 11
183.922
 21
27.13446
 31
0.0
  0
LINE
  5
50
330
1D
100
AcDbEntity
  8
0
100
AcDbLine
 10
138.0
 20
0.0
 30
0.0
 11
156.013
 21
1.1806
 31
0.0
  0
LINE
  5
51
330
1D
100
AcDbEntity
  8
0
100
AcDbLine
 10
150.925
 20
423.614
 30
0.0
 11
163.514
 21
472.465
 31
0.0
  0
LINE
  5
52
330
1D
100
AcDbEntity
  8
0
100
AcDbLine
 10
168.371
 20
419.184
 30
0.0
 11
181.265
 21
469.48
 31
0.0
  0
LINE
  5
53
330
1D
100
AcDbEntity
  8
0
100
AcDbLine
 10
163.514
 20
472.465
 30
0.0
 11
173.068
 21
527.148
 31
0.0
  0
LINE
  5
54
330
1D
100
AcDbEntity
  8
0
100
AcDbLine
 10
149.883
 20
370.698
 30
0.0
 11
168.371
 21
419.184
 31
0.0
  0
LINE
  5
55
330
1D
100
AcDbEntity
  8
0
100
AcDbLine
 10
132.684
 20
376.005
 30
0.0
 11
150.925
 21
423.614
 31
0.0
  0
LINE
  5
56
330
1D
100
AcDbEntity
  8
0
100
AcDbLine
 10
170.5
 20
700.556
 30
0.0
 11
170.824
 21
700.0
 31
0.0
  0
LINE
  5
57
330
1D
100
AcDbEntity
  8
0
100
AcDbLine
 10
170.5
 20
700.556
 30
0.0
 11
170.5
 21
701.444
 31
0.0
  0
LINE
  5
58
330
1D
100
AcDbEntity
  8
0
100
AcDbLine
 10
170.824
 20
700.0
 30
0.0
 11
171.31
 21
700.0
 31
0.0
  0
LINE
  5
59
330
1D
100
AcDbEntity
  8
0
100
AcDbLine
 10
172.0
 20
608.385
 30
0.0
 11
172.0
 21
570.615
 31
0.0
  0
LINE
  5
5A
330
1D
100
AcDbEntity
  8
0
100
AcDbLine
 10
172.0
 20
608.385
 30
0.0
 11
172.288
 21
609.0
 31
0.0
  0
LINE
  5
5B
330
1D
100
AcDbEntity
  8
0
100
AcDbLine
 10
172.0
 20
570.615
 30
0.0
 11
172.288
 21
570.0
 31
0.0
  0
LINE
  5
5C
330
1D
100
AcDbEntity
  8
0
100
AcDbLine
 10
172.0
 20
570.615
 30
0.0
 11
172.0
 21
608.385
 31
0.0
  0
LINE
  5
5D
330
1D
100
AcDbEntity
  8
0
100
AcDbLine
 10
172.288
 20
609.0
 30
0.0
 11
172.72
 21
609.0
 31
0.0
  0
LINE
  5
5E
330
1D
100
AcDbEntity
  8
0
100
AcDbLine
 10
172.288
 20
570.0
 30
0.0
 11
172.72
 21
570.0
 31
0.0
  0
LINE
  5
5F
330
1D
100
AcDbEntity
  8
0
100
AcDbLine
 10
172.163
 20
610.0
 30
0.0
 11
173.388
 21
610.0
 31
0.0
  0
LINE
  5
60
330
1D
100
AcDbEntity
  8
0
100
AcDbLine
 10
171.755
 20
700.0
 30
0.0
 11
171.755
 21
610.0
 31
0.0
  0
LINE
  5
61
330
1D
100
AcDbEntity
  8
0
100
AcDbLine
 10
171.755
 20
610.0
 30
0.0
 11
171.755
 21
700.0
 31
0.0
  0
LINE
  5
62
330
1D
100
AcDbEntity
  8
0
100
AcDbLine
 10
171.755
 20
610.0
 30
0.0
 11
172.775
 21
609.0
 31
0.0
  0
LINE
  5
63
330
1D
100
AcDbEntity
  8
0
100
AcDbLine
 10
171.755
 20
610.0
 30
0.0
 11
172.163
 21
610.0
 31
0.0
  0
LINE
  5
64
330
1D
100
AcDbEntity
  8
0
100
AcDbLine
 10
172.606
 20
700.0
 30
0.0
 11
174.712
 21
700.0
 31
0.0
  0
LINE
  5
65
330
1D
100
AcDbEntity
  8
0
100
AcDbLine
 10
171.755
 20
702.0
 30
0.0
 11
171.755
 21
783.5
 31
0.0
  0
LINE
  5
66
330
1D
100
AcDbEntity
  8
0
100
AcDbLine
 10
171.31
 20
700.0
 30
0.0
 11
171.755
 21
700.0
 31
0.0
  0
LINE
  5
67
330
1D
100
AcDbEntity
  8
0
100
AcDbLine
 10
171.31
 20
700.0
 30
0.0
 11
172.606
 21
700.0
 31
0.0
  0
LINE
  5
68
330
1D
100
AcDbEntity
  8
0
100
AcDbLine
 10
170.824
 20
702.0
 30
0.0
 11
171.31
 21
702.0
 31
0.0
  0
LINE
  5
69
330
1D
100
AcDbEntity
  8
0
100
AcDbLine
 10
171.31
 20
702.0
 30
0.0
 11
172.606
 21
702.0
 31
0.0
  0
LINE
  5
6A
330
1D
100
AcDbEntity
  8
0
100
AcDbLine
 10
172.72
 20
609.0
 30
0.0
 11
173.872
 21
609.0
 31
0.0
  0
LINE
  5
6B
330
1D
100
AcDbEntity
  8
0
100
AcDbLine
 10
172.72
 20
570.0
 30
0.0
 11
173.872
 21
570.0
 31
0.0
  0
LINE
  5
6C
330
1D
100
AcDbEntity
  8
0
100
AcDbLine
 10
173.872
 20
570.0
 30
0.0
 11
175.0
 21
570.0
 31
0.0
  0
LINE
  5
6D
330
1D
100
AcDbEntity
  8
0
100
AcDbLine
 10
173.872
 20
570.0
 30
0.0
 11
175.744
 21
570.0
 31
0.0
  0
LINE
  5
6E
330
1D
100
AcDbEntity
  8
0
100
AcDbLine
 10
173.388
 20
610.0
 30
0.0
 11
175.327
 21
610.0
 31
0.0
  0
LINE
  5
6F
330
1D
100
AcDbEntity
  8
0
100
AcDbLine
 10
173.872
 20
609.0
 30
0.0
 11
175.744
 21
609.0
 31
0.0
  0
LINE
  5
70
330
1D
100
AcDbEntity
  8
0
100
AcDbLine
 10
173.068
 20
527.148
 30
0.0
 11
175.0
 21
560.0
 31
0.0
  0
LINE
  5
71
330
1D
100
AcDbEntity
  8
0
100
AcDbLine
 10
173.717
 20
4.7022
 30
0.0
 11
190.81
 21
10.5046
 31
0.0
  0
LINE
  5
72
330
1D
100
AcDbEntity
  8
0
100
AcDbLine
 10
175.0
 20
560.0
 30
0.0
 11
175.0
 21
570.0
 31
0.0
  0
LINE
  5
73
330
1D
100
AcDbEntity
  8
0
100
AcDbLine
 10
175.744
 20
570.0
 30
0.0
 11
178.192
 21
570.0
 31
0.0
  0
LINE
  5
74
330
1D
100
AcDbEntity
  8
0
100
AcDbLine
 10
175.0
 20
570.0
 30
0.0
 11
175.0
 21
560.0
 31
0.0
  0
LINE
  5
75
330
1D
100
AcDbEntity
  8
0
100
AcDbLine
 10
175.0
 20
570.0
 30
0.0
 11
176.188
 21
570.0
 31
0.0
  0
LINE
  5
76
330
1D
100
AcDbEntity
  8
0
100
AcDbLine
 10
175.744
 20
609.0
 30
0.0
 11
178.192
 21
609.0
 31
0.0
  0
LINE
  5
77
330
1D
100
AcDbEntity
  8
0
100
AcDbLine
 10
175.327
 20
610.0
 30
0.0
 11
177.878
 21
610.0
 31
0.0
  0
LINE
  5
78
330
1D
100
AcDbEntity
  8
0
100
AcDbLine
 10
176.188
 20
570.0
 30
0.0
 11
179.536
 21
570.0
 31
0.0
  0
LINE
  5
79
330
1D
100
AcDbEntity
  8
0
100
AcDbLine
 10
174.712
 20
700.0
 30
0.0
 11
177.466
 21
700.0
 31
0.0
  0
LINE
  5
7A
330
1D
100
AcDbEntity
  8
0
100
AcDbLine
 10
177.466
 20
700.0
 30
0.0
 11
180.598
 21
700.0
 31
0.0
  0
LINE
  5
7B
330
1D
100
AcDbEntity
  8
0
100
AcDbLine
 10
172.606
 20
702.0
 30
0.0
 11
174.712
 21
702.0
 31
0.0
  0
LINE
  5
7C
330
1D
100
AcDbEntity
  8
0
100
AcDbLine
 10
174.712
 20
702.0
 30
0.0
 11
177.466
 21
702.0
 31
0.0
  0
LINE
  5
7D
330
1D
100
AcDbEntity
  8
0
100
AcDbLine
 10
178.192
 20
609.0
 30
0.0
 11
180.976
 21
609.0
 31
0.0
  0
LINE
  5
7E
330
1D
100
AcDbEntity
  8
0
100
AcDbLine
 10
178.192
 20
570.0
 30
0.0
 11
180.976
 21
570.0
 31
0.0
  0
LINE
  5
7F
330
1D
100
AcDbEntity
  8
0
100
AcDbLine
 10
177.878
 20
610.0
 30
0.0
 11
180.837
 21
610.0
 31
0.0
  0
LINE
  5
80
330
1D
100
AcDbEntity
  8
0
100
AcDbLine
 10
180.976
 20
570.0
 30
0.0
 11
184.0
 21
570.0
 31
0.0
  0
LINE
  5
81
330
1D
100
AcDbEntity
  8
0
100
AcDbLine
 10
187.024
 20
570.0
 30
0.0
 11
189.808
 21
570.0
 31
0.0
  0
LINE
  5
82
330
1D
100
AcDbEntity
  8
0
100
AcDbLine
 10
181.265
 20
469.48
 30
0.0
 11
191.065
 21
527.435
 31
0.0
  0
LINE
  5
83
330
1D
100
AcDbEntity
  8
0
100
AcDbLine
 10
189.808
 20
570.0
 30
0.0
 11
192.256
 21
570.0
 31
0.0
  0
LINE
  5
84
330
1D
100
AcDbEntity
  8
0
100
AcDbLine
 10
188.464
 20
570.0
 30
0.0
 11
191.812
 21
570.0
 31
0.0
  0
LINE
  5
85
330
1D
100
AcDbEntity
  8
0
100
AcDbLine
 10
180.976
 20
609.0
 30
0.0
 11
184.0
 21
609.0
 31
0.0
  0
LINE
  5
86
330
1D
100
AcDbEntity
  8
0
100
AcDbLine
 10
187.024
 20
609.0
 30
0.0
 11
189.808
 21
609.0
 31
0.0
  0
LINE
  5
87
330
1D
100
AcDbEntity
  8
0
100
AcDbLine
 10
184.0
 20
609.0
 30
0.0
 11
187.024
 21
609.0
 31
0.0
  0
LINE
  5
88
330
1D
100
AcDbEntity
  8
0
100
AcDbLine
 10
184.0
 20
610.0
 30
0.0
 11
187.163
 21
610.0
 31
0.0
  0
LINE
  5
89
330
1D
100
AcDbEntity
  8
0
100
AcDbLine
 10
189.808
 20
609.0
 30
0.0
 11
192.256
 21
609.0
 31
0.0
  0
LINE
  5
8A
330
1D
100
AcDbEntity
  8
0
100
AcDbLine
 10
187.163
 20
610.0
 30
0.0
 11
190.122
 21
610.0
 31
0.0
  0
LINE
  5
90
330
1D
100
AcDbEntity
  8
0
100
AcDbLine
 10
185.0
 20
689.0
 30
0.0
 11
185.0
 21
700.0
 31
0.0
  0
LINE
  5
91
330
1D
100
AcDbEntity
  8
0
100
AcDbLine
 10
185.0
 20
688.3
 30
0.0
 11
258.0
 21
688.3
 31
0.0
  0
LINE
  5
95
330
1D
100
AcDbEntity
  8
0
100
AcDbLine
 10
184.0
 20
689.0
 30
0.0
 11
184.035460992908
 21
688.917257683215
 31
0.0
  0
LINE
  5
97
330
1D
100
AcDbEntity
  8
0
100
AcDbLine
 10
185.0
 20
699.7
 30
0.0
 11
258.0
 21
699.7
 31
0.0
  0
LINE
  5
9B
330
1D
100
AcDbEntity
  8
0
100
AcDbLine
 10
185.0
 20
700.0
 30
0.0
 11
185.0
 21
694.0
 31
0.0
  0
LINE
  5
9E
330
1D
100
AcDbEntity
  8
0
100
AcDbLine
 10
185.0
 20
694.0
 30
0.0
 11
185.0
 21
651.0
 31
0.0
  0
LINE
  5
A3
330
1D
100
AcDbEntity
  8
0
100
AcDbLine
 10
185.0
 20
651.0
 30
0.0
 11
185.0
 21
689.0
 31
0.0
  0
LINE
  5
A4
330
1D
100
AcDbEntity
  8
0
100
AcDbLine
 10
190.122
 20
610.0
 30
0.0
 11
192.673
 21
610.0
 31
0.0
  0
LINE
  5
A5
330
1D
100
AcDbEntity
  8
0
100
AcDbLine
 10
180.837
 20
610.0
 30
0.0
 11
184.0
 21
610.0
 31
0.0
  0
LINE
  5
A6
330
1D
100
AcDbEntity
  8
0
100
AcDbLine
 10
184.0
 20
570.0
 30
0.0
 11
188.464
 21
570.0
 31
0.0
  0
LINE
  5
A7
330
1D
100
AcDbEntity
  8
0
100
AcDbLine
 10
184.0
 20
570.0
 30
0.0
 11
187.024
 21
570.0
 31
0.0
  0
LINE
  5
A8
330
1D
100
AcDbEntity
  8
0
100
AcDbLine
 10
179.536
 20
570.0
 30
0.0
 11
184.0
 21
570.0
 31
0.0
  0
LINE
  5
A9
330
1D
100
AcDbEntity
  8
0
100
AcDbLine
 10
183.922
 20
27.13446
 30
0.0
 11
198.0
 21
34.07695
 31
0.0
  0
LINE
  5
AA
330
1D
100
AcDbEntity
  8
0
100
AcDbLine
 10
191.065
 20
527.435
 30
0.0
 11
193.0
 21
560.0
 31
0.0
  0
LINE
  5
AB
330
1D
100
AcDbEntity
  8
0
100
AcDbLine
 10
192.256
 20
570.0
 30
0.0
 11
194.128
 21
570.0
 31
0.0
  0
LINE
  5
AC
330
1D
100
AcDbEntity
  8
0
100
AcDbLine
 10
195.712
 20
570.0
 30
0.0
 11
196.0
 21
570.615
 31
0.0
  0
LINE
  5
AD
330
1D
100
AcDbEntity
  8
0
100
AcDbLine
 10
195.28
 20
570.0
 30
0.0
 11
195.712
 21
570.0
 31
0.0
  0
LINE
  5
AE
330
1D
100
AcDbEntity
  8
0
100
AcDbLine
 10
194.128
 20
570.0
 30
0.0
 11
195.28
 21
570.0
 31
0.0
  0
LINE
  5
AF
330
1D
100
AcDbEntity
  8
0
100
AcDbLine
 10
192.256
 20
609.0
 30
0.0
 11
194.128
 21
609.0
 31
0.0
  0
LINE
  5
B0
330
1D
100
AcDbEntity
  8
0
100
AcDbLine
 10
194.128
 20
609.0
 30
0.0
 11
195.28
 21
609.0
 31
0.0
  0
LINE
  5
B1
330
1D
100
AcDbEntity
  8
0
100
AcDbLine
 10
196.0
 20
570.615
 30
0.0
 11
196.0
 21
608.385
 31
0.0
  0
LINE
  5
B2
330
1D
100
AcDbEntity
  8
0
100
AcDbLine
 10
196.0
 20
608.385
 30
0.0
 11
196.0
 21
570.615
 31
0.0
  0
LINE
  5
B3
330
1D
100
AcDbEntity
  8
0
100
AcDbLine
 10
195.28
 20
609.0
 30
0.0
 11
195.712
 21
609.0
 31
0.0
  0
LINE
  5
B4
330
1D
100
AcDbEntity
  8
0
100
AcDbLine
 10
195.712
 20
609.0
 30
0.0
 11
196.0
 21
608.385
 31
0.0
  0
LINE
  5
B5
330
1D
100
AcDbEntity
  8
0
100
AcDbLine
 10
195.224
 20
609.0
 30
0.0
 11
196.245
 21
610.0
 31
0.0
  0
LINE
  5
B6
330
1D
100
AcDbEntity
  8
0
100
AcDbLine
 10
195.837
 20
610.0
 30
0.0
 11
196.245
 21
610.0
 31
0.0
  0
LINE
  5
B7
330
1D
100
AcDbEntity
  8
0
100
AcDbLine
 10
196.245
 20
610.0
 30
0.0
 11
196.245
 21
650.0
 31
0.0
  0
LINE
  5
B8
330
1D
100
AcDbEntity
  8
0
100
AcDbLine
 10
196.245
 20
650.0
 30
0.0
 11
196.245
 21
610.0
 31
0.0
  0
LINE
  5
B9
330
1D
100
AcDbEntity
  8
0
100
AcDbLine
 10
196.245
 20
650.0
 30
0.0
 11
198.8
 21
650.0
 31
0.0
  0
LINE
  5
BA
330
1D
100
AcDbEntity
  8
0
100
AcDbLine
 10
194.612
 20
610.0
 30
0.0
 11
195.837
 21
610.0
 31
0.0
  0
LINE
  5
BB
330
1D
100
AcDbEntity
  8
0
100
AcDbLine
 10
192.673
 20
610.0
 30
0.0
 11
194.612
 21
610.0
 31
0.0
  0
LINE
  5
BC
330
1D
100
AcDbEntity
  8
0
100
AcDbLine
 10
193.0
 20
570.0
 30
0.0
 11
193.0
 21
560.0
 31
0.0
  0
LINE
  5
BD
330
1D
100
AcDbEntity
  8
0
100
AcDbLine
 10
193.0
 20
570.0
 30
0.0
 11
194.128
 21
570.0
 31
0.0
  0
LINE
  5
BE
330
1D
100
AcDbEntity
  8
0
100
AcDbLine
 10
191.812
 20
570.0
 30
0.0
 11
193.0
 21
570.0
 31
0.0
  0
LINE
  5
BF
330
1D
100
AcDbEntity
  8
0
100
AcDbLine
 10
193.0
 20
560.0
 30
0.0
 11
193.0
 21
570.0
 31
0.0
  0
LINE
  5
C0
330
1D
100
AcDbEntity
  8
0
100
AcDbLine
 10
190.81
 20
10.5046
 30
0.0
 11
207.0
 21
18.4885
 31
0.0
  0
LINE
  5
C1
330
1D
100
AcDbEntity
  8
0
100
AcDbLine
 10
184.0
 20
700.0
 30
0.0
 11
185.0
 21
700.0
 31
0.0
  0
LINE
  5
C2
330
1D
100
AcDbEntity
  8
0
100
AcDbLine
 10
198.0
 20
34.07695
 30
0.0
 11
211.051
 21
42.7976
 31
0.0
  0
LINE
  5
C3
330
1D
100
AcDbEntity
  8
0
100
AcDbLine
 10
207.0
 20
18.4885
 30
0.0
 11
222.009
 21
28.51724
 31
0.0
  0
LINE
  5
C4
330
1D
100
AcDbEntity
  8
0
100
AcDbLine
 10
222.009
 20
28.51724
 30
0.0
 11
235.581
 21
40.4193
 31
0.0
  0
LINE
  5
C5
330
1D
100
AcDbEntity
  8
0
100
AcDbLine
 10
204.13
 20
650.0
 30
0.0
 11
205.0
 21
650.0
 31
0.0
  0
LINE
  5
C6
330
1D
100
AcDbEntity
  8
0
100
AcDbLine
 10
201.77
 20
650.0
 30
0.0
 11
204.13
 21
650.0
 31
0.0
  0
LINE
  5
C7
330
1D
100
AcDbEntity
  8
0
100
AcDbLine
 10
198.8
 20
650.0
 30
0.0
 11
201.77
 21
650.0
 31
0.0
  0
LINE
  5
C8
330
1D
100
AcDbEntity
  8
0
100
AcDbLine
 10
205.7
 20
650.3
 30
0.0
 11
206.0
 21
651.0
 31
0.0
  0
LINE
  5
C9
330
1D
100
AcDbEntity
  8
0
100
AcDbLine
 10
205.0
 20
650.0
 30
0.0
 11
205.7
 21
650.3
 31
0.0
  0
LINE
  5
CB
330
1D
100
AcDbEntity
  8
0
100
AcDbLine
 10
206.0
 20
688.0
 30
0.0
 11
206.0
 21
651.0
 31
0.0
  0
LINE
  5
CC
330
1D
100
AcDbEntity
  8
0
100
AcDbLine
 10
206.0
 20
688.0
 30
0.0
 11
254.288
 21
688.0
 31
0.0
  0
LINE
  5
CD
330
1D
100
AcDbEntity
  8
0
100
AcDbLine
 10
206.0
 20
651.0
 30
0.0
 11
206.0
 21
688.0
 31
0.0
  0
LINE
  5
CE
330
1D
100
AcDbEntity
  8
0
100
AcDbLine
 10
211.051
 20
42.7976
 30
0.0
 11
222.853
 21
53.1472
 31
0.0
  0
LINE
  5
CF
330
1D
100
AcDbEntity
  8
0
100
AcDbLine
 10
241.923
 20
78.0
 30
0.0
 11
248.866
 21
92.078
 31
0.0
  0
LINE
  5
D0
330
1D
100
AcDbEntity
  8
0
100
AcDbLine
 10
233.202
 20
64.9486
 30
0.0
 11
241.923
 21
78.0
 31
0.0
  0
LINE
  5
D1
330
1D
100
AcDbEntity
  8
0
100
AcDbLine
 10
257.512
 20
69.0
 30
0.0
 11
265.495
 21
85.1897
 31
0.0
  0
LINE
  5
D2
330
1D
100
AcDbEntity
  8
0
100
AcDbLine
 10
247.483
 20
53.9909
 30
0.0
 11
257.512
 21
69.0
 31
0.0
  0
LINE
  5
D3
330
1D
100
AcDbEntity
  8
0
100
AcDbLine
 10
253.911
 20
106.9417
 30
0.0
 11
256.973
 21
122.3369
 31
0.0
  0
LINE
  5
D4
330
1D
100
AcDbEntity
  8
0
100
AcDbLine
 10
248.866
 20
92.078
 30
0.0
 11
253.911
 21
106.9417
 31
0.0
  0
LINE
  5
D5
330
1D
100
AcDbEntity
  8
0
100
AcDbLine
 10
271.298
 20
102.283
 30
0.0
 11
274.819
 21
119.9874
 31
0.0
  0
LINE
  5
D6
330
1D
100
AcDbEntity
  8
0
100
AcDbLine
 10
265.495
 20
85.1897
 30
0.0
 11
271.298
 21
102.283
 31
0.0
  0
LINE
  5
D7
330
1D
100
AcDbEntity
  8
0
100
AcDbLine
 10
254.288
 20
649.0
 30
0.0
 11
254.72
 21
649.0
 31
0.0
  0
LINE
  5
D8
330
1D
100
AcDbEntity
  8
0
100
AcDbLine
 10
254.72
 20
649.0
 30
0.0
 11
255.872
 21
649.0
 31
0.0
  0
LINE
  5
D9
330
1D
100
AcDbEntity
  8
0
100
AcDbLine
 10
254.0
 20
687.385
 30
0.0
 11
254.0
 21
649.615
 31
0.0
  0
LINE
  5
DA
330
1D
100
AcDbEntity
  8
0
100
AcDbLine
 10
254.0
 20
687.385
 30
0.0
 11
254.288
 21
688.0
 31
0.0
  0
LINE
  5
DB
330
1D
100
AcDbEntity
  8
0
100
AcDbLine
 10
254.288
 20
688.0
 30
0.0
 11
254.72
 21
688.0
 31
0.0
  0
LINE
  5
DC
330
1D
100
AcDbEntity
  8
0
100
AcDbLine
 10
254.72
 20
688.0
 30
0.0
 11
255.872
 21
688.0
 31
0.0
  0
LINE
  5
DD
330
1D
100
AcDbEntity
  8
0
100
AcDbLine
 10
255.872
 20
688.0
 30
0.0
 11
257.744
 21
688.0
 31
0.0
  0
LINE
  5
DE
330
1D
100
AcDbEntity
  8
0
100
AcDbLine
 10
254.0
 20
649.615
 30
0.0
 11
254.288
 21
649.0
 31
0.0
  0
LINE
  5
DF
330
1D
100
AcDbEntity
  8
0
100
AcDbLine
 10
254.0
 20
649.615
 30
0.0
 11
254.0
 21
687.385
 31
0.0
  0
LINE
  5
E0
330
1D
100
AcDbEntity
  8
0
100
AcDbLine
 10
255.872
 20
649.0
 30
0.0
 11
257.744
 21
649.0
 31
0.0
  0
LINE
  5
E1
330
1D
100
AcDbEntity
  8
0
100
AcDbLine
 10
257.744
 20
649.0
 30
0.0
 11
258.0
 21
649.0
 31
0.0
  0
LINE
  5
E2
330
1D
100
AcDbEntity
  8
0
100
AcDbLine
 10
257.744
 20
649.0
 30
0.0
 11
260.192
 21
649.0
 31
0.0
  0
LINE
  5
E3
330
1D
100
AcDbEntity
  8
0
100
AcDbLine
 10
258.0
 20
138.0
 30
0.0
 11
258.0
 21
649.0
 31
0.0
  0
LINE
  5
E4
330
1D
100
AcDbEntity
  8
0
100
AcDbLine
 10
258.0
 20
649.0
 30
0.0
 11
259.188
 21
649.0
 31
0.0
  0
LINE
  5
E5
330
1D
100
AcDbEntity
  8
0
100
AcDbLine
 10
258.0
 20
138.0
 30
0.0
 11
258.0
 21
649.0
 31
0.0
  0
LINE
  5
E6
330
1D
100
AcDbEntity
  8
0
100
AcDbLine
 10
260.192
 20
649.0
 30
0.0
 11
262.976
 21
649.0
 31
0.0
  0
LINE
  5
E7
330
1D
100
AcDbEntity
  8
0
100
AcDbLine
 10
262.976
 20
649.0
 30
0.0
 11
266.0
 21
649.0
 31
0.0
  0
LINE
  5
E8
330
1D
100
AcDbEntity
  8
0
100
AcDbLine
 10
269.024
 20
649.0
 30
0.0
 11
271.808
 21
649.0
 31
0.0
  0
LINE
  5
E9
330
1D
100
AcDbEntity
  8
0
100
AcDbLine
 10
266.0
 20
649.0
 30
0.0
 11
269.024
 21
649.0
 31
0.0
  0
LINE
  5
EA
330
1D
100
AcDbEntity
  8
0
100
AcDbLine
 10
259.188
 20
649.0
 30
0.0
 11
262.536
 21
649.0
 31
0.0
  0
LINE
  5
EB
330
1D
100
AcDbEntity
  8
0
100
AcDbLine
 10
262.536
 20
649.0
 30
0.0
 11
267.0
 21
649.0
 31
0.0
  0
LINE
  5
EC
330
1D
100
AcDbEntity
  8
0
100
AcDbLine
 10
276.0
 20
138.0
 30
0.0
 11
276.0
 21
649.0
 31
0.0
  0
LINE
  5
ED
330
1D
100
AcDbEntity
  8
0
100
AcDbLine
 10
274.256
 20
649.0
 30
0.0
 11
276.128
 21
649.0
 31
0.0
  0
LINE
  5
EE
330
1D
100
AcDbEntity
  8
0
100
AcDbLine
 10
271.808
 20
649.0
 30
0.0
 11
274.256
 21
649.0
 31
0.0
  0
LINE
  5
EF
330
1D
100
AcDbEntity
  8
0
100
AcDbLine
 10
277.712
 20
649.0
 30
0.0
 11
278.0
 21
649.615
 31
0.0
  0
LINE
  5
F0
330
1D
100
AcDbEntity
  8
0
100
AcDbLine
 10
277.28
 20
649.0
 30
0.0
 11
277.712
 21
649.0
 31
0.0
  0
LINE
  5
F1
330
1D
100
AcDbEntity
  8
0
100
AcDbLine
 10
276.128
 20
649.0
 30
0.0
 11
277.28
 21
649.0
 31
0.0
  0
LINE
  5
F2
330
1D
100
AcDbEntity
  8
0
100
AcDbLine
 10
276.0
 20
649.0
 30
0.0
 11
276.128
 21
649.0
 31
0.0
  0
LINE
  5
F3
330
1D
100
AcDbEntity
  8
0
100
AcDbLine
 10
274.812
 20
649.0
 30
0.0
 11
276.0
 21
649.0
 31
0.0
  0
LINE
  5
F4
330
1D
100
AcDbEntity
  8
0
100
AcDbLine
 10
276.0
 20
138.0
 30
0.0
 11
276.0
 21
649.0
 31
0.0
  0
LINE
  5
F5
330
1D
100
AcDbEntity
  8
0
100
AcDbLine
 10
271.464
 20
649.0
 30
0.0
 11
274.812
 21
649.0
 31
0.0
  0
LINE
  5
F6
330
1D
100
AcDbEntity
  8
0
100
AcDbLine
 10
260.0
 20
688.0
 30
0.0
 11
279.0
 21
688.0
 31
0.0
  0
LINE
  5
F7
330
1D
100
AcDbEntity
  8
0
100
AcDbLine
 10
257.744
 20
688.0
 30
0.0
 11
260.192
 21
688.0
 31
0.0
  0
LINE
  5
F8
330
1D
100
AcDbEntity
  8
0
100
AcDbLine
 10
260.192
 20
688.0
 30
0.0
 11
262.976
 21
688.0
 31
0.0
  0
LINE
  5
F9
330
1D
100
AcDbEntity
  8
0
100
AcDbLine
 10
262.976
 20
688.0
 30
0.0
 11
266.0
 21
688.0
 31
0.0
  0
LINE
  5
FA
330
1D
100
AcDbEntity
  8
0
100
AcDbLine
 10
277.28
 20
688.0
 30
0.0
 11
277.712
 21
688.0
 31
0.0
  0
LINE
  5
FB
330
1D
100
AcDbEntity
  8
0
100
AcDbLine
 10
276.128
 20
688.0
 30
0.0
 11
277.28
 21
688.0
 31
0.0
  0
LINE
  5
FC
330
1D
100
AcDbEntity
  8
0
100
AcDbLine
 10
274.256
 20
688.0
 30
0.0
 11
276.128
 21
688.0
 31
0.0
  0
LINE
  5
FD
330
1D
100
AcDbEntity
  8
0
100
AcDbLine
 10
271.808
 20
688.0
 30
0.0
 11
274.256
 21
688.0
 31
0.0
  0
LINE
  5
FE
330
1D
100
AcDbEntity
  8
0
100
AcDbLine
 10
269.024
 20
688.0
 30
0.0
 11
271.808
 21
688.0
 31
0.0
  0
LINE
  5
FF
330
1D
100
AcDbEntity
  8
0
100
AcDbLine
 10
258.0
 20
699.7
 30
0.0
 11
258.5
 21
699.7
 31
0.0
  0
LINE
  5
101
330
1D
100
AcDbEntity
  8
0
100
AcDbLine
 10
258.5
 20
699.7
 30
0.0
 11
258.7
 21
699.7
 31
0.0
  0
LINE
  5
102
330
1D
100
AcDbEntity
  8
0
100
AcDbLine
 10
258.0
 20
688.3
 30
0.0
 11
258.5
 21
688.3
 31
0.0
  0
LINE
  5
103
330
1D
100
AcDbEntity
  8
0
100
AcDbLine
 10
259.3
 20
688.3
 30
0.0
 11
260.0
 21
688.0
 31
0.0
  0
LINE
  5
106
330
1D
100
AcDbEntity
  8
0
100
AcDbLine
 10
259.0
 20
689.0
 30
0.0
 11
259.3
 21
688.3
 31
0.0
  0
LINE
  5
107
330
1D
100
AcDbEntity
  8
0
100
AcDbLine
 10
259.0
 20
689.0
 30
0.0
 11
259.0
 21
807.0
 31
0.0
  0
LINE
  5
110
330
1D
100
AcDbEntity
  8
0
100
AcDbLine
 10
258.5
 20
688.3
 30
0.0
 11
259.3
 21
688.3
 31
0.0
  0
LINE
  5
112
330
1D
100
AcDbEntity
  8
0
100
AcDbLine
 10
266.0
 20
688.0
 30
0.0
 11
269.024
 21
688.0
 31
0.0
  0
LINE
  5
113
330
1D
100
AcDbEntity
  8
0
100
AcDbLine
 10
278.0
 20
649.615
 30
0.0
 11
278.0
 21
687.385
 31
0.0
  0
LINE
  5
116
330
1D
100
AcDbEntity
  8
0
100
AcDbLine
 10
279.7
 20
688.3
 30
0.0
 11
280.0
 21
689.0
 31
0.0
  0
LINE
  5
11B
330
1D
100
AcDbEntity
  8
0
100
AcDbLine
 10
279.0
 20
688.0
 30
0.0
 11
279.7
 21
688.3
 31
0.0
  0
LINE
  5
11C
330
1D
100
AcDbEntity
  8
0
100
AcDbLine
 10
278.0
 20
687.385
 30
0.0
 11
278.0
 21
649.615
 31
0.0
  0
LINE
  5
11D
330
1D
100
AcDbEntity
  8
0
100
AcDbLine
 10
277.712
 20
688.0
 30
0.0
 11
278.0
 21
687.385
 31
0.0
  0
LINE
  5
11E
330
1D
100
AcDbEntity
  8
0
100
AcDbLine
 10
267.0
 20
649.0
 30
0.0
 11
271.464
 21
649.0
 31
0.0
  0
LINE
  5
11F
330
1D
100
AcDbEntity
  8
0
100
AcDbLine
 10
256.973
 20
122.3369
 30
0.0
 11
258.0
 21
138.0
 31
0.0
  0
LINE
  5
120
330
1D
100
AcDbEntity
  8
0
100
AcDbLine
 10
274.819
 20
119.9874
 30
0.0
 11
276.0
 21
138.0
 31
0.0
  0
LINE
  5
121
330
1D
100
AcDbEntity
  8
0
100
AcDbLine
 10
222.853
 20
53.1472
 30
0.0
 11
233.202
 21
64.9486
 31
0.0
  0
LINE
  5
122
330
1D
100
AcDbEntity
  8
0
100
AcDbLine
 10
235.581
 20
40.4193
 30
0.0
 11
247.483
 21
53.9909
 31
0.0
  0
LINE
  5
123
330
1D
100
AcDbEntity
  8
0
100
AcDbLine
 10
197.176
 20
700.0
 30
0.0
 11
197.5
 21
700.556
 31
0.0
  0
LINE
  5
124
330
1D
100
AcDbEntity
  8
0
100
AcDbLine
 10
196.245
 20
702.0
 30
0.0
 11
196.245
 21
712.0
 31
0.0
  0
LINE
  5
125
330
1D
100
AcDbEntity
  8
0
100
AcDbLine
 10
196.69
 20
702.0
 30
0.0
 11
197.176
 21
702.0
 31
0.0
  0
LINE
  5
126
330
1D
100
AcDbEntity
  8
0
100
AcDbLine
 10
195.394
 20
702.0
 30
0.0
 11
196.69
 21
702.0
 31
0.0
  0
LINE
  5
127
330
1D
100
AcDbEntity
  8
0
100
AcDbLine
 10
193.288
 20
702.0
 30
0.0
 11
195.394
 21
702.0
 31
0.0
  0
LINE
  5
128
330
1D
100
AcDbEntity
  8
0
100
AcDbLine
 10
190.534
 20
702.0
 30
0.0
 11
193.288
 21
702.0
 31
0.0
  0
LINE
  5
129
330
1D
100
AcDbEntity
  8
0
100
AcDbLine
 10
187.402
 20
702.0
 30
0.0
 11
190.534
 21
702.0
 31
0.0
  0
LINE
  5
12A
330
1D
100
AcDbEntity
  8
0
100
AcDbLine
 10
184.0
 20
702.0
 30
0.0
 11
187.402
 21
702.0
 31
0.0
  0
LINE
  5
12B
330
1D
100
AcDbEntity
  8
0
100
AcDbLine
 10
197.176
 20
702.0
 30
0.0
 11
197.5
 21
701.444
 31
0.0
  0
LINE
  5
12C
330
1D
100
AcDbEntity
  8
0
100
AcDbLine
 10
197.5
 20
700.556
 30
0.0
 11
197.5
 21
701.444
 31
0.0
  0
LINE
  5
12D
330
1D
100
AcDbEntity
  8
0
100
AcDbLine
 10
197.5
 20
701.444
 30
0.0
 11
197.5
 21
700.556
 31
0.0
  0
LINE
  5
12E
330
1D
100
AcDbEntity
  8
0
100
AcDbLine
 10
180.598
 20
700.0
 30
0.0
 11
184.0
 21
700.0
 31
0.0
  0
LINE
  5
12F
330
1D
100
AcDbEntity
  8
0
100
AcDbLine
 10
177.466
 20
702.0
 30
0.0
 11
180.598
 21
702.0
 31
0.0
  0
LINE
  5
130
330
1D
100
AcDbEntity
  8
0
100
AcDbLine
 10
192.673
 20
712.0
 30
0.0
 11
192.979
 21
712.0
 31
0.0
  0
LINE
  5
132
330
1D
100
AcDbEntity
  8
0
100
AcDbLine
 10
192.682
 20
712.5
 30
0.0
 11
192.682
 21
713.5
 31
0.0
  0
LINE
  5
133
330
1D
100
AcDbEntity
  8
0
100
AcDbLine
 10
192.682
 20
712.5
 30
0.0
 11
192.979
 21
712.0
 31
0.0
  0
LINE
  5
135
330
1D
100
AcDbEntity
  8
0
100
AcDbLine
 10
196.07686167147
 20
712.0
 30
0.0
 11
196.755
 21
712.0
 31
0.0
  0
LINE
  5
136
330
1D
100
AcDbEntity
  8
0
100
AcDbLine
 10
195.935
 20
712.0
 30
0.0
 11
196.091
 21
712.5
 31
0.0
  0
LINE
  5
137
330
1D
100
AcDbEntity
  8
0
100
AcDbLine
 10
195.332172910663
 20
712.0
 30
0.0
 11
195.935
 21
712.0
 31
0.0
  0
LINE
  5
138
330
1D
100
AcDbEntity
  8
0
100
AcDbLine
 10
195.622
 20
712.0
 30
0.0
 11
195.935
 21
712.0
 31
0.0
  0
LINE
  5
13A
330
1D
100
AcDbEntity
  8
0
100
AcDbLine
 10
193.571
 20
712.0
 30
0.0
 11
193.868
 21
712.5
 31
0.0
  0
LINE
  5
13B
330
1D
100
AcDbEntity
  8
0
100
AcDbLine
 10
192.946
 20
712.0
 30
0.0
 11
193.571
 21
712.0
 31
0.0
  0
LINE
  5
13C
330
1D
100
AcDbEntity
  8
0
100
AcDbLine
 10
195.466
 20
712.5
 30
0.0
 11
195.466
 21
713.5
 31
0.0
  0
LINE
  5
13D
330
1D
100
AcDbEntity
  8
0
100
AcDbLine
 10
195.466
 20
712.5
 30
0.0
 11
195.622
 21
712.0
 31
0.0
  0
LINE
  5
140
330
1D
100
AcDbEntity
  8
0
100
AcDbLine
 10
196.091
 20
712.5
 30
0.0
 11
196.091
 21
713.5
 31
0.0
  0
LINE
  5
142
330
1D
100
AcDbEntity
  8
0
100
AcDbLine
 10
195.466
 20
713.5
 30
0.0
 11
195.622
 21
714.0
 31
0.0
  0
LINE
  5
143
330
1D
100
AcDbEntity
  8
0
100
AcDbLine
 10
195.466
 20
713.5
 30
0.0
 11
195.466
 21
712.5
 31
0.0
  0
LINE
  5
144
330
1D
100
AcDbEntity
  8
0
100
AcDbLine
 10
196.091
 20
713.5
 30
0.0
 11
196.091
 21
712.5
 31
0.0
  0
LINE
  5
146
330
1D
100
AcDbEntity
  8
0
100
AcDbLine
 10
193.868
 20
712.5
 30
0.0
 11
193.868
 21
713.5
 31
0.0
  0
LINE
  5
147
330
1D
100
AcDbEntity
  8
0
100
AcDbLine
 10
192.979
 20
712.0
 30
0.0
 11
193.571
 21
712.0
 31
0.0
  0
LINE
  5
148
330
1D
100
AcDbEntity
  8
0
100
AcDbLine
 10
192.682
 20
713.5
 30
0.0
 11
192.979
 21
714.0
 31
0.0
  0
LINE
  5
149
330
1D
100
AcDbEntity
  8
0
100
AcDbLine
 10
192.682
 20
713.5
 30
0.0
 11
192.682
 21
712.5
 31
0.0
  0
LINE
  5
14A
330
1D
100
AcDbEntity
  8
0
100
AcDbLine
 10
192.673
 20
714.0
 30
0.0
 11
192.979
 21
714.0
 31
0.0
  0
LINE
  5
14B
330
1D
100
AcDbEntity
  8
0
100
AcDbLine
 10
192.979
 20
714.0
 30
0.0
 11
193.571
 21
714.0
 31
0.0
  0
LINE
  5
14D
330
1D
100
AcDbEntity
  8
0
100
AcDbLine
 10
196.081564841499
 20
714.0
 30
0.0
 11
196.755
 21
714.0
 31
0.0
  0
LINE
  5
14E
330
1D
100
AcDbEntity
  8
0
100
AcDbLine
 10
195.622
 20
714.0
 30
0.0
 11
195.935
 21
714.0
 31
0.0
  0
LINE
  5
14F
330
1D
100
AcDbEntity
  8
0
100
AcDbLine
 10
195.935
 20
714.0
 30
0.0
 11
196.091
 21
713.5
 31
0.0
  0
LINE
  5
150
330
1D
100
AcDbEntity
  8
0
100
AcDbLine
 10
193.571
 20
714.0
 30
0.0
 11
193.868
 21
713.5
 31
0.0
  0
LINE
  5
151
330
1D
100
AcDbEntity
  8
0
100
AcDbLine
 10
193.868
 20
713.5
 30
0.0
 11
193.868
 21
712.5
 31
0.0
  0
LINE
  5
152
330
1D
100
AcDbEntity
  8
0
100
AcDbLine
 10
196.245
 20
712.0
 30
0.0
 11
196.245
 21
702.0
 31
0.0
  0
LINE
  5
153
330
1D
100
AcDbEntity
  8
0
100
AcDbLine
 10
196.245
 20
712.0
 30
0.0
 11
196.755
 21
712.0
 31
0.0
  0
LINE
  5
154
330
1D
100
AcDbEntity
  8
0
100
AcDbLine
 10
192.946
 20
718.8
 30
0.0
 11
193.571
 21
718.8
 31
0.0
  0
LINE
  5
155
330
1D
100
AcDbEntity
  8
0
100
AcDbLine
 10
192.979
 20
718.8
 30
0.0
 11
193.571
 21
718.8
 31
0.0
  0
LINE
  5
157
330
1D
100
AcDbEntity
  8
0
100
AcDbLine
 10
195.622
 20
718.8
 30
0.0
 11
195.935
 21
718.8
 31
0.0
  0
LINE
  5
158
330
1D
100
AcDbEntity
  8
0
100
AcDbLine
 10
195.38018443804
 20
718.8
 30
0.0
 11
195.935
 21
718.8
 31
0.0
  0
LINE
  5
159
330
1D
100
AcDbEntity
  8
0
100
AcDbLine
 10
196.092852449568
 20
718.8
 30
0.0
 11
196.755
 21
718.8
 31
0.0
  0
LINE
  5
15A
330
1D
100
AcDbEntity
  8
0
100
AcDbLine
 10
195.935
 20
718.8
 30
0.0
 11
196.091
 21
719.3
 31
0.0
  0
LINE
  5
15B
330
1D
100
AcDbEntity
  8
0
100
AcDbLine
 10
193.571
 20
718.8
 30
0.0
 11
193.868
 21
719.3
 31
0.0
  0
LINE
  5
15C
330
1D
100
AcDbEntity
  8
0
100
AcDbLine
 10
192.673
 20
718.8
 30
0.0
 11
192.979
 21
718.8
 31
0.0
  0
LINE
  5
160
330
1D
100
AcDbEntity
  8
0
100
AcDbLine
 10
192.673
 20
720.8
 30
0.0
 11
192.979
 21
720.8
 31
0.0
  0
LINE
  5
161
330
1D
100
AcDbEntity
  8
0
100
AcDbLine
 10
192.682
 20
719.3
 30
0.0
 11
192.979
 21
718.8
 31
0.0
  0
LINE
  5
162
330
1D
100
AcDbEntity
  8
0
100
AcDbLine
 10
192.682
 20
719.3
 30
0.0
 11
192.682
 21
720.3
 31
0.0
  0
LINE
  5
163
330
1D
100
AcDbEntity
  8
0
100
AcDbLine
 10
192.682
 20
720.3
 30
0.0
 11
192.682
 21
719.3
 31
0.0
  0
LINE
  5
164
330
1D
100
AcDbEntity
  8
0
100
AcDbLine
 10
192.682
 20
720.3
 30
0.0
 11
192.979
 21
720.8
 31
0.0
  0
LINE
  5
165
330
1D
100
AcDbEntity
  8
0
100
AcDbLine
 10
192.673
 20
725.6
 30
0.0
 11
192.979
 21
725.6
 31
0.0
  0
LINE
  5
166
330
1D
100
AcDbEntity
  8
0
100
AcDbLine
 10
192.979
 20
720.8
 30
0.0
 11
193.571
 21
720.8
 31
0.0
  0
LINE
  5
167
330
1D
100
AcDbEntity
  8
0
100
AcDbLine
 10
192.946
 20
725.6
 30
0.0
 11
193.571
 21
725.6
 31
0.0
  0
LINE
  5
168
330
1D
100
AcDbEntity
  8
0
100
AcDbLine
 10
193.868
 20
719.3
 30
0.0
 11
193.868
 21
720.3
 31
0.0
  0
LINE
  5
169
330
1D
100
AcDbEntity
  8
0
100
AcDbLine
 10
193.868
 20
720.3
 30
0.0
 11
193.868
 21
719.3
 31
0.0
  0
LINE
  5
16A
330
1D
100
AcDbEntity
  8
0
100
AcDbLine
 10
193.571
 20
720.8
 30
0.0
 11
193.868
 21
720.3
 31
0.0
  0
LINE
  5
16B
330
1D
100
AcDbEntity
  8
0
100
AcDbLine
 10
192.979
 20
725.6
 30
0.0
 11
193.571
 21
725.6
 31
0.0
  0
LINE
  5
16C
330
1D
100
AcDbEntity
  8
0
100
AcDbLine
 10
193.571
 20
725.6
 30
0.0
 11
193.868
 21
726.1
 31
0.0
  0
LINE
  5
16F
330
1D
100
AcDbEntity
  8
0
100
AcDbLine
 10
193.868
 20
726.1
 30
0.0
 11
193.868
 21
727.1
 31
0.0
  0
LINE
  5
170
330
1D
100
AcDbEntity
  8
0
100
AcDbLine
 10
193.868
 20
727.1
 30
0.0
 11
193.868
 21
726.1
 31
0.0
  0
LINE
  5
172
330
1D
100
AcDbEntity
  8
0
100
AcDbLine
 10
195.466
 20
719.3
 30
0.0
 11
195.466
 21
720.3
 31
0.0
  0
LINE
  5
173
330
1D
100
AcDbEntity
  8
0
100
AcDbLine
 10
195.466
 20
719.3
 30
0.0
 11
195.622
 21
718.8
 31
0.0
  0
LINE
  5
174
330
1D
100
AcDbEntity
  8
0
100
AcDbLine
 10
195.622
 20
720.8
 30
0.0
 11
195.935
 21
720.8
 31
0.0
  0
LINE
  5
175
330
1D
100
AcDbEntity
  8
0
100
AcDbLine
 10
195.466
 20
720.3
 30
0.0
 11
195.466
 21
719.3
 31
0.0
  0
LINE
  5
176
330
1D
100
AcDbEntity
  8
0
100
AcDbLine
 10
195.466
 20
720.3
 30
0.0
 11
195.622
 21
720.8
 31
0.0
  0
LINE
  5
178
330
1D
100
AcDbEntity
  8
0
100
AcDbLine
 10
195.935
 20
720.8
 30
0.0
 11
196.091
 21
720.3
 31
0.0
  0
LINE
  5
179
330
1D
100
AcDbEntity
  8
0
100
AcDbLine
 10
195.622
 20
725.6
 30
0.0
 11
195.935
 21
725.6
 31
0.0
  0
LINE
  5
17A
330
1D
100
AcDbEntity
  8
0
100
AcDbLine
 10
195.466
 20
726.1
 30
0.0
 11
195.466
 21
727.1
 31
0.0
  0
LINE
  5
17B
330
1D
100
AcDbEntity
  8
0
100
AcDbLine
 10
195.466
 20
726.1
 30
0.0
 11
195.622
 21
725.6
 31
0.0
  0
LINE
  5
17C
330
1D
100
AcDbEntity
  8
0
100
AcDbLine
 10
195.428195965418
 20
725.6
 30
0.0
 11
195.935
 21
725.6
 31
0.0
  0
LINE
  5
17D
330
1D
100
AcDbEntity
  8
0
100
AcDbLine
 10
196.091
 20
719.3
 30
0.0
 11
196.091
 21
720.3
 31
0.0
  0
LINE
  5
17E
330
1D
100
AcDbEntity
  8
0
100
AcDbLine
 10
196.091
 20
720.3
 30
0.0
 11
196.091
 21
719.3
 31
0.0
  0
LINE
  5
17F
330
1D
100
AcDbEntity
  8
0
100
AcDbLine
 10
195.935
 20
725.6
 30
0.0
 11
196.091
 21
726.1
 31
0.0
  0
LINE
  5
180
330
1D
100
AcDbEntity
  8
0
100
AcDbLine
 10
196.091
 20
726.1
 30
0.0
 11
196.091
 21
727.1
 31
0.0
  0
LINE
  5
182
330
1D
100
AcDbEntity
  8
0
100
AcDbLine
 10
196.097555619597
 20
720.8
 30
0.0
 11
196.755
 21
720.8
 31
0.0
  0
LINE
  5
184
330
1D
100
AcDbEntity
  8
0
100
AcDbLine
 10
196.108843227666
 20
725.6
 30
0.0
 11
196.755
 21
725.6
 31
0.0
  0
LINE
  5
187
330
1D
100
AcDbEntity
  8
0
100
AcDbLine
 10
196.091
 20
727.1
 30
0.0
 11
196.091
 21
726.1
 31
0.0
  0
LINE
  5
188
330
1D
100
AcDbEntity
  8
0
100
AcDbLine
 10
195.466
 20
727.1
 30
0.0
 11
195.466
 21
726.1
 31
0.0
  0
LINE
  5
189
330
1D
100
AcDbEntity
  8
0
100
AcDbLine
 10
195.466
 20
727.1
 30
0.0
 11
195.622
 21
727.6
 31
0.0
  0
LINE
  5
18C
330
1D
100
AcDbEntity
  8
0
100
AcDbLine
 10
192.682
 20
726.1
 30
0.0
 11
192.979
 21
725.6
 31
0.0
  0
LINE
  5
18D
330
1D
100
AcDbEntity
  8
0
100
AcDbLine
 10
192.682
 20
726.1
 30
0.0
 11
192.682
 21
727.1
 31
0.0
  0
LINE
  5
18E
330
1D
100
AcDbEntity
  8
0
100
AcDbLine
 10
192.979
 20
727.6
 30
0.0
 11
193.571
 21
727.6
 31
0.0
  0
LINE
  5
190
330
1D
100
AcDbEntity
  8
0
100
AcDbLine
 10
195.622
 20
727.6
 30
0.0
 11
195.935
 21
727.6
 31
0.0
  0
LINE
  5
191
330
1D
100
AcDbEntity
  8
0
100
AcDbLine
 10
196.113546397695
 20
727.6
 30
0.0
 11
196.755
 21
727.6
 31
0.0
  0
LINE
  5
192
330
1D
100
AcDbEntity
  8
0
100
AcDbLine
 10
195.935
 20
727.6
 30
0.0
 11
196.091
 21
727.1
 31
0.0
  0
LINE
  5
193
330
1D
100
AcDbEntity
  8
0
100
AcDbLine
 10
193.571
 20
727.6
 30
0.0
 11
193.868
 21
727.1
 31
0.0
  0
LINE
  5
194
330
1D
100
AcDbEntity
  8
0
100
AcDbLine
 10
192.673
 20
727.6
 30
0.0
 11
192.979
 21
727.6
 31
0.0
  0
LINE
  5
195
330
1D
100
AcDbEntity
  8
0
100
AcDbLine
 10
192.682
 20
727.1
 30
0.0
 11
192.682
 21
726.1
 31
0.0
  0
LINE
  5
196
330
1D
100
AcDbEntity
  8
0
100
AcDbLine
 10
192.682
 20
727.1
 30
0.0
 11
192.979
 21
727.6
 31
0.0
  0
LINE
  5
198
330
1D
100
AcDbEntity
  8
0
100
AcDbLine
 10
196.245
 20
718.8
 30
0.0
 11
196.245
 21
714.0
 31
0.0
  0
LINE
  5
199
330
1D
100
AcDbEntity
  8
0
100
AcDbLine
 10
196.245
 20
718.8
 30
0.0
 11
196.755
 21
718.8
 31
0.0
  0
LINE
  5
19A
330
1D
100
AcDbEntity
  8
0
100
AcDbLine
 10
196.245
 20
725.6
 30
0.0
 11
196.245
 21
720.8
 31
0.0
  0
LINE
  5
19B
330
1D
100
AcDbEntity
  8
0
100
AcDbLine
 10
196.245
 20
725.6
 30
0.0
 11
196.755
 21
725.6
 31
0.0
  0
LINE
  5
19C
330
1D
100
AcDbEntity
  8
0
100
AcDbLine
 10
196.245
 20
714.0
 30
0.0
 11
196.245
 21
718.8
 31
0.0
  0
LINE
  5
19D
330
1D
100
AcDbEntity
  8
0
100
AcDbLine
 10
196.755
 20
712.0
 30
0.0
 11
196.755
 21
712.5
 31
0.0
  0
LINE
  5
19E
330
1D
100
AcDbEntity
  8
0
100
AcDbLine
 10
196.755
 20
712.5
 30
0.0
 11
196.755
 21
713.5
 31
0.0
  0
LINE
  5
19F
330
1D
100
AcDbEntity
  8
0
100
AcDbLine
 10
196.755
 20
712.5
 30
0.0
 11
196.755
 21
712.0
 31
0.0
  0
LINE
  5
1A0
330
1D
100
AcDbEntity
  8
0
100
AcDbLine
 10
196.755
 20
714.0
 30
0.0
 11
196.755
 21
713.5
 31
0.0
  0
LINE
  5
1A1
330
1D
100
AcDbEntity
  8
0
100
AcDbLine
 10
196.755
 20
713.5
 30
0.0
 11
196.755
 21
714.0
 31
0.0
  0
LINE
  5
1A2
330
1D
100
AcDbEntity
  8
0
100
AcDbLine
 10
196.755
 20
713.5
 30
0.0
 11
196.755
 21
712.5
 31
0.0
  0
LINE
  5
1A3
330
1D
100
AcDbEntity
  8
0
100
AcDbLine
 10
196.755
 20
718.8
 30
0.0
 11
196.755
 21
719.3
 31
0.0
  0
LINE
  5
1A4
330
1D
100
AcDbEntity
  8
0
100
AcDbLine
 10
196.755
 20
720.8
 30
0.0
 11
196.755
 21
720.3
 31
0.0
  0
LINE
  5
1A5
330
1D
100
AcDbEntity
  8
0
100
AcDbLine
 10
196.755
 20
720.3
 30
0.0
 11
196.755
 21
720.8
 31
0.0
  0
LINE
  5
1A6
330
1D
100
AcDbEntity
  8
0
100
AcDbLine
 10
196.755
 20
720.3
 30
0.0
 11
196.755
 21
719.3
 31
0.0
  0
LINE
  5
1A7
330
1D
100
AcDbEntity
  8
0
100
AcDbLine
 10
196.755
 20
719.3
 30
0.0
 11
196.755
 21
720.3
 31
0.0
  0
LINE
  5
1A8
330
1D
100
AcDbEntity
  8
0
100
AcDbLine
 10
196.755
 20
719.3
 30
0.0
 11
196.755
 21
718.8
 31
0.0
  0
LINE
  5
1A9
330
1D
100
AcDbEntity
  8
0
100
AcDbLine
 10
196.755
 20
725.6
 30
0.0
 11
196.755
 21
726.1
 31
0.0
  0
LINE
  5
1AA
330
1D
100
AcDbEntity
  8
0
100
AcDbLine
 10
196.755
 20
727.6
 30
0.0
 11
196.755
 21
727.1
 31
0.0
  0
LINE
  5
1AB
330
1D
100
AcDbEntity
  8
0
100
AcDbLine
 10
196.755
 20
727.1
 30
0.0
 11
196.755
 21
727.6
 31
0.0
  0
LINE
  5
1AC
330
1D
100
AcDbEntity
  8
0
100
AcDbLine
 10
196.755
 20
727.1
 30
0.0
 11
196.755
 21
726.1
 31
0.0
  0
LINE
  5
1AD
330
1D
100
AcDbEntity
  8
0
100
AcDbLine
 10
196.755
 20
726.1
 30
0.0
 11
196.755
 21
727.1
 31
0.0
  0
LINE
  5
1AE
330
1D
100
AcDbEntity
  8
0
100
AcDbLine
 10
196.755
 20
726.1
 30
0.0
 11
196.755
 21
725.6
 31
0.0
  0
LINE
  5
1AF
330
1D
100
AcDbEntity
  8
0
100
AcDbLine
 10
196.245
 20
720.8
 30
0.0
 11
196.245
 21
725.6
 31
0.0
  0
LINE
  5
1B0
330
1D
100
AcDbEntity
  8
0
100
AcDbLine
 10
196.245
 20
727.6
 30
0.0
 11
196.245
 21
732.4
 31
0.0
  0
LINE
  5
1B1
330
1D
100
AcDbEntity
  8
0
100
AcDbLine
 10
217.6
 20
730.4
 30
0.0
 11
238.0
 21
730.4
 31
0.0
  0
LINE
  5
1B2
330
1D
100
AcDbEntity
  8
0
100
AcDbLine
 10
217.6
 20
730.4
 30
0.0
 11
217.6
 21
730.648
 31
0.0
  0
LINE
  5
1B3
330
1D
100
AcDbEntity
  8
0
100
AcDbLine
 10
217.6
 20
724.0
 30
0.0
 11
238.0
 21
724.0
 31
0.0
  0
LINE
  5
1B4
330
1D
100
AcDbEntity
  8
0
100
AcDbLine
 10
217.0
 20
724.4
 30
0.0
 11
217.6
 21
724.0
 31
0.0
  0
LINE
  5
1B5
330
1D
100
AcDbEntity
  8
0
100
AcDbLine
 10
217.0
 20
724.4
 30
0.0
 11
217.0
 21
730.8
 31
0.0
  0
LINE
  5
1B6
330
1D
100
AcDbEntity
  8
0
100
AcDbLine
 10
217.6
 20
730.648
 30
0.0
 11
217.6
 21
730.4
 31
0.0
  0
LINE
  5
1B7
330
1D
100
AcDbEntity
  8
0
100
AcDbLine
 10
217.6
 20
730.648
 30
0.0
 11
217.6
 21
732.376
 31
0.0
  0
LINE
  5
1B8
330
1D
100
AcDbEntity
  8
0
100
AcDbLine
 10
192.946
 20
732.4
 30
0.0
 11
193.571
 21
732.4
 31
0.0
  0
LINE
  5
1B9
330
1D
100
AcDbEntity
  8
0
100
AcDbLine
 10
192.979
 20
732.4
 30
0.0
 11
193.571
 21
732.4
 31
0.0
  0
LINE
  5
1BA
330
1D
100
AcDbEntity
  8
0
100
AcDbLine
 10
195.622
 20
732.4
 30
0.0
 11
195.935
 21
732.4
 31
0.0
  0
LINE
  5
1BC
330
1D
100
AcDbEntity
  8
0
100
AcDbLine
 10
195.476207492795
 20
732.4
 30
0.0
 11
195.935
 21
732.4
 31
0.0
  0
LINE
  5
1BD
330
1D
100
AcDbEntity
  8
0
100
AcDbLine
 10
196.124834005764
 20
732.4
 30
0.0
 11
196.755
 21
732.4
 31
0.0
  0
LINE
  5
1BE
330
1D
100
AcDbEntity
  8
0
100
AcDbLine
 10
195.935
 20
732.4
 30
0.0
 11
196.091
 21
732.9
 31
0.0
  0
LINE
  5
1BF
330
1D
100
AcDbEntity
  8
0
100
AcDbLine
 10
193.571
 20
732.4
 30
0.0
 11
193.868
 21
732.9
 31
0.0
  0
LINE
  5
1C0
330
1D
100
AcDbEntity
  8
0
100
AcDbLine
 10
192.673
 20
732.4
 30
0.0
 11
192.979
 21
732.4
 31
0.0
  0
LINE
  5
1C3
330
1D
100
AcDbEntity
  8
0
100
AcDbLine
 10
195.466
 20
732.9
 30
0.0
 11
195.622
 21
732.4
 31
0.0
  0
LINE
  5
1C4
330
1D
100
AcDbEntity
  8
0
100
AcDbLine
 10
195.466
 20
732.9
 30
0.0
 11
195.466
 21
733.9
 31
0.0
  0
LINE
  5
1C5
330
1D
100
AcDbEntity
  8
0
100
AcDbLine
 10
196.091
 20
732.9
 30
0.0
 11
196.091
 21
733.9
 31
0.0
  0
LINE
  5
1C8
330
1D
100
AcDbEntity
  8
0
100
AcDbLine
 10
196.091
 20
733.9
 30
0.0
 11
196.091
 21
732.9
 31
0.0
  0
LINE
  5
1C9
330
1D
100
AcDbEntity
  8
0
100
AcDbLine
 10
195.466
 20
733.9
 30
0.0
 11
195.466
 21
732.9
 31
0.0
  0
LINE
  5
1CA
330
1D
100
AcDbEntity
  8
0
100
AcDbLine
 10
195.466
 20
733.9
 30
0.0
 11
195.622
 21
734.4
 31
0.0
  0
LINE
  5
1CC
330
1D
100
AcDbEntity
  8
0
100
AcDbLine
 10
193.868
 20
733.9
 30
0.0
 11
193.868
 21
732.9
 31
0.0
  0
LINE
  5
1CD
330
1D
100
AcDbEntity
  8
0
100
AcDbLine
 10
193.868
 20
732.9
 30
0.0
 11
193.868
 21
733.9
 31
0.0
  0
LINE
  5
1CE
330
1D
100
AcDbEntity
  8
0
100
AcDbLine
 10
192.682
 20
732.9
 30
0.0
 11
192.979
 21
732.4
 31
0.0
  0
LINE
  5
1CF
330
1D
100
AcDbEntity
  8
0
100
AcDbLine
 10
192.682
 20
732.9
 30
0.0
 11
192.682
 21
733.9
 31
0.0
  0
LINE
  5
1D0
330
1D
100
AcDbEntity
  8
0
100
AcDbLine
 10
192.979
 20
734.4
 30
0.0
 11
193.571
 21
734.4
 31
0.0
  0
LINE
  5
1D1
330
1D
100
AcDbEntity
  8
0
100
AcDbLine
 10
195.622
 20
734.4
 30
0.0
 11
195.935
 21
734.4
 31
0.0
  0
LINE
  5
1D3
330
1D
100
AcDbEntity
  8
0
100
AcDbLine
 10
196.129537175792
 20
734.4
 30
0.0
 11
196.755
 21
734.4
 31
0.0
  0
LINE
  5
1D4
330
1D
100
AcDbEntity
  8
0
100
AcDbLine
 10
195.935
 20
734.4
 30
0.0
 11
196.091
 21
733.9
 31
0.0
  0
LINE
  5
1D5
330
1D
100
AcDbEntity
  8
0
100
AcDbLine
 10
193.571
 20
734.4
 30
0.0
 11
193.868
 21
733.9
 31
0.0
  0
LINE
  5
1D6
330
1D
100
AcDbEntity
  8
0
100
AcDbLine
 10
192.673
 20
734.4
 30
0.0
 11
192.979
 21
734.4
 31
0.0
  0
LINE
  5
1D7
330
1D
100
AcDbEntity
  8
0
100
AcDbLine
 10
192.682
 20
733.9
 30
0.0
 11
192.979
 21
734.4
 31
0.0
  0
LINE
  5
1D8
330
1D
100
AcDbEntity
  8
0
100
AcDbLine
 10
192.682
 20
733.9
 30
0.0
 11
192.682
 21
732.9
 31
0.0
  0
LINE
  5
1DA
330
1D
100
AcDbEntity
  8
0
100
AcDbLine
 10
196.245
 20
732.4
 30
0.0
 11
196.245
 21
727.6
 31
0.0
  0
LINE
  5
1DB
330
1D
100
AcDbEntity
  8
0
100
AcDbLine
 10
196.245
 20
732.4
 30
0.0
 11
196.755
 21
732.4
 31
0.0
  0
LINE
  5
1DC
330
1D
100
AcDbEntity
  8
0
100
AcDbLine
 10
196.755
 20
733.9
 30
0.0
 11
196.755
 21
732.9
 31
0.0
  0
LINE
  5
1DD
330
1D
100
AcDbEntity
  8
0
100
AcDbLine
 10
196.755
 20
733.9
 30
0.0
 11
196.755
 21
734.4
 31
0.0
  0
LINE
  5
1DE
330
1D
100
AcDbEntity
  8
0
100
AcDbLine
 10
196.755
 20
732.4
 30
0.0
 11
196.755
 21
732.9
 31
0.0
  0
LINE
  5
1DF
330
1D
100
AcDbEntity
  8
0
100
AcDbLine
 10
196.755
 20
732.9
 30
0.0
 11
196.755
 21
732.4
 31
0.0
  0
LINE
  5
1E0
330
1D
100
AcDbEntity
  8
0
100
AcDbLine
 10
196.755
 20
732.9
 30
0.0
 11
196.755
 21
733.9
 31
0.0
  0
LINE
  5
1E1
330
1D
100
AcDbEntity
  8
0
100
AcDbLine
 10
196.755
 20
734.4
 30
0.0
 11
196.755
 21
733.9
 31
0.0
  0
LINE
  5
1E2
330
1D
100
AcDbEntity
  8
0
100
AcDbLine
 10
196.245
 20
734.4
 30
0.0
 11
196.245
 21
739.2
 31
0.0
  0
LINE
  5
1E3
330
1D
100
AcDbEntity
  8
0
100
AcDbLine
 10
217.0
 20
731.08
 30
0.0
 11
217.0
 21
730.8
 31
0.0
  0
LINE
  5
1E4
330
1D
100
AcDbEntity
  8
0
100
AcDbLine
 10
217.0
 20
731.08
 30
0.0
 11
217.0
 21
732.808
 31
0.0
  0
LINE
  5
1E5
330
1D
100
AcDbEntity
  8
0
100
AcDbLine
 10
217.0
 20
732.808
 30
0.0
 11
217.0
 21
731.08
 31
0.0
  0
LINE
  5
1E6
330
1D
100
AcDbEntity
  8
0
100
AcDbLine
 10
217.0
 20
732.808
 30
0.0
 11
217.0
 21
735.616
 31
0.0
  0
LINE
  5
1E7
330
1D
100
AcDbEntity
  8
0
100
AcDbLine
 10
192.946
 20
739.2
 30
0.0
 11
193.571
 21
739.2
 31
0.0
  0
LINE
  5
1E8
330
1D
100
AcDbEntity
  8
0
100
AcDbLine
 10
192.979
 20
739.2
 30
0.0
 11
193.571
 21
739.2
 31
0.0
  0
LINE
  5
1EA
330
1D
100
AcDbEntity
  8
0
100
AcDbLine
 10
195.622
 20
739.2
 30
0.0
 11
195.935
 21
739.2
 31
0.0
  0
LINE
  5
1EB
330
1D
100
AcDbEntity
  8
0
100
AcDbLine
 10
195.132
 20
739.2
 30
0.0
 11
195.935
 21
739.2
 31
0.0
  0
LINE
  5
1EC
330
1D
100
AcDbEntity
  8
0
100
AcDbLine
 10
196.140824783862
 20
739.2
 30
0.0
 11
196.755
 21
739.2
 31
0.0
  0
LINE
  5
1ED
330
1D
100
AcDbEntity
  8
0
100
AcDbLine
 10
196.140824783862
 20
739.2
 30
0.0
 11
196.755
 21
739.2
 31
0.0
  0
LINE
  5
1EE
330
1D
100
AcDbEntity
  8
0
100
AcDbLine
 10
195.935
 20
739.2
 30
0.0
 11
196.091
 21
739.7
 31
0.0
  0
LINE
  5
1EF
330
1D
100
AcDbEntity
  8
0
100
AcDbLine
 10
193.571
 20
739.2
 30
0.0
 11
193.868
 21
739.7
 31
0.0
  0
LINE
  5
1F0
330
1D
100
AcDbEntity
  8
0
100
AcDbLine
 10
192.673
 20
739.2
 30
0.0
 11
192.979
 21
739.2
 31
0.0
  0
LINE
  5
1F2
330
1D
100
AcDbEntity
  8
0
100
AcDbLine
 10
193.868
 20
739.7
 30
0.0
 11
193.868
 21
740.7
 31
0.0
  0
LINE
  5
1F3
330
1D
100
AcDbEntity
  8
0
100
AcDbLine
 10
193.868
 20
740.7
 30
0.0
 11
193.868
 21
739.7
 31
0.0
  0
LINE
  5
1F4
330
1D
100
AcDbEntity
  8
0
100
AcDbLine
 10
195.466
 20
739.7
 30
0.0
 11
195.466
 21
740.7
 31
0.0
  0
LINE
  5
1F5
330
1D
100
AcDbEntity
  8
0
100
AcDbLine
 10
195.466
 20
739.7
 30
0.0
 11
195.622
 21
739.2
 31
0.0
  0
LINE
  5
1F6
330
1D
100
AcDbEntity
  8
0
100
AcDbLine
 10
196.091
 20
739.7
 30
0.0
 11
196.091
 21
740.7
 31
0.0
  0
LINE
  5
1F9
330
1D
100
AcDbEntity
  8
0
100
AcDbLine
 10
196.091
 20
740.7
 30
0.0
 11
196.091
 21
739.7
 31
0.0
  0
LINE
  5
1FA
330
1D
100
AcDbEntity
  8
0
100
AcDbLine
 10
195.466
 20
740.7
 30
0.0
 11
195.466
 21
739.7
 31
0.0
  0
LINE
  5
1FB
330
1D
100
AcDbEntity
  8
0
100
AcDbLine
 10
195.466
 20
740.7
 30
0.0
 11
195.622
 21
741.2
 31
0.0
  0
LINE
  5
1FE
330
1D
100
AcDbEntity
  8
0
100
AcDbLine
 10
192.682
 20
739.7
 30
0.0
 11
192.979
 21
739.2
 31
0.0
  0
LINE
  5
1FF
330
1D
100
AcDbEntity
  8
0
100
AcDbLine
 10
192.682
 20
739.7
 30
0.0
 11
192.682
 21
740.7
 31
0.0
  0
LINE
  5
200
330
1D
100
AcDbEntity
  8
0
100
AcDbLine
 10
192.979
 20
741.2
 30
0.0
 11
193.571
 21
741.2
 31
0.0
  0
LINE
  5
202
330
1D
100
AcDbEntity
  8
0
100
AcDbLine
 10
195.622
 20
741.2
 30
0.0
 11
195.935
 21
741.2
 31
0.0
  0
LINE
  5
203
330
1D
100
AcDbEntity
  8
0
100
AcDbLine
 10
196.14552795389
 20
741.2
 30
0.0
 11
196.755
 21
741.2
 31
0.0
  0
LINE
  5
204
330
1D
100
AcDbEntity
  8
0
100
AcDbLine
 10
195.935
 20
741.2
 30
0.0
 11
196.091
 21
740.7
 31
0.0
  0
LINE
  5
205
330
1D
100
AcDbEntity
  8
0
100
AcDbLine
 10
193.571
 20
741.2
 30
0.0
 11
193.868
 21
740.7
 31
0.0
  0
LINE
  5
206
330
1D
100
AcDbEntity
  8
0
100
AcDbLine
 10
192.673
 20
741.2
 30
0.0
 11
192.979
 21
741.2
 31
0.0
  0
LINE
  5
207
330
1D
100
AcDbEntity
  8
0
100
AcDbLine
 10
192.682
 20
740.7
 30
0.0
 11
192.682
 21
739.7
 31
0.0
  0
LINE
  5
208
330
1D
100
AcDbEntity
  8
0
100
AcDbLine
 10
192.682
 20
740.7
 30
0.0
 11
192.979
 21
741.2
 31
0.0
  0
LINE
  5
20A
330
1D
100
AcDbEntity
  8
0
100
AcDbLine
 10
196.245
 20
739.2
 30
0.0
 11
196.245
 21
734.4
 31
0.0
  0
LINE
  5
20B
330
1D
100
AcDbEntity
  8
0
100
AcDbLine
 10
196.245
 20
739.2
 30
0.0
 11
196.755
 21
739.2
 31
0.0
  0
LINE
  5
20C
330
1D
100
AcDbEntity
  8
0
100
AcDbLine
 10
196.755
 20
739.2
 30
0.0
 11
196.755
 21
739.7
 31
0.0
  0
LINE
  5
20D
330
1D
100
AcDbEntity
  8
0
100
AcDbLine
 10
196.755
 20
741.2
 30
0.0
 11
196.755
 21
740.7
 31
0.0
  0
LINE
  5
20E
330
1D
100
AcDbEntity
  8
0
100
AcDbLine
 10
196.755
 20
740.7
 30
0.0
 11
196.755
 21
741.2
 31
0.0
  0
LINE
  5
20F
330
1D
100
AcDbEntity
  8
0
100
AcDbLine
 10
196.755
 20
740.7
 30
0.0
 11
196.755
 21
739.7
 31
0.0
  0
LINE
  5
210
330
1D
100
AcDbEntity
  8
0
100
AcDbLine
 10
196.755
 20
739.7
 30
0.0
 11
196.755
 21
740.7
 31
0.0
  0
LINE
  5
211
330
1D
100
AcDbEntity
  8
0
100
AcDbLine
 10
196.755
 20
739.7
 30
0.0
 11
196.755
 21
739.2
 31
0.0
  0
LINE
  5
212
330
1D
100
AcDbEntity
  8
0
100
AcDbLine
 10
196.245
 20
741.2
 30
0.0
 11
196.245
 21
746.0
 31
0.0
  0
LINE
  5
213
330
1D
100
AcDbEntity
  8
0
100
AcDbLine
 10
217.0
 20
735.616
 30
0.0
 11
217.0
 21
732.808
 31
0.0
  0
LINE
  5
214
330
1D
100
AcDbEntity
  8
0
100
AcDbLine
 10
217.0
 20
735.616
 30
0.0
 11
217.0
 21
739.288
 31
0.0
  0
LINE
  5
215
330
1D
100
AcDbEntity
  8
0
100
AcDbLine
 10
217.0
 20
739.288
 30
0.0
 11
217.0
 21
735.616
 31
0.0
  0
LINE
  5
216
330
1D
100
AcDbEntity
  8
0
100
AcDbLine
 10
217.0
 20
739.288
 30
0.0
 11
217.0
 21
743.464
 31
0.0
  0
LINE
  5
217
330
1D
100
AcDbEntity
  8
0
100
AcDbLine
 10
192.673
 20
746.0
 30
0.0
 11
192.979
 21
746.0
 31
0.0
  0
LINE
  5
219
330
1D
100
AcDbEntity
  8
0
100
AcDbLine
 10
192.682
 20
746.5
 30
0.0
 11
192.979
 21
746.0
 31
0.0
  0
LINE
  5
21A
330
1D
100
AcDbEntity
  8
0
100
AcDbLine
 10
192.682
 20
746.5
 30
0.0
 11
192.682
 21
747.5
 31
0.0
  0
LINE
  5
21B
330
1D
100
AcDbEntity
  8
0
100
AcDbLine
 10
192.946
 20
746.0
 30
0.0
 11
193.571
 21
746.0
 31
0.0
  0
LINE
  5
21C
330
1D
100
AcDbEntity
  8
0
100
AcDbLine
 10
192.979
 20
746.0
 30
0.0
 11
193.571
 21
746.0
 31
0.0
  0
LINE
  5
21D
330
1D
100
AcDbEntity
  8
0
100
AcDbLine
 10
195.622
 20
746.0
 30
0.0
 11
195.935
 21
746.0
 31
0.0
  0
LINE
  5
21F
330
1D
100
AcDbEntity
  8
0
100
AcDbLine
 10
195.132
 20
746.0
 30
0.0
 11
195.935
 21
746.0
 31
0.0
  0
LINE
  5
220
330
1D
100
AcDbEntity
  8
0
100
AcDbLine
 10
196.15681556196
 20
746.0
 30
0.0
 11
196.755
 21
746.0
 31
0.0
  0
LINE
  5
221
330
1D
100
AcDbEntity
  8
0
100
AcDbLine
 10
195.935
 20
746.0
 30
0.0
 11
196.091
 21
746.5
 31
0.0
  0
LINE
  5
222
330
1D
100
AcDbEntity
  8
0
100
AcDbLine
 10
193.868
 20
747.5
 30
0.0
 11
193.868
 21
746.5
 31
0.0
  0
LINE
  5
223
330
1D
100
AcDbEntity
  8
0
100
AcDbLine
 10
195.466
 20
746.5
 30
0.0
 11
195.622
 21
746.0
 31
0.0
  0
LINE
  5
224
330
1D
100
AcDbEntity
  8
0
100
AcDbLine
 10
195.466
 20
746.5
 30
0.0
 11
195.466
 21
747.5
 31
0.0
  0
LINE
  5
225
330
1D
100
AcDbEntity
  8
0
100
AcDbLine
 10
196.091
 20
747.5
 30
0.0
 11
196.091
 21
746.5
 31
0.0
  0
LINE
  5
228
330
1D
100
AcDbEntity
  8
0
100
AcDbLine
 10
196.091
 20
746.5
 30
0.0
 11
196.091
 21
747.5
 31
0.0
  0
LINE
  5
229
330
1D
100
AcDbEntity
  8
0
100
AcDbLine
 10
195.466
 20
747.5
 30
0.0
 11
195.466
 21
746.5
 31
0.0
  0
LINE
  5
22A
330
1D
100
AcDbEntity
  8
0
100
AcDbLine
 10
195.466
 20
747.5
 30
0.0
 11
195.622
 21
748.0
 31
0.0
  0
LINE
  5
22D
330
1D
100
AcDbEntity
  8
0
100
AcDbLine
 10
193.868
 20
746.5
 30
0.0
 11
193.868
 21
747.5
 31
0.0
  0
LINE
  5
22E
330
1D
100
AcDbEntity
  8
0
100
AcDbLine
 10
193.571
 20
746.0
 30
0.0
 11
193.868
 21
746.5
 31
0.0
  0
LINE
  5
22F
330
1D
100
AcDbEntity
  8
0
100
AcDbLine
 10
192.682
 20
747.5
 30
0.0
 11
192.979
 21
748.0
 31
0.0
  0
LINE
  5
230
330
1D
100
AcDbEntity
  8
0
100
AcDbLine
 10
192.682
 20
747.5
 30
0.0
 11
192.682
 21
746.5
 31
0.0
  0
LINE
  5
231
330
1D
100
AcDbEntity
  8
0
100
AcDbLine
 10
192.979
 20
748.0
 30
0.0
 11
193.571
 21
748.0
 31
0.0
  0
LINE
  5
232
330
1D
100
AcDbEntity
  8
0
100
AcDbLine
 10
195.622
 20
748.0
 30
0.0
 11
195.935
 21
748.0
 31
0.0
  0
LINE
  5
234
330
1D
100
AcDbEntity
  8
0
100
AcDbLine
 10
196.161518731988
 20
748.0
 30
0.0
 11
196.755
 21
748.0
 31
0.0
  0
LINE
  5
235
330
1D
100
AcDbEntity
  8
0
100
AcDbLine
 10
195.935
 20
748.0
 30
0.0
 11
196.091
 21
747.5
 31
0.0
  0
LINE
  5
236
330
1D
100
AcDbEntity
  8
0
100
AcDbLine
 10
193.571
 20
748.0
 30
0.0
 11
193.868
 21
747.5
 31
0.0
  0
LINE
  5
237
330
1D
100
AcDbEntity
  8
0
100
AcDbLine
 10
192.673
 20
748.0
 30
0.0
 11
192.979
 21
748.0
 31
0.0
  0
LINE
  5
239
330
1D
100
AcDbEntity
  8
0
100
AcDbLine
 10
196.245
 20
746.0
 30
0.0
 11
196.245
 21
741.2
 31
0.0
  0
LINE
  5
23A
330
1D
100
AcDbEntity
  8
0
100
AcDbLine
 10
196.245
 20
746.0
 30
0.0
 11
196.755
 21
746.0
 31
0.0
  0
LINE
  5
23B
330
1D
100
AcDbEntity
  8
0
100
AcDbLine
 10
192.673
 20
752.8
 30
0.0
 11
192.979
 21
752.8
 31
0.0
  0
LINE
  5
23D
330
1D
100
AcDbEntity
  8
0
100
AcDbLine
 10
192.682
 20
753.3
 30
0.0
 11
192.979
 21
752.8
 31
0.0
  0
LINE
  5
23E
330
1D
100
AcDbEntity
  8
0
100
AcDbLine
 10
192.682
 20
753.3
 30
0.0
 11
192.682
 21
754.3
 31
0.0
  0
LINE
  5
23F
330
1D
100
AcDbEntity
  8
0
100
AcDbLine
 10
192.946
 20
752.8
 30
0.0
 11
193.571
 21
752.8
 31
0.0
  0
LINE
  5
240
330
1D
100
AcDbEntity
  8
0
100
AcDbLine
 10
192.979
 20
752.8
 30
0.0
 11
193.571
 21
752.8
 31
0.0
  0
LINE
  5
241
330
1D
100
AcDbEntity
  8
0
100
AcDbLine
 10
195.622
 20
752.8
 30
0.0
 11
195.935
 21
752.8
 31
0.0
  0
LINE
  5
243
330
1D
100
AcDbEntity
  8
0
100
AcDbLine
 10
195.132
 20
752.8
 30
0.0
 11
195.935
 21
752.8
 31
0.0
  0
LINE
  5
244
330
1D
100
AcDbEntity
  8
0
100
AcDbLine
 10
196.172806340058
 20
752.8
 30
0.0
 11
196.755
 21
752.8
 31
0.0
  0
LINE
  5
245
330
1D
100
AcDbEntity
  8
0
100
AcDbLine
 10
195.935
 20
752.8
 30
0.0
 11
196.091
 21
753.3
 31
0.0
  0
LINE
  5
246
330
1D
100
AcDbEntity
  8
0
100
AcDbLine
 10
193.868
 20
754.3
 30
0.0
 11
193.868
 21
753.3
 31
0.0
  0
LINE
  5
247
330
1D
100
AcDbEntity
  8
0
100
AcDbLine
 10
195.466
 20
753.3
 30
0.0
 11
195.622
 21
752.8
 31
0.0
  0
LINE
  5
248
330
1D
100
AcDbEntity
  8
0
100
AcDbLine
 10
195.466
 20
753.3
 30
0.0
 11
195.466
 21
754.3
 31
0.0
  0
LINE
  5
249
330
1D
100
AcDbEntity
  8
0
100
AcDbLine
 10
196.091
 20
754.3
 30
0.0
 11
196.091
 21
753.3
 31
0.0
  0
LINE
  5
24C
330
1D
100
AcDbEntity
  8
0
100
AcDbLine
 10
196.091
 20
753.3
 30
0.0
 11
196.091
 21
754.3
 31
0.0
  0
LINE
  5
24D
330
1D
100
AcDbEntity
  8
0
100
AcDbLine
 10
195.466
 20
754.3
 30
0.0
 11
195.466
 21
753.3
 31
0.0
  0
LINE
  5
24E
330
1D
100
AcDbEntity
  8
0
100
AcDbLine
 10
195.466
 20
754.3
 30
0.0
 11
195.622
 21
754.8
 31
0.0
  0
LINE
  5
251
330
1D
100
AcDbEntity
  8
0
100
AcDbLine
 10
193.868
 20
753.3
 30
0.0
 11
193.868
 21
754.3
 31
0.0
  0
LINE
  5
252
330
1D
100
AcDbEntity
  8
0
100
AcDbLine
 10
193.571
 20
752.8
 30
0.0
 11
193.868
 21
753.3
 31
0.0
  0
LINE
  5
253
330
1D
100
AcDbEntity
  8
0
100
AcDbLine
 10
192.682
 20
754.3
 30
0.0
 11
192.979
 21
754.8
 31
0.0
  0
LINE
  5
254
330
1D
100
AcDbEntity
  8
0
100
AcDbLine
 10
192.682
 20
754.3
 30
0.0
 11
192.682
 21
753.3
 31
0.0
  0
LINE
  5
255
330
1D
100
AcDbEntity
  8
0
100
AcDbLine
 10
192.979
 20
754.8
 30
0.0
 11
193.571
 21
754.8
 31
0.0
  0
LINE
  5
256
330
1D
100
AcDbEntity
  8
0
100
AcDbLine
 10
195.622
 20
754.8
 30
0.0
 11
195.935
 21
754.8
 31
0.0
  0
LINE
  5
258
330
1D
100
AcDbEntity
  8
0
100
AcDbLine
 10
196.177509510086
 20
754.8
 30
0.0
 11
196.755
 21
754.8
 31
0.0
  0
LINE
  5
259
330
1D
100
AcDbEntity
  8
0
100
AcDbLine
 10
195.935
 20
754.8
 30
0.0
 11
196.091
 21
754.3
 31
0.0
  0
LINE
  5
25A
330
1D
100
AcDbEntity
  8
0
100
AcDbLine
 10
193.571
 20
754.8
 30
0.0
 11
193.868
 21
754.3
 31
0.0
  0
LINE
  5
25B
330
1D
100
AcDbEntity
  8
0
100
AcDbLine
 10
192.673
 20
754.8
 30
0.0
 11
192.979
 21
754.8
 31
0.0
  0
LINE
  5
25D
330
1D
100
AcDbEntity
  8
0
100
AcDbLine
 10
196.245
 20
752.8
 30
0.0
 11
196.245
 21
748.0
 31
0.0
  0
LINE
  5
25E
330
1D
100
AcDbEntity
  8
0
100
AcDbLine
 10
196.245
 20
752.8
 30
0.0
 11
196.755
 21
752.8
 31
0.0
  0
LINE
  5
25F
330
1D
100
AcDbEntity
  8
0
100
AcDbLine
 10
196.245
 20
748.0
 30
0.0
 11
196.245
 21
752.8
 31
0.0
  0
LINE
  5
260
330
1D
100
AcDbEntity
  8
0
100
AcDbLine
 10
196.755
 20
746.0
 30
0.0
 11
196.755
 21
746.5
 31
0.0
  0
LINE
  5
261
330
1D
100
AcDbEntity
  8
0
100
AcDbLine
 10
196.755
 20
747.5
 30
0.0
 11
196.755
 21
746.5
 31
0.0
  0
LINE
  5
262
330
1D
100
AcDbEntity
  8
0
100
AcDbLine
 10
196.755
 20
747.5
 30
0.0
 11
196.755
 21
748.0
 31
0.0
  0
LINE
  5
263
330
1D
100
AcDbEntity
  8
0
100
AcDbLine
 10
196.755
 20
746.5
 30
0.0
 11
196.755
 21
746.0
 31
0.0
  0
LINE
  5
264
330
1D
100
AcDbEntity
  8
0
100
AcDbLine
 10
196.755
 20
746.5
 30
0.0
 11
196.755
 21
747.5
 31
0.0
  0
LINE
  5
265
330
1D
100
AcDbEntity
  8
0
100
AcDbLine
 10
196.755
 20
748.0
 30
0.0
 11
196.755
 21
747.5
 31
0.0
  0
LINE
  5
266
330
1D
100
AcDbEntity
  8
0
100
AcDbLine
 10
196.755
 20
754.3
 30
0.0
 11
196.755
 21
753.3
 31
0.0
  0
LINE
  5
267
330
1D
100
AcDbEntity
  8
0
100
AcDbLine
 10
196.755
 20
754.3
 30
0.0
 11
196.755
 21
754.8
 31
0.0
  0
LINE
  5
268
330
1D
100
AcDbEntity
  8
0
100
AcDbLine
 10
196.755
 20
752.8
 30
0.0
 11
196.755
 21
753.3
 31
0.0
  0
LINE
  5
269
330
1D
100
AcDbEntity
  8
0
100
AcDbLine
 10
196.755
 20
753.3
 30
0.0
 11
196.755
 21
752.8
 31
0.0
  0
LINE
  5
26A
330
1D
100
AcDbEntity
  8
0
100
AcDbLine
 10
196.755
 20
753.3
 30
0.0
 11
196.755
 21
754.3
 31
0.0
  0
LINE
  5
26B
330
1D
100
AcDbEntity
  8
0
100
AcDbLine
 10
196.755
 20
754.8
 30
0.0
 11
196.755
 21
754.3
 31
0.0
  0
LINE
  5
26C
330
1D
100
AcDbEntity
  8
0
100
AcDbLine
 10
196.245
 20
754.8
 30
0.0
 11
196.245
 21
759.6
 31
0.0
  0
LINE
  5
26D
330
1D
100
AcDbEntity
  8
0
100
AcDbLine
 10
217.0
 20
743.464
 30
0.0
 11
217.0
 21
739.288
 31
0.0
  0
LINE
  5
26E
330
1D
100
AcDbEntity
  8
0
100
AcDbLine
 10
217.0
 20
743.464
 30
0.0
 11
217.0
 21
748.0
 31
0.0
  0
LINE
  5
26F
330
1D
100
AcDbEntity
  8
0
100
AcDbLine
 10
217.0
 20
748.0
 30
0.0
 11
217.0
 21
752.536
 31
0.0
  0
LINE
  5
270
330
1D
100
AcDbEntity
  8
0
100
AcDbLine
 10
217.0
 20
748.0
 30
0.0
 11
217.0
 21
743.464
 31
0.0
  0
LINE
  5
271
330
1D
100
AcDbEntity
  8
0
100
AcDbLine
 10
192.946
 20
759.6
 30
0.0
 11
193.571
 21
759.6
 31
0.0
  0
LINE
  5
272
330
1D
100
AcDbEntity
  8
0
100
AcDbLine
 10
192.979
 20
759.6
 30
0.0
 11
193.571
 21
759.6
 31
0.0
  0
LINE
  5
274
330
1D
100
AcDbEntity
  8
0
100
AcDbLine
 10
195.622
 20
759.6
 30
0.0
 11
195.935
 21
759.6
 31
0.0
  0
LINE
  5
275
330
1D
100
AcDbEntity
  8
0
100
AcDbLine
 10
195.132
 20
759.6
 30
0.0
 11
195.935
 21
759.6
 31
0.0
  0
LINE
  5
276
330
1D
100
AcDbEntity
  8
0
100
AcDbLine
 10
196.188797118156
 20
759.6
 30
0.0
 11
196.755
 21
759.6
 31
0.0
  0
LINE
  5
277
330
1D
100
AcDbEntity
  8
0
100
AcDbLine
 10
195.935
 20
759.6
 30
0.0
 11
196.091
 21
760.1
 31
0.0
  0
LINE
  5
278
330
1D
100
AcDbEntity
  8
0
100
AcDbLine
 10
193.571
 20
759.6
 30
0.0
 11
193.868
 21
760.1
 31
0.0
  0
LINE
  5
279
330
1D
100
AcDbEntity
  8
0
100
AcDbLine
 10
192.673
 20
759.6
 30
0.0
 11
192.979
 21
759.6
 31
0.0
  0
LINE
  5
27A
330
1D
100
AcDbEntity
  8
0
100
AcDbLine
 10
193.868
 20
760.1
 30
0.0
 11
193.868
 21
761.1
 31
0.0
  0
LINE
  5
27C
330
1D
100
AcDbEntity
  8
0
100
AcDbLine
 10
195.466
 20
760.1
 30
0.0
 11
195.466
 21
761.1
 31
0.0
  0
LINE
  5
27D
330
1D
100
AcDbEntity
  8
0
100
AcDbLine
 10
195.466
 20
760.1
 30
0.0
 11
195.622
 21
759.6
 31
0.0
  0
LINE
  5
27E
330
1D
100
AcDbEntity
  8
0
100
AcDbLine
 10
196.091
 20
760.1
 30
0.0
 11
196.091
 21
761.1
 31
0.0
  0
LINE
  5
280
330
1D
100
AcDbEntity
  8
0
100
AcDbLine
 10
193.868
 20
761.1
 30
0.0
 11
193.868
 21
760.1
 31
0.0
  0
LINE
  5
282
330
1D
100
AcDbEntity
  8
0
100
AcDbLine
 10
196.091
 20
761.1
 30
0.0
 11
196.091
 21
760.1
 31
0.0
  0
LINE
  5
283
330
1D
100
AcDbEntity
  8
0
100
AcDbLine
 10
195.466
 20
761.1
 30
0.0
 11
195.466
 21
760.1
 31
0.0
  0
LINE
  5
284
330
1D
100
AcDbEntity
  8
0
100
AcDbLine
 10
195.466
 20
761.1
 30
0.0
 11
195.622
 21
761.6
 31
0.0
  0
LINE
  5
286
330
1D
100
AcDbEntity
  8
0
100
AcDbLine
 10
192.682
 20
760.1
 30
0.0
 11
192.979
 21
759.6
 31
0.0
  0
LINE
  5
287
330
1D
100
AcDbEntity
  8
0
100
AcDbLine
 10
192.682
 20
760.1
 30
0.0
 11
192.682
 21
761.1
 31
0.0
  0
LINE
  5
289
330
1D
100
AcDbEntity
  8
0
100
AcDbLine
 10
192.979
 20
761.6
 30
0.0
 11
193.571
 21
761.6
 31
0.0
  0
LINE
  5
28B
330
1D
100
AcDbEntity
  8
0
100
AcDbLine
 10
195.622
 20
761.6
 30
0.0
 11
195.935
 21
761.6
 31
0.0
  0
LINE
  5
28C
330
1D
100
AcDbEntity
  8
0
100
AcDbLine
 10
196.193500288184
 20
761.6
 30
0.0
 11
196.755
 21
761.6
 31
0.0
  0
LINE
  5
28D
330
1D
100
AcDbEntity
  8
0
100
AcDbLine
 10
195.935
 20
761.6
 30
0.0
 11
196.091
 21
761.1
 31
0.0
  0
LINE
  5
28E
330
1D
100
AcDbEntity
  8
0
100
AcDbLine
 10
193.571
 20
761.6
 30
0.0
 11
193.868
 21
761.1
 31
0.0
  0
LINE
  5
28F
330
1D
100
AcDbEntity
  8
0
100
AcDbLine
 10
192.673
 20
761.6
 30
0.0
 11
192.979
 21
761.6
 31
0.0
  0
LINE
  5
290
330
1D
100
AcDbEntity
  8
0
100
AcDbLine
 10
192.682
 20
761.1
 30
0.0
 11
192.682
 21
760.1
 31
0.0
  0
LINE
  5
291
330
1D
100
AcDbEntity
  8
0
100
AcDbLine
 10
192.682
 20
761.1
 30
0.0
 11
192.979
 21
761.6
 31
0.0
  0
LINE
  5
293
330
1D
100
AcDbEntity
  8
0
100
AcDbLine
 10
196.245
 20
759.6
 30
0.0
 11
196.245
 21
754.8
 31
0.0
  0
LINE
  5
294
330
1D
100
AcDbEntity
  8
0
100
AcDbLine
 10
196.245
 20
759.6
 30
0.0
 11
196.755
 21
759.6
 31
0.0
  0
LINE
  5
295
330
1D
100
AcDbEntity
  8
0
100
AcDbLine
 10
196.755
 20
759.6
 30
0.0
 11
196.755
 21
760.1
 31
0.0
  0
LINE
  5
296
330
1D
100
AcDbEntity
  8
0
100
AcDbLine
 10
196.755
 20
761.6
 30
0.0
 11
196.755
 21
761.1
 31
0.0
  0
LINE
  5
297
330
1D
100
AcDbEntity
  8
0
100
AcDbLine
 10
196.755
 20
761.1
 30
0.0
 11
196.755
 21
761.6
 31
0.0
  0
LINE
  5
298
330
1D
100
AcDbEntity
  8
0
100
AcDbLine
 10
196.755
 20
761.1
 30
0.0
 11
196.755
 21
760.1
 31
0.0
  0
LINE
  5
299
330
1D
100
AcDbEntity
  8
0
100
AcDbLine
 10
196.755
 20
760.1
 30
0.0
 11
196.755
 21
761.1
 31
0.0
  0
LINE
  5
29A
330
1D
100
AcDbEntity
  8
0
100
AcDbLine
 10
196.755
 20
760.1
 30
0.0
 11
196.755
 21
759.6
 31
0.0
  0
LINE
  5
29B
330
1D
100
AcDbEntity
  8
0
100
AcDbLine
 10
196.245
 20
761.6
 30
0.0
 11
196.245
 21
766.4
 31
0.0
  0
LINE
  5
29C
330
1D
100
AcDbEntity
  8
0
100
AcDbLine
 10
171.755
 20
783.5
 30
0.0
 11
172.775
 21
784.0
 31
0.0
  0
LINE
  5
29D
330
1D
100
AcDbEntity
  8
0
100
AcDbLine
 10
171.755
 20
783.5
 30
0.0
 11
172.163
 21
783.5
 31
0.0
  0
LINE
  5
29E
330
1D
100
AcDbEntity
  8
0
100
AcDbLine
 10
171.755
 20
783.5
 30
0.0
 11
171.755
 21
702.0
 31
0.0
  0
LINE
  5
29F
330
1D
100
AcDbEntity
  8
0
100
AcDbLine
 10
171.755
 20
784.5
 30
0.0
 11
171.755
 21
803.5
 31
0.0
  0
LINE
  5
2A0
330
1D
100
AcDbEntity
  8
0
100
AcDbLine
 10
171.755
 20
784.5
 30
0.0
 11
172.775
 21
784.0
 31
0.0
  0
LINE
  5
2A1
330
1D
100
AcDbEntity
  8
0
100
AcDbLine
 10
171.755
 20
784.5
 30
0.0
 11
172.163
 21
784.5
 31
0.0
  0
LINE
  5
2A2
330
1D
100
AcDbEntity
  8
0
100
AcDbLine
 10
172.163
 20
783.5
 30
0.0
 11
173.388
 21
783.5
 31
0.0
  0
LINE
  5
2A3
330
1D
100
AcDbEntity
  8
0
100
AcDbLine
 10
172.163
 20
784.5
 30
0.0
 11
173.388
 21
784.5
 31
0.0
  0
LINE
  5
2A4
330
1D
100
AcDbEntity
  8
0
100
AcDbLine
 10
172.163
 20
803.5
 30
0.0
 11
173.388
 21
803.5
 31
0.0
  0
LINE
  5
2A5
330
1D
100
AcDbEntity
  8
0
100
AcDbLine
 10
171.755
 20
803.5
 30
0.0
 11
172.265
 21
804.0
 31
0.0
  0
LINE
  5
2A6
330
1D
100
AcDbEntity
  8
0
100
AcDbLine
 10
171.755
 20
803.5
 30
0.0
 11
172.163
 21
803.5
 31
0.0
  0
LINE
  5
2A7
330
1D
100
AcDbEntity
  8
0
100
AcDbLine
 10
172.265
 20
804.0
 30
0.0
 11
172.673
 21
804.0
 31
0.0
  0
LINE
  5
2A8
330
1D
100
AcDbEntity
  8
0
100
AcDbLine
 10
173.388
 20
783.5
 30
0.0
 11
175.327
 21
783.5
 31
0.0
  0
LINE
  5
2A9
330
1D
100
AcDbEntity
  8
0
100
AcDbLine
 10
172.775
 20
784.0
 30
0.0
 11
173.184
 21
784.0
 31
0.0
  0
LINE
  5
2AA
330
1D
100
AcDbEntity
  8
0
100
AcDbLine
 10
173.184
 20
784.0
 30
0.0
 11
174.306
 21
784.0
 31
0.0
  0
LINE
  5
2AB
330
1D
100
AcDbEntity
  8
0
100
AcDbLine
 10
175.327
 20
783.5
 30
0.0
 11
177.878
 21
783.5
 31
0.0
  0
LINE
  5
2AC
330
1D
100
AcDbEntity
  8
0
100
AcDbLine
 10
175.327
 20
784.5
 30
0.0
 11
177.878
 21
784.5
 31
0.0
  0
LINE
  5
2AD
330
1D
100
AcDbEntity
  8
0
100
AcDbLine
 10
175.327
 20
803.5
 30
0.0
 11
177.878
 21
803.5
 31
0.0
  0
LINE
  5
2AE
330
1D
100
AcDbEntity
  8
0
100
AcDbLine
 10
174.306
 20
784.0
 30
0.0
 11
176.041
 21
784.0
 31
0.0
  0
LINE
  5
2AF
330
1D
100
AcDbEntity
  8
0
100
AcDbLine
 10
173.388
 20
784.5
 30
0.0
 11
175.327
 21
784.5
 31
0.0
  0
LINE
  5
2B0
330
1D
100
AcDbEntity
  8
0
100
AcDbLine
 10
173.388
 20
803.5
 30
0.0
 11
175.327
 21
803.5
 31
0.0
  0
LINE
  5
2B1
330
1D
100
AcDbEntity
  8
0
100
AcDbLine
 10
172.673
 20
804.0
 30
0.0
 11
173.796
 21
804.0
 31
0.0
  0
LINE
  5
2B2
330
1D
100
AcDbEntity
  8
0
100
AcDbLine
 10
173.796
 20
804.0
 30
0.0
 11
175.735
 21
804.0
 31
0.0
  0
LINE
  5
2B3
330
1D
100
AcDbEntity
  8
0
100
AcDbLine
 10
177.878
 20
783.5
 30
0.0
 11
180.837
 21
783.5
 31
0.0
  0
LINE
  5
2B4
330
1D
100
AcDbEntity
  8
0
100
AcDbLine
 10
180.837
 20
783.5
 30
0.0
 11
184.0
 21
783.5
 31
0.0
  0
LINE
  5
2B5
330
1D
100
AcDbEntity
  8
0
100
AcDbLine
 10
178.388
 20
784.0
 30
0.0
 11
181.143
 21
784.0
 31
0.0
  0
LINE
  5
2B6
330
1D
100
AcDbEntity
  8
0
100
AcDbLine
 10
176.041
 20
784.0
 30
0.0
 11
178.388
 21
784.0
 31
0.0
  0
LINE
  5
2B7
330
1D
100
AcDbEntity
  8
0
100
AcDbLine
 10
180.837
 20
784.5
 30
0.0
 11
184.0
 21
784.5
 31
0.0
  0
LINE
  5
2B8
330
1D
100
AcDbEntity
  8
0
100
AcDbLine
 10
177.878
 20
784.5
 30
0.0
 11
180.837
 21
784.5
 31
0.0
  0
LINE
  5
2B9
330
1D
100
AcDbEntity
  8
0
100
AcDbLine
 10
180.837
 20
803.5
 30
0.0
 11
184.0
 21
803.5
 31
0.0
  0
LINE
  5
2BA
330
1D
100
AcDbEntity
  8
0
100
AcDbLine
 10
177.878
 20
803.5
 30
0.0
 11
180.837
 21
803.5
 31
0.0
  0
LINE
  5
2BB
330
1D
100
AcDbEntity
  8
0
100
AcDbLine
 10
184.0
 20
783.5
 30
0.0
 11
187.163
 21
783.5
 31
0.0
  0
LINE
  5
2BC
330
1D
100
AcDbEntity
  8
0
100
AcDbLine
 10
187.163
 20
783.5
 30
0.0
 11
190.122
 21
783.5
 31
0.0
  0
LINE
  5
2BD
330
1D
100
AcDbEntity
  8
0
100
AcDbLine
 10
184.0
 20
784.0
 30
0.0
 11
186.857
 21
784.0
 31
0.0
  0
LINE
  5
2BE
330
1D
100
AcDbEntity
  8
0
100
AcDbLine
 10
186.857
 20
784.0
 30
0.0
 11
189.612
 21
784.0
 31
0.0
  0
LINE
  5
2C5
330
1D
100
AcDbEntity
  8
0
100
AcDbLine
 10
191.959
 20
784.0
 30
0.0
 11
193.694
 21
784.0
 31
0.0
  0
LINE
  5
2C6
330
1D
100
AcDbEntity
  8
0
100
AcDbLine
 10
190.122
 20
783.5
 30
0.0
 11
192.673
 21
783.5
 31
0.0
  0
LINE
  5
2C7
330
1D
100
AcDbEntity
  8
0
100
AcDbLine
 10
189.612
 20
784.0
 30
0.0
 11
191.959
 21
784.0
 31
0.0
  0
LINE
  5
2C8
330
1D
100
AcDbEntity
  8
0
100
AcDbLine
 10
184.0
 20
784.5
 30
0.0
 11
187.163
 21
784.5
 31
0.0
  0
LINE
  5
2C9
330
1D
100
AcDbEntity
  8
0
100
AcDbLine
 10
187.163
 20
784.5
 30
0.0
 11
190.122
 21
784.5
 31
0.0
  0
LINE
  5
2CA
330
1D
100
AcDbEntity
  8
0
100
AcDbLine
 10
190.122
 20
784.5
 30
0.0
 11
192.673
 21
784.5
 31
0.0
  0
LINE
  5
2CB
330
1D
100
AcDbEntity
  8
0
100
AcDbLine
 10
181.143
 20
784.0
 30
0.0
 11
184.0
 21
784.0
 31
0.0
  0
LINE
  5
2CC
330
1D
100
AcDbEntity
  8
0
100
AcDbLine
 10
192.550963688761
 20
775.2
 30
0.0
 11
192.979
 21
775.2
 31
0.0
  0
LINE
  5
2CD
330
1D
100
AcDbEntity
  8
0
100
AcDbLine
 10
192.673
 20
766.4
 30
0.0
 11
192.979
 21
766.4
 31
0.0
  0
LINE
  5
2CE
330
1D
100
AcDbEntity
  8
0
100
AcDbLine
 10
192.673
 20
768.4
 30
0.0
 11
192.979
 21
768.4
 31
0.0
  0
LINE
  5
2CF
330
1D
100
AcDbEntity
  8
0
100
AcDbLine
 10
192.673
 20
773.2
 30
0.0
 11
192.979
 21
773.2
 31
0.0
  0
LINE
  5
2D0
330
1D
100
AcDbEntity
  8
0
100
AcDbLine
 10
192.621538904899
 20
780.0
 30
0.0
 11
192.979
 21
780.0
 31
0.0
  0
LINE
  5
2D1
330
1D
100
AcDbEntity
  8
0
100
AcDbLine
 10
192.650945244957
 20
782.0
 30
0.0
 11
192.979
 21
782.0
 31
0.0
  0
LINE
  5
2D2
330
1D
100
AcDbEntity
  8
0
100
AcDbLine
 10
192.682
 20
766.9
 30
0.0
 11
192.682
 21
767.9
 31
0.0
  0
LINE
  5
2D3
330
1D
100
AcDbEntity
  8
0
100
AcDbLine
 10
192.682
 20
766.9
 30
0.0
 11
192.979
 21
766.4
 31
0.0
  0
LINE
  5
2D4
330
1D
100
AcDbEntity
  8
0
100
AcDbLine
 10
192.682
 20
767.9
 30
0.0
 11
192.979
 21
768.4
 31
0.0
  0
LINE
  5
2D5
330
1D
100
AcDbEntity
  8
0
100
AcDbLine
 10
192.682
 20
767.9
 30
0.0
 11
192.682
 21
766.9
 31
0.0
  0
LINE
  5
2D6
330
1D
100
AcDbEntity
  8
0
100
AcDbLine
 10
192.682
 20
773.7
 30
0.0
 11
192.979
 21
773.2
 31
0.0
  0
LINE
  5
2D7
330
1D
100
AcDbEntity
  8
0
100
AcDbLine
 10
192.682
 20
773.7
 30
0.0
 11
192.682
 21
774.7
 31
0.0
  0
LINE
  5
2D8
330
1D
100
AcDbEntity
  8
0
100
AcDbLine
 10
192.682
 20
774.7
 30
0.0
 11
192.979
 21
775.2
 31
0.0
  0
LINE
  5
2D9
330
1D
100
AcDbEntity
  8
0
100
AcDbLine
 10
192.682
 20
774.7
 30
0.0
 11
192.682
 21
773.7
 31
0.0
  0
LINE
  5
2DA
330
1D
100
AcDbEntity
  8
0
100
AcDbLine
 10
192.682
 20
780.5
 30
0.0
 11
192.979
 21
780.0
 31
0.0
  0
LINE
  5
2DB
330
1D
100
AcDbEntity
  8
0
100
AcDbLine
 10
192.682
 20
780.5
 30
0.0
 11
192.682
 21
781.5
 31
0.0
  0
LINE
  5
2DC
330
1D
100
AcDbEntity
  8
0
100
AcDbLine
 10
192.946
 20
766.4
 30
0.0
 11
193.571
 21
766.4
 31
0.0
  0
LINE
  5
2DD
330
1D
100
AcDbEntity
  8
0
100
AcDbLine
 10
192.946
 20
773.2
 30
0.0
 11
193.571
 21
773.2
 31
0.0
  0
LINE
  5
2DE
330
1D
100
AcDbEntity
  8
0
100
AcDbLine
 10
192.979
 20
766.4
 30
0.0
 11
193.571
 21
766.4
 31
0.0
  0
LINE
  5
2DF
330
1D
100
AcDbEntity
  8
0
100
AcDbLine
 10
192.979
 20
773.2
 30
0.0
 11
193.571
 21
773.2
 31
0.0
  0
LINE
  5
2E0
330
1D
100
AcDbEntity
  8
0
100
AcDbLine
 10
192.979
 20
768.4
 30
0.0
 11
193.571
 21
768.4
 31
0.0
  0
LINE
  5
2E1
330
1D
100
AcDbEntity
  8
0
100
AcDbLine
 10
192.979
 20
775.2
 30
0.0
 11
193.571
 21
775.2
 31
0.0
  0
LINE
  5
2E2
330
1D
100
AcDbEntity
  8
0
100
AcDbLine
 10
192.946
 20
780.0
 30
0.0
 11
193.571
 21
780.0
 31
0.0
  0
LINE
  5
2E3
330
1D
100
AcDbEntity
  8
0
100
AcDbLine
 10
192.979
 20
780.0
 30
0.0
 11
193.571
 21
780.0
 31
0.0
  0
LINE
  5
2E4
330
1D
100
AcDbEntity
  8
0
100
AcDbLine
 10
193.571
 20
766.4
 30
0.0
 11
193.868
 21
766.9
 31
0.0
  0
LINE
  5
2E5
330
1D
100
AcDbEntity
  8
0
100
AcDbLine
 10
193.571
 20
773.2
 30
0.0
 11
193.868
 21
773.7
 31
0.0
  0
LINE
  5
2E6
330
1D
100
AcDbEntity
  8
0
100
AcDbLine
 10
193.571
 20
768.4
 30
0.0
 11
193.868
 21
767.9
 31
0.0
  0
LINE
  5
2E7
330
1D
100
AcDbEntity
  8
0
100
AcDbLine
 10
193.868
 20
773.7
 30
0.0
 11
193.868
 21
774.7
 31
0.0
  0
LINE
  5
2E8
330
1D
100
AcDbEntity
  8
0
100
AcDbLine
 10
193.868
 20
774.7
 30
0.0
 11
193.868
 21
773.7
 31
0.0
  0
LINE
  5
2E9
330
1D
100
AcDbEntity
  8
0
100
AcDbLine
 10
193.868
 20
767.9
 30
0.0
 11
193.868
 21
766.9
 31
0.0
  0
LINE
  5
2EA
330
1D
100
AcDbEntity
  8
0
100
AcDbLine
 10
193.868
 20
766.9
 30
0.0
 11
193.868
 21
767.9
 31
0.0
  0
LINE
  5
2EB
330
1D
100
AcDbEntity
  8
0
100
AcDbLine
 10
193.571
 20
775.2
 30
0.0
 11
193.868
 21
774.7
 31
0.0
  0
LINE
  5
2EC
330
1D
100
AcDbEntity
  8
0
100
AcDbLine
 10
193.868
 20
781.5
 30
0.0
 11
193.868
 21
780.5
 31
0.0
  0
LINE
  5
2ED
330
1D
100
AcDbEntity
  8
0
100
AcDbLine
 10
193.868
 20
780.5
 30
0.0
 11
193.868
 21
781.5
 31
0.0
  0
LINE
  5
2EE
330
1D
100
AcDbEntity
  8
0
100
AcDbLine
 10
193.571
 20
780.0
 30
0.0
 11
193.868
 21
780.5
 31
0.0
  0
LINE
  5
2EF
330
1D
100
AcDbEntity
  8
0
100
AcDbLine
 10
192.979
 20
782.0
 30
0.0
 11
193.571
 21
782.0
 31
0.0
  0
LINE
  5
2F0
330
1D
100
AcDbEntity
  8
0
100
AcDbLine
 10
193.571
 20
782.0
 30
0.0
 11
193.868
 21
781.5
 31
0.0
  0
LINE
  5
2F1
330
1D
100
AcDbEntity
  8
0
100
AcDbLine
 10
192.682
 20
781.5
 30
0.0
 11
192.979
 21
782.0
 31
0.0
  0
LINE
  5
2F2
330
1D
100
AcDbEntity
  8
0
100
AcDbLine
 10
192.682
 20
781.5
 30
0.0
 11
192.682
 21
780.5
 31
0.0
  0
LINE
  5
2F3
330
1D
100
AcDbEntity
  8
0
100
AcDbLine
 10
194.612
 20
783.5
 30
0.0
 11
195.837
 21
783.5
 31
0.0
  0
LINE
  5
2F4
330
1D
100
AcDbEntity
  8
0
100
AcDbLine
 10
192.673
 20
783.5
 30
0.0
 11
194.612
 21
783.5
 31
0.0
  0
LINE
  5
2F5
330
1D
100
AcDbEntity
  8
0
100
AcDbLine
 10
193.694
 20
784.0
 30
0.0
 11
194.816
 21
784.0
 31
0.0
  0
LINE
  5
301
330
1D
100
AcDbEntity
  8
0
100
AcDbLine
 10
195.132
 20
766.4
 30
0.0
 11
195.935
 21
766.4
 31
0.0
  0
LINE
  5
302
330
1D
100
AcDbEntity
  8
0
100
AcDbLine
 10
195.466
 20
766.9
 30
0.0
 11
195.466
 21
767.9
 31
0.0
  0
LINE
  5
303
330
1D
100
AcDbEntity
  8
0
100
AcDbLine
 10
195.466
 20
766.9
 30
0.0
 11
195.622
 21
766.4
 31
0.0
  0
LINE
  5
304
330
1D
100
AcDbEntity
  8
0
100
AcDbLine
 10
195.466
 20
767.9
 30
0.0
 11
195.466
 21
766.9
 31
0.0
  0
LINE
  5
305
330
1D
100
AcDbEntity
  8
0
100
AcDbLine
 10
195.466
 20
767.9
 30
0.0
 11
195.622
 21
768.4
 31
0.0
  0
LINE
  5
306
330
1D
100
AcDbEntity
  8
0
100
AcDbLine
 10
195.466
 20
773.7
 30
0.0
 11
195.622
 21
773.2
 31
0.0
  0
LINE
  5
307
330
1D
100
AcDbEntity
  8
0
100
AcDbLine
 10
195.466
 20
773.7
 30
0.0
 11
195.466
 21
774.7
 31
0.0
  0
LINE
  5
308
330
1D
100
AcDbEntity
  8
0
100
AcDbLine
 10
195.132
 20
773.2
 30
0.0
 11
195.935
 21
773.2
 31
0.0
  0
LINE
  5
309
330
1D
100
AcDbEntity
  8
0
100
AcDbLine
 10
195.466
 20
774.7
 30
0.0
 11
195.622
 21
775.2
 31
0.0
  0
LINE
  5
30A
330
1D
100
AcDbEntity
  8
0
100
AcDbLine
 10
195.466
 20
774.7
 30
0.0
 11
195.466
 21
773.7
 31
0.0
  0
LINE
  5
30B
330
1D
100
AcDbEntity
  8
0
100
AcDbLine
 10
195.466
 20
780.5
 30
0.0
 11
195.622
 21
780.0
 31
0.0
  0
LINE
  5
30C
330
1D
100
AcDbEntity
  8
0
100
AcDbLine
 10
195.466
 20
780.5
 30
0.0
 11
195.466
 21
781.5
 31
0.0
  0
LINE
  5
30D
330
1D
100
AcDbEntity
  8
0
100
AcDbLine
 10
195.132
 20
780.0
 30
0.0
 11
195.935
 21
780.0
 31
0.0
  0
LINE
  5
30E
330
1D
100
AcDbEntity
  8
0
100
AcDbLine
 10
195.622
 20
766.4
 30
0.0
 11
195.935
 21
766.4
 31
0.0
  0
LINE
  5
30F
330
1D
100
AcDbEntity
  8
0
100
AcDbLine
 10
195.622
 20
768.4
 30
0.0
 11
195.935
 21
768.4
 31
0.0
  0
LINE
  5
310
330
1D
100
AcDbEntity
  8
0
100
AcDbLine
 10
195.622
 20
773.2
 30
0.0
 11
195.935
 21
773.2
 31
0.0
  0
LINE
  5
311
330
1D
100
AcDbEntity
  8
0
100
AcDbLine
 10
195.622
 20
775.2
 30
0.0
 11
195.935
 21
775.2
 31
0.0
  0
LINE
  5
312
330
1D
100
AcDbEntity
  8
0
100
AcDbLine
 10
195.622
 20
780.0
 30
0.0
 11
195.935
 21
780.0
 31
0.0
  0
LINE
  5
313
330
1D
100
AcDbEntity
  8
0
100
AcDbLine
 10
195.466
 20
781.5
 30
0.0
 11
195.622
 21
782.0
 31
0.0
  0
LINE
  5
314
330
1D
100
AcDbEntity
  8
0
100
AcDbLine
 10
195.466
 20
781.5
 30
0.0
 11
195.466
 21
780.5
 31
0.0
  0
LINE
  5
315
330
1D
100
AcDbEntity
  8
0
100
AcDbLine
 10
195.622
 20
782.0
 30
0.0
 11
195.935
 21
782.0
 31
0.0
  0
LINE
  5
317
330
1D
100
AcDbEntity
  8
0
100
AcDbLine
 10
195.837
 20
783.5
 30
0.0
 11
196.245
 21
783.5
 31
0.0
  0
LINE
  5
318
330
1D
100
AcDbEntity
  8
0
100
AcDbLine
 10
194.816
 20
784.0
 30
0.0
 11
195.224
 21
784.0
 31
0.0
  0
LINE
  5
319
330
1D
100
AcDbEntity
  8
0
100
AcDbLine
 10
195.224
 20
784.0
 30
0.0
 11
196.245
 21
784.5
 31
0.0
  0
LINE
  5
31A
330
1D
100
AcDbEntity
  8
0
100
AcDbLine
 10
195.224
 20
784.0
 30
0.0
 11
196.245
 21
783.5
 31
0.0
  0
LINE
  5
31B
330
1D
100
AcDbEntity
  8
0
100
AcDbLine
 10
195.935
 20
766.4
 30
0.0
 11
196.091
 21
766.9
 31
0.0
  0
LINE
  5
31C
330
1D
100
AcDbEntity
  8
0
100
AcDbLine
 10
196.091
 20
767.9
 30
0.0
 11
196.091
 21
766.9
 31
0.0
  0
LINE
  5
31D
330
1D
100
AcDbEntity
  8
0
100
AcDbLine
 10
196.204787896254
 20
766.4
 30
0.0
 11
196.755
 21
766.4
 31
0.0
  0
LINE
  5
320
330
1D
100
AcDbEntity
  8
0
100
AcDbLine
 10
196.209491066282
 20
768.4
 30
0.0
 11
196.755
 21
768.4
 31
0.0
  0
LINE
  5
321
330
1D
100
AcDbEntity
  8
0
100
AcDbLine
 10
196.091
 20
766.9
 30
0.0
 11
196.091
 21
767.9
 31
0.0
  0
LINE
  5
322
330
1D
100
AcDbEntity
  8
0
100
AcDbLine
 10
195.935
 20
768.4
 30
0.0
 11
196.091
 21
767.9
 31
0.0
  0
LINE
  5
323
330
1D
100
AcDbEntity
  8
0
100
AcDbLine
 10
196.245
 20
766.4
 30
0.0
 11
196.245
 21
761.6
 31
0.0
  0
LINE
  5
324
330
1D
100
AcDbEntity
  8
0
100
AcDbLine
 10
196.245
 20
766.4
 30
0.0
 11
196.755
 21
766.4
 31
0.0
  0
LINE
  5
325
330
1D
100
AcDbEntity
  8
0
100
AcDbLine
 10
196.220778674352
 20
773.2
 30
0.0
 11
196.755
 21
773.2
 31
0.0
  0
LINE
  5
326
330
1D
100
AcDbEntity
  8
0
100
AcDbLine
 10
195.935
 20
773.2
 30
0.0
 11
196.091
 21
773.7
 31
0.0
  0
LINE
  5
327
330
1D
100
AcDbEntity
  8
0
100
AcDbLine
 10
195.935
 20
775.2
 30
0.0
 11
196.091
 21
774.7
 31
0.0
  0
LINE
  5
328
330
1D
100
AcDbEntity
  8
0
100
AcDbLine
 10
195.935
 20
780.0
 30
0.0
 11
196.091
 21
780.5
 31
0.0
  0
LINE
  5
329
330
1D
100
AcDbEntity
  8
0
100
AcDbLine
 10
196.091
 20
773.7
 30
0.0
 11
196.091
 21
774.7
 31
0.0
  0
LINE
  5
32B
330
1D
100
AcDbEntity
  8
0
100
AcDbLine
 10
196.22548184438
 20
775.2
 30
0.0
 11
196.755
 21
775.2
 31
0.0
  0
LINE
  5
32D
330
1D
100
AcDbEntity
  8
0
100
AcDbLine
 10
196.23676945245
 20
780.0
 30
0.0
 11
196.755
 21
780.0
 31
0.0
  0
LINE
  5
32F
330
1D
100
AcDbEntity
  8
0
100
AcDbLine
 10
196.091
 20
774.7
 30
0.0
 11
196.091
 21
773.7
 31
0.0
  0
LINE
  5
331
330
1D
100
AcDbEntity
  8
0
100
AcDbLine
 10
196.241472622478
 20
782.0
 30
0.0
 11
196.755
 21
782.0
 31
0.0
  0
LINE
  5
332
330
1D
100
AcDbEntity
  8
0
100
AcDbLine
 10
196.091
 20
781.5
 30
0.0
 11
196.091
 21
780.5
 31
0.0
  0
LINE
  5
333
330
1D
100
AcDbEntity
  8
0
100
AcDbLine
 10
196.091
 20
780.5
 30
0.0
 11
196.091
 21
781.5
 31
0.0
  0
LINE
  5
334
330
1D
100
AcDbEntity
  8
0
100
AcDbLine
 10
195.935
 20
782.0
 30
0.0
 11
196.091
 21
781.5
 31
0.0
  0
LINE
  5
335
330
1D
100
AcDbEntity
  8
0
100
AcDbLine
 10
196.245
 20
773.2
 30
0.0
 11
196.245
 21
768.4
 31
0.0
  0
LINE
  5
336
330
1D
100
AcDbEntity
  8
0
100
AcDbLine
 10
196.245
 20
773.2
 30
0.0
 11
196.755
 21
773.2
 31
0.0
  0
LINE
  5
337
330
1D
100
AcDbEntity
  8
0
100
AcDbLine
 10
196.245
 20
780.0
 30
0.0
 11
196.245
 21
775.2
 31
0.0
  0
LINE
  5
338
330
1D
100
AcDbEntity
  8
0
100
AcDbLine
 10
196.245
 20
780.0
 30
0.0
 11
196.755
 21
780.0
 31
0.0
  0
LINE
  5
339
330
1D
100
AcDbEntity
  8
0
100
AcDbLine
 10
196.245
 20
768.4
 30
0.0
 11
196.245
 21
773.2
 31
0.0
  0
LINE
  5
33A
330
1D
100
AcDbEntity
  8
0
100
AcDbLine
 10
196.755
 20
766.4
 30
0.0
 11
196.755
 21
766.9
 31
0.0
  0
LINE
  5
33B
330
1D
100
AcDbEntity
  8
0
100
AcDbLine
 10
196.755
 20
766.9
 30
0.0
 11
196.755
 21
767.9
 31
0.0
  0
LINE
  5
33C
330
1D
100
AcDbEntity
  8
0
100
AcDbLine
 10
196.755
 20
766.9
 30
0.0
 11
196.755
 21
766.4
 31
0.0
  0
LINE
  5
33D
330
1D
100
AcDbEntity
  8
0
100
AcDbLine
 10
196.755
 20
767.9
 30
0.0
 11
196.755
 21
766.9
 31
0.0
  0
LINE
  5
33E
330
1D
100
AcDbEntity
  8
0
100
AcDbLine
 10
196.755
 20
767.9
 30
0.0
 11
196.755
 21
768.4
 31
0.0
  0
LINE
  5
33F
330
1D
100
AcDbEntity
  8
0
100
AcDbLine
 10
196.755
 20
768.4
 30
0.0
 11
196.755
 21
767.9
 31
0.0
  0
LINE
  5
340
330
1D
100
AcDbEntity
  8
0
100
AcDbLine
 10
196.755
 20
773.7
 30
0.0
 11
196.755
 21
773.2
 31
0.0
  0
LINE
  5
341
330
1D
100
AcDbEntity
  8
0
100
AcDbLine
 10
196.755
 20
773.7
 30
0.0
 11
196.755
 21
774.7
 31
0.0
  0
LINE
  5
342
330
1D
100
AcDbEntity
  8
0
100
AcDbLine
 10
196.755
 20
773.2
 30
0.0
 11
196.755
 21
773.7
 31
0.0
  0
LINE
  5
343
330
1D
100
AcDbEntity
  8
0
100
AcDbLine
 10
196.755
 20
775.2
 30
0.0
 11
196.755
 21
774.7
 31
0.0
  0
LINE
  5
344
330
1D
100
AcDbEntity
  8
0
100
AcDbLine
 10
196.755
 20
774.7
 30
0.0
 11
196.755
 21
775.2
 31
0.0
  0
LINE
  5
345
330
1D
100
AcDbEntity
  8
0
100
AcDbLine
 10
196.755
 20
774.7
 30
0.0
 11
196.755
 21
773.7
 31
0.0
  0
LINE
  5
346
330
1D
100
AcDbEntity
  8
0
100
AcDbLine
 10
196.755
 20
781.5
 30
0.0
 11
196.755
 21
780.5
 31
0.0
  0
LINE
  5
347
330
1D
100
AcDbEntity
  8
0
100
AcDbLine
 10
196.755
 20
781.5
 30
0.0
 11
196.755
 21
782.0
 31
0.0
  0
LINE
  5
348
330
1D
100
AcDbEntity
  8
0
100
AcDbLine
 10
196.755
 20
780.0
 30
0.0
 11
196.755
 21
780.5
 31
0.0
  0
LINE
  5
349
330
1D
100
AcDbEntity
  8
0
100
AcDbLine
 10
196.755
 20
780.5
 30
0.0
 11
196.755
 21
780.0
 31
0.0
  0
LINE
  5
34A
330
1D
100
AcDbEntity
  8
0
100
AcDbLine
 10
196.755
 20
780.5
 30
0.0
 11
196.755
 21
781.5
 31
0.0
  0
LINE
  5
34B
330
1D
100
AcDbEntity
  8
0
100
AcDbLine
 10
196.755
 20
782.0
 30
0.0
 11
196.755
 21
781.5
 31
0.0
  0
LINE
  5
34C
330
1D
100
AcDbEntity
  8
0
100
AcDbLine
 10
196.245
 20
775.2
 30
0.0
 11
196.245
 21
780.0
 31
0.0
  0
LINE
  5
34D
330
1D
100
AcDbEntity
  8
0
100
AcDbLine
 10
196.245
 20
783.5
 30
0.0
 11
196.245
 21
782.0
 31
0.0
  0
LINE
  5
34E
330
1D
100
AcDbEntity
  8
0
100
AcDbLine
 10
196.245
 20
782.0
 30
0.0
 11
196.245
 21
783.5
 31
0.0
  0
LINE
  5
34F
330
1D
100
AcDbEntity
  8
0
100
AcDbLine
 10
195.837
 20
784.5
 30
0.0
 11
196.245
 21
784.5
 31
0.0
  0
LINE
  5
350
330
1D
100
AcDbEntity
  8
0
100
AcDbLine
 10
196.245
 20
784.5
 30
0.0
 11
196.245
 21
803.5
 31
0.0
  0
LINE
  5
351
330
1D
100
AcDbEntity
  8
0
100
AcDbLine
 10
194.612
 20
784.5
 30
0.0
 11
195.837
 21
784.5
 31
0.0
  0
LINE
  5
352
330
1D
100
AcDbEntity
  8
0
100
AcDbLine
 10
192.673
 20
784.5
 30
0.0
 11
194.612
 21
784.5
 31
0.0
  0
LINE
  5
353
330
1D
100
AcDbEntity
  8
0
100
AcDbLine
 10
184.0
 20
803.5
 30
0.0
 11
187.163
 21
803.5
 31
0.0
  0
LINE
  5
354
330
1D
100
AcDbEntity
  8
0
100
AcDbLine
 10
187.163
 20
803.5
 30
0.0
 11
190.122
 21
803.5
 31
0.0
  0
LINE
  5
355
330
1D
100
AcDbEntity
  8
0
100
AcDbLine
 10
184.0
 20
804.0
 30
0.0
 11
187.061
 21
804.0
 31
0.0
  0
LINE
  5
356
330
1D
100
AcDbEntity
  8
0
100
AcDbLine
 10
187.061
 20
804.0
 30
0.0
 11
189.816
 21
804.0
 31
0.0
  0
LINE
  5
357
330
1D
100
AcDbEntity
  8
0
100
AcDbLine
 10
192.673
 20
803.5
 30
0.0
 11
194.612
 21
803.5
 31
0.0
  0
LINE
  5
358
330
1D
100
AcDbEntity
  8
0
100
AcDbLine
 10
190.122
 20
803.5
 30
0.0
 11
192.673
 21
803.5
 31
0.0
  0
LINE
  5
359
330
1D
100
AcDbEntity
  8
0
100
AcDbLine
 10
195.735
 20
804.0
 30
0.0
 11
196.245
 21
803.5
 31
0.0
  0
LINE
  5
35A
330
1D
100
AcDbEntity
  8
0
100
AcDbLine
 10
195.837
 20
803.5
 30
0.0
 11
196.245
 21
803.5
 31
0.0
  0
LINE
  5
35B
330
1D
100
AcDbEntity
  8
0
100
AcDbLine
 10
194.612
 20
803.5
 30
0.0
 11
195.837
 21
803.5
 31
0.0
  0
LINE
  5
35C
330
1D
100
AcDbEntity
  8
0
100
AcDbLine
 10
195.327
 20
804.0
 30
0.0
 11
195.735
 21
804.0
 31
0.0
  0
LINE
  5
35D
330
1D
100
AcDbEntity
  8
0
100
AcDbLine
 10
194.204
 20
804.0
 30
0.0
 11
195.327
 21
804.0
 31
0.0
  0
LINE
  5
35E
330
1D
100
AcDbEntity
  8
0
100
AcDbLine
 10
192.265
 20
804.0
 30
0.0
 11
194.204
 21
804.0
 31
0.0
  0
LINE
  5
35F
330
1D
100
AcDbEntity
  8
0
100
AcDbLine
 10
189.816
 20
804.0
 30
0.0
 11
192.265
 21
804.0
 31
0.0
  0
LINE
  5
360
330
1D
100
AcDbEntity
  8
0
100
AcDbLine
 10
180.939
 20
804.0
 30
0.0
 11
184.0
 21
804.0
 31
0.0
  0
LINE
  5
361
330
1D
100
AcDbEntity
  8
0
100
AcDbLine
 10
178.184
 20
804.0
 30
0.0
 11
180.939
 21
804.0
 31
0.0
  0
LINE
  5
362
330
1D
100
AcDbEntity
  8
0
100
AcDbLine
 10
175.735
 20
804.0
 30
0.0
 11
178.184
 21
804.0
 31
0.0
  0
LINE
  5
363
330
1D
100
AcDbEntity
  8
0
100
AcDbLine
 10
217.0
 20
765.568
 30
0.0
 11
217.0
 21
764.92
 31
0.0
  0
LINE
  5
364
330
1D
100
AcDbEntity
  8
0
100
AcDbLine
 10
217.0
 20
765.568
 30
0.0
 11
217.6
 21
766.0
 31
0.0
  0
LINE
  5
365
330
1D
100
AcDbEntity
  8
0
100
AcDbLine
 10
217.0
 20
764.92
 30
0.0
 11
217.0
 21
763.192
 31
0.0
  0
LINE
  5
366
330
1D
100
AcDbEntity
  8
0
100
AcDbLine
 10
217.0
 20
764.92
 30
0.0
 11
217.0
 21
765.568
 31
0.0
  0
LINE
  5
367
330
1D
100
AcDbEntity
  8
0
100
AcDbLine
 10
217.0
 20
763.192
 30
0.0
 11
217.0
 21
760.384
 31
0.0
  0
LINE
  5
368
330
1D
100
AcDbEntity
  8
0
100
AcDbLine
 10
217.0
 20
763.192
 30
0.0
 11
217.0
 21
764.92
 31
0.0
  0
LINE
  5
369
330
1D
100
AcDbEntity
  8
0
100
AcDbLine
 10
217.0
 20
760.384
 30
0.0
 11
217.0
 21
756.712
 31
0.0
  0
LINE
  5
36A
330
1D
100
AcDbEntity
  8
0
100
AcDbLine
 10
217.0
 20
760.384
 30
0.0
 11
217.0
 21
763.192
 31
0.0
  0
LINE
  5
36B
330
1D
100
AcDbEntity
  8
0
100
AcDbLine
 10
217.0
 20
756.712
 30
0.0
 11
217.0
 21
752.536
 31
0.0
  0
LINE
  5
36C
330
1D
100
AcDbEntity
  8
0
100
AcDbLine
 10
217.0
 20
756.712
 30
0.0
 11
217.0
 21
760.384
 31
0.0
  0
LINE
  5
36D
330
1D
100
AcDbEntity
  8
0
100
AcDbLine
 10
217.6
 20
732.376
 30
0.0
 11
217.6
 21
730.648
 31
0.0
  0
LINE
  5
36E
330
1D
100
AcDbEntity
  8
0
100
AcDbLine
 10
217.6
 20
732.376
 30
0.0
 11
217.6
 21
735.256
 31
0.0
  0
LINE
  5
36F
330
1D
100
AcDbEntity
  8
0
100
AcDbLine
 10
217.6
 20
735.256
 30
0.0
 11
217.6
 21
732.376
 31
0.0
  0
LINE
  5
370
330
1D
100
AcDbEntity
  8
0
100
AcDbLine
 10
217.6
 20
735.256
 30
0.0
 11
217.6
 21
739.072
 31
0.0
  0
LINE
  5
371
330
1D
100
AcDbEntity
  8
0
100
AcDbLine
 10
217.6
 20
739.072
 30
0.0
 11
217.6
 21
735.256
 31
0.0
  0
LINE
  5
372
330
1D
100
AcDbEntity
  8
0
100
AcDbLine
 10
217.6
 20
739.072
 30
0.0
 11
217.6
 21
743.392
 31
0.0
  0
LINE
  5
373
330
1D
100
AcDbEntity
  8
0
100
AcDbLine
 10
217.6
 20
743.392
 30
0.0
 11
217.6
 21
739.072
 31
0.0
  0
LINE
  5
374
330
1D
100
AcDbEntity
  8
0
100
AcDbLine
 10
217.6
 20
743.392
 30
0.0
 11
217.6
 21
748.0
 31
0.0
  0
LINE
  5
375
330
1D
100
AcDbEntity
  8
0
100
AcDbLine
 10
217.6
 20
748.0
 30
0.0
 11
217.6
 21
752.608
 31
0.0
  0
LINE
  5
376
330
1D
100
AcDbEntity
  8
0
100
AcDbLine
 10
217.6
 20
748.0
 30
0.0
 11
217.6
 21
743.392
 31
0.0
  0
LINE
  5
377
330
1D
100
AcDbEntity
  8
0
100
AcDbLine
 10
217.6
 20
766.0
 30
0.0
 11
217.6
 21
765.352
 31
0.0
  0
LINE
  5
378
330
1D
100
AcDbEntity
  8
0
100
AcDbLine
 10
217.6
 20
766.0
 30
0.0
 11
238.0
 21
766.0
 31
0.0
  0
LINE
  5
379
330
1D
100
AcDbEntity
  8
0
100
AcDbLine
 10
217.6
 20
765.352
 30
0.0
 11
217.6
 21
763.624
 31
0.0
  0
LINE
  5
37A
330
1D
100
AcDbEntity
  8
0
100
AcDbLine
 10
217.6
 20
765.352
 30
0.0
 11
217.6
 21
766.0
 31
0.0
  0
LINE
  5
37B
330
1D
100
AcDbEntity
  8
0
100
AcDbLine
 10
217.6
 20
763.624
 30
0.0
 11
217.6
 21
760.744
 31
0.0
  0
LINE
  5
37C
330
1D
100
AcDbEntity
  8
0
100
AcDbLine
 10
217.6
 20
763.624
 30
0.0
 11
217.6
 21
765.352
 31
0.0
  0
LINE
  5
37D
330
1D
100
AcDbEntity
  8
0
100
AcDbLine
 10
217.6
 20
760.744
 30
0.0
 11
217.6
 21
756.928
 31
0.0
  0
LINE
  5
37E
330
1D
100
AcDbEntity
  8
0
100
AcDbLine
 10
217.6
 20
760.744
 30
0.0
 11
217.6
 21
763.624
 31
0.0
  0
LINE
  5
37F
330
1D
100
AcDbEntity
  8
0
100
AcDbLine
 10
217.6
 20
756.928
 30
0.0
 11
217.6
 21
752.608
 31
0.0
  0
LINE
  5
380
330
1D
100
AcDbEntity
  8
0
100
AcDbLine
 10
217.6
 20
756.928
 30
0.0
 11
217.6
 21
760.744
 31
0.0
  0
LINE
  5
381
330
1D
100
AcDbEntity
  8
0
100
AcDbLine
 10
217.6
 20
752.608
 30
0.0
 11
217.6
 21
748.0
 31
0.0
  0
LINE
  5
382
330
1D
100
AcDbEntity
  8
0
100
AcDbLine
 10
217.6
 20
752.608
 30
0.0
 11
217.6
 21
756.928
 31
0.0
  0
LINE
  5
383
330
1D
100
AcDbEntity
  8
0
100
AcDbLine
 10
217.0
 20
752.536
 30
0.0
 11
217.0
 21
748.0
 31
0.0
  0
LINE
  5
384
330
1D
100
AcDbEntity
  8
0
100
AcDbLine
 10
217.0
 20
752.536
 30
0.0
 11
217.0
 21
756.712
 31
0.0
  0
LINE
  5
385
330
1D
100
AcDbEntity
  8
0
100
AcDbLine
 10
217.0
 20
730.8
 30
0.0
 11
217.6
 21
730.4
 31
0.0
  0
LINE
  5
386
330
1D
100
AcDbEntity
  8
0
100
AcDbLine
 10
217.0
 20
730.8
 30
0.0
 11
217.0
 21
724.4
 31
0.0
  0
LINE
  5
387
330
1D
100
AcDbEntity
  8
0
100
AcDbLine
 10
217.0
 20
730.8
 30
0.0
 11
217.0
 21
731.08
 31
0.0
  0
LINE
  5
388
330
1D
100
AcDbEntity
  8
0
100
AcDbLine
 10
238.0
 20
766.0
 30
0.0
 11
258.4
 21
766.0
 31
0.0
  0
LINE
  5
389
330
1D
100
AcDbEntity
  8
0
100
AcDbLine
 10
238.0
 20
730.4
 30
0.0
 11
258.4
 21
730.4
 31
0.0
  0
LINE
  5
38A
330
1D
100
AcDbEntity
  8
0
100
AcDbLine
 10
259.0
 20
724.4
 30
0.0
 11
259.0
 21
730.8
 31
0.0
  0
LINE
  5
38B
330
1D
100
AcDbEntity
  8
0
100
AcDbLine
 10
258.4
 20
730.648
 30
0.0
 11
258.4
 21
732.376
 31
0.0
  0
LINE
  5
38C
330
1D
100
AcDbEntity
  8
0
100
AcDbLine
 10
258.4
 20
730.648
 30
0.0
 11
258.4
 21
730.4
 31
0.0
  0
LINE
  5
38D
330
1D
100
AcDbEntity
  8
0
100
AcDbLine
 10
258.4
 20
732.376
 30
0.0
 11
258.4
 21
735.256
 31
0.0
  0
LINE
  5
38E
330
1D
100
AcDbEntity
  8
0
100
AcDbLine
 10
258.4
 20
732.376
 30
0.0
 11
258.4
 21
730.648
 31
0.0
  0
LINE
  5
38F
330
1D
100
AcDbEntity
  8
0
100
AcDbLine
 10
258.4
 20
735.256
 30
0.0
 11
258.4
 21
739.072
 31
0.0
  0
LINE
  5
390
330
1D
100
AcDbEntity
  8
0
100
AcDbLine
 10
258.4
 20
735.256
 30
0.0
 11
258.4
 21
732.376
 31
0.0
  0
LINE
  5
391
330
1D
100
AcDbEntity
  8
0
100
AcDbLine
 10
258.4
 20
739.072
 30
0.0
 11
258.4
 21
743.392
 31
0.0
  0
LINE
  5
392
330
1D
100
AcDbEntity
  8
0
100
AcDbLine
 10
258.4
 20
739.072
 30
0.0
 11
258.4
 21
735.256
 31
0.0
  0
LINE
  5
393
330
1D
100
AcDbEntity
  8
0
100
AcDbLine
 10
258.4
 20
743.392
 30
0.0
 11
258.4
 21
748.0
 31
0.0
  0
LINE
  5
394
330
1D
100
AcDbEntity
  8
0
100
AcDbLine
 10
258.4
 20
743.392
 30
0.0
 11
258.4
 21
739.072
 31
0.0
  0
LINE
  5
395
330
1D
100
AcDbEntity
  8
0
100
AcDbLine
 10
258.4
 20
765.352
 30
0.0
 11
258.4
 21
766.0
 31
0.0
  0
LINE
  5
396
330
1D
100
AcDbEntity
  8
0
100
AcDbLine
 10
258.4
 20
765.352
 30
0.0
 11
258.4
 21
763.624
 31
0.0
  0
LINE
  5
397
330
1D
100
AcDbEntity
  8
0
100
AcDbLine
 10
258.4
 20
763.624
 30
0.0
 11
258.4
 21
765.352
 31
0.0
  0
LINE
  5
398
330
1D
100
AcDbEntity
  8
0
100
AcDbLine
 10
258.4
 20
763.624
 30
0.0
 11
258.4
 21
760.744
 31
0.0
  0
LINE
  5
399
330
1D
100
AcDbEntity
  8
0
100
AcDbLine
 10
258.4
 20
760.744
 30
0.0
 11
258.4
 21
763.624
 31
0.0
  0
LINE
  5
39A
330
1D
100
AcDbEntity
  8
0
100
AcDbLine
 10
258.4
 20
760.744
 30
0.0
 11
258.4
 21
756.928
 31
0.0
  0
LINE
  5
39B
330
1D
100
AcDbEntity
  8
0
100
AcDbLine
 10
258.4
 20
756.928
 30
0.0
 11
258.4
 21
760.744
 31
0.0
  0
LINE
  5
39C
330
1D
100
AcDbEntity
  8
0
100
AcDbLine
 10
258.4
 20
756.928
 30
0.0
 11
258.4
 21
752.608
 31
0.0
  0
LINE
  5
39D
330
1D
100
AcDbEntity
  8
0
100
AcDbLine
 10
258.4
 20
752.608
 30
0.0
 11
258.4
 21
756.928
 31
0.0
  0
LINE
  5
39E
330
1D
100
AcDbEntity
  8
0
100
AcDbLine
 10
258.4
 20
752.608
 30
0.0
 11
258.4
 21
748.0
 31
0.0
  0
LINE
  5
39F
330
1D
100
AcDbEntity
  8
0
100
AcDbLine
 10
258.4
 20
748.0
 30
0.0
 11
258.4
 21
752.608
 31
0.0
  0
LINE
  5
3A0
330
1D
100
AcDbEntity
  8
0
100
AcDbLine
 10
258.4
 20
748.0
 30
0.0
 11
258.4
 21
743.392
 31
0.0
  0
LINE
  5
3A1
330
1D
100
AcDbEntity
  8
0
100
AcDbLine
 10
259.0
 20
731.08
 30
0.0
 11
259.0
 21
732.808
 31
0.0
  0
LINE
  5
3A2
330
1D
100
AcDbEntity
  8
0
100
AcDbLine
 10
259.0
 20
731.08
 30
0.0
 11
259.0
 21
730.8
 31
0.0
  0
LINE
  5
3A3
330
1D
100
AcDbEntity
  8
0
100
AcDbLine
 10
259.0
 20
732.808
 30
0.0
 11
259.0
 21
735.616
 31
0.0
  0
LINE
  5
3A4
330
1D
100
AcDbEntity
  8
0
100
AcDbLine
 10
259.0
 20
732.808
 30
0.0
 11
259.0
 21
731.08
 31
0.0
  0
LINE
  5
3A5
330
1D
100
AcDbEntity
  8
0
100
AcDbLine
 10
259.0
 20
735.616
 30
0.0
 11
259.0
 21
739.288
 31
0.0
  0
LINE
  5
3A6
330
1D
100
AcDbEntity
  8
0
100
AcDbLine
 10
259.0
 20
735.616
 30
0.0
 11
259.0
 21
732.808
 31
0.0
  0
LINE
  5
3A7
330
1D
100
AcDbEntity
  8
0
100
AcDbLine
 10
259.0
 20
739.288
 30
0.0
 11
259.0
 21
743.464
 31
0.0
  0
LINE
  5
3A8
330
1D
100
AcDbEntity
  8
0
100
AcDbLine
 10
259.0
 20
739.288
 30
0.0
 11
259.0
 21
735.616
 31
0.0
  0
LINE
  5
3A9
330
1D
100
AcDbEntity
  8
0
100
AcDbLine
 10
259.0
 20
743.464
 30
0.0
 11
259.0
 21
748.0
 31
0.0
  0
LINE
  5
3AA
330
1D
100
AcDbEntity
  8
0
100
AcDbLine
 10
259.0
 20
743.464
 30
0.0
 11
259.0
 21
739.288
 31
0.0
  0
LINE
  5
3AB
330
1D
100
AcDbEntity
  8
0
100
AcDbLine
 10
259.0
 20
765.568
 30
0.0
 11
259.0
 21
764.92
 31
0.0
  0
LINE
  5
3AC
330
1D
100
AcDbEntity
  8
0
100
AcDbLine
 10
259.0
 20
764.92
 30
0.0
 11
259.0
 21
765.568
 31
0.0
  0
LINE
  5
3AD
330
1D
100
AcDbEntity
  8
0
100
AcDbLine
 10
259.0
 20
764.92
 30
0.0
 11
259.0
 21
763.192
 31
0.0
  0
LINE
  5
3AE
330
1D
100
AcDbEntity
  8
0
100
AcDbLine
 10
259.0
 20
763.192
 30
0.0
 11
259.0
 21
764.92
 31
0.0
  0
LINE
  5
3AF
330
1D
100
AcDbEntity
  8
0
100
AcDbLine
 10
259.0
 20
763.192
 30
0.0
 11
259.0
 21
760.384
 31
0.0
  0
LINE
  5
3B0
330
1D
100
AcDbEntity
  8
0
100
AcDbLine
 10
259.0
 20
760.384
 30
0.0
 11
259.0
 21
763.192
 31
0.0
  0
LINE
  5
3B1
330
1D
100
AcDbEntity
  8
0
100
AcDbLine
 10
259.0
 20
760.384
 30
0.0
 11
259.0
 21
756.712
 31
0.0
  0
LINE
  5
3B2
330
1D
100
AcDbEntity
  8
0
100
AcDbLine
 10
259.0
 20
756.712
 30
0.0
 11
259.0
 21
760.384
 31
0.0
  0
LINE
  5
3B3
330
1D
100
AcDbEntity
  8
0
100
AcDbLine
 10
259.0
 20
756.712
 30
0.0
 11
259.0
 21
752.536
 31
0.0
  0
LINE
  5
3B4
330
1D
100
AcDbEntity
  8
0
100
AcDbLine
 10
259.0
 20
752.536
 30
0.0
 11
259.0
 21
756.712
 31
0.0
  0
LINE
  5
3B5
330
1D
100
AcDbEntity
  8
0
100
AcDbLine
 10
259.0
 20
752.536
 30
0.0
 11
259.0
 21
748.0
 31
0.0
  0
LINE
  5
3B6
330
1D
100
AcDbEntity
  8
0
100
AcDbLine
 10
259.0
 20
748.0
 30
0.0
 11
259.0
 21
752.536
 31
0.0
  0
LINE
  5
3B7
330
1D
100
AcDbEntity
  8
0
100
AcDbLine
 10
259.0
 20
748.0
 30
0.0
 11
259.0
 21
743.464
 31
0.0
  0
LINE
  5
3B8
330
1D
100
AcDbEntity
  8
0
100
AcDbLine
 10
258.4
 20
766.0
 30
0.0
 11
259.0
 21
765.568
 31
0.0
  0
LINE
  5
3B9
330
1D
100
AcDbEntity
  8
0
100
AcDbLine
 10
258.4
 20
766.0
 30
0.0
 11
258.4
 21
765.352
 31
0.0
  0
LINE
  5
3BA
330
1D
100
AcDbEntity
  8
0
100
AcDbLine
 10
258.4
 20
730.4
 30
0.0
 11
259.0
 21
730.8
 31
0.0
  0
LINE
  5
3BB
330
1D
100
AcDbEntity
  8
0
100
AcDbLine
 10
258.4
 20
730.4
 30
0.0
 11
258.4
 21
730.648
 31
0.0
  0
LINE
  5
3BC
330
1D
100
AcDbEntity
  8
0
100
AcDbLine
 10
259.0
 20
807.0
 30
0.0
 11
259.3
 21
807.7
 31
0.0
  0
LINE
  5
3BF
330
1D
100
AcDbEntity
  8
0
100
AcDbLine
 10
259.3
 20
807.7
 30
0.0
 11
260.0
 21
808.0
 31
0.0
  0
LINE
  5
3C5
330
1D
100
AcDbEntity
  8
0
100
AcDbLine
 10
280.0
 20
807.0
 30
0.0
 11
280.0
 21
689.0
 31
0.0
  0
LINE
  5
3C6
330
1D
100
AcDbEntity
  8
0
100
AcDbLine
 10
259.0
 20
730.8
 30
0.0
 11
259.0
 21
724.4
 31
0.0
  0
LINE
  5
3C7
330
1D
100
AcDbEntity
  8
0
100
AcDbLine
 10
259.0
 20
730.8
 30
0.0
 11
259.0
 21
731.08
 31
0.0
  0
LINE
  5
3C8
330
1D
100
AcDbEntity
  8
0
100
AcDbLine
 10
258.4
 20
724.0
 30
0.0
 11
259.0
 21
724.4
 31
0.0
  0
LINE
  5
3C9
330
1D
100
AcDbEntity
  8
0
100
AcDbLine
 10
238.0
 20
724.0
 30
0.0
 11
258.4
 21
724.0
 31
0.0
  0
LINE
  5
3CA
330
1D
100
AcDbEntity
  8
0
100
AcDbLine
 10
180.598
 20
702.0
 30
0.0
 11
184.0
 21
702.0
 31
0.0
  0
LINE
  5
3CB
330
1D
100
AcDbEntity
  8
0
100
AcDbLine
 10
170.5
 20
701.444
 30
0.0
 11
170.824
 21
702.0
 31
0.0
  0
LINE
  5
3CC
330
1D
100
AcDbEntity
  8
0
100
AcDbLine
 10
170.5
 20
701.444
 30
0.0
 11
170.5
 21
700.556
 31
0.0
  0
LINE
  5
3F4
330
1D
100
AcDbEntity
  8
0
100
AcDbLine
 10
196.245
 20
650.0
 30
0.0
 11
184.989277489653
 21
650.0
 31
0.0
  0
LINE
  5
3F5
330
1D
100
AcDbEntity
  8
0
100
AcDbLine
 10
184.989277489653
 20
650.0
 30
0.0
 11
185.0
 21
651.0
 31
0.0
  0
LINE
  5
3F6
330
1D
100
AcDbEntity
  8
0
100
AcDbLine
 10
260.0
 20
808.0
 30
0.0
 11
279.967641321721
 21
808.0
 31
0.0
  0
LINE
  5
3F7
330
1D
100
AcDbEntity
  8
0
100
AcDbLine
 10
279.967641321721
 20
808.0
 30
0.0
 11
280.0
 21
807.0
 31
0.0
  0
ENDSEC
  0
SECTION
  2
OBJECTS
  0
DICTIONARY
  5
C
330
0
100
AcDbDictionary
281
     1
  3
ACAD_GROUP
350
D
  3
ACAD_LAYOUT
350
1A
  3
ACAD_MLEADERSTYLE
350
3FA
  3
ACAD_MLINESTYLE
350
17
  3
ACAD_PLOTSETTINGS
350
19
  3
ACAD_PLOTSTYLENAME
350
E
  3
ACAD_SCALELIST
350
3D2
  3
AcDbVariableDictionary
350
3F8
  3
DWGPROPS
350
3FD
  0
DICTIONARY
  5
D
102
{ACAD_REACTORS
330
C
102
}
330
C
100
AcDbDictionary
281
     1
  0
DICTIONARY
  5
1A
102
{ACAD_REACTORS
330
C
102
}
330
C
100
AcDbDictionary
281
     1
  3
Layout1
350
1C
  3
Model
350
1E
  0
DICTIONARY
  5
3FA
102
{ACAD_REACTORS
330
C
102
}
330
C
100
AcDbDictionary
281
     1
  0
DICTIONARY
  5
17
102
{ACAD_REACTORS
330
C
102
}
330
C
100
AcDbDictionary
281
     1
  3
Standard
350
18
  0
DICTIONARY
  5
19
102
{ACAD_REACTORS
330
C
102
}
330
C
100
AcDbDictionary
281
     1
  0
ACDBDICTIONARYWDFLT
  5
E
102
{ACAD_REACTORS
330
C
102
}
330
C
100
AcDbDictionary
281
     1
  3
Normal
350
F
100
AcDbDictionaryWithDefault
340
F
  0
DICTIONARY
  5
3D2
102
{ACAD_REACTORS
330
C
102
}
330
C
100
AcDbDictionary
281
     1
  3
A0
350
3D3
  3
A1
350
3D4
  3
A2
350
3D5
  3
A3
350
3D6
  3
A4
350
3D7
  3
A5
350
3D8
  3
A6
350
3D9
  3
A7
350
3DA
  3
A8
350
3DB
  3
A9
350
3DC
  3
B0
350
3DD
  3
B1
350
3DE
  3
B2
350
3DF
  3
B3
350
3E0
  3
B4
350
3E1
  3
B5
350
3E2
  3
B6
350
3E3
  3
B7
350
3E4
  3
B8
350
3E5
  3
B9
350
3E6
  3
C0
350
3E7
  3
C1
350
3E8
  3
C2
350
3E9
  3
C3
350
3EA
  3
C4
350
3EB
  3
C5
350
3EC
  3
C6
350
3ED
  3
C7
350
3EE
  3
C8
350
3EF
  3
C9
350
3F0
  3
D0
350
3F1
  3
D1
350
3F2
  3
D2
350
3F3
  0
DICTIONARY
  5
3F8
102
{ACAD_REACTORS
330
C
102
}
330
C
100
AcDbDictionary
281
     1
  3
CANNOSCALE
350
3FB
  0
XRECORD
  5
3FD
102
{ACAD_REACTORS
330
C
102
}
330
C
100
AcDbXrecord
280
     1
  1
DWGPROPS COOKIE
  2

  3

  4

  6

  7

  8
MARTIN
  9

300
=
301
=
302
=
303
=
304
=
305
=
306
=
307
=
308
=
309
=
 40
0.0
 41
2456645.826051424
 42
2456645.828058981
  1

 90
        0
  0
LAYOUT
  5
1C
102
{ACAD_REACTORS
330
1A
102
}
330
1A
100
AcDbPlotSettings
  1

  2
none_device
  4

  6

 40
0.0
 41
0.0
 42
0.0
 43
0.0
 44
0.0
 45
0.0
 46
0.0
 47
0.0
 48
0.0
 49
0.0
140
0.0
141
0.0
142
1.0
143
1.0
 70
   688
 72
     0
 73
     0
 74
     5
  7

 75
    16
147
1.0
148
0.0
149
0.0
100
AcDbLayout
  1
Layout1
 70
     1
 71
     1
 10
0.0
 20
0.0
 11
12.0
 21
9.0
 12
0.0
 22
0.0
 32
0.0
 14
1.000000000000E+20
 24
1.000000000000E+20
 34
1.000000000000E+20
 15
-1.000000000000E+20
 25
-1.000000000000E+20
 35
-1.000000000000E+20
146
0.0
 13
0.0
 23
0.0
 33
0.0
 16
1.0
 26
0.0
 36
0.0
 17
0.0
 27
1.0
 37
0.0
 76
     0
330
1B
  0
LAYOUT
  5
1E
102
{ACAD_REACTORS
330
1A
102
}
330
1A
100
AcDbPlotSettings
  1

  2
none_device
  4

  6

 40
0.0
 41
0.0
 42
0.0
 43
0.0
 44
0.0
 45
0.0
 46
0.0
 47
0.0
 48
0.0
 49
0.0
140
0.0
141
0.0
142
1.0
143
1.0
 70
  1712
 72
     0
 73
     0
 74
     0
  7

 75
     0
147
1.0
148
0.0
149
0.0
100
AcDbLayout
  1
Model
 70
     1
 71
     0
 10
0.0
 20
0.0
 11
12.0
 21
9.0
 12
0.0
 22
0.0
 32
0.0
 14
0.0
 24
0.0
 34
0.0
 15
280.0
 25
808.0
 35
0.0
146
0.0
 13
0.0
 23
0.0
 33
0.0
 16
1.0
 26
0.0
 36
0.0
 17
0.0
 27
1.0
 37
0.0
 76
     0
330
1D
331
3CD
  0
MLINESTYLE
  5
18
102
{ACAD_REACTORS
330
17
102
}
330
17
100
AcDbMlineStyle
  2
Standard
 70
     0
  3

 62
   256
 51
90.0
 52
90.0
 71
     2
 49
0.5
 62
   256
  6
BYLAYER
 49
-0.5
 62
   256
  6
BYLAYER
  0
ACDBPLACEHOLDER
  5
F
102
{ACAD_REACTORS
330
E
102
}
330
E
  0
SCALE
  5
3D3
102
{ACAD_REACTORS
330
3D2
102
}
330
3D2
100
AcDbScale
 70
     0
300
1:1
140
1.0
141
1.0
290
     1
  0
SCALE
  5
3D4
102
{ACAD_REACTORS
330
3D2
102
}
330
3D2
100
AcDbScale
 70
     0
300
1:2
140
1.0
141
2.0
290
     0
  0
SCALE
  5
3D5
102
{ACAD_REACTORS
330
3D2
102
}
330
3D2
100
AcDbScale
 70
     0
300
1:4
140
1.0
141
4.0
290
     0
  0
SCALE
  5
3D6
102
{ACAD_REACTORS
330
3D2
102
}
330
3D2
100
AcDbScale
 70
     0
300
1:5
140
1.0
141
5.0
290
     0
  0
SCALE
  5
3D7
102
{ACAD_REACTORS
330
3D2
102
}
330
3D2
100
AcDbScale
 70
     0
300
1:8
140
1.0
141
8.0
290
     0
  0
SCALE
  5
3D8
102
{ACAD_REACTORS
330
3D2
102
}
330
3D2
100
AcDbScale
 70
     0
300
1:10
140
1.0
141
10.0
290
     0
  0
SCALE
  5
3D9
102
{ACAD_REACTORS
330
3D2
102
}
330
3D2
100
AcDbScale
 70
     0
300
1:16
140
1.0
141
16.0
290
     0
  0
SCALE
  5
3DA
102
{ACAD_REACTORS
330
3D2
102
}
330
3D2
100
AcDbScale
 70
     0
300
1:20
140
1.0
141
20.0
290
     0
  0
SCALE
  5
3DB
102
{ACAD_REACTORS
330
3D2
102
}
330
3D2
100
AcDbScale
 70
     0
300
1:30
140
1.0
141
30.0
290
     0
  0
SCALE
  5
3DC
102
{ACAD_REACTORS
330
3D2
102
}
330
3D2
100
AcDbScale
 70
     0
300
1:40
140
1.0
141
40.0
290
     0
  0
SCALE
  5
3DD
102
{ACAD_REACTORS
330
3D2
102
}
330
3D2
100
AcDbScale
 70
     0
300
1:50
140
1.0
141
50.0
290
     0
  0
SCALE
  5
3DE
102
{ACAD_REACTORS
330
3D2
102
}
330
3D2
100
AcDbScale
 70
     0
300
1:100
140
1.0
141
100.0
290
     0
  0
SCALE
  5
3DF
102
{ACAD_REACTORS
330
3D2
102
}
330
3D2
100
AcDbScale
 70
     0
300
2:1
140
2.0
141
1.0
290
     0
  0
SCALE
  5
3E0
102
{ACAD_REACTORS
330
3D2
102
}
330
3D2
100
AcDbScale
 70
     0
300
4:1
140
4.0
141
1.0
290
     0
  0
SCALE
  5
3E1
102
{ACAD_REACTORS
330
3D2
102
}
330
3D2
100
AcDbScale
 70
     0
300
8:1
140
8.0
141
1.0
290
     0
  0
SCALE
  5
3E2
102
{ACAD_REACTORS
330
3D2
102
}
330
3D2
100
AcDbScale
 70
     0
300
10:1
140
10.0
141
1.0
290
     0
  0
SCALE
  5
3E3
102
{ACAD_REACTORS
330
3D2
102
}
330
3D2
100
AcDbScale
 70
     0
300
100:1
140
100.0
141
1.0
290
     0
  0
SCALE
  5
3E4
102
{ACAD_REACTORS
330
3D2
102
}
330
3D2
100
AcDbScale
 70
     0
300
1/128" = 1'-0"
140
0.0078125
141
12.0
290
     0
  0
SCALE
  5
3E5
102
{ACAD_REACTORS
330
3D2
102
}
330
3D2
100
AcDbScale
 70
     0
300
1/64" = 1'-0"
140
0.015625
141
12.0
290
     0
  0
SCALE
  5
3E6
102
{ACAD_REACTORS
330
3D2
102
}
330
3D2
100
AcDbScale
 70
     0
300
1/32" = 1'-0"
140
0.03125
141
12.0
290
     0
  0
SCALE
  5
3E7
102
{ACAD_REACTORS
330
3D2
102
}
330
3D2
100
AcDbScale
 70
     0
300
1/16" = 1'-0"
140
0.0625
141
12.0
290
     0
  0
SCALE
  5
3E8
102
{ACAD_REACTORS
330
3D2
102
}
330
3D2
100
AcDbScale
 70
     0
300
3/32" = 1'-0"
140
0.09375
141
12.0
290
     0
  0
SCALE
  5
3E9
102
{ACAD_REACTORS
330
3D2
102
}
330
3D2
100
AcDbScale
 70
     0
300
1/8" = 1'-0"
140
0.125
141
12.0
290
     0
  0
SCALE
  5
3EA
102
{ACAD_REACTORS
330
3D2
102
}
330
3D2
100
AcDbScale
 70
     0
300
3/16" = 1'-0"
140
0.1875
141
12.0
290
     0
  0
SCALE
  5
3EB
102
{ACAD_REACTORS
330
3D2
102
}
330
3D2
100
AcDbScale
 70
     0
300
1/4" = 1'-0"
140
0.25
141
12.0
290
     0
  0
SCALE
  5
3EC
102
{ACAD_REACTORS
330
3D2
102
}
330
3D2
100
AcDbScale
 70
     0
300
3/8" = 1'-0"
140
0.375
141
12.0
290
     0
  0
SCALE
  5
3ED
102
{ACAD_REACTORS
330
3D2
102
}
330
3D2
100
AcDbScale
 70
     0
300
1/2" = 1'-0"
140
0.5
141
12.0
290
     0
  0
SCALE
  5
3EE
102
{ACAD_REACTORS
330
3D2
102
}
330
3D2
100
AcDbScale
 70
     0
300
3/4" = 1'-0"
140
0.75
141
12.0
290
     0
  0
SCALE
  5
3EF
102
{ACAD_REACTORS
330
3D2
102
}
330
3D2
100
AcDbScale
 70
     0
300
1" = 1'-0"
140
1.0
141
12.0
290
     0
  0
SCALE
  5
3F0
102
{ACAD_REACTORS
330
3D2
102
}
330
3D2
100
AcDbScale
 70
     0
300
1-1/2" = 1'-0"
140
1.5
141
12.0
290
     0
  0
SCALE
  5
3F1
102
{ACAD_REACTORS
330
3D2
102
}
330
3D2
100
AcDbScale
 70
     0
300
3" = 1'-0"
140
3.0
141
12.0
290
     0
  0
SCALE
  5
3F2
102
{ACAD_REACTORS
330
3D2
102
}
330
3D2
100
AcDbScale
 70
     0
300
6" = 1'-0"
140
6.0
141
12.0
290
     0
  0
SCALE
  5
3F3
102
{ACAD_REACTORS
330
3D2
102
}
330
3D2
100
AcDbScale
 70
     0
300
1'-0" = 1'-0"
140
12.0
141
12.0
290
     0
  0
DICTIONARYVAR
  5
3FB
102
{ACAD_REACTORS
330
3F8
102
}
330
3F8
100
DictionaryVariables
280
     0
  1
1:1
  0
ENDSEC
  0
SECTION
  2
THUMBNAILIMAGE
 90
    16364
310
28000000B40000005500000001000800000000000000000000000000000000000000000000000000FFFFFF000000FF0000FFFF0000FF0000FFFF0000FF000000FF00FF000000000080808000C0C0C0000000FF007F7FFF000000A5005252A50000007F003F3F7F0000004C0026264C000000260013132600003FFF007F9FFF
310
000029A5005267A500001F7F003F4F7F0000134C00262F4C000009260013172600007FFF007FBFFF000052A500527CA500003F7F003F5F7F0000264C0026394C0000132600131C260000BFFF007FDFFF00007CA5005291A500005F7F003F6F7F0000394C0026424C00001C26001321260000FFFF007FFFFF0000A5A50052A5
310
A500007F7F003F7F7F00004C4C00264C4C00002626001326260000FFBF007FFFDF0000A57C0052A59100007F5F003F7F6F00004C3900264C420000261C001326210000FF7F007FFFBF0000A5520052A57C00007F3F003F7F5F00004C2600264C39000026130013261C0000FF3F007FFF9F0000A5290052A56700007F1F003F
310
7F4F00004C1300264C2F00002609001326170000FF00007FFF7F0000A5000052A55200007F00003F7F3F00004C0000264C260000260000132613003FFF00009FFF7F0029A5000067A552001F7F00004F7F3F00134C00002F4C260009260000172613007FFF0000BFFF7F0052A500007CA552003F7F00005F7F3F00264C0000
310
394C2600132600001C261300BFFF0000DFFF7F007CA5000091A552005F7F00006F7F3F00394C0000424C26001C26000021261300FFFF0000FFFF7F00A5A50000A5A552007F7F00007F7F3F004C4C00004C4C26002626000026261300FFBF0000FFDF7F00A57C0000A59152007F5F00007F6F3F004C3900004C422600261C00
310
0026211300FF7F0000FFBF7F00A5520000A57C52007F3F00007F5F3F004C2600004C39260026130000261C1300FF3F0000FF9F7F00A5290000A56752007F1F00007F4F3F004C1300004C2F26002609000026171300FF000000FF7F7F00A5000000A55252007F0000007F3F3F004C0000004C2626002600000026131300FF00
310
3F00FF7F9F00A5002900A55267007F001F007F3F4F004C0013004C262F002600090026131700FF007F00FF7FBF00A5005200A5527C007F003F007F3F5F004C0026004C2639002600130026131C00FF00BF00FF7FDF00A5007C00A55291007F005F007F3F6F004C0039004C26420026001C0026132100FF00FF00FF7FFF00A5
310
00A500A552A5007F007F007F3F7F004C004C004C264C002600260026132600BF00FF00DF7FFF007C00A5009152A5005F007F006F3F7F0039004C0042264C001C002600211326007F00FF00BF7FFF005200A5007C52A5003F007F005F3F7F0026004C0039264C00130026001C1326003F00FF009F7FFF002900A5006752A500
310
1F007F004F3F7F0013004C002F264C000900260017132600000000002D2D2D005B5B5B0089898900B7B7B700B3B3B30000000000000000000000000000000000000000000000000000000000000000000000000000000000000000000000000000000000000000000000000000000000000000000000000000000000000000
310
00000000000000070707070707070700000000000000000000000000000000000000000000000000000000000000000000000000000000000000000000000000000000000000000000000000000000000000000000000000000000000000000000000000000000000000000000000000000000000000000000000000000000
310
00000000000000000000000000000000000000000000000000000000000000000000000000000000000000000000000000000000000000000000070700000000000000000707000000000000000000000000000000000000000000000000000000000000000000000000000000000000000000000000000000000000000000
310
00000000000000000000000000000000000000000000000000000000000000000000000000000000000000000000000000000000000000000000000000000000000000000000000000000000000000000000000000000000000000000000000000000000000000000000000000000700000007070707070707000007070000
310
00000000000000000000000000000000000000000000000000000000000000000000000000000000000000000000000000000000000000000000000000000000000000000000000000000000000000000000000000000000000000000000000000000000000000000000000000000000000000000000000000000000000000
310
00000000000000000000000000000000000000000000000000000000000000000000070700070707000000000000000707070007000000000000000000000000000000000000000000000000000000000000000000000000000000000000000000000000000000000000000000000000000000000000000000000000000000
310
00000000000000000000000000000000000000000000000000000000000000000000000000000000000000000000000000000000000000000000000000000000000000000000000000000000000000000000000000000700070700000000000000000000000000070007070000000000000000000000000000000000000000
310
00000000000000000000000000000000000000000000000000000000000000000000000000000000000000000000000000000000000000000000000000000000000000000000000000000000000000000000000000000000000000000000000000000000000000000000000000000000000000000000000000000000000000
310
00000000000000000000000700070000000000000000000000000000000007070007000000000000000000000000000000000000000000000000000000000000000000000000000000000000000000000000000000000000000000000000000000000000000000000000000000000000000000000000000000000000000000
310
00000000000000000000000000000000000000000000000000000000000000000000000000000000000000000000000000000000000000000000000000000007000700000000000000000000000000000000000007000700000000000000000000000000000000000000000000000000000000000000000000000000000000
310
00000000000000000000000000000000000000000000000000000000000000000000000000000000000000000000000000000000000000000000000000000000000000000000000000000000000000000000000000000000000000000000000000000000000000000000000000000000000000070000070000000000000000
310
00000000000000000000000700070000000000000000000000000000000000000000000000000000000000000000000000000000000000000000000000000000000000000000000000000000000000000000000000000000000000000000000000000000000000000000000000000000000000000000000000000000000000
310
00000000000000000000000000000000000000000000000000000000000000000000000000000000000700070000000000000000000000000000000000000000000707000000000000000000000000000000000000000000000000000000000000000000000000000000000000000000000000000000000000000000000000
310
00000000000000000000000000000000000000000000000000000000000000000000000000000000000000000000000000000000000000000000000000000000000000000000000000000000000000000000000000000000000000000000070700000000000000000000000000000000000000000000070007000000000000
310
00000000000000000000000000000000000000000000000000000000000000000000000000000000000000000000000000000000000000000000000000000000000000000000000000000000000000000000000000000000000000000000000000000000000000000000000000000000000000000000000000000000000000
310
00000000000000000000000000000000000000070007000000000000000000000000000000000000000000000700000700000000000000000000000000000000000000000000000000000000000000000000000000000000000000000000000000000000000000000000000000000000000000000000000000000000000000
310
00000000000000000000000000000000000000000000000000000000000000000000000000000000000000000000000000000000000000000000000000000000000000000000000007000700000000000000000000000000000000000000000000000700070000000000000000000000000000000000000000000000000000
310
00000000000000000000000000000000000000000000000000000000000000000000000000000000000000000000000000000000000000000000000000000000000000000000000000000000000000000000000000000000000000000000000000000000000000000000000000000000000000000000000000000000000700
310
07000000000000000000000000000000000000000000000007000700000000000000000000000000000000000000000000000000000000000000000000000000000000000000000000000000000000000000000000000000000000000000000000000000000000000000000000000000000000000000000000000000000000
310
00000000000000000000000000000000000000000000000000000000000000000000000000000000000000000000000000000007070000000000000000000000000000000000000000000000000700070000000000000000000000000000000000000000000000000000000000000000000000000000000000000000000000
310
00000000000000000000000000000000000000000000000000000000000000000000000000000000000000000000000000000000000000000000000000000000000000000000000000000000000000000000000000000000000000000000000000000000000000000707000000000000000000000000000000000000000000
310
00000007000700000000000000000000000000000000000000000000000000000000000000000000000000000000000000000000000000000000000000000000000000000000000000000000000000000000000000000000000000000000000000000000000000000000000000000000000000000000000000000000000000
310
00000000000000000000000000000000000000000000000000000000000007070000000000000000000000000000000000000000000000000700070000000000000000000000000000000000000000000000000000000000000000000000000000000000000000000000000000000000000000000000000000000000000000
310
00000000000000000000000000000000000000000000000000000000000000000000000000000000000000000000000000000000000000000000000000000000000000000000000000000000000000000000000700070000000000000000000000000000000000000000000000070007000000000000000000000000000000
310
00000000000000000000000000000000000000000000000000000000000000000000000000000000000000000000000000000000000000000000000000000000000000000000000000000000000000000000000000000000000000000000000000000000000000000000000000000000000000000000000000000000000000
310
00000000000000000007000700000000000000000000000000000000000000000000000700070000000000000000000000000000000000000000000000000000000000000000000000000000000000000000000000000000000000000000000000000000000000000000000000000000000000000000000000000000000000
310
00000000000000000000000000000000000000000000000000000000000000000000000000000000000000000000000000000000000000000000000000000700070000000000000000000000000000000000000000000000070007000000000000000000000000000000000000000000000000000000000000000000000000
310
00000000000000000000000000000000000000000000000000000000000000000000000000000000000000000000000000000000000000000000000000000000000000000000000000000000000000000000000000000000000000000000000000000000000000000000000000000000000000070007000000000000000000
310
00000000000000000000000000000700070000000000000000000000000000000000000000000000000000000000000000000000000000000000000000000000000000000000000000000000000000000000000000000000000000000000000000000000000000000000000000000000000000000000000000000000000000
310
00000000000000000000000000000000000000000000000000000000000000000000000000000000000007000700000000000000000000000000000000000000000000070007000000000000000000000000000000000000000000000000000000000000000000000000000000000000000000000000000000000000000000
310
00000000000000000000000000000000000000000000000000000000000000000000000000000000000000000000000000000000000000000000000000000000000000000000000000000000000000000000000000000000000000000000000700000700000000000000000000000000000000000000000007000700000000
310
00000000000000000000000000000000000000000000000000000000000000000000000000000000000000000000000000000000000000000000000000000000000000000000000000000000000000000000000000000000000000000000000000000000000000000000000000000000000000000000000000000000000000
310
00000000000000000000000000000000000000000000070000070000000000000000000000000000000000000000070007000000000000000000000000000000000000000000000000000000000000000000000000000000000000000000000000000000000000000000000000000000000000000000000000000000000000
310
00000000000000000000000000000000000000000000000000000000000000000000000000000000000000000000000000000000000000000000000000000000000000000000000000000000070007000000000000000000000000000000000000000007000700000000000000000000000000000000000000000000000000
310
00000000000000000000000000000000000000000000000000000000000000000000000000000000000000000000000000000000000000000000000000000000000000000000000000000000000000000000000000000000000000000000000000000000000000000000000000000000000000000000000000000000000000
310
00000700000700000000000000000000000000000000000000070007000000000000000000000000000000000000000000000000000000000000000000000000000000000000000000000000000000000000000000000000000000000000000000000000000000000000000000000000000000000000000000000000000000
310
00000000000000000000000000000000000000000000000000000000000000000000000000000000000000000000000000000000000000000700000700000000000000000000000000000000000007000700000000000000000000000000000000000000000000000000000000000000000000000000000000000000000000
310
00000000000000000000000000000000000000000000000000000000000000000000000000000000000000000000000000000000000000000000000000000000000000000000000000000000000000000000000000000000000000000000000000000000000000000000000000000700000700000000000000000000000000
310
00000000070007000000000000000000000000000000000000000000000000000000000000000000000000000000000000000000000000000000000000000000000000000000000000000000000000000000000000000000000000000000000000000000000000000000000000000000000000000000000000000000000000
310
00000000000000000000000000000000000000000000000000000000000000000000000000070007000000000000000000000000000000000007000700000000000000000000000000000000000000000000000000000000000000000000000000000000000000000000000000000000000000000000000000000000000000
310
00000000000000000000000000000000000000000000000000000000000000000000000000000000000000000000000000000000000000000000000000000000000000000000000000000000000000000000000000000000000007000007000000000000000000000000000000000700070000000000000000000000000000
310
00000000000000000000000000000000000000000000000000000000000000000000000000000000000000000000000000000000000000000000000000000000000000000000000000000000000000000000000000000000000000000000000000000000000000000000000000000000000000000000000000000000000000
310
00000000000000000000000000000000000700000700000000000000000000000000000007000700000000000000000000000000000000000000000000000000000000000000000000000000000000000000000000000000000000000000000000000000000000000000000000000000000000000000000000000000000000
310
00000000000000000000000000000000000000000000000000000000000000000000000000000000000000000000000000000000000000000000000000000000000000000000000700070000000000000000000000000000000700070000000000000000000000000000000000000000000000000000000000000000000000
310
00000000000000000000000000000000000000000000000000000000000000000000000000000000000000000000000000000000000000000000000000000000000000000000000000000000000000000000000000000000000000000000000000000000000000000000000000000000000000000000000000000000000700
310
07000000000000000000000000000007000700000000000000000000000000000000000000000000000000000000000000000000000000000000000000000000000000000000000000000000000000000000000000000000000000000000000000000000000000000000000000000000000000000000000000000000000000
310
00000000000000000000000000000000000000000000000000000000000000000000000000000000000000000000000000000007000700000000000000000000000000000700070000000000000000000000000000000000000000000000000000000000000000000000000000000000000000000000000000000000000000
310
00000000000000000000000000000000000000000000000000000000000000000000000000000000000000000000000000000000000000000000000000000000000000000000000000000000000000000000000000000000000000000000000000000000000000000007000700000000000000000000000000070007000000
310
00000000000000000000000000000000000000000000000000000000000000000000000000000000000000000000000000000000000000000000000000000000000000000000000000000000000000000000000000000000000000000000000000000000000000000000000000000000000000000000000000000000000000
310
00000000000000000000000000000000000000000000000000000000000000000700070000000000000000000000000700070000000000000000000000000000000000000000000000000000000000000000000000000000000000000000000000000000000000000000000000000000000000000000000000000000000000
310
00000000000000000000000000000000000000000000000000000000000000000000000000000000000000000000000000000000000000000000000000000000000000000000000000000000000000000000000000070007000000000000000000000000070007000000000000000000000000000000000000000000000000
310
00000000000000000000000000000000000000000000000000000000000000000000000000000000000000000000000000000000000000000000000000000000000000000000000000000000000000000000000000000000000000000000000000000000000000000000000000000000000000000000000000000000000000
310
00000000000000000000000007000700000000000000000000000700070000000000000000000000000000000000000000000000000000000000000000000000000000000000000000000000000000000000000000000000000000000000000000000000000000000000000000000000000000000000000000000000000000
310
00000000000000000000000000000000000000000000000000000000000000000000000000000000000000000000000000000000000000000000000000000000000700070000000000000000000000070007000000000000000000000000000000000000000000000000000000000000000000000000000000000000000000
310
00000000000000000000000000000000000000000000000000000000000000000000000000000000000000000000000000000000000000000000000000000000000000000000000000000000000000000000000000000000000000000000000000000000000000000000000000000000000000000000000700070000000000
310
00000000000700070000000000000000000000000000000000000000000000000000000000000000000000000000000000000000000000000000000000000000000000000000000000000000000000000000000000000000000000000000000000000000000000000000000000000000000000000000000000000000000000
310
00000000000000000000000000000000000000000000000000000000000000000000000000000000000000000007000700000000000000000000070007000000000000000000000000000000000000000000000000000000000000000000000000000000000000000000000000000000000000000000000000000000000000
310
00000000000000000000000000000000000000000000000000000000000000000000000000000000000000000000000000000000000000000000000000000000000000000000000000000000000000000000000000000000000000000000000000000700000700000000000000000007000700000000000000000000000000
310
00000000000000000000000000000000000000000000000000000000000000000000000000000000000000000000000000000000000000000000000000000000000000000000000000000000000000000000000000000000000000000000000000000000000000000000000000000000000000000000000000000000000000
310
00000000000000000000000000000000000000000000000000070007000000000000000000070007000000000000000000000000000000000000000000000000000000000000000000000000000000000000000000000000000000000000000000000000000000000000000000000000000000000000000000000000000000
310
00000000000000000000000000000000000000000000000000000000000000000000000000000000000000000000000000000000000000000000000000000000000000000000000000000000000007000007000000000000000007000700000000000000000000000000000000000000000000000000000000000000000000
310
00000000000000000000000000000000000000000000000000000000000000000000000000000000000000000000000000000000000000000000000000000000000000000000000000000000000000000000000000000000000000000000000000000000000000000000000000000000000000000000000000000000000000
310
00000000000700070000000000000000070007000000000000000000000000000000000000000000000000000000000000000000000000000000000000000000000000000000000000000000000000000000000000000000000000000000000000000000000000000000000000000000000000000000000000000000000000
310
00000000000000000000000000000000000000000000000000000000000000000000000000000000000000000000000000000000000000000000070007000000000000000007000700000000000000000000000000000000000000000000000000000000000000000000000000000000000000000000000000000000000000
310
00000000000000000000000000000000000000000000000000000000000000000000000000000000000000000000000000000000000000000000000000000000000000000000000000000000000000000000000000000000000000000000000000000000000000000000000000000007000700000000000000000700070000
310
00000000000000000000000000000000000000000000000000000000000000000000000000000000000000000000000000000000000000000000000000000000000000000000000000000000000000000000000000000000000000000000000000000000000000000000000000000000000000000000000000000000000000
310
00000000000000000000000000000000000000000000000000000000000000000000000000070000070000000000000007000700000000000000000000000000000000000000000000000000000000000000000000000000000000000000000000000000000000000000000000000000000000000000000000000000000000
310
00000000000000000000000000000000000000000000000000000000000000000000000000000000000000000000000000000000000000000000000000000000000000000000000000000000000000000000000000000000000000070007000000000000000700070000000000000000000000000000000000000000000000
310
00000000000000000000000000000000000000000000000000000000000000000000000000000000000000000000000000000000000000000000000000000000000000000000000000000000000000000000000000000000000000000000000000000000000000000000000000000000000000000000000000000000000000
310
00000000000000000000000000000000000700070000000000000007000700000000000000000000000000000000000000000000000000000000000000000000000000000000000000000000000000000000000000000000000000000000000000000000000000000000000000000000000000000000000000000000000000
310
00000000000000000000000000000000000000000000000000000000000000000000000000000000000000000000000000000000000000000000000000000000000000000000070007000000000000000700070000000000000000000000000000000000000000000000000000000000000000000000000000000000000000
310
00000000000000000000000000000000000000000000000000000000000000000000000000000000000000000000000000000000000000000000000000000000000000000000000000000000000000000000000000000000000000000000000000000000000000000000000000000000000000000000000000000007000700
310
00000000000007000700000000000000000000000000000000000000000000000000000000000000000000000000000000000000000000000000000000000000000000000000000000000000000000000000000000000000000000000000000000000000000000000000000000000000000000000000000000000000000000
310
00000000000000000000000000000000000000000000000000000000000000000000000000000000000000000000000000070007000000000000000700070000000000000000000000000000000000000000000000000000000000000000000000000000000000000000000000000000000000000000000000000000000000
310
00000000000000000000000000000000000000000000000000000000000000000000000000000000000000000000000000000000000000000000000000000000000000000000000000000000000000000000000000000000000000000000000000000000000000070007000000000000070007000000000000000000000000
310
00000000000000000000000000000000000000000000000000000000000000000000000000000000000000000000000000000000000000000000000000000000000000000000000000000000000000000000000000000000000000000000000000000000000000000000000000000000000000000000000000000000000000
310
00000000000000000000000000000000000000000000000000000000000700070000000000000700070000000000000000000000000000000000000000000000000000000000000000000000000000000000000000000000000000000000000000000000000000000000000000000000000000000000000000000000000000
310
00000000000000000000000000000000000000000000000000000000000000000000000000000000000000000000000000000000000000000000000000000000000000000000000000000000000000000000070007000000000000070007000000000000000000000000000000000000000000000000000000000000000000
310
00000000000000000000000000000000000000000000000000000000000000000000000000000000000000000000000000000000000000000000000000000000000000000000000000000000000000000000000000000000000000000000000000000000000000000000000000000000000000000000000000000000000000
310
00000000000000000700070000000000000700070000000000000000000000000000000000000000000000000000000000000000000000000000000000000000000000000000000000000000000000000000000000000000000000000000000000000000000000000000000000000000000000000000000000000000000000
310
00000000000000000000000000000000000000000000000000000000000000000000000000000000000000000000000000000000000000000000000000070007000000000000070007000000000000000000000000000000000000000000000000000000000000000000000000000000000000000000000000000000000000
310
00000000000000000000000000000000000000000000000000000000000000000000000000000000000000000000000000000000000000000000000000000000000000000000000000000000000000000000000000000000000000000000000000000000000000000000000000000000000000070700000000000007000700
310
00000000000000000000000000000000000000000000000000000000000000000000000000000000000000000000000000000000000000000000000000000000000000000000000000000000000000000000000000000000000000000000000000000000000000000000000000000000000000000000000000000000000000
310
00000000000000000000000000000000000000000000000000000000000000000000000000000000000707000000000000070007000000000000000000000000000000000000000000000000000000000000000000000000000000000000000000000000000000000000000000000000000000000000000000000000000000
310
00000000000000000000000000000000000000000000000000000000000000000000000000000000000000000000000000000000000000000000000000000000000000000000000000000000000000000000000000000000000000000007070707000000000007000700000000000000000000000000000000000000000000
310
00000000000000000000000000000000000000000000000000000000000000000000000000000000000000000000000000000000000000000000000000000000000000000000000000000000000000000000000000000000000000000000000000000000000000000000000000000000000000000000000000000000000000
310
00000000000000000000000000000000000000070000070000000000070007000000000000000000000000000000000000000000000000000000000000000000000000000000000000000000000000000000000000000000000000000000000000000000000000000000000000000000000000000000000000000000000000
310
00000000000000000000000000000000000000000000000000000000000000000000000000000000000000000000000000000000000000000000000000000000000000000000000007000007000000000007000700000000000000000000000000000000000000000000000000000000000000000000000000000000000000
310
00000000000000000000000000000000000000000000000000000000000000000000000000000000000000000000000000000000000000000000000000000000000000000000000000000000000000000000000000000000000000000000000000000000000000000000000000000000000000000000000000000000000700
310
00070000000000070007000000000000000000000000000000000000000000000000000000000000000000000000000000000000000000000000000000000000000000000000000000000000000000000000000000000000000000000000000000000000000000000000000000000000000000000000000000000000000000
310
00000000000000000000000000000000000000000000000000000000000000000000000000000000000000000000000000000007070707000000000007000700000000000000000000000000000000000000000000000000000000000000000000000000000000000000000000000000000000000000000000000000000000
310
00000000000000000000000000000000000000000000000000000000000000000000000000000000000000000000000000000000000000000000000000000000000000000000000000000000000000000000000000000000000000000000000000000000000000000700000700000000000700070000000000000000000000
310
00000000000000000000000000000000000000000000000000000000000000000000000000000000000000000000000000000000000000000000000000000000000000000000000000000000000000000000000000000000000000000000000000000000000000000000000000000000000000000000000000000000000000
310
00000000000000000000000000000000000000000000000000000000000007000007000000000007000700000000000000000000000000000000000000000000000000000000000000000000000000000000000000000000000000000000000000000000000000000000000000000000000000000000000000000000000000
310
00000000000000000000000000000000000000000000000000000000000000000000000000000000000000000000000000000000000000000000000000000000000000000000000000000000000000000000000700000700000000000700070000000000000000000000000000000000000000000000000000000000000000
310
00000000000000000000000000000000000000000000000000000000000000000000000000000000000000000000000000000000000000000000000000000000000000000000000000000000000000000000000000000000000000000000000000000000000000000000000000000000000000000000000000000000000000
310
00000000000000000007000707070000000007070700000000000000000000000000000000000000000000000000000000000000000000000000000000000000000000000000000000000000000000000000000000000000000000000000000000000000000000000000000000000000000000000000000000000000000000
310
00000000000000000000000000000000000000000000000000000000000000000000000000000000000000000000000000000000000000000000000000000700070007000000000700070000000000000000000000000000000000000000000000000000000000000000000000000000000000000000000000000000000000
310
00000000000000000000000000000000000000000000000000000000000000000000000000000000000000000000000000000000000000000000000000000000000000000000000000000000000000000000000000000000000000000000000000000000000000000000000000000000000000070007000700000000070007
310
00000000000000000000000000000000000000000000000000000000000000000000000000000000000000000000000000000000000000000000000000000000000000000000000000000000000000000000000000000000000000000000000000000000000000000000000000000000000000000000000000000000000000
310
00000000000000000000000000000000000000000000000000000000000000000000000000000000000700070007000000000700070000000000000000000000000000000000000000000000000000000000000000000000000000000000000000000000000000000000000000000000000000000000000000000000000000
310
00000000000000000000000000000000000000000000000000000000000000000000000000000000000000000000000000000000000000000000000000000000000000000000000000000000000000000000000000000000000000000000070007070707070707070707000000000000000000000000000000000000000000
310
00000000000000000000000000000000000000000000000000000000000000000000000000000000000000000000000000000000000000000000000000000000000000000000000000000000000000000000000000000000000000000000000000000000000000000000000000000000000000000000000000000000000000
310
00000000000000000000000000000000000000000707070707070707070700070000000000000000000000000000000000000000000000000000000000000000000000000000000000000000000000000000000000000000000000000000000000000000000000000000000000000000000000000000000000000000000000
310
00000000000000000000000000000000000000000000000000000000000000000000000000000000000000000000000000000000000000000000000000000000000000000000000000070007070000000000070007000000000000000000000000000000000000000000000000000000000000000000000000000000000000
310
00000000000000000000000000000000000000000000000000000000000000000000000000000000000000000000000000000000000000000000000000000000000000000000000000000000000000000000000000000000000000000000000000000000000000000000000000000000000000000000000000000000000007
310
00070700000000000700070000000000000000000000000000000000000000000000000000000000000000000000000000000000000000000000000000000000000000000000000000000000000000000000000000000000000000000000000000000000000000000000000000000000000000000000000000000000000000
310
00000000000000000000000000000000000000000000000000000000000000000000000000000000000000000000000000000000070007070007070707070007000000000000000000000000000000000000000000000000000000000000000000000000000000000000000000000000000000000000000000000000000000
310
00000000000000000000000000000000000000000000000000000000000000000000000000000000000000000000000000000000000000000000000000000000000000000000000000000000000000000000000000000000000000000000000000000000000000000007000707000700000007000700000000000000000000
310
00000000000000000000000000000000000000000000000000000000000000000000000000000000000000000000000000000000000000000000000000000000000000000000000000000000000000000000000000000000000000000000000000000000000000000000000000000000000000000000000000000000000000
310
00000000000000000000000000000000000000000000000000000000000000070007070007000000070007000000000000000000000000000000000000000000000000000000000000000000000000000000000000000000000000000000000000000000000000000000000000000000000000000000000000000000000000
310
00000000000000000000000000000000000000000000000000000000000000000000000000000000000000000000000000000000000000000000000000000000000000000000000000000000000000000000000007000707000700000007000700000000000000000000000000000000000000000000000000000000000000
310
00000000000000000000000000000000000000000000000000000000000000000000000000000000000000000000000000000000000000000000000000000000000000000000000000000000000000000000000000000000000000000000000000000000000000000000000000000000000000000000000000000000000000
310
00000000000000000000070007070007070707070007000000000000000000000000000000000000000000000000000000000000000000000000000000000000000000000000000000000000000000000000000000000000000000000000000000000000000000000000000000000000000000000000000000000000000000
310
00000000000000000000000000000000000000000000000000000000000000000000000000000000000000000000000000000000000000000000000000000007000707000000000007000700000000000000000000000000000000000000000000000000000000000000000000000000000000000000000000000000000000
310
00000000000000000000000000000000000000000000000000000000000000000000000000000000000000000000000000000000000000000000000000000000000000000000000000000000000000000000000000000000000000000000000000000000000000000000000000000000000000000707070700000000000700
310
07000000000000000000000000000000000000000000000000000000000000000000000000000000000000000000000000000000000000000000000000000000000000000000000000000000000000000000000000000000000000000000000000000000000000000000000000000000000000000000000000000000000000
310
00000000000000000000000000000000000000000000000000000000000000000000000000000000000007000007000000000007000700000000000000000000000000000000000000000000000000000000000000000000000000000000000000000000000000000000000000000000000000000000000000000000000000
310
00000000000000000000000000000000000000000000000000000000000000000000000000000000000000000000000000000000000000000000000000000000000000000000000000000000000000000000000000000000000000000000000707070700000000000707070000000000000000000000000000000000000000
310
00000000000000000000000000000000000000000000000000000000000000000000000000000000000000000000000000000000000000000000000000000000000000000000000000000000000000000000000000000000000000000000000000000000000000000000000000000000000000000000000000000000000000
310
000000000000000000000000000000000000000000000000000000000000000000000000000000000000000000000000000000000000000000000000000000000000000000000000000000000000000000000000000000000000000000000000000000000000000000000000
  0
ENDSEC
  0
EOF
