  0
SECTION
  2
HEADER
  9
$ACADVER
  1
AC1015
  9
$ACADMAINTVER
 70
     6
  9
$DWGCODEPAGE
  3
ANSI_1252
  9
$INSBASE
 10
0.0
 20
0.0
 30
0.0
  9
$EXTMIN
 10
0.2304
 20
0.1182
 30
0.0
  9
$EXTMAX
 10
127.7696
 20
263.8818
 30
0.0
  9
$LIMMIN
 10
0.0
 20
0.0
  9
$LIMMAX
 10
12.0
 20
9.0
  9
$ORTHOMODE
 70
     0
  9
$REGENMODE
 70
     1
  9
$FILLMODE
 70
     1
  9
$QTEXTMODE
 70
     0
  9
$MIRRTEXT
 70
     1
  9
$LTSCALE
 40
1.0
  9
$ATTMODE
 70
     1
  9
$TEXTSIZE
 40
0.2
  9
$TRACEWID
 40
0.05
  9
$TEXTSTYLE
  7
Standard
  9
$CLAYER
  8
0
  9
$CELTYPE
  6
ByBlock
  9
$CECOLOR
 62
   256
  9
$CELTSCALE
 40
1.0
  9
$DISPSILH
 70
     0
  9
$DIMSCALE
 40
1.0
  9
$DIMASZ
 40
0.18
  9
$DIMEXO
 40
0.0625
  9
$DIMDLI
 40
0.38
  9
$DIMRND
 40
0.0
  9
$DIMDLE
 40
0.0
  9
$DIMEXE
 40
0.18
  9
$DIMTP
 40
0.0
  9
$DIMTM
 40
0.0
  9
$DIMTXT
 40
0.18
  9
$DIMCEN
 40
0.09
  9
$DIMTSZ
 40
0.0
  9
$DIMTOL
 70
     0
  9
$DIMLIM
 70
     0
  9
$DIMTIH
 70
     1
  9
$DIMTOH
 70
     1
  9
$DIMSE1
 70
     0
  9
$DIMSE2
 70
     0
  9
$DIMTAD
 70
     0
  9
$DIMZIN
 70
     0
  9
$DIMBLK
  1

  9
$DIMASO
 70
     1
  9
$DIMSHO
 70
     1
  9
$DIMPOST
  1

  9
$DIMAPOST
  1

  9
$DIMALT
 70
     0
  9
$DIMALTD
 70
     2
  9
$DIMALTF
 40
25.4
  9
$DIMLFAC
 40
1.0
  9
$DIMTOFL
 70
     0
  9
$DIMTVP
 40
0.0
  9
$DIMTIX
 70
     0
  9
$DIMSOXD
 70
     0
  9
$DIMSAH
 70
     0
  9
$DIMBLK1
  1

  9
$DIMBLK2
  1

  9
$DIMSTYLE
  2
Standard
  9
$DIMCLRD
 70
     0
  9
$DIMCLRE
 70
     0
  9
$DIMCLRT
 70
     0
  9
$DIMTFAC
 40
1.0
  9
$DIMGAP
 40
0.09
  9
$DIMJUST
 70
     0
  9
$DIMSD1
 70
     0
  9
$DIMSD2
 70
     0
  9
$DIMTOLJ
 70
     1
  9
$DIMTZIN
 70
     0
  9
$DIMALTZ
 70
     0
  9
$DIMALTTZ
 70
     0
  9
$DIMUPT
 70
     0
  9
$DIMDEC
 70
     4
  9
$DIMTDEC
 70
     4
  9
$DIMALTU
 70
     2
  9
$DIMALTTD
 70
     2
  9
$DIMTXSTY
  7
Standard
  9
$DIMAUNIT
 70
     0
  9
$DIMADEC
 70
     0
  9
$DIMALTRND
 40
0.0
  9
$DIMAZIN
 70
     0
  9
$DIMDSEP
 70
    46
  9
$DIMATFIT
 70
     3
  9
$DIMFRAC
 70
     0
  9
$DIMLDRBLK
  1

  9
$DIMLUNIT
 70
     2
  9
$DIMLWD
 70
    -2
  9
$DIMLWE
 70
    -2
  9
$DIMTMOVE
 70
     2
  9
$LUNITS
 70
     2
  9
$LUPREC
 70
     4
  9
$SKETCHINC
 40
0.1
  9
$FILLETRAD
 40
0.5
  9
$AUNITS
 70
     0
  9
$AUPREC
 70
     0
  9
$MENU
  1
.
  9
$ELEVATION
 40
0.0
  9
$PELEVATION
 40
0.0
  9
$THICKNESS
 40
0.0
  9
$LIMCHECK
 70
     0
  9
$CHAMFERA
 40
0.5
  9
$CHAMFERB
 40
0.5
  9
$CHAMFERC
 40
1.0
  9
$CHAMFERD
 40
0.0
  9
$SKPOLY
 70
     0
  9
$TDCREATE
 40
2456645.855759908
  9
$TDUCREATE
 40
2456645.814093241
  9
$TDUPDATE
 40
2456645.862021482
  9
$TDUUPDATE
 40
2456645.820354815
  9
$TDINDWG
 40
0.006261412
  9
$TDUSRTIMER
 40
0.006261412
  9
$USRTIMER
 70
     1
  9
$ANGBASE
 50
0.0
  9
$ANGDIR
 70
     0
  9
$PDMODE
 70
     0
  9
$PDSIZE
 40
0.0
  9
$PLINEWID
 40
0.0
  9
$SPLFRAME
 70
     0
  9
$SPLINETYPE
 70
     6
  9
$SPLINESEGS
 70
     8
  9
$HANDSEED
  5
301
  9
$SURFTAB1
 70
     6
  9
$SURFTAB2
 70
     6
  9
$SURFTYPE
 70
     6
  9
$SURFU
 70
     6
  9
$SURFV
 70
     6
  9
$UCSBASE
  2

  9
$UCSNAME
  2

  9
$UCSORG
 10
0.0
 20
0.0
 30
0.0
  9
$UCSXDIR
 10
1.0
 20
0.0
 30
0.0
  9
$UCSYDIR
 10
0.0
 20
1.0
 30
0.0
  9
$UCSORTHOREF
  2

  9
$UCSORTHOVIEW
 70
     0
  9
$UCSORGTOP
 10
0.0
 20
0.0
 30
0.0
  9
$UCSORGBOTTOM
 10
0.0
 20
0.0
 30
0.0
  9
$UCSORGLEFT
 10
0.0
 20
0.0
 30
0.0
  9
$UCSORGRIGHT
 10
0.0
 20
0.0
 30
0.0
  9
$UCSORGFRONT
 10
0.0
 20
0.0
 30
0.0
  9
$UCSORGBACK
 10
0.0
 20
0.0
 30
0.0
  9
$PUCSBASE
  2

  9
$PUCSNAME
  2

  9
$PUCSORG
 10
0.0
 20
0.0
 30
0.0
  9
$PUCSXDIR
 10
1.0
 20
0.0
 30
0.0
  9
$PUCSYDIR
 10
0.0
 20
1.0
 30
0.0
  9
$PUCSORTHOREF
  2

  9
$PUCSORTHOVIEW
 70
     0
  9
$PUCSORGTOP
 10
0.0
 20
0.0
 30
0.0
  9
$PUCSORGBOTTOM
 10
0.0
 20
0.0
 30
0.0
  9
$PUCSORGLEFT
 10
0.0
 20
0.0
 30
0.0
  9
$PUCSORGRIGHT
 10
0.0
 20
0.0
 30
0.0
  9
$PUCSORGFRONT
 10
0.0
 20
0.0
 30
0.0
  9
$PUCSORGBACK
 10
0.0
 20
0.0
 30
0.0
  9
$USERI1
 70
     0
  9
$USERI2
 70
     0
  9
$USERI3
 70
     0
  9
$USERI4
 70
     0
  9
$USERI5
 70
     0
  9
$USERR1
 40
0.0
  9
$USERR2
 40
0.0
  9
$USERR3
 40
0.0
  9
$USERR4
 40
0.0
  9
$USERR5
 40
0.0
  9
$WORLDVIEW
 70
     1
  9
$SHADEDGE
 70
     3
  9
$SHADEDIF
 70
    70
  9
$TILEMODE
 70
     1
  9
$MAXACTVP
 70
    64
  9
$PINSBASE
 10
0.0
 20
0.0
 30
0.0
  9
$PLIMCHECK
 70
     0
  9
$PEXTMIN
 10
1.000000000000E+20
 20
1.000000000000E+20
 30
1.000000000000E+20
  9
$PEXTMAX
 10
-1.000000000000E+20
 20
-1.000000000000E+20
 30
-1.000000000000E+20
  9
$PLIMMIN
 10
0.0
 20
0.0
  9
$PLIMMAX
 10
12.0
 20
9.0
  9
$UNITMODE
 70
     0
  9
$VISRETAIN
 70
     1
  9
$PLINEGEN
 70
     0
  9
$PSLTSCALE
 70
     1
  9
$TREEDEPTH
 70
  3020
  9
$CMLSTYLE
  2
Standard
  9
$CMLJUST
 70
     0
  9
$CMLSCALE
 40
1.0
  9
$PROXYGRAPHICS
 70
     1
  9
$MEASUREMENT
 70
     0
  9
$CELWEIGHT
370
    -1
  9
$ENDCAPS
280
     0
  9
$JOINSTYLE
280
     0
  9
$LWDISPLAY
290
     0
  9
$INSUNITS
 70
     0
  9
$HYPERLINKBASE
  1

  9
$STYLESHEET
  1

  9
$XEDIT
290
     1
  9
$CEPSNTYPE
380
     0
  9
$PSTYLEMODE
290
     1
  9
$FINGERPRINTGUID
  2
{483EF2D2-D091-406D-90D9-16B60F0CFFDA}
  9
$VERSIONGUID
  2
{FAEB1C32-E019-11D5-929B-00C0DF256EC4}
  9
$EXTNAMES
290
     1
  9
$PSVPSCALE
 40
0.0
  9
$OLESTARTUP
290
     0
  0
ENDSEC
  0
SECTION
  2
CLASSES
  0
CLASS
  1
ACDBDICTIONARYWDFLT
  2
AcDbDictionaryWithDefault
  3
ObjectDBX Classes
 90
        0
280
     0
281
     0
  0
CLASS
  1
SCALE
  2
AcDbScale
  3
ObjectDBX Classes
 90
     1153
280
     0
281
     0
  0
CLASS
  1
DICTIONARYVAR
  2
AcDbDictionaryVar
  3
ObjectDBX Classes
 90
        0
280
     0
281
     0
  0
CLASS
  1
ACDBPLACEHOLDER
  2
AcDbPlaceHolder
  3
ObjectDBX Classes
 90
        0
280
     0
281
     0
  0
CLASS
  1
LAYOUT
  2
AcDbLayout
  3
ObjectDBX Classes
 90
        0
280
     0
281
     0
  0
ENDSEC
  0
SECTION
  2
TABLES
  0
TABLE
  2
VPORT
  5
8
330
0
100
AcDbSymbolTable
 70
     1
  0
VPORT
  5
1DF
330
8
100
AcDbSymbolTableRecord
100
AcDbViewportTableRecord
  2
*Active
 70
     0
 10
0.0
 20
0.0
 11
1.0
 21
1.0
 12
63.8848
 22
131.9409
 13
0.0
 23
0.0
 14
0.5
 24
0.5
 15
0.5
 25
0.5
 16
0.0
 26
0.0
 36
1.0
 17
0.0
 27
0.0
 37
0.0
 40
269.159436
 41
1.729542302358
 42
50.0
 43
0.0
 44
0.0
 50
0.0
 51
0.0
 71
    16
 72
   100
 73
     1
 74
     3
 75
     0
 76
     0
 77
     0
 78
     0
281
     0
 65
     1
110
0.0
120
0.0
130
0.0
111
1.0
121
0.0
131
0.0
112
0.0
122
1.0
132
0.0
 79
     0
146
0.0
  0
ENDTAB
  0
TABLE
  2
LTYPE
  5
5
330
0
100
AcDbSymbolTable
 70
     1
  0
LTYPE
  5
14
330
5
100
AcDbSymbolTableRecord
100
AcDbLinetypeTableRecord
  2
ByBlock
 70
     0
  3

 72
    65
 73
     0
 40
0.0
  0
LTYPE
  5
15
330
5
100
AcDbSymbolTableRecord
100
AcDbLinetypeTableRecord
  2
ByLayer
 70
     0
  3

 72
    65
 73
     0
 40
0.0
  0
LTYPE
  5
16
330
5
100
AcDbSymbolTableRecord
100
AcDbLinetypeTableRecord
  2
Continuous
 70
     0
  3
Solid line
 72
    65
 73
     0
 40
0.0
  0
ENDTAB
  0
TABLE
  2
LAYER
  5
2
330
0
100
AcDbSymbolTable
 70
     1
  0
LAYER
  5
10
330
2
100
AcDbSymbolTableRecord
100
AcDbLayerTableRecord
  2
0
 70
     0
 62
     7
  6
Continuous
370
    -3
390
F
  0
ENDTAB
  0
TABLE
  2
STYLE
  5
3
330
0
100
AcDbSymbolTable
 70
     1
  0
STYLE
  5
11
330
3
100
AcDbSymbolTableRecord
100
AcDbTextStyleTableRecord
  2
Standard
 70
     0
 40
0.0
 41
1.0
 50
0.0
 71
     0
 42
0.2
  3
txt
  4

  0
ENDTAB
  0
TABLE
  2
VIEW
  5
6
330
0
100
AcDbSymbolTable
 70
     0
  0
ENDTAB
  0
TABLE
  2
UCS
  5
7
330
0
100
AcDbSymbolTable
 70
     0
  0
ENDTAB
  0
TABLE
  2
APPID
  5
9
330
0
100
AcDbSymbolTable
 70
     1
  0
APPID
  5
12
330
9
100
AcDbSymbolTableRecord
100
AcDbRegAppTableRecord
  2
ACAD
 70
     0
  0
ENDTAB
  0
TABLE
  2
DIMSTYLE
  5
A
330
0
100
AcDbSymbolTable
 70
     1
100
AcDbDimStyleTable
  0
DIMSTYLE
105
20
330
A
100
AcDbSymbolTableRecord
100
AcDbDimStyleTableRecord
  2
Standard
 70
     0
340
11
  0
ENDTAB
  0
TABLE
  2
BLOCK_RECORD
  5
1
330
0
100
AcDbSymbolTable
 70
     1
  0
BLOCK_RECORD
  5
1D
330
1
100
AcDbSymbolTableRecord
100
AcDbBlockTableRecord
  2
*Model_Space
340
1E
  0
BLOCK_RECORD
  5
1B
330
1
100
AcDbSymbolTableRecord
100
AcDbBlockTableRecord
  2
*Paper_Space
340
1C
  0
ENDTAB
  0
ENDSEC
  0
SECTION
  2
BLOCKS
  0
BLOCK
  5
1E2
330
1D
100
AcDbEntity
  8
0
100
AcDbBlockBegin
  2
*Model_Space
 70
     0
 10
0.0
 20
0.0
 30
0.0
  3
*Model_Space
  1
*Model_Space
  0
ENDBLK
  5
1E3
330
1D
100
AcDbEntity
  8
0
100
AcDbBlockEnd
  0
BLOCK
  5
1E0
330
1B
100
AcDbEntity
 67
     1
  8
0
100
AcDbBlockBegin
  2
*Paper_Space
 70
     0
 10
0.0
 20
0.0
 30
0.0
  3
*Paper_Space
  1
*Paper_Space
  0
ENDBLK
  5
1E1
330
1B
100
AcDbEntity
 67
     1
  8
0
100
AcDbBlockEnd
  0
ENDSEC
  0
SECTION
  2
ENTITIES
  0
LINE
  5
21
330
1D
100
AcDbEntity
  8
0
100
AcDbLine
 10
0.2304
 20
46.8648
 30
0.0
 11
0.4934
 21
56.9708
 31
0.0
  0
LINE
  5
22
330
1D
100
AcDbEntity
  8
0
100
AcDbLine
 10
0.2304
 20
46.8648
 30
0.0
 11
0.4816
 21
42.7268
 31
0.0
  0
LINE
  5
23
330
1D
100
AcDbEntity
  8
0
100
AcDbLine
 10
1.4847
 20
37.6749
 30
0.0
 11
2.8483
 21
33.6581
 31
0.0
  0
LINE
  5
24
330
1D
100
AcDbEntity
  8
0
100
AcDbLine
 10
4.7729
 20
29.5931
 30
0.0
 11
7.2192
 21
25.6507
 31
0.0
  0
LINE
  5
25
330
1D
100
AcDbEntity
  8
0
100
AcDbLine
 10
2.8483
 20
33.6581
 30
0.0
 11
4.7729
 21
29.5931
 31
0.0
  0
LINE
  5
26
330
1D
100
AcDbEntity
  8
0
100
AcDbLine
 10
0.785
 20
41.1618
 30
0.0
 11
1.4847
 21
37.6749
 31
0.0
  0
LINE
  5
27
330
1D
100
AcDbEntity
  8
0
100
AcDbLine
 10
0.4816
 20
42.7268
 30
0.0
 11
0.785
 21
41.1618
 31
0.0
  0
LINE
  5
28
330
1D
100
AcDbEntity
  8
0
100
AcDbLine
 10
3.2826
 20
70.6048
 30
0.0
 11
5.2827
 21
74.6578
 31
0.0
  0
LINE
  5
29
330
1D
100
AcDbEntity
  8
0
100
AcDbLine
 10
1.6416
 20
65.8308
 30
0.0
 11
3.2826
 21
70.6048
 31
0.0
  0
LINE
  5
2A
330
1D
100
AcDbEntity
  8
0
100
AcDbLine
 10
0.6802
 20
60.8098
 30
0.0
 11
1.6416
 21
65.8308
 31
0.0
  0
LINE
  5
2B
330
1D
100
AcDbEntity
  8
0
100
AcDbLine
 10
0.4934
 20
56.9708
 30
0.0
 11
0.6802
 21
60.8098
 31
0.0
  0
LINE
  5
2C
330
1D
100
AcDbEntity
  8
0
100
AcDbLine
 10
7.2192
 20
25.6507
 30
0.0
 11
11.7678
 21
20.1226
 31
0.0
  0
LINE
  5
2D
330
1D
100
AcDbEntity
  8
0
100
AcDbLine
 10
5.2827
 20
74.6578
 30
0.0
 11
7.9885
 21
78.8538
 31
0.0
  0
LINE
  5
2E
330
1D
100
AcDbEntity
  8
0
100
AcDbLine
 10
7.9885
 20
78.8538
 30
0.0
 11
11.2843
 21
82.8608
 31
0.0
  0
LINE
  5
2F
330
1D
100
AcDbEntity
  8
0
100
AcDbLine
 10
11.7678
 20
20.1226
 30
0.0
 11
15.4174
 21
16.6717
 31
0.0
  0
LINE
  5
30
330
1D
100
AcDbEntity
  8
0
100
AcDbLine
 10
11.89991628033
 20
83.458817691098
 30
0.0
 11
15.3351
 21
86.7958
 31
0.0
  0
LINE
  5
31
330
1D
100
AcDbEntity
  8
0
100
AcDbLine
 10
11.2843
 20
82.8608
 30
0.0
 11
11.447888251282
 21
83.019711762811
 31
0.0
  0
LINE
  5
32
330
1D
100
AcDbEntity
  8
0
100
AcDbLine
 10
11.89991628033
 20
83.458817691098
 30
0.0
 11
15.3351
 21
86.7958
 31
0.0
  0
LINE
  5
34
330
1D
100
AcDbEntity
  8
0
100
AcDbLine
 10
15.4174
 20
16.6717
 30
0.0
 11
19.4053
 21
13.5455
 31
0.0
  0
LINE
  5
35
330
1D
100
AcDbEntity
  8
0
100
AcDbLine
 10
15.3351
 20
86.7958
 30
0.0
 11
19.1484
 21
89.8478
 31
0.0
  0
LINE
  5
36
330
1D
100
AcDbEntity
  8
0
100
AcDbLine
 10
19.1484
 20
89.8478
 30
0.0
 11
20.6457
 21
91.0148
 31
0.0
  0
LINE
  5
37
330
1D
100
AcDbEntity
  8
0
100
AcDbLine
 10
19.4053
 20
13.5455
 30
0.0
 11
23.8179
 21
10.6387
 31
0.0
  0
LINE
  5
38
330
1D
100
AcDbEntity
  8
0
100
AcDbLine
 10
32.971
 20
6.0554
 30
0.0
 11
39.6982
 21
3.6647
 31
0.0
  0
LINE
  5
39
330
1D
100
AcDbEntity
  8
0
100
AcDbLine
 10
28.7868
 20
7.9409
 30
0.0
 11
32.971
 21
6.0554
 31
0.0
  0
LINE
  5
3B
330
1D
100
AcDbEntity
  8
0
100
AcDbLine
 10
23.8179
 20
10.6387
 30
0.0
 11
28.7868
 21
7.9409
 31
0.0
  0
LINE
  5
3C
330
1D
100
AcDbEntity
  8
0
100
AcDbLine
 10
19.4053
 20
13.5455
 30
0.0
 11
23.8179
 21
10.6387
 31
0.0
  0
LINE
  5
3D
330
1D
100
AcDbEntity
  8
0
100
AcDbLine
 10
20.6457
 20
91.0148
 30
0.0
 11
26.1579
 21
94.3388
 31
0.0
  0
LINE
  5
3E
330
1D
100
AcDbEntity
  8
0
100
AcDbLine
 10
31.7633
 20
97.1298
 30
0.0
 11
37.6604
 21
99.3528
 31
0.0
  0
LINE
  5
3F
330
1D
100
AcDbEntity
  8
0
100
AcDbLine
 10
26.1579
 20
94.3388
 30
0.0
 11
31.7633
 21
97.1298
 31
0.0
  0
LINE
  5
41
330
1D
100
AcDbEntity
  8
0
100
AcDbLine
 10
45.5433
 20
2.1282
 30
0.0
 11
51.3236
 21
1.0601
 31
0.0
  0
LINE
  5
42
330
1D
100
AcDbEntity
  8
0
100
AcDbLine
 10
39.6982
 20
3.6647
 30
0.0
 11
45.5433
 21
2.1282
 31
0.0
  0
LINE
  5
43
330
1D
100
AcDbEntity
  8
0
100
AcDbLine
 10
37.6604
 20
99.3528
 30
0.0
 11
42.8003
 21
100.8918
 31
0.0
  0
LINE
  5
44
330
1D
100
AcDbEntity
  8
0
100
AcDbLine
 10
42.8003
 20
100.8918
 30
0.0
 11
48.9321
 21
102.2288
 31
0.0
  0
LINE
  5
46
330
1D
100
AcDbEntity
  8
0
100
AcDbLine
 10
64.2438
 20
0.1182
 30
0.0
 11
70.2497
 21
0.3431
 31
0.0
  0
LINE
  5
47
330
1D
100
AcDbEntity
  8
0
100
AcDbLine
 10
57.7495
 20
0.3431
 30
0.0
 11
64.2438
 21
0.1182
 31
0.0
  0
LINE
  5
48
330
1D
100
AcDbEntity
  8
0
100
AcDbLine
 10
49.232773338108
 20
102.271879936277
 30
0.0
 11
50.4873
 21
137.4468
 31
0.0
  0
LINE
  5
4A
330
1D
100
AcDbEntity
  8
0
100
AcDbLine
 10
51.3236
 20
1.0601
 30
0.0
 11
57.7495
 21
0.3431
 31
0.0
  0
LINE
  5
4B
330
1D
100
AcDbEntity
  8
0
100
AcDbLine
 10
48.9321
 20
102.2288
 30
0.0
 11
53.8177
 21
102.9288
 31
0.0
  0
LINE
  5
4C
330
1D
100
AcDbEntity
  8
0
100
AcDbLine
 10
49.5396
 20
134.1618
 30
0.0
 11
50.310900019667
 21
132.500826832647
 31
0.0
  0
LINE
  5
4D
330
1D
100
AcDbEntity
  8
0
100
AcDbLine
 10
46.9996
 20
164.9458
 30
0.0
 11
46.9996
 21
168.8368
 31
0.0
  0
LINE
  5
4E
330
1D
100
AcDbEntity
  8
0
100
AcDbLine
 10
46.9996
 20
164.9458
 30
0.0
 11
46.9996
 21
161.3538
 31
0.0
  0
LINE
  5
4F
330
1D
100
AcDbEntity
  8
0
100
AcDbLine
 10
46.9996
 20
161.3538
 30
0.0
 11
46.9996
 21
164.9458
 31
0.0
  0
LINE
  5
50
330
1D
100
AcDbEntity
  8
0
100
AcDbLine
 10
46.9996
 20
161.3538
 30
0.0
 11
46.9996
 21
158.2608
 31
0.0
  0
LINE
  5
51
330
1D
100
AcDbEntity
  8
0
100
AcDbLine
 10
46.9996
 20
158.2608
 30
0.0
 11
46.9996
 21
161.3538
 31
0.0
  0
LINE
  5
52
330
1D
100
AcDbEntity
  8
0
100
AcDbLine
 10
46.9996
 20
158.2608
 30
0.0
 11
46.9996
 21
155.8658
 31
0.0
  0
LINE
  5
53
330
1D
100
AcDbEntity
  8
0
100
AcDbLine
 10
46.9996
 20
155.8658
 30
0.0
 11
46.9996
 21
158.2608
 31
0.0
  0
LINE
  5
54
330
1D
100
AcDbEntity
  8
0
100
AcDbLine
 10
46.9996
 20
155.8658
 30
0.0
 11
46.9996
 21
154.3698
 31
0.0
  0
LINE
  5
55
330
1D
100
AcDbEntity
  8
0
100
AcDbLine
 10
46.9996
 20
154.3698
 30
0.0
 11
46.9996
 21
155.8658
 31
0.0
  0
LINE
  5
56
330
1D
100
AcDbEntity
  8
0
100
AcDbLine
 10
46.9996
 20
154.3698
 30
0.0
 11
46.9996
 21
153.8708
 31
0.0
  0
LINE
  5
57
330
1D
100
AcDbEntity
  8
0
100
AcDbLine
 10
46.9996
 20
153.8708
 30
0.0
 11
46.9996
 21
154.3698
 31
0.0
  0
LINE
  5
58
330
1D
100
AcDbEntity
  8
0
100
AcDbLine
 10
46.9996
 20
153.8708
 30
0.0
 11
47.9996
 21
153.8708
 31
0.0
  0
LINE
  5
59
330
1D
100
AcDbEntity
  8
0
100
AcDbLine
 10
46.9996
 20
168.8368
 30
0.0
 11
46.9996
 21
172.7278
 31
0.0
  0
LINE
  5
5A
330
1D
100
AcDbEntity
  8
0
100
AcDbLine
 10
46.9996
 20
168.8368
 30
0.0
 11
46.9996
 21
164.9458
 31
0.0
  0
LINE
  5
5B
330
1D
100
AcDbEntity
  8
0
100
AcDbLine
 10
46.9996
 20
172.7278
 30
0.0
 11
46.9996
 21
176.3198
 31
0.0
  0
LINE
  5
5C
330
1D
100
AcDbEntity
  8
0
100
AcDbLine
 10
46.9996
 20
172.7278
 30
0.0
 11
46.9996
 21
168.8368
 31
0.0
  0
LINE
  5
5D
330
1D
100
AcDbEntity
  8
0
100
AcDbLine
 10
46.9996
 20
176.3198
 30
0.0
 11
46.9996
 21
179.4128
 31
0.0
  0
LINE
  5
5E
330
1D
100
AcDbEntity
  8
0
100
AcDbLine
 10
46.9996
 20
176.3198
 30
0.0
 11
46.9996
 21
172.7278
 31
0.0
  0
LINE
  5
5F
330
1D
100
AcDbEntity
  8
0
100
AcDbLine
 10
46.9996
 20
179.4128
 30
0.0
 11
46.9996
 21
181.8078
 31
0.0
  0
LINE
  5
60
330
1D
100
AcDbEntity
  8
0
100
AcDbLine
 10
46.9996
 20
179.4128
 30
0.0
 11
46.9996
 21
176.3198
 31
0.0
  0
LINE
  5
61
330
1D
100
AcDbEntity
  8
0
100
AcDbLine
 10
47.9996
 20
158.2608
 30
0.0
 11
47.9996
 21
161.3538
 31
0.0
  0
LINE
  5
62
330
1D
100
AcDbEntity
  8
0
100
AcDbLine
 10
47.9996
 20
155.8658
 30
0.0
 11
47.9996
 21
158.2608
 31
0.0
  0
LINE
  5
63
330
1D
100
AcDbEntity
  8
0
100
AcDbLine
 10
47.9996
 20
154.3698
 30
0.0
 11
47.9996
 21
155.8658
 31
0.0
  0
LINE
  5
64
330
1D
100
AcDbEntity
  8
0
100
AcDbLine
 10
47.9996
 20
153.8708
 30
0.0
 11
47.9996
 21
154.3698
 31
0.0
  0
LINE
  5
65
330
1D
100
AcDbEntity
  8
0
100
AcDbLine
 10
47.9996
 20
153.8708
 30
0.0
 11
47.9996
 21
151.5758
 31
0.0
  0
LINE
  5
66
330
1D
100
AcDbEntity
  8
0
100
AcDbLine
 10
47.9996
 20
164.9458
 30
0.0
 11
47.9996
 21
168.8368
 31
0.0
  0
LINE
  5
67
330
1D
100
AcDbEntity
  8
0
100
AcDbLine
 10
47.9996
 20
161.3538
 30
0.0
 11
47.9996
 21
164.9458
 31
0.0
  0
LINE
  5
68
330
1D
100
AcDbEntity
  8
0
100
AcDbLine
 10
47.9996
 20
163.6488
 30
0.0
 11
47.9996
 21
168.8368
 31
0.0
  0
LINE
  5
69
330
1D
100
AcDbEntity
  8
0
100
AcDbLine
 10
47.9996
 20
163.6488
 30
0.0
 11
47.9996
 21
158.8588
 31
0.0
  0
LINE
  5
6A
330
1D
100
AcDbEntity
  8
0
100
AcDbLine
 10
47.9996
 20
158.8588
 30
0.0
 11
47.9996
 21
163.6488
 31
0.0
  0
LINE
  5
6B
330
1D
100
AcDbEntity
  8
0
100
AcDbLine
 10
47.9996
 20
158.8588
 30
0.0
 11
47.9996
 21
154.7688
 31
0.0
  0
LINE
  5
6C
330
1D
100
AcDbEntity
  8
0
100
AcDbLine
 10
47.9996
 20
154.7688
 30
0.0
 11
47.9996
 21
158.8588
 31
0.0
  0
LINE
  5
6D
330
1D
100
AcDbEntity
  8
0
100
AcDbLine
 10
47.9996
 20
154.7688
 30
0.0
 11
47.9996
 21
151.5758
 31
0.0
  0
LINE
  5
6E
330
1D
100
AcDbEntity
  8
0
100
AcDbLine
 10
47.9996
 20
151.5758
 30
0.0
 11
47.9996
 21
154.7688
 31
0.0
  0
LINE
  5
6F
330
1D
100
AcDbEntity
  8
0
100
AcDbLine
 10
47.9996
 20
151.5758
 30
0.0
 11
47.9996
 21
149.5798
 31
0.0
  0
LINE
  5
70
330
1D
100
AcDbEntity
  8
0
100
AcDbLine
 10
47.9996
 20
151.5758
 30
0.0
 11
47.9996
 21
153.8708
 31
0.0
  0
LINE
  5
71
330
1D
100
AcDbEntity
  8
0
100
AcDbLine
 10
47.9996
 20
149.5798
 30
0.0
 11
47.9996
 21
151.5758
 31
0.0
  0
LINE
  5
72
330
1D
100
AcDbEntity
  8
0
100
AcDbLine
 10
47.9996
 20
149.5798
 30
0.0
 11
47.9996
 21
148.8818
 31
0.0
  0
LINE
  5
73
330
1D
100
AcDbEntity
  8
0
100
AcDbLine
 10
47.9996
 20
148.8818
 30
0.0
 11
47.9996
 21
149.5798
 31
0.0
  0
LINE
  5
74
330
1D
100
AcDbEntity
  8
0
100
AcDbLine
 10
47.9996
 20
148.8818
 30
0.0
 11
48.9996
 21
148.8818
 31
0.0
  0
LINE
  5
75
330
1D
100
AcDbEntity
  8
0
100
AcDbLine
 10
47.9996
 20
168.8368
 30
0.0
 11
47.9996
 21
172.7278
 31
0.0
  0
LINE
  5
76
330
1D
100
AcDbEntity
  8
0
100
AcDbLine
 10
47.9996
 20
168.8368
 30
0.0
 11
47.9996
 21
198.7698
 31
0.0
  0
LINE
  5
77
330
1D
100
AcDbEntity
  8
0
100
AcDbLine
 10
47.9996
 20
168.8368
 30
0.0
 11
47.9996
 21
163.6488
 31
0.0
  0
LINE
  5
78
330
1D
100
AcDbEntity
  8
0
100
AcDbLine
 10
47.9996
 20
172.7278
 30
0.0
 11
47.9996
 21
176.3198
 31
0.0
  0
LINE
  5
79
330
1D
100
AcDbEntity
  8
0
100
AcDbLine
 10
47.9996
 20
176.3198
 30
0.0
 11
47.9996
 21
179.4128
 31
0.0
  0
LINE
  5
7A
330
1D
100
AcDbEntity
  8
0
100
AcDbLine
 10
47.9996
 20
179.4128
 30
0.0
 11
47.9996
 21
181.8078
 31
0.0
  0
LINE
  5
7B
330
1D
100
AcDbEntity
  8
0
100
AcDbLine
 10
47.9996
 20
181.8078
 30
0.0
 11
47.9996
 21
183.3048
 31
0.0
  0
LINE
  5
7C
330
1D
100
AcDbEntity
  8
0
100
AcDbLine
 10
47.9996
 20
183.3048
 30
0.0
 11
47.9996
 21
183.8038
 31
0.0
  0
LINE
  5
7D
330
1D
100
AcDbEntity
  8
0
100
AcDbLine
 10
46.9996
 20
181.8078
 30
0.0
 11
46.9996
 21
183.3048
 31
0.0
  0
LINE
  5
7E
330
1D
100
AcDbEntity
  8
0
100
AcDbLine
 10
46.9996
 20
181.8078
 30
0.0
 11
46.9996
 21
179.4128
 31
0.0
  0
LINE
  5
7F
330
1D
100
AcDbEntity
  8
0
100
AcDbLine
 10
46.4316
 20
238.8818
 30
0.0
 11
47.0796
 21
238.8818
 31
0.0
  0
LINE
  5
80
330
1D
100
AcDbEntity
  8
0
100
AcDbLine
 10
45.9996
 20
239.4818
 30
0.0
 11
46.4316
 21
238.8818
 31
0.0
  0
LINE
  5
81
330
1D
100
AcDbEntity
  8
0
100
AcDbLine
 10
45.9996
 20
239.4818
 30
0.0
 11
45.9996
 21
253.8818
 31
0.0
  0
LINE
  5
82
330
1D
100
AcDbEntity
  8
0
100
AcDbLine
 10
37.6476
 20
253.8818
 30
0.0
 11
38.6196
 21
253.8818
 31
0.0
  0
LINE
  5
83
330
1D
100
AcDbEntity
  8
0
100
AcDbLine
 10
38.6196
 20
253.8818
 30
0.0
 11
41.2116
 21
253.8818
 31
0.0
  0
LINE
  5
84
330
1D
100
AcDbEntity
  8
0
100
AcDbLine
 10
37.6476
 20
253.8818
 30
0.0
 11
38.6196
 21
253.8818
 31
0.0
  0
LINE
  5
85
330
1D
100
AcDbEntity
  8
0
100
AcDbLine
 10
41.2116
 20
253.8818
 30
0.0
 11
45.4236
 21
253.8818
 31
0.0
  0
LINE
  5
86
330
1D
100
AcDbEntity
  8
0
100
AcDbLine
 10
45.4236
 20
253.8818
 30
0.0
 11
45.9996
 21
253.8818
 31
0.0
  0
LINE
  5
87
330
1D
100
AcDbEntity
  8
0
100
AcDbLine
 10
38.6196
 20
253.8818
 30
0.0
 11
41.2116
 21
253.8818
 31
0.0
  0
LINE
  5
88
330
1D
100
AcDbEntity
  8
0
100
AcDbLine
 10
41.2116
 20
253.8818
 30
0.0
 11
45.4236
 21
253.8818
 31
0.0
  0
LINE
  5
89
330
1D
100
AcDbEntity
  8
0
100
AcDbLine
 10
45.9996
 20
253.8818
 30
0.0
 11
45.9996
 21
239.4818
 31
0.0
  0
LINE
  5
8A
330
1D
100
AcDbEntity
  8
0
100
AcDbLine
 10
45.4236
 20
253.8818
 30
0.0
 11
50.9316
 21
253.8818
 31
0.0
  0
LINE
  5
8B
330
1D
100
AcDbEntity
  8
0
100
AcDbLine
 10
45.4236
 20
253.8818
 30
0.0
 11
45.9996
 21
253.8818
 31
0.0
  0
LINE
  5
8C
330
1D
100
AcDbEntity
  8
0
100
AcDbLine
 10
36.9996
 20
254.4818
 30
0.0
 11
37.6476
 21
253.8818
 31
0.0
  0
LINE
  5
8D
330
1D
100
AcDbEntity
  8
0
100
AcDbLine
 10
36.9996
 20
254.4818
 30
0.0
 11
36.9996
 21
263.8818
 31
0.0
  0
LINE
  5
8E
330
1D
100
AcDbEntity
  8
0
100
AcDbLine
 10
36.9996
 20
254.4818
 30
0.0
 11
37.9716
 21
254.4818
 31
0.0
  0
LINE
  5
8F
330
1D
100
AcDbEntity
  8
0
100
AcDbLine
 10
36.9996
 20
254.4818
 30
0.0
 11
37.6476
 21
253.8818
 31
0.0
  0
LINE
  5
90
330
1D
100
AcDbEntity
  8
0
100
AcDbLine
 10
36.9996
 20
254.4818
 30
0.0
 11
36.9996
 21
263.8818
 31
0.0
  0
LINE
  5
91
330
1D
100
AcDbEntity
  8
0
100
AcDbLine
 10
37.9716
 20
254.4818
 30
0.0
 11
40.5636
 21
254.4818
 31
0.0
  0
LINE
  5
92
330
1D
100
AcDbEntity
  8
0
100
AcDbLine
 10
36.9996
 20
263.8818
 30
0.0
 11
36.9996
 21
254.4818
 31
0.0
  0
LINE
  5
93
330
1D
100
AcDbEntity
  8
0
100
AcDbLine
 10
36.9996
 20
263.8818
 30
0.0
 11
37.9716
 21
263.8818
 31
0.0
  0
LINE
  5
94
330
1D
100
AcDbEntity
  8
0
100
AcDbLine
 10
36.9996
 20
263.8818
 30
0.0
 11
36.9996
 21
254.4818
 31
0.0
  0
LINE
  5
95
330
1D
100
AcDbEntity
  8
0
100
AcDbLine
 10
37.9716
 20
263.8818
 30
0.0
 11
40.5636
 21
263.8818
 31
0.0
  0
LINE
  5
96
330
1D
100
AcDbEntity
  8
0
100
AcDbLine
 10
40.5636
 20
263.8818
 30
0.0
 11
44.8836
 21
263.8818
 31
0.0
  0
LINE
  5
97
330
1D
100
AcDbEntity
  8
0
100
AcDbLine
 10
44.8836
 20
263.8818
 30
0.0
 11
50.6076
 21
263.8818
 31
0.0
  0
LINE
  5
98
330
1D
100
AcDbEntity
  8
0
100
AcDbLine
 10
40.5636
 20
254.4818
 30
0.0
 11
44.8836
 21
254.4818
 31
0.0
  0
LINE
  5
99
330
1D
100
AcDbEntity
  8
0
100
AcDbLine
 10
44.8836
 20
254.4818
 30
0.0
 11
50.6076
 21
254.4818
 31
0.0
  0
LINE
  5
9A
330
1D
100
AcDbEntity
  8
0
100
AcDbLine
 10
45.9996
 20
253.8818
 30
0.0
 11
46.6476
 21
253.8818
 31
0.0
  0
LINE
  5
9B
330
1D
100
AcDbEntity
  8
0
100
AcDbLine
 10
45.9996
 20
253.8818
 30
0.0
 11
45.9996
 21
239.4818
 31
0.0
  0
LINE
  5
9C
330
1D
100
AcDbEntity
  8
0
100
AcDbLine
 10
46.6476
 20
253.8818
 30
0.0
 11
48.3756
 21
253.8818
 31
0.0
  0
LINE
  5
9D
330
1D
100
AcDbEntity
  8
0
100
AcDbLine
 10
45.9996
 20
239.4818
 30
0.0
 11
46.6476
 21
239.4818
 31
0.0
  0
LINE
  5
9E
330
1D
100
AcDbEntity
  8
0
100
AcDbLine
 10
45.9996
 20
239.4818
 30
0.0
 11
46.4316
 21
238.8818
 31
0.0
  0
LINE
  5
9F
330
1D
100
AcDbEntity
  8
0
100
AcDbLine
 10
45.9996
 20
239.4818
 30
0.0
 11
45.9996
 21
253.8818
 31
0.0
  0
LINE
  5
A0
330
1D
100
AcDbEntity
  8
0
100
AcDbLine
 10
46.6476
 20
239.4818
 30
0.0
 11
48.3756
 21
239.4818
 31
0.0
  0
LINE
  5
A1
330
1D
100
AcDbEntity
  8
0
100
AcDbLine
 10
46.4316
 20
238.8818
 30
0.0
 11
47.0796
 21
238.8818
 31
0.0
  0
LINE
  5
A2
330
1D
100
AcDbEntity
  8
0
100
AcDbLine
 10
47.0796
 20
238.8818
 30
0.0
 11
48.8076
 21
238.8818
 31
0.0
  0
LINE
  5
A3
330
1D
100
AcDbEntity
  8
0
100
AcDbLine
 10
47.0796
 20
238.8818
 30
0.0
 11
48.8076
 21
238.8818
 31
0.0
  0
LINE
  5
A4
330
1D
100
AcDbEntity
  8
0
100
AcDbLine
 10
48.8076
 20
238.8818
 30
0.0
 11
51.6156
 21
238.8818
 31
0.0
  0
LINE
  5
A5
330
1D
100
AcDbEntity
  8
0
100
AcDbLine
 10
48.3756
 20
253.8818
 30
0.0
 11
51.2556
 21
253.8818
 31
0.0
  0
LINE
  5
A6
330
1D
100
AcDbEntity
  8
0
100
AcDbLine
 10
48.3756
 20
239.4818
 30
0.0
 11
51.2556
 21
239.4818
 31
0.0
  0
LINE
  5
A7
330
1D
100
AcDbEntity
  8
0
100
AcDbLine
 10
48.8076
 20
238.8818
 30
0.0
 11
51.6156
 21
238.8818
 31
0.0
  0
LINE
  5
A8
330
1D
100
AcDbEntity
  8
0
100
AcDbLine
 10
48.4996
 20
202.6608
 30
0.0
 11
50.3374
 21
206.5008
 31
0.0
  0
LINE
  5
A9
330
1D
100
AcDbEntity
  8
0
100
AcDbLine
 10
47.9996
 20
198.7698
 30
0.0
 11
47.9996
 21
168.8368
 31
0.0
  0
LINE
  5
AA
330
1D
100
AcDbEntity
  8
0
100
AcDbLine
 10
47.9996
 20
198.7698
 30
0.0
 11
47.9996
 21
183.8038
 31
0.0
  0
LINE
  5
AB
330
1D
100
AcDbEntity
  8
0
100
AcDbLine
 10
47.9996
 20
198.7698
 30
0.0
 11
48.4996
 21
202.6608
 31
0.0
  0
LINE
  5
AC
330
1D
100
AcDbEntity
  8
0
100
AcDbLine
 10
47.9996
 20
183.8038
 30
0.0
 11
47.9996
 21
198.7698
 31
0.0
  0
LINE
  5
AD
330
1D
100
AcDbEntity
  8
0
100
AcDbLine
 10
46.9996
 20
183.8038
 30
0.0
 11
46.9996
 21
183.3048
 31
0.0
  0
LINE
  5
AE
330
1D
100
AcDbEntity
  8
0
100
AcDbLine
 10
46.9996
 20
183.8038
 30
0.0
 11
47.9996
 21
183.8038
 31
0.0
  0
LINE
  5
AF
330
1D
100
AcDbEntity
  8
0
100
AcDbLine
 10
46.9996
 20
183.3048
 30
0.0
 11
46.9996
 21
183.8038
 31
0.0
  0
LINE
  5
B0
330
1D
100
AcDbEntity
  8
0
100
AcDbLine
 10
46.9996
 20
183.3048
 30
0.0
 11
46.9996
 21
181.8078
 31
0.0
  0
LINE
  5
B1
330
1D
100
AcDbEntity
  8
0
100
AcDbLine
 10
48.9996
 20
154.7688
 30
0.0
 11
48.9996
 21
137.4708
 31
0.0
  0
LINE
  5
B2
330
1D
100
AcDbEntity
  8
0
100
AcDbLine
 10
48.9996
 20
137.4708
 30
0.0
 11
49.5396
 21
140.7788
 31
0.0
  0
LINE
  5
B3
330
1D
100
AcDbEntity
  8
0
100
AcDbLine
 10
48.9996
 20
137.4708
 30
0.0
 11
49.5396
 21
134.1618
 31
0.0
  0
LINE
  5
B4
330
1D
100
AcDbEntity
  8
0
100
AcDbLine
 10
48.9996
 20
137.4708
 30
0.0
 11
48.9996
 21
154.7688
 31
0.0
  0
LINE
  5
B5
330
1D
100
AcDbEntity
  8
0
100
AcDbLine
 10
50.3374
 20
206.5008
 30
0.0
 11
52.9996
 21
209.76183803066
 31
0.0
  0
LINE
  5
B6
330
1D
100
AcDbEntity
  8
0
100
AcDbLine
 10
50.3374
 20
206.5008
 30
0.0
 11
50.4687
 21
206.7628
 31
0.0
  0
LINE
  5
B7
330
1D
100
AcDbEntity
  8
0
100
AcDbLine
 10
50.4687
 20
206.7628
 30
0.0
 11
51.928018893172
 21
208.449214357645
 31
0.0
  0
LINE
  5
B8
330
1D
100
AcDbEntity
  8
0
100
AcDbLine
 10
49.5396
 20
140.7788
 30
0.0
 11
50.9796
 21
143.8798
 31
0.0
  0
LINE
  5
B9
330
1D
100
AcDbEntity
  8
0
100
AcDbLine
 10
50.4873
 20
137.4468
 30
0.0
 11
50.5716
 21
138.7348
 31
0.0
  0
LINE
  5
BA
330
1D
100
AcDbEntity
  8
0
100
AcDbLine
 10
50.6076
 20
263.8818
 30
0.0
 11
57.0876
 21
263.8818
 31
0.0
  0
LINE
  5
BB
330
1D
100
AcDbEntity
  8
0
100
AcDbLine
 10
50.6076
 20
254.4818
 30
0.0
 11
57.0876
 21
254.4818
 31
0.0
  0
LINE
  5
BC
330
1D
100
AcDbEntity
  8
0
100
AcDbLine
 10
50.9316
 20
253.8818
 30
0.0
 11
57.1956
 21
253.8818
 31
0.0
  0
LINE
  5
BD
330
1D
100
AcDbEntity
  8
0
100
AcDbLine
 10
50.9796
 20
143.8798
 30
0.0
 11
53.3796
 21
146.6198
 31
0.0
  0
LINE
  5
BE
330
1D
100
AcDbEntity
  8
0
100
AcDbLine
 10
51.8176
 20
142.4348
 30
0.0
 11
52.5438
 21
143.5578
 31
0.0
  0
LINE
  5
BF
330
1D
100
AcDbEntity
  8
0
100
AcDbLine
 10
54.4036
 20
145.5578
 30
0.0
 11
54.6023
 21
145.7438
 31
0.0
  0
LINE
  5
C0
330
1D
100
AcDbEntity
  8
0
100
AcDbLine
 10
53.4098
 20
144.6028
 30
0.0
 11
54.4036
 21
145.5578
 31
0.0
  0
LINE
  5
C1
330
1D
100
AcDbEntity
  8
0
100
AcDbLine
 10
52.9097
 20
144.0498
 30
0.0
 11
53.4098
 21
144.6028
 31
0.0
  0
LINE
  5
C2
330
1D
100
AcDbEntity
  8
0
100
AcDbLine
 10
52.5438
 20
143.5578
 30
0.0
 11
52.9097
 21
144.0498
 31
0.0
  0
LINE
  5
C3
330
1D
100
AcDbEntity
  8
0
100
AcDbLine
 10
54.6023
 20
145.7438
 30
0.0
 11
55.5122
 21
146.4098
 31
0.0
  0
LINE
  5
C4
330
1D
100
AcDbEntity
  8
0
100
AcDbLine
 10
53.3796
 20
146.6198
 30
0.0
 11
56.5596
 21
148.6868
 31
0.0
  0
LINE
  5
C5
330
1D
100
AcDbEntity
  8
0
100
AcDbLine
 10
55.5122
 20
146.4098
 30
0.0
 11
56.5926
 21
147.1468
 31
0.0
  0
LINE
  5
C6
330
1D
100
AcDbEntity
  8
0
100
AcDbLine
 10
56.5926
 20
147.1468
 30
0.0
 11
57.438813444983
 21
147.493654675751
 31
0.0
  0
LINE
  5
C7
330
1D
100
AcDbEntity
  8
0
100
AcDbLine
 10
56.5926
 20
147.1468
 30
0.0
 11
57.438813444983
 21
147.493654675751
 31
0.0
  0
LINE
  5
C8
330
1D
100
AcDbEntity
  8
0
100
AcDbLine
 10
52.9996
 20
163.6488
 30
0.0
 11
52.9996
 21
168.8368
 31
0.0
  0
LINE
  5
C9
330
1D
100
AcDbEntity
  8
0
100
AcDbLine
 10
52.9996
 20
199.4268
 30
0.0
 11
52.9996
 21
201.0258
 31
0.0
  0
LINE
  5
CA
330
1D
100
AcDbEntity
  8
0
100
AcDbLine
 10
52.9996
 20
199.4268
 30
0.0
 11
52.9996
 21
198.8818
 31
0.0
  0
LINE
  5
CB
330
1D
100
AcDbEntity
  8
0
100
AcDbLine
 10
52.9996
 20
201.0258
 30
0.0
 11
52.9996
 21
199.4268
 31
0.0
  0
LINE
  5
CC
330
1D
100
AcDbEntity
  8
0
100
AcDbLine
 10
52.9996
 20
201.0258
 30
0.0
 11
52.9996
 21
203.5678
 31
0.0
  0
LINE
  5
CE
330
1D
100
AcDbEntity
  8
0
100
AcDbLine
 10
52.9996
 20
198.8818
 30
0.0
 11
52.9996
 21
199.4268
 31
0.0
  0
LINE
  5
CF
330
1D
100
AcDbEntity
  8
0
100
AcDbLine
 10
52.9996
 20
210.7408
 30
0.0
 11
52.9996
 21
209.76183803066
 31
0.0
  0
LINE
  5
D0
330
1D
100
AcDbEntity
  8
0
100
AcDbLine
 10
52.9996
 20
210.7408
 30
0.0
 11
52.9996
 21
214.8818
 31
0.0
  0
LINE
  5
D1
330
1D
100
AcDbEntity
  8
0
100
AcDbLine
 10
52.9996
 20
209.76183803066
 30
0.0
 11
52.9996
 21
210.7408
 31
0.0
  0
LINE
  5
D2
330
1D
100
AcDbEntity
  8
0
100
AcDbLine
 10
52.9996
 20
203.5678
 30
0.0
 11
52.9996
 21
206.8818
 31
0.0
  0
LINE
  5
D3
330
1D
100
AcDbEntity
  8
0
100
AcDbLine
 10
52.9996
 20
203.5678
 30
0.0
 11
52.9996
 21
201.0258
 31
0.0
  0
LINE
  5
D4
330
1D
100
AcDbEntity
  8
0
100
AcDbLine
 10
52.9996
 20
206.8818
 30
0.0
 11
52.9996
 21
203.5678
 31
0.0
  0
LINE
  5
D5
330
1D
100
AcDbEntity
  8
0
100
AcDbLine
 10
52.9996
 20
206.8818
 30
0.0
 11
52.9996
 21
210.7408
 31
0.0
  0
LINE
  5
D6
330
1D
100
AcDbEntity
  8
0
100
AcDbLine
 10
51.6156
 20
238.8818
 30
0.0
 11
52.9996
 21
238.8818
 31
0.0
  0
LINE
  5
D7
330
1D
100
AcDbEntity
  8
0
100
AcDbLine
 10
52.9996
 20
238.8818
 30
0.0
 11
52.9996
 21
214.8818
 31
0.0
  0
LINE
  5
D8
330
1D
100
AcDbEntity
  8
0
100
AcDbLine
 10
52.9996
 20
214.8818
 30
0.0
 11
52.9996
 21
210.7408
 31
0.0
  0
LINE
  5
D9
330
1D
100
AcDbEntity
  8
0
100
AcDbLine
 10
52.9996
 20
214.8818
 30
0.0
 11
52.9996
 21
238.8818
 31
0.0
  0
LINE
  5
DA
330
1D
100
AcDbEntity
  8
0
100
AcDbLine
 10
51.6156
 20
238.8818
 30
0.0
 11
55.2876
 21
238.8818
 31
0.0
  0
LINE
  5
DB
330
1D
100
AcDbEntity
  8
0
100
AcDbLine
 10
51.6156
 20
238.8818
 30
0.0
 11
52.9996
 21
238.8818
 31
0.0
  0
LINE
  5
DC
330
1D
100
AcDbEntity
  8
0
100
AcDbLine
 10
52.9996
 20
210.7408
 30
0.0
 11
52.9996
 21
214.8818
 31
0.0
  0
LINE
  5
DD
330
1D
100
AcDbEntity
  8
0
100
AcDbLine
 10
52.9996
 20
210.7408
 30
0.0
 11
52.9996
 21
206.8818
 31
0.0
  0
LINE
  5
DE
330
1D
100
AcDbEntity
  8
0
100
AcDbLine
 10
52.9996
 20
214.8818
 30
0.0
 11
52.9996
 21
238.8818
 31
0.0
  0
LINE
  5
DF
330
1D
100
AcDbEntity
  8
0
100
AcDbLine
 10
52.9996
 20
214.8818
 30
0.0
 11
52.9996
 21
210.7408
 31
0.0
  0
LINE
  5
E0
330
1D
100
AcDbEntity
  8
0
100
AcDbLine
 10
51.2556
 20
253.8818
 30
0.0
 11
55.0716
 21
253.8818
 31
0.0
  0
LINE
  5
E1
330
1D
100
AcDbEntity
  8
0
100
AcDbLine
 10
51.2556
 20
239.4818
 30
0.0
 11
55.0716
 21
239.4818
 31
0.0
  0
LINE
  5
E2
330
1D
100
AcDbEntity
  8
0
100
AcDbLine
 10
52.9996
 20
238.8818
 30
0.0
 11
52.9996
 21
214.8818
 31
0.0
  0
LINE
  5
E3
330
1D
100
AcDbEntity
  8
0
100
AcDbLine
 10
52.9996
 20
238.8818
 30
0.0
 11
53.3956
 21
238.8818
 31
0.0
  0
LINE
  5
E8
330
1D
100
AcDbEntity
  8
0
100
AcDbLine
 10
54.4516
 20
238.8818
 30
0.0
 11
56.2116
 21
238.8818
 31
0.0
  0
LINE
  5
E9
330
1D
100
AcDbEntity
  8
0
100
AcDbLine
 10
53.3956
 20
238.8818
 30
0.0
 11
54.4516
 21
238.8818
 31
0.0
  0
LINE
  5
EA
330
1D
100
AcDbEntity
  8
0
100
AcDbLine
 10
53.3996
 20
195.9758
 30
0.0
 11
54.4996
 21
193.2818
 31
0.0
  0
LINE
  5
EC
330
1D
100
AcDbEntity
  8
0
100
AcDbLine
 10
55.2876
 20
238.8818
 30
0.0
 11
59.4636
 21
238.8818
 31
0.0
  0
LINE
  5
EE
330
1D
100
AcDbEntity
  8
0
100
AcDbLine
 10
55.0716
 20
253.8818
 30
0.0
 11
59.3916
 21
253.8818
 31
0.0
  0
LINE
  5
EF
330
1D
100
AcDbEntity
  8
0
100
AcDbLine
 10
55.0716
 20
239.4818
 30
0.0
 11
59.3916
 21
239.4818
 31
0.0
  0
LINE
  5
F0
330
1D
100
AcDbEntity
  8
0
100
AcDbLine
 10
56.2116
 20
238.8818
 30
0.0
 11
58.5436
 21
238.8818
 31
0.0
  0
LINE
  5
F1
330
1D
100
AcDbEntity
  8
0
100
AcDbLine
 10
54.4996
 20
193.2818
 30
0.0
 11
56.1996
 21
190.9868
 31
0.0
  0
LINE
  5
F2
330
1D
100
AcDbEntity
  8
0
100
AcDbLine
 10
56.1996
 20
190.9868
 30
0.0
 11
58.4996
 21
189.2908
 31
0.0
  0
LINE
  5
F3
330
1D
100
AcDbEntity
  8
0
100
AcDbLine
 10
52.9996
 20
198.7698
 30
0.0
 11
53.3996
 21
195.9758
 31
0.0
  0
LINE
  5
F4
330
1D
100
AcDbEntity
  8
0
100
AcDbLine
 10
52.9996
 20
198.7698
 30
0.0
 11
52.9996
 21
168.8368
 31
0.0
  0
LINE
  5
F5
330
1D
100
AcDbEntity
  8
0
100
AcDbLine
 10
52.9996
 20
198.7698
 30
0.0
 11
53.007545453829
 21
198.825298994995
 31
0.0
  0
LINE
  5
F6
330
1D
100
AcDbEntity
  8
0
100
AcDbLine
 10
52.9996
 20
168.8368
 30
0.0
 11
52.9996
 21
163.6488
 31
0.0
  0
LINE
  5
F7
330
1D
100
AcDbEntity
  8
0
100
AcDbLine
 10
52.9996
 20
168.8368
 30
0.0
 11
52.9996
 21
198.7698
 31
0.0
  0
LINE
  5
F8
330
1D
100
AcDbEntity
  8
0
100
AcDbLine
 10
57.0876
 20
263.8818
 30
0.0
 11
63.9996
 21
263.8818
 31
0.0
  0
LINE
  5
F9
330
1D
100
AcDbEntity
  8
0
100
AcDbLine
 10
57.0876
 20
254.4818
 30
0.0
 11
63.9996
 21
254.4818
 31
0.0
  0
LINE
  5
FA
330
1D
100
AcDbEntity
  8
0
100
AcDbLine
 10
57.1956
 20
253.8818
 30
0.0
 11
63.9996
 21
253.8818
 31
0.0
  0
LINE
  5
FB
330
1D
100
AcDbEntity
  8
0
100
AcDbLine
 10
56.5596
 20
148.6868
 30
0.0
 11
60.1596
 21
149.9278
 31
0.0
  0
LINE
  5
FC
330
1D
100
AcDbEntity
  8
0
100
AcDbLine
 10
57.438813444983
 20
147.493654675751
 30
0.0
 11
58.0152
 21
147.7698
 31
0.0
  0
LINE
  5
FF
330
1D
100
AcDbEntity
  8
0
100
AcDbLine
 10
59.4636
 20
238.8818
 30
0.0
 11
63.9996
 21
238.8818
 31
0.0
  0
LINE
  5
101
330
1D
100
AcDbEntity
  8
0
100
AcDbLine
 10
59.3916
 20
253.8818
 30
0.0
 11
63.9996
 21
253.8818
 31
0.0
  0
LINE
  5
102
330
1D
100
AcDbEntity
  8
0
100
AcDbLine
 10
59.3916
 20
239.4818
 30
0.0
 11
63.9996
 21
239.4818
 31
0.0
  0
LINE
  5
103
330
1D
100
AcDbEntity
  8
0
100
AcDbLine
 10
58.5436
 20
238.8818
 30
0.0
 11
61.1836
 21
238.8818
 31
0.0
  0
LINE
  5
104
330
1D
100
AcDbEntity
  8
0
100
AcDbLine
 10
58.4996
 20
189.2908
 30
0.0
 11
61.1996
 21
188.1938
 31
0.0
  0
LINE
  5
105
330
1D
100
AcDbEntity
  8
0
100
AcDbLine
 10
60.1596
 20
149.9278
 30
0.0
 11
63.9996
 21
150.3928
 31
0.0
  0
LINE
  5
106
330
1D
100
AcDbEntity
  8
0
100
AcDbLine
 10
66.5764
 20
148.8108
 30
0.0
 11
69.0905
 21
148.1868
 31
0.0
  0
LINE
  5
10C
330
1D
100
AcDbEntity
  8
0
100
AcDbLine
 10
63.9996
 20
263.8818
 30
0.0
 11
70.9116
 21
263.8818
 31
0.0
  0
LINE
  5
10D
330
1D
100
AcDbEntity
  8
0
100
AcDbLine
 10
63.9996
 20
254.4818
 30
0.0
 11
70.9116
 21
254.4818
 31
0.0
  0
LINE
  5
10E
330
1D
100
AcDbEntity
  8
0
100
AcDbLine
 10
63.9996
 20
253.8818
 30
0.0
 11
68.6076
 21
253.8818
 31
0.0
  0
LINE
  5
10F
330
1D
100
AcDbEntity
  8
0
100
AcDbLine
 10
63.9996
 20
253.8818
 30
0.0
 11
70.8036
 21
253.8818
 31
0.0
  0
LINE
  5
110
330
1D
100
AcDbEntity
  8
0
100
AcDbLine
 10
63.9996
 20
239.4818
 30
0.0
 11
68.6076
 21
239.4818
 31
0.0
  0
LINE
  5
111
330
1D
100
AcDbEntity
  8
0
100
AcDbLine
 10
61.1836
 20
238.8818
 30
0.0
 11
63.9996
 21
238.8818
 31
0.0
  0
LINE
  5
112
330
1D
100
AcDbEntity
  8
0
100
AcDbLine
 10
63.9996
 20
238.8818
 30
0.0
 11
66.8156
 21
238.8818
 31
0.0
  0
LINE
  5
113
330
1D
100
AcDbEntity
  8
0
100
AcDbLine
 10
63.9996
 20
238.8818
 30
0.0
 11
68.5356
 21
238.8818
 31
0.0
  0
LINE
  5
114
330
1D
100
AcDbEntity
  8
0
100
AcDbLine
 10
61.1996
 20
188.1938
 30
0.0
 11
63.9996
 21
187.7948
 31
0.0
  0
LINE
  5
115
330
1D
100
AcDbEntity
  8
0
100
AcDbLine
 10
63.9996
 20
187.7948
 30
0.0
 11
66.7996
 21
188.1938
 31
0.0
  0
LINE
  5
116
330
1D
100
AcDbEntity
  8
0
100
AcDbLine
 10
63.9996
 20
150.3928
 30
0.0
 11
67.8396
 21
149.9278
 31
0.0
  0
LINE
  5
118
330
1D
100
AcDbEntity
  8
0
100
AcDbLine
 10
66.8156
 20
238.8818
 30
0.0
 11
69.4556
 21
238.8818
 31
0.0
  0
LINE
  5
119
330
1D
100
AcDbEntity
  8
0
100
AcDbLine
 10
66.7996
 20
188.1938
 30
0.0
 11
69.4996
 21
189.2908
 31
0.0
  0
LINE
  5
11A
330
1D
100
AcDbEntity
  8
0
100
AcDbLine
 10
68.6076
 20
253.8818
 30
0.0
 11
72.9276
 21
253.8818
 31
0.0
  0
LINE
  5
11B
330
1D
100
AcDbEntity
  8
0
100
AcDbLine
 10
68.6076
 20
239.4818
 30
0.0
 11
72.9276
 21
239.4818
 31
0.0
  0
LINE
  5
11C
330
1D
100
AcDbEntity
  8
0
100
AcDbLine
 10
68.5356
 20
238.8818
 30
0.0
 11
72.7116
 21
238.8818
 31
0.0
  0
LINE
  5
11D
330
1D
100
AcDbEntity
  8
0
100
AcDbLine
 10
67.8396
 20
149.9278
 30
0.0
 11
71.4396
 21
148.6868
 31
0.0
  0
LINE
  5
11E
330
1D
100
AcDbEntity
  8
0
100
AcDbLine
 10
64.0563
 20
149.0408
 30
0.0
 11
66.5764
 21
148.8108
 31
0.0
  0
LINE
  5
120
330
1D
100
AcDbEntity
  8
0
100
AcDbLine
 10
62.455
 20
148.8818
 30
0.0
 11
64.0563
 21
149.0408
 31
0.0
  0
LINE
  5
121
330
1D
100
AcDbEntity
  8
0
100
AcDbLine
 10
60.2204
 20
148.6338
 30
0.0
 11
62.455
 21
148.8818
 31
0.0
  0
LINE
  5
123
330
1D
100
AcDbEntity
  8
0
100
AcDbLine
 10
58.0152
 20
147.7698
 30
0.0
 11
60.2204
 21
148.6338
 31
0.0
  0
LINE
  5
124
330
1D
100
AcDbEntity
  8
0
100
AcDbLine
 10
51.5931
 20
142.0148
 30
0.0
 11
51.8176
 21
142.4348
 31
0.0
  0
LINE
  5
125
330
1D
100
AcDbEntity
  8
0
100
AcDbLine
 10
51.2416
 20
141.2458
 30
0.0
 11
51.5931
 21
142.0148
 31
0.0
  0
LINE
  5
126
330
1D
100
AcDbEntity
  8
0
100
AcDbLine
 10
50.824
 20
140.0068
 30
0.0
 11
51.2416
 21
141.2458
 31
0.0
  0
LINE
  5
127
330
1D
100
AcDbEntity
  8
0
100
AcDbLine
 10
50.5716
 20
138.7348
 30
0.0
 11
50.824
 21
140.0068
 31
0.0
  0
LINE
  5
128
330
1D
100
AcDbEntity
  8
0
100
AcDbLine
 10
53.8177
 20
102.9288
 30
0.0
 11
58.1533
 21
103.2338
 31
0.0
  0
LINE
  5
129
330
1D
100
AcDbEntity
  8
0
100
AcDbLine
 10
70.2497
 20
0.3431
 30
0.0
 11
76.42
 21
1.0167
 31
0.0
  0
LINE
  5
12A
330
1D
100
AcDbEntity
  8
0
100
AcDbLine
 10
76.42
 20
1.0167
 30
0.0
 11
82.1417
 21
2.0595
 31
0.0
  0
LINE
  5
12B
330
1D
100
AcDbEntity
  8
0
100
AcDbLine
 10
82.1417
 20
2.0595
 30
0.0
 11
88.301
 21
3.6647
 31
0.0
  0
LINE
  5
12D
330
1D
100
AcDbEntity
  8
0
100
AcDbLine
 10
88.301
 20
3.6647
 30
0.0
 11
93.9037
 21
5.6084
 31
0.0
  0
LINE
  5
12E
330
1D
100
AcDbEntity
  8
0
100
AcDbLine
 10
93.9037
 20
5.6084
 30
0.0
 11
99.2126
 21
7.9409
 31
0.0
  0
LINE
  5
130
330
1D
100
AcDbEntity
  8
0
100
AcDbLine
 10
108.5906
 20
13.5435
 30
0.0
 11
112.5826
 21
16.6728
 31
0.0
  0
LINE
  5
131
330
1D
100
AcDbEntity
  8
0
100
AcDbLine
 10
104.2696
 20
10.7212
 30
0.0
 11
108.5906
 21
13.5435
 31
0.0
  0
LINE
  5
132
330
1D
100
AcDbEntity
  8
0
100
AcDbLine
 10
103.1356
 20
10.0274
 30
0.0
 11
104.2696
 21
10.7212
 31
0.0
  0
LINE
  5
133
330
1D
100
AcDbEntity
  8
0
100
AcDbLine
 10
99.2126
 20
7.9409
 30
0.0
 11
103.1356
 21
10.0274
 31
0.0
  0
LINE
  5
134
330
1D
100
AcDbEntity
  8
0
100
AcDbLine
 10
112.5826
 20
16.6728
 30
0.0
 11
116.2286
 21
20.1194
 31
0.0
  0
LINE
  5
137
330
1D
100
AcDbEntity
  8
0
100
AcDbLine
 10
116.2286
 20
20.1194
 30
0.0
 11
120.7816
 21
25.6525
 31
0.0
  0
LINE
  5
138
330
1D
100
AcDbEntity
  8
0
100
AcDbLine
 10
125.1136
 20
33.5686
 30
0.0
 11
126.5236
 21
37.713
 31
0.0
  0
LINE
  5
139
330
1D
100
AcDbEntity
  8
0
100
AcDbLine
 10
124.7506
 20
70.5208
 30
0.0
 11
126.3736
 21
65.7808
 31
0.0
  0
LINE
  5
13A
330
1D
100
AcDbEntity
  8
0
100
AcDbLine
 10
123.2466
 20
29.6299
 30
0.0
 11
125.1136
 21
33.5686
 31
0.0
  0
LINE
  5
13B
330
1D
100
AcDbEntity
  8
0
100
AcDbLine
 10
120.7816
 20
25.6525
 30
0.0
 11
123.2466
 21
29.6299
 31
0.0
  0
LINE
  5
13C
330
1D
100
AcDbEntity
  8
0
100
AcDbLine
 10
126.5236
 20
37.713
 30
0.0
 11
127.2146
 21
41.1618
 31
0.0
  0
LINE
  5
13D
330
1D
100
AcDbEntity
  8
0
100
AcDbLine
 10
127.2146
 20
41.1618
 30
0.0
 11
127.5216
 21
42.7608
 31
0.0
  0
LINE
  5
13E
330
1D
100
AcDbEntity
  8
0
100
AcDbLine
 10
127.5056
 20
56.9768
 30
0.0
 11
127.7696
 21
46.9208
 31
0.0
  0
LINE
  5
13F
330
1D
100
AcDbEntity
  8
0
100
AcDbLine
 10
127.5216
 20
42.7608
 30
0.0
 11
127.7696
 21
46.9208
 31
0.0
  0
LINE
  5
140
330
1D
100
AcDbEntity
  8
0
100
AcDbLine
 10
127.3096
 20
60.8858
 30
0.0
 11
127.5056
 21
56.9768
 31
0.0
  0
LINE
  5
141
330
1D
100
AcDbEntity
  8
0
100
AcDbLine
 10
126.3736
 20
65.7808
 30
0.0
 11
127.3096
 21
60.8858
 31
0.0
  0
LINE
  5
142
330
1D
100
AcDbEntity
  8
0
100
AcDbLine
 10
122.5756
 20
74.9078
 30
0.0
 11
124.7506
 21
70.5208
 31
0.0
  0
LINE
  5
143
330
1D
100
AcDbEntity
  8
0
100
AcDbLine
 10
119.6516
 20
79.3268
 30
0.0
 11
122.5756
 21
74.9078
 31
0.0
  0
LINE
  5
144
330
1D
100
AcDbEntity
  8
0
100
AcDbLine
 10
116.7516
 20
82.8238
 30
0.0
 11
119.6516
 21
79.3268
 31
0.0
  0
LINE
  5
145
330
1D
100
AcDbEntity
  8
0
100
AcDbLine
 10
112.8496
 20
86.6688
 30
0.0
 11
116.7516
 21
82.8238
 31
0.0
  0
LINE
  5
146
330
1D
100
AcDbEntity
  8
0
100
AcDbLine
 10
71.4472
 20
147.1278
 30
0.0
 11
72.084199151759
 21
146.656365164776
 31
0.0
  0
LINE
  5
149
330
1D
100
AcDbEntity
  8
0
100
AcDbLine
 10
69.4556
 20
238.8818
 30
0.0
 11
71.7876
 21
238.8818
 31
0.0
  0
LINE
  5
14B
330
1D
100
AcDbEntity
  8
0
100
AcDbLine
 10
70.9116
 20
263.8818
 30
0.0
 11
77.3916
 21
263.8818
 31
0.0
  0
LINE
  5
14C
330
1D
100
AcDbEntity
  8
0
100
AcDbLine
 10
70.9116
 20
254.4818
 30
0.0
 11
77.3916
 21
254.4818
 31
0.0
  0
LINE
  5
14D
330
1D
100
AcDbEntity
  8
0
100
AcDbLine
 10
70.8036
 20
253.8818
 30
0.0
 11
77.0676
 21
253.8818
 31
0.0
  0
LINE
  5
14F
330
1D
100
AcDbEntity
  8
0
100
AcDbLine
 10
71.7876
 20
238.8818
 30
0.0
 11
73.5476
 21
238.8818
 31
0.0
  0
LINE
  5
150
330
1D
100
AcDbEntity
  8
0
100
AcDbLine
 10
71.7996
 20
190.9868
 30
0.0
 11
73.4996
 21
193.2818
 31
0.0
  0
LINE
  5
151
330
1D
100
AcDbEntity
  8
0
100
AcDbLine
 10
69.4996
 20
189.2908
 30
0.0
 11
71.7996
 21
190.9868
 31
0.0
  0
LINE
  5
152
330
1D
100
AcDbEntity
  8
0
100
AcDbLine
 10
71.4396
 20
148.6868
 30
0.0
 11
74.6196
 21
146.6198
 31
0.0
  0
LINE
  5
153
330
1D
100
AcDbEntity
  8
0
100
AcDbLine
 10
69.0905
 20
148.1868
 30
0.0
 11
71.4472
 21
147.1278
 31
0.0
  0
LINE
  5
154
330
1D
100
AcDbEntity
  8
0
100
AcDbLine
 10
71.2781
 20
147.1498
 30
0.0
 11
72.487
 21
146.4098
 31
0.0
  0
LINE
  5
155
330
1D
100
AcDbEntity
  8
0
100
AcDbLine
 10
77.1752
 20
140.0068
 30
0.0
 11
77.4275
 21
138.7348
 31
0.0
  0
LINE
  5
156
330
1D
100
AcDbEntity
  8
0
100
AcDbLine
 10
77.688299980333
 20
132.500826832647
 30
0.0
 11
78.4596
 21
134.1618
 31
0.0
  0
LINE
  5
157
330
1D
100
AcDbEntity
  8
0
100
AcDbLine
 10
77.5119
 20
137.4468
 30
0.0
 11
78.766604433186
 21
102.266895513672
 31
0.0
  0
LINE
  5
158
330
1D
100
AcDbEntity
  8
0
100
AcDbLine
 10
77.5119
 20
137.4468
 30
0.0
 11
78.766604433186
 21
102.266895513672
 31
0.0
  0
LINE
  5
159
330
1D
100
AcDbEntity
  8
0
100
AcDbLine
 10
77.4275
 20
138.7348
 30
0.0
 11
77.5119
 21
137.4468
 31
0.0
  0
LINE
  5
15A
330
1D
100
AcDbEntity
  8
0
100
AcDbLine
 10
74.5893
 20
144.6038
 30
0.0
 11
75.141
 21
144.0058
 31
0.0
  0
LINE
  5
15B
330
1D
100
AcDbEntity
  8
0
100
AcDbLine
 10
72.7116
 20
238.8818
 30
0.0
 11
76.3836
 21
238.8818
 31
0.0
  0
LINE
  5
15D
330
1D
100
AcDbEntity
  8
0
100
AcDbLine
 10
72.9276
 20
253.8818
 30
0.0
 11
76.7436
 21
253.8818
 31
0.0
  0
LINE
  5
15E
330
1D
100
AcDbEntity
  8
0
100
AcDbLine
 10
72.9276
 20
239.4818
 30
0.0
 11
76.7436
 21
239.4818
 31
0.0
  0
LINE
  5
15F
330
1D
100
AcDbEntity
  8
0
100
AcDbLine
 10
73.5476
 20
238.8818
 30
0.0
 11
74.6036
 21
238.8818
 31
0.0
  0
LINE
  5
160
330
1D
100
AcDbEntity
  8
0
100
AcDbLine
 10
74.6036
 20
238.8818
 30
0.0
 11
74.9996
 21
238.8818
 31
0.0
  0
LINE
  5
161
330
1D
100
AcDbEntity
  8
0
100
AcDbLine
 10
74.5996
 20
195.9758
 30
0.0
 11
74.9996
 21
198.7698
 31
0.0
  0
LINE
  5
162
330
1D
100
AcDbEntity
  8
0
100
AcDbLine
 10
73.4996
 20
193.2818
 30
0.0
 11
74.5996
 21
195.9758
 31
0.0
  0
LINE
  5
163
330
1D
100
AcDbEntity
  8
0
100
AcDbLine
 10
74.9996
 20
201.0258
 30
0.0
 11
74.9996
 21
203.5678
 31
0.0
  0
LINE
  5
164
330
1D
100
AcDbEntity
  8
0
100
AcDbLine
 10
74.9996
 20
201.0258
 30
0.0
 11
74.9996
 21
199.4268
 31
0.0
  0
LINE
  5
165
330
1D
100
AcDbEntity
  8
0
100
AcDbLine
 10
74.9996
 20
199.4268
 30
0.0
 11
74.9996
 21
198.8818
 31
0.0
  0
LINE
  5
166
330
1D
100
AcDbEntity
  8
0
100
AcDbLine
 10
74.9996
 20
199.4268
 30
0.0
 11
74.9996
 21
201.0258
 31
0.0
  0
LINE
  5
167
330
1D
100
AcDbEntity
  8
0
100
AcDbLine
 10
74.9996
 20
198.8818
 30
0.0
 11
74.9996
 21
199.4268
 31
0.0
  0
LINE
  5
168
330
1D
100
AcDbEntity
  8
0
100
AcDbLine
 10
74.9996
 20
203.5678
 30
0.0
 11
74.9996
 21
206.8818
 31
0.0
  0
LINE
  5
169
330
1D
100
AcDbEntity
  8
0
100
AcDbLine
 10
74.9996
 20
203.5678
 30
0.0
 11
74.9996
 21
201.0258
 31
0.0
  0
LINE
  5
16A
330
1D
100
AcDbEntity
  8
0
100
AcDbLine
 10
74.9996
 20
206.8818
 30
0.0
 11
74.9996
 21
210.7408
 31
0.0
  0
LINE
  5
16B
330
1D
100
AcDbEntity
  8
0
100
AcDbLine
 10
74.9996
 20
206.8818
 30
0.0
 11
74.9996
 21
203.5678
 31
0.0
  0
LINE
  5
16C
330
1D
100
AcDbEntity
  8
0
100
AcDbLine
 10
74.9996
 20
238.8818
 30
0.0
 11
76.3836
 21
238.8818
 31
0.0
  0
LINE
  5
16D
330
1D
100
AcDbEntity
  8
0
100
AcDbLine
 10
74.9996
 20
238.8818
 30
0.0
 11
74.9996
 21
214.8818
 31
0.0
  0
LINE
  5
16E
330
1D
100
AcDbEntity
  8
0
100
AcDbLine
 10
74.9996
 20
238.8818
 30
0.0
 11
76.3836
 21
238.8818
 31
0.0
  0
LINE
  5
16F
330
1D
100
AcDbEntity
  8
0
100
AcDbLine
 10
74.9996
 20
214.8818
 30
0.0
 11
74.9996
 21
210.7408
 31
0.0
  0
LINE
  5
170
330
1D
100
AcDbEntity
  8
0
100
AcDbLine
 10
74.9996
 20
214.8818
 30
0.0
 11
74.9996
 21
238.8818
 31
0.0
  0
LINE
  5
171
330
1D
100
AcDbEntity
  8
0
100
AcDbLine
 10
74.9996
 20
210.7408
 30
0.0
 11
74.9996
 21
206.8818
 31
0.0
  0
LINE
  5
172
330
1D
100
AcDbEntity
  8
0
100
AcDbLine
 10
74.9996
 20
210.7408
 30
0.0
 11
74.9996
 21
214.8818
 31
0.0
  0
LINE
  5
173
330
1D
100
AcDbEntity
  8
0
100
AcDbLine
 10
74.9996
 20
209.76183803066
 30
0.0
 11
77.6618
 21
206.5008
 31
0.0
  0
LINE
  5
174
330
1D
100
AcDbEntity
  8
0
100
AcDbLine
 10
74.991654546171
 20
198.825298994995
 30
0.0
 11
74.9996
 21
198.7698
 31
0.0
  0
LINE
  5
175
330
1D
100
AcDbEntity
  8
0
100
AcDbLine
 10
74.9996
 20
198.7698
 30
0.0
 11
74.9996
 21
168.8368
 31
0.0
  0
LINE
  5
176
330
1D
100
AcDbEntity
  8
0
100
AcDbLine
 10
74.9996
 20
168.8368
 30
0.0
 11
74.9996
 21
198.7698
 31
0.0
  0
LINE
  5
177
330
1D
100
AcDbEntity
  8
0
100
AcDbLine
 10
74.9996
 20
168.8368
 30
0.0
 11
74.9996
 21
163.6488
 31
0.0
  0
LINE
  5
178
330
1D
100
AcDbEntity
  8
0
100
AcDbLine
 10
74.9996
 20
163.6488
 30
0.0
 11
74.9996
 21
168.8368
 31
0.0
  0
LINE
  5
179
330
1D
100
AcDbEntity
  8
0
100
AcDbLine
 10
74.6196
 20
146.6198
 30
0.0
 11
77.0196
 21
143.8798
 31
0.0
  0
LINE
  5
17A
330
1D
100
AcDbEntity
  8
0
100
AcDbLine
 10
73.5955
 20
145.5578
 30
0.0
 11
74.5893
 21
144.6038
 31
0.0
  0
LINE
  5
17B
330
1D
100
AcDbEntity
  8
0
100
AcDbLine
 10
72.487
 20
146.4098
 30
0.0
 11
73.5955
 21
145.5578
 31
0.0
  0
LINE
  5
17C
330
1D
100
AcDbEntity
  8
0
100
AcDbLine
 10
75.141
 20
144.0058
 30
0.0
 11
75.4554
 21
143.5578
 31
0.0
  0
LINE
  5
17D
330
1D
100
AcDbEntity
  8
0
100
AcDbLine
 10
76.3836
 20
238.8818
 30
0.0
 11
79.1916
 21
238.8818
 31
0.0
  0
LINE
  5
17E
330
1D
100
AcDbEntity
  8
0
100
AcDbLine
 10
76.7436
 20
253.8818
 30
0.0
 11
79.6236
 21
253.8818
 31
0.0
  0
LINE
  5
17F
330
1D
100
AcDbEntity
  8
0
100
AcDbLine
 10
76.7436
 20
239.4818
 30
0.0
 11
79.6236
 21
239.4818
 31
0.0
  0
LINE
  5
180
330
1D
100
AcDbEntity
  8
0
100
AcDbLine
 10
76.3836
 20
238.8818
 30
0.0
 11
79.1916
 21
238.8818
 31
0.0
  0
LINE
  5
181
330
1D
100
AcDbEntity
  8
0
100
AcDbLine
 10
77.3916
 20
263.8818
 30
0.0
 11
83.1156
 21
263.8818
 31
0.0
  0
LINE
  5
182
330
1D
100
AcDbEntity
  8
0
100
AcDbLine
 10
77.3916
 20
254.4818
 30
0.0
 11
83.1156
 21
254.4818
 31
0.0
  0
LINE
  5
183
330
1D
100
AcDbEntity
  8
0
100
AcDbLine
 10
77.0676
 20
253.8818
 30
0.0
 11
82.5756
 21
253.8818
 31
0.0
  0
LINE
  5
184
330
1D
100
AcDbEntity
  8
0
100
AcDbLine
 10
77.5305
 20
206.7628
 30
0.0
 11
77.6618
 21
206.5008
 31
0.0
  0
LINE
  5
185
330
1D
100
AcDbEntity
  8
0
100
AcDbLine
 10
77.6618
 20
206.5008
 30
0.0
 11
79.4996
 21
202.6608
 31
0.0
  0
LINE
  5
186
330
1D
100
AcDbEntity
  8
0
100
AcDbLine
 10
77.0196
 20
143.8798
 30
0.0
 11
78.4596
 21
140.7788
 31
0.0
  0
LINE
  5
187
330
1D
100
AcDbEntity
  8
0
100
AcDbLine
 10
76.1816
 20
142.4348
 30
0.0
 11
76.7577
 21
141.2458
 31
0.0
  0
LINE
  5
188
330
1D
100
AcDbEntity
  8
0
100
AcDbLine
 10
75.4554
 20
143.5578
 30
0.0
 11
76.1816
 21
142.4348
 31
0.0
  0
LINE
  5
189
330
1D
100
AcDbEntity
  8
0
100
AcDbLine
 10
76.7577
 20
141.2458
 30
0.0
 11
77.1752
 21
140.0068
 31
0.0
  0
LINE
  5
18B
330
1D
100
AcDbEntity
  8
0
100
AcDbLine
 10
74.1958
 20
102.9298
 30
0.0
 11
78.3218
 21
102.3608
 31
0.0
  0
LINE
  5
18C
330
1D
100
AcDbEntity
  8
0
100
AcDbLine
 10
108.6996
 20
90.0158
 30
0.0
 11
112.8496
 21
86.6688
 31
0.0
  0
LINE
  5
18D
330
1D
100
AcDbEntity
  8
0
100
AcDbLine
 10
105.3386
 20
92.2808
 30
0.0
 11
108.6996
 21
90.0158
 31
0.0
  0
LINE
  5
18E
330
1D
100
AcDbEntity
  8
0
100
AcDbLine
 10
101.9166
 20
94.3178
 30
0.0
 11
105.3386
 21
92.2808
 31
0.0
  0
LINE
  5
18F
330
1D
100
AcDbEntity
  8
0
100
AcDbLine
 10
98.1536
 20
96.2118
 30
0.0
 11
101.9166
 21
94.3178
 31
0.0
  0
LINE
  5
190
330
1D
100
AcDbEntity
  8
0
100
AcDbLine
 10
92.2447
 20
98.7148
 30
0.0
 11
98.1536
 21
96.2118
 31
0.0
  0
LINE
  5
191
330
1D
100
AcDbEntity
  8
0
100
AcDbLine
 10
78.4596
 20
134.1618
 30
0.0
 11
78.9996
 21
137.4708
 31
0.0
  0
LINE
  5
192
330
1D
100
AcDbEntity
  8
0
100
AcDbLine
 10
78.9996
 20
148.8818
 30
0.0
 11
79.9996
 21
148.8818
 31
0.0
  0
LINE
  5
193
330
1D
100
AcDbEntity
  8
0
100
AcDbLine
 10
78.9996
 20
154.7688
 30
0.0
 11
78.9996
 21
137.4708
 31
0.0
  0
LINE
  5
194
330
1D
100
AcDbEntity
  8
0
100
AcDbLine
 10
78.4596
 20
140.7788
 30
0.0
 11
78.9996
 21
137.4708
 31
0.0
  0
LINE
  5
195
330
1D
100
AcDbEntity
  8
0
100
AcDbLine
 10
79.9996
 20
148.8818
 30
0.0
 11
79.9996
 21
149.5798
 31
0.0
  0
LINE
  5
196
330
1D
100
AcDbEntity
  8
0
100
AcDbLine
 10
79.9996
 20
153.8708
 30
0.0
 11
80.9996
 21
153.8708
 31
0.0
  0
LINE
  5
197
330
1D
100
AcDbEntity
  8
0
100
AcDbLine
 10
79.9996
 20
163.6488
 30
0.0
 11
79.9996
 21
158.8588
 31
0.0
  0
LINE
  5
198
330
1D
100
AcDbEntity
  8
0
100
AcDbLine
 10
79.9996
 20
163.6488
 30
0.0
 11
79.9996
 21
168.8368
 31
0.0
  0
LINE
  5
199
330
1D
100
AcDbEntity
  8
0
100
AcDbLine
 10
79.9996
 20
158.8588
 30
0.0
 11
79.9996
 21
154.7688
 31
0.0
  0
LINE
  5
19A
330
1D
100
AcDbEntity
  8
0
100
AcDbLine
 10
79.9996
 20
158.8588
 30
0.0
 11
79.9996
 21
163.6488
 31
0.0
  0
LINE
  5
19B
330
1D
100
AcDbEntity
  8
0
100
AcDbLine
 10
79.9996
 20
154.7688
 30
0.0
 11
79.9996
 21
151.5758
 31
0.0
  0
LINE
  5
19C
330
1D
100
AcDbEntity
  8
0
100
AcDbLine
 10
79.9996
 20
154.7688
 30
0.0
 11
79.9996
 21
158.8588
 31
0.0
  0
LINE
  5
19D
330
1D
100
AcDbEntity
  8
0
100
AcDbLine
 10
79.9996
 20
151.5758
 30
0.0
 11
79.9996
 21
149.5798
 31
0.0
  0
LINE
  5
19E
330
1D
100
AcDbEntity
  8
0
100
AcDbLine
 10
79.9996
 20
151.5758
 30
0.0
 11
79.9996
 21
154.7688
 31
0.0
  0
LINE
  5
19F
330
1D
100
AcDbEntity
  8
0
100
AcDbLine
 10
80.9996
 20
164.9458
 30
0.0
 11
80.9996
 21
168.8368
 31
0.0
  0
LINE
  5
1A0
330
1D
100
AcDbEntity
  8
0
100
AcDbLine
 10
80.9996
 20
164.9458
 30
0.0
 11
80.9996
 21
161.3538
 31
0.0
  0
LINE
  5
1A1
330
1D
100
AcDbEntity
  8
0
100
AcDbLine
 10
80.9996
 20
161.3538
 30
0.0
 11
80.9996
 21
164.9458
 31
0.0
  0
LINE
  5
1A2
330
1D
100
AcDbEntity
  8
0
100
AcDbLine
 10
80.9996
 20
161.3538
 30
0.0
 11
80.9996
 21
158.2608
 31
0.0
  0
LINE
  5
1A3
330
1D
100
AcDbEntity
  8
0
100
AcDbLine
 10
80.9996
 20
158.2608
 30
0.0
 11
80.9996
 21
161.3538
 31
0.0
  0
LINE
  5
1A4
330
1D
100
AcDbEntity
  8
0
100
AcDbLine
 10
80.9996
 20
158.2608
 30
0.0
 11
80.9996
 21
155.8658
 31
0.0
  0
LINE
  5
1A5
330
1D
100
AcDbEntity
  8
0
100
AcDbLine
 10
80.9996
 20
155.8658
 30
0.0
 11
80.9996
 21
158.2608
 31
0.0
  0
LINE
  5
1A6
330
1D
100
AcDbEntity
  8
0
100
AcDbLine
 10
80.9996
 20
155.8658
 30
0.0
 11
80.9996
 21
154.3698
 31
0.0
  0
LINE
  5
1A7
330
1D
100
AcDbEntity
  8
0
100
AcDbLine
 10
80.9996
 20
154.3698
 30
0.0
 11
80.9996
 21
155.8658
 31
0.0
  0
LINE
  5
1A8
330
1D
100
AcDbEntity
  8
0
100
AcDbLine
 10
80.9996
 20
154.3698
 30
0.0
 11
80.9996
 21
153.8708
 31
0.0
  0
LINE
  5
1A9
330
1D
100
AcDbEntity
  8
0
100
AcDbLine
 10
80.9996
 20
153.8708
 30
0.0
 11
80.9996
 21
154.3698
 31
0.0
  0
LINE
  5
1AA
330
1D
100
AcDbEntity
  8
0
100
AcDbLine
 10
79.9996
 20
149.5798
 30
0.0
 11
79.9996
 21
148.8818
 31
0.0
  0
LINE
  5
1AB
330
1D
100
AcDbEntity
  8
0
100
AcDbLine
 10
79.9996
 20
149.5798
 30
0.0
 11
79.9996
 21
151.5758
 31
0.0
  0
LINE
  5
1AC
330
1D
100
AcDbEntity
  8
0
100
AcDbLine
 10
79.9996
 20
168.8368
 30
0.0
 11
79.9996
 21
198.7698
 31
0.0
  0
LINE
  5
1AD
330
1D
100
AcDbEntity
  8
0
100
AcDbLine
 10
79.9996
 20
168.8368
 30
0.0
 11
79.9996
 21
163.6488
 31
0.0
  0
LINE
  5
1AE
330
1D
100
AcDbEntity
  8
0
100
AcDbLine
 10
80.9996
 20
168.8368
 30
0.0
 11
80.9996
 21
172.7278
 31
0.0
  0
LINE
  5
1AF
330
1D
100
AcDbEntity
  8
0
100
AcDbLine
 10
80.9996
 20
168.8368
 30
0.0
 11
80.9996
 21
164.9458
 31
0.0
  0
LINE
  5
1B0
330
1D
100
AcDbEntity
  8
0
100
AcDbLine
 10
80.9996
 20
172.7278
 30
0.0
 11
80.9996
 21
176.3198
 31
0.0
  0
LINE
  5
1B1
330
1D
100
AcDbEntity
  8
0
100
AcDbLine
 10
80.9996
 20
172.7278
 30
0.0
 11
80.9996
 21
168.8368
 31
0.0
  0
LINE
  5
1B2
330
1D
100
AcDbEntity
  8
0
100
AcDbLine
 10
80.9996
 20
176.3198
 30
0.0
 11
80.9996
 21
179.4128
 31
0.0
  0
LINE
  5
1B3
330
1D
100
AcDbEntity
  8
0
100
AcDbLine
 10
80.9996
 20
176.3198
 30
0.0
 11
80.9996
 21
172.7278
 31
0.0
  0
LINE
  5
1B4
330
1D
100
AcDbEntity
  8
0
100
AcDbLine
 10
80.9996
 20
179.4128
 30
0.0
 11
80.9996
 21
181.8078
 31
0.0
  0
LINE
  5
1B5
330
1D
100
AcDbEntity
  8
0
100
AcDbLine
 10
80.9996
 20
179.4128
 30
0.0
 11
80.9996
 21
176.3198
 31
0.0
  0
LINE
  5
1B6
330
1D
100
AcDbEntity
  8
0
100
AcDbLine
 10
80.9996
 20
181.8078
 30
0.0
 11
80.9996
 21
183.3048
 31
0.0
  0
LINE
  5
1B7
330
1D
100
AcDbEntity
  8
0
100
AcDbLine
 10
80.9996
 20
181.8078
 30
0.0
 11
80.9996
 21
179.4128
 31
0.0
  0
LINE
  5
1B8
330
1D
100
AcDbEntity
  8
0
100
AcDbLine
 10
79.1916
 20
238.8818
 30
0.0
 11
80.9196
 21
238.8818
 31
0.0
  0
LINE
  5
1B9
330
1D
100
AcDbEntity
  8
0
100
AcDbLine
 10
79.6236
 20
253.8818
 30
0.0
 11
81.3516
 21
253.8818
 31
0.0
  0
LINE
  5
1BA
330
1D
100
AcDbEntity
  8
0
100
AcDbLine
 10
79.6236
 20
239.4818
 30
0.0
 11
81.3516
 21
239.4818
 31
0.0
  0
LINE
  5
1BB
330
1D
100
AcDbEntity
  8
0
100
AcDbLine
 10
79.1916
 20
238.8818
 30
0.0
 11
80.9196
 21
238.8818
 31
0.0
  0
LINE
  5
1BC
330
1D
100
AcDbEntity
  8
0
100
AcDbLine
 10
79.4996
 20
202.6608
 30
0.0
 11
79.9996
 21
198.7698
 31
0.0
  0
LINE
  5
1BD
330
1D
100
AcDbEntity
  8
0
100
AcDbLine
 10
80.9196
 20
238.8818
 30
0.0
 11
81.5676
 21
238.8818
 31
0.0
  0
LINE
  5
1BE
330
1D
100
AcDbEntity
  8
0
100
AcDbLine
 10
80.9196
 20
238.8818
 30
0.0
 11
81.5676
 21
238.8818
 31
0.0
  0
LINE
  5
1BF
330
1D
100
AcDbEntity
  8
0
100
AcDbLine
 10
79.9996
 20
198.7698
 30
0.0
 11
79.9996
 21
168.8368
 31
0.0
  0
LINE
  5
1C0
330
1D
100
AcDbEntity
  8
0
100
AcDbLine
 10
79.9996
 20
183.8038
 30
0.0
 11
80.9996
 21
183.8038
 31
0.0
  0
LINE
  5
1C1
330
1D
100
AcDbEntity
  8
0
100
AcDbLine
 10
81.5676
 20
238.8818
 30
0.0
 11
81.9996
 21
239.4818
 31
0.0
  0
LINE
  5
1C2
330
1D
100
AcDbEntity
  8
0
100
AcDbLine
 10
81.9996
 20
239.4818
 30
0.0
 11
81.9996
 21
253.8818
 31
0.0
  0
LINE
  5
1C3
330
1D
100
AcDbEntity
  8
0
100
AcDbLine
 10
81.5676
 20
238.8818
 30
0.0
 11
81.9996
 21
239.4818
 31
0.0
  0
LINE
  5
1C4
330
1D
100
AcDbEntity
  8
0
100
AcDbLine
 10
82.5756
 20
253.8818
 30
0.0
 11
86.7876
 21
253.8818
 31
0.0
  0
LINE
  5
1C5
330
1D
100
AcDbEntity
  8
0
100
AcDbLine
 10
81.9996
 20
253.8818
 30
0.0
 11
82.5756
 21
253.8818
 31
0.0
  0
LINE
  5
1C6
330
1D
100
AcDbEntity
  8
0
100
AcDbLine
 10
89.3796
 20
253.8818
 30
0.0
 11
90.3516
 21
253.8818
 31
0.0
  0
LINE
  5
1C7
330
1D
100
AcDbEntity
  8
0
100
AcDbLine
 10
86.7876
 20
253.8818
 30
0.0
 11
89.3796
 21
253.8818
 31
0.0
  0
LINE
  5
1C8
330
1D
100
AcDbEntity
  8
0
100
AcDbLine
 10
90.3516
 20
253.8818
 30
0.0
 11
90.9996
 21
254.4818
 31
0.0
  0
LINE
  5
1C9
330
1D
100
AcDbEntity
  8
0
100
AcDbLine
 10
90.3516
 20
253.8818
 30
0.0
 11
90.9996
 21
254.4818
 31
0.0
  0
LINE
  5
1CA
330
1D
100
AcDbEntity
  8
0
100
AcDbLine
 10
89.3796
 20
253.8818
 30
0.0
 11
90.3516
 21
253.8818
 31
0.0
  0
LINE
  5
1CB
330
1D
100
AcDbEntity
  8
0
100
AcDbLine
 10
86.7876
 20
253.8818
 30
0.0
 11
89.3796
 21
253.8818
 31
0.0
  0
LINE
  5
1CC
330
1D
100
AcDbEntity
  8
0
100
AcDbLine
 10
82.5756
 20
253.8818
 30
0.0
 11
86.7876
 21
253.8818
 31
0.0
  0
LINE
  5
1CD
330
1D
100
AcDbEntity
  8
0
100
AcDbLine
 10
83.1156
 20
263.8818
 30
0.0
 11
87.4356
 21
263.8818
 31
0.0
  0
LINE
  5
1CE
330
1D
100
AcDbEntity
  8
0
100
AcDbLine
 10
90.9996
 20
254.4818
 30
0.0
 11
90.9996
 21
263.8818
 31
0.0
  0
LINE
  5
1CF
330
1D
100
AcDbEntity
  8
0
100
AcDbLine
 10
90.0276
 20
254.4818
 30
0.0
 11
90.9996
 21
254.4818
 31
0.0
  0
LINE
  5
1D0
330
1D
100
AcDbEntity
  8
0
100
AcDbLine
 10
90.9996
 20
263.8818
 30
0.0
 11
90.9996
 21
254.4818
 31
0.0
  0
LINE
  5
1D1
330
1D
100
AcDbEntity
  8
0
100
AcDbLine
 10
90.0276
 20
263.8818
 30
0.0
 11
90.9996
 21
263.8818
 31
0.0
  0
LINE
  5
1D2
330
1D
100
AcDbEntity
  8
0
100
AcDbLine
 10
87.4356
 20
263.8818
 30
0.0
 11
90.0276
 21
263.8818
 31
0.0
  0
LINE
  5
1D3
330
1D
100
AcDbEntity
  8
0
100
AcDbLine
 10
87.4356
 20
254.4818
 30
0.0
 11
90.0276
 21
254.4818
 31
0.0
  0
LINE
  5
1D4
330
1D
100
AcDbEntity
  8
0
100
AcDbLine
 10
83.1156
 20
254.4818
 30
0.0
 11
87.4356
 21
254.4818
 31
0.0
  0
LINE
  5
1D5
330
1D
100
AcDbEntity
  8
0
100
AcDbLine
 10
81.9996
 20
253.8818
 30
0.0
 11
81.9996
 21
239.4818
 31
0.0
  0
LINE
  5
1D6
330
1D
100
AcDbEntity
  8
0
100
AcDbLine
 10
81.9996
 20
253.8818
 30
0.0
 11
82.5756
 21
253.8818
 31
0.0
  0
LINE
  5
1D7
330
1D
100
AcDbEntity
  8
0
100
AcDbLine
 10
81.3516
 20
253.8818
 30
0.0
 11
81.9996
 21
253.8818
 31
0.0
  0
LINE
  5
1D8
330
1D
100
AcDbEntity
  8
0
100
AcDbLine
 10
81.3516
 20
239.4818
 30
0.0
 11
81.9996
 21
239.4818
 31
0.0
  0
LINE
  5
1D9
330
1D
100
AcDbEntity
  8
0
100
AcDbLine
 10
80.9996
 20
183.8038
 30
0.0
 11
80.9996
 21
183.3048
 31
0.0
  0
LINE
  5
1DA
330
1D
100
AcDbEntity
  8
0
100
AcDbLine
 10
80.9996
 20
183.3048
 30
0.0
 11
80.9996
 21
183.8038
 31
0.0
  0
LINE
  5
1DB
330
1D
100
AcDbEntity
  8
0
100
AcDbLine
 10
80.9996
 20
183.3048
 30
0.0
 11
80.9996
 21
181.8078
 31
0.0
  0
LINE
  5
1DC
330
1D
100
AcDbEntity
  8
0
100
AcDbLine
 10
78.9996
 20
137.4708
 30
0.0
 11
78.9996
 21
154.7688
 31
0.0
  0
LINE
  5
1DD
330
1D
100
AcDbEntity
  8
0
100
AcDbLine
 10
85.0196
 20
100.9468
 30
0.0
 11
92.2447
 21
98.7148
 31
0.0
  0
LINE
  5
1DE
330
1D
100
AcDbEntity
  8
0
100
AcDbLine
 10
78.3218
 20
102.3608
 30
0.0
 11
85.0196
 21
100.9468
 31
0.0
  0
LINE
  5
2F9
330
1D
100
AcDbEntity
  8
0
100
AcDbLine
 10
58.1533
 20
103.2338
 30
0.0
 11
66.620180039802
 21
103.2338
 31
0.0
  0
LINE
  5
2FA
330
1D
100
AcDbEntity
  8
0
100
AcDbLine
 10
66.620180039802
 20
103.2338
 30
0.0
 11
74.1958
 21
102.9298
 31
0.0
  0
ENDSEC
  0
SECTION
  2
OBJECTS
  0
DICTIONARY
  5
C
330
0
100
AcDbDictionary
281
     1
  3
ACAD_GROUP
350
D
  3
ACAD_LAYOUT
350
1A
  3
ACAD_MLEADERSTYLE
350
2FD
  3
ACAD_MLINESTYLE
350
17
  3
ACAD_PLOTSETTINGS
350
19
  3
ACAD_PLOTSTYLENAME
350
E
  3
ACAD_SCALELIST
350
1E4
  3
AcDbVariableDictionary
350
2FB
  3
DWGPROPS
350
300
  0
DICTIONARY
  5
D
102
{ACAD_REACTORS
330
C
102
}
330
C
100
AcDbDictionary
281
     1
  0
DICTIONARY
  5
1A
102
{ACAD_REACTORS
330
C
102
}
330
C
100
AcDbDictionary
281
     1
  3
Layout1
350
1C
  3
Model
350
1E
  0
DICTIONARY
  5
2FD
102
{ACAD_REACTORS
330
C
102
}
330
C
100
AcDbDictionary
281
     1
  0
DICTIONARY
  5
17
102
{ACAD_REACTORS
330
C
102
}
330
C
100
AcDbDictionary
281
     1
  3
Standard
350
18
  0
DICTIONARY
  5
19
102
{ACAD_REACTORS
330
C
102
}
330
C
100
AcDbDictionary
281
     1
  0
ACDBDICTIONARYWDFLT
  5
E
102
{ACAD_REACTORS
330
C
102
}
330
C
100
AcDbDictionary
281
     1
  3
Normal
350
F
100
AcDbDictionaryWithDefault
340
F
  0
DICTIONARY
  5
1E4
102
{ACAD_REACTORS
330
C
102
}
330
C
100
AcDbDictionary
281
     1
  3
A0
350
1E5
  3
A1
350
1E6
  3
A2
350
1E7
  3
A3
350
1E8
  3
A4
350
1E9
  3
A5
350
1EA
  3
A6
350
1EB
  3
A7
350
1EC
  3
A8
350
1ED
  3
A9
350
1EE
  3
B0
350
1EF
  3
B1
350
1F0
  3
B2
350
1F1
  3
B3
350
1F2
  3
B4
350
1F3
  3
B5
350
1F4
  3
B6
350
1F5
  3
B7
350
1F6
  3
B8
350
1F7
  3
B9
350
1F8
  3
C0
350
1F9
  3
C1
350
1FA
  3
C2
350
1FB
  3
C3
350
1FC
  3
C4
350
1FD
  3
C5
350
1FE
  3
C6
350
1FF
  3
C7
350
200
  3
C8
350
201
  3
C9
350
202
  3
D0
350
203
  3
D1
350
204
  3
D2
350
205
  0
DICTIONARY
  5
2FB
102
{ACAD_REACTORS
330
C
102
}
330
C
100
AcDbDictionary
281
     1
  3
CANNOSCALE
350
2FE
  0
XRECORD
  5
300
102
{ACAD_REACTORS
330
C
102
}
330
C
100
AcDbXrecord
280
     1
  1
DWGPROPS COOKIE
  2

  3

  4

  6

  7

  8
MARTIN
  9

300
=
301
=
302
=
303
=
304
=
305
=
306
=
307
=
308
=
309
=
 40
0.0
 41
2456645.814093241
 42
2456645.820354815
  1

 90
        0
  0
LAYOUT
  5
1C
102
{ACAD_REACTORS
330
1A
102
}
330
1A
100
AcDbPlotSettings
  1

  2
none_device
  4

  6

 40
0.0
 41
0.0
 42
0.0
 43
0.0
 44
0.0
 45
0.0
 46
0.0
 47
0.0
 48
0.0
 49
0.0
140
0.0
141
0.0
142
1.0
143
1.0
 70
   688
 72
     0
 73
     0
 74
     5
  7

 75
    16
147
1.0
148
0.0
149
0.0
100
AcDbLayout
  1
Layout1
 70
     1
 71
     1
 10
0.0
 20
0.0
 11
12.0
 21
9.0
 12
0.0
 22
0.0
 32
0.0
 14
1.000000000000E+20
 24
1.000000000000E+20
 34
1.000000000000E+20
 15
-1.000000000000E+20
 25
-1.000000000000E+20
 35
-1.000000000000E+20
146
0.0
 13
0.0
 23
0.0
 33
0.0
 16
1.0
 26
0.0
 36
0.0
 17
0.0
 27
1.0
 37
0.0
 76
     0
330
1B
  0
LAYOUT
  5
1E
102
{ACAD_REACTORS
330
1A
102
}
330
1A
100
AcDbPlotSettings
  1

  2
none_device
  4

  6

 40
0.0
 41
0.0
 42
0.0
 43
0.0
 44
0.0
 45
0.0
 46
0.0
 47
0.0
 48
0.0
 49
0.0
140
0.0
141
0.0
142
1.0
143
1.0
 70
  1712
 72
     0
 73
     0
 74
     0
  7

 75
     0
147
1.0
148
0.0
149
0.0
100
AcDbLayout
  1
Model
 70
     1
 71
     0
 10
0.0
 20
0.0
 11
12.0
 21
9.0
 12
0.0
 22
0.0
 32
0.0
 14
0.2304
 24
0.1182
 34
0.0
 15
127.7696
 25
263.8818
 35
0.0
146
0.0
 13
0.0
 23
0.0
 33
0.0
 16
1.0
 26
0.0
 36
0.0
 17
0.0
 27
1.0
 37
0.0
 76
     0
330
1D
331
1DF
  0
MLINESTYLE
  5
18
102
{ACAD_REACTORS
330
17
102
}
330
17
100
AcDbMlineStyle
  2
Standard
 70
     0
  3

 62
   256
 51
90.0
 52
90.0
 71
     2
 49
0.5
 62
   256
  6
BYLAYER
 49
-0.5
 62
   256
  6
BYLAYER
  0
ACDBPLACEHOLDER
  5
F
102
{ACAD_REACTORS
330
E
102
}
330
E
  0
SCALE
  5
1E5
102
{ACAD_REACTORS
330
1E4
102
}
330
1E4
100
AcDbScale
 70
     0
300
1:1
140
1.0
141
1.0
290
     1
  0
SCALE
  5
1E6
102
{ACAD_REACTORS
330
1E4
102
}
330
1E4
100
AcDbScale
 70
     0
300
1:2
140
1.0
141
2.0
290
     0
  0
SCALE
  5
1E7
102
{ACAD_REACTORS
330
1E4
102
}
330
1E4
100
AcDbScale
 70
     0
300
1:4
140
1.0
141
4.0
290
     0
  0
SCALE
  5
1E8
102
{ACAD_REACTORS
330
1E4
102
}
330
1E4
100
AcDbScale
 70
     0
300
1:5
140
1.0
141
5.0
290
     0
  0
SCALE
  5
1E9
102
{ACAD_REACTORS
330
1E4
102
}
330
1E4
100
AcDbScale
 70
     0
300
1:8
140
1.0
141
8.0
290
     0
  0
SCALE
  5
1EA
102
{ACAD_REACTORS
330
1E4
102
}
330
1E4
100
AcDbScale
 70
     0
300
1:10
140
1.0
141
10.0
290
     0
  0
SCALE
  5
1EB
102
{ACAD_REACTORS
330
1E4
102
}
330
1E4
100
AcDbScale
 70
     0
300
1:16
140
1.0
141
16.0
290
     0
  0
SCALE
  5
1EC
102
{ACAD_REACTORS
330
1E4
102
}
330
1E4
100
AcDbScale
 70
     0
300
1:20
140
1.0
141
20.0
290
     0
  0
SCALE
  5
1ED
102
{ACAD_REACTORS
330
1E4
102
}
330
1E4
100
AcDbScale
 70
     0
300
1:30
140
1.0
141
30.0
290
     0
  0
SCALE
  5
1EE
102
{ACAD_REACTORS
330
1E4
102
}
330
1E4
100
AcDbScale
 70
     0
300
1:40
140
1.0
141
40.0
290
     0
  0
SCALE
  5
1EF
102
{ACAD_REACTORS
330
1E4
102
}
330
1E4
100
AcDbScale
 70
     0
300
1:50
140
1.0
141
50.0
290
     0
  0
SCALE
  5
1F0
102
{ACAD_REACTORS
330
1E4
102
}
330
1E4
100
AcDbScale
 70
     0
300
1:100
140
1.0
141
100.0
290
     0
  0
SCALE
  5
1F1
102
{ACAD_REACTORS
330
1E4
102
}
330
1E4
100
AcDbScale
 70
     0
300
2:1
140
2.0
141
1.0
290
     0
  0
SCALE
  5
1F2
102
{ACAD_REACTORS
330
1E4
102
}
330
1E4
100
AcDbScale
 70
     0
300
4:1
140
4.0
141
1.0
290
     0
  0
SCALE
  5
1F3
102
{ACAD_REACTORS
330
1E4
102
}
330
1E4
100
AcDbScale
 70
     0
300
8:1
140
8.0
141
1.0
290
     0
  0
SCALE
  5
1F4
102
{ACAD_REACTORS
330
1E4
102
}
330
1E4
100
AcDbScale
 70
     0
300
10:1
140
10.0
141
1.0
290
     0
  0
SCALE
  5
1F5
102
{ACAD_REACTORS
330
1E4
102
}
330
1E4
100
AcDbScale
 70
     0
300
100:1
140
100.0
141
1.0
290
     0
  0
SCALE
  5
1F6
102
{ACAD_REACTORS
330
1E4
102
}
330
1E4
100
AcDbScale
 70
     0
300
1/128" = 1'-0"
140
0.0078125
141
12.0
290
     0
  0
SCALE
  5
1F7
102
{ACAD_REACTORS
330
1E4
102
}
330
1E4
100
AcDbScale
 70
     0
300
1/64" = 1'-0"
140
0.015625
141
12.0
290
     0
  0
SCALE
  5
1F8
102
{ACAD_REACTORS
330
1E4
102
}
330
1E4
100
AcDbScale
 70
     0
300
1/32" = 1'-0"
140
0.03125
141
12.0
290
     0
  0
SCALE
  5
1F9
102
{ACAD_REACTORS
330
1E4
102
}
330
1E4
100
AcDbScale
 70
     0
300
1/16" = 1'-0"
140
0.0625
141
12.0
290
     0
  0
SCALE
  5
1FA
102
{ACAD_REACTORS
330
1E4
102
}
330
1E4
100
AcDbScale
 70
     0
300
3/32" = 1'-0"
140
0.09375
141
12.0
290
     0
  0
SCALE
  5
1FB
102
{ACAD_REACTORS
330
1E4
102
}
330
1E4
100
AcDbScale
 70
     0
300
1/8" = 1'-0"
140
0.125
141
12.0
290
     0
  0
SCALE
  5
1FC
102
{ACAD_REACTORS
330
1E4
102
}
330
1E4
100
AcDbScale
 70
     0
300
3/16" = 1'-0"
140
0.1875
141
12.0
290
     0
  0
SCALE
  5
1FD
102
{ACAD_REACTORS
330
1E4
102
}
330
1E4
100
AcDbScale
 70
     0
300
1/4" = 1'-0"
140
0.25
141
12.0
290
     0
  0
SCALE
  5
1FE
102
{ACAD_REACTORS
330
1E4
102
}
330
1E4
100
AcDbScale
 70
     0
300
3/8" = 1'-0"
140
0.375
141
12.0
290
     0
  0
SCALE
  5
1FF
102
{ACAD_REACTORS
330
1E4
102
}
330
1E4
100
AcDbScale
 70
     0
300
1/2" = 1'-0"
140
0.5
141
12.0
290
     0
  0
SCALE
  5
200
102
{ACAD_REACTORS
330
1E4
102
}
330
1E4
100
AcDbScale
 70
     0
300
3/4" = 1'-0"
140
0.75
141
12.0
290
     0
  0
SCALE
  5
201
102
{ACAD_REACTORS
330
1E4
102
}
330
1E4
100
AcDbScale
 70
     0
300
1" = 1'-0"
140
1.0
141
12.0
290
     0
  0
SCALE
  5
202
102
{ACAD_REACTORS
330
1E4
102
}
330
1E4
100
AcDbScale
 70
     0
300
1-1/2" = 1'-0"
140
1.5
141
12.0
290
     0
  0
SCALE
  5
203
102
{ACAD_REACTORS
330
1E4
102
}
330
1E4
100
AcDbScale
 70
     0
300
3" = 1'-0"
140
3.0
141
12.0
290
     0
  0
SCALE
  5
204
102
{ACAD_REACTORS
330
1E4
102
}
330
1E4
100
AcDbScale
 70
     0
300
6" = 1'-0"
140
6.0
141
12.0
290
     0
  0
SCALE
  5
205
102
{ACAD_REACTORS
330
1E4
102
}
330
1E4
100
AcDbScale
 70
     0
300
1'-0" = 1'-0"
140
12.0
141
12.0
290
     0
  0
DICTIONARYVAR
  5
2FE
102
{ACAD_REACTORS
330
2FB
102
}
330
2FB
100
DictionaryVariables
280
     0
  1
1:1
  0
ENDSEC
  0
SECTION
  2
THUMBNAILIMAGE
 90
    16364
310
28000000B40000005500000001000800000000000000000000000000000000000000000000000000FFFFFF000000FF0000FFFF0000FF0000FFFF0000FF000000FF00FF000000000080808000C0C0C0000000FF007F7FFF000000A5005252A50000007F003F3F7F0000004C0026264C000000260013132600003FFF007F9FFF
310
000029A5005267A500001F7F003F4F7F0000134C00262F4C000009260013172600007FFF007FBFFF000052A500527CA500003F7F003F5F7F0000264C0026394C0000132600131C260000BFFF007FDFFF00007CA5005291A500005F7F003F6F7F0000394C0026424C00001C26001321260000FFFF007FFFFF0000A5A50052A5
310
A500007F7F003F7F7F00004C4C00264C4C00002626001326260000FFBF007FFFDF0000A57C0052A59100007F5F003F7F6F00004C3900264C420000261C001326210000FF7F007FFFBF0000A5520052A57C00007F3F003F7F5F00004C2600264C39000026130013261C0000FF3F007FFF9F0000A5290052A56700007F1F003F
310
7F4F00004C1300264C2F00002609001326170000FF00007FFF7F0000A5000052A55200007F00003F7F3F00004C0000264C260000260000132613003FFF00009FFF7F0029A5000067A552001F7F00004F7F3F00134C00002F4C260009260000172613007FFF0000BFFF7F0052A500007CA552003F7F00005F7F3F00264C0000
310
394C2600132600001C261300BFFF0000DFFF7F007CA5000091A552005F7F00006F7F3F00394C0000424C26001C26000021261300FFFF0000FFFF7F00A5A50000A5A552007F7F00007F7F3F004C4C00004C4C26002626000026261300FFBF0000FFDF7F00A57C0000A59152007F5F00007F6F3F004C3900004C422600261C00
310
0026211300FF7F0000FFBF7F00A5520000A57C52007F3F00007F5F3F004C2600004C39260026130000261C1300FF3F0000FF9F7F00A5290000A56752007F1F00007F4F3F004C1300004C2F26002609000026171300FF000000FF7F7F00A5000000A55252007F0000007F3F3F004C0000004C2626002600000026131300FF00
310
3F00FF7F9F00A5002900A55267007F001F007F3F4F004C0013004C262F002600090026131700FF007F00FF7FBF00A5005200A5527C007F003F007F3F5F004C0026004C2639002600130026131C00FF00BF00FF7FDF00A5007C00A55291007F005F007F3F6F004C0039004C26420026001C0026132100FF00FF00FF7FFF00A5
310
00A500A552A5007F007F007F3F7F004C004C004C264C002600260026132600BF00FF00DF7FFF007C00A5009152A5005F007F006F3F7F0039004C0042264C001C002600211326007F00FF00BF7FFF005200A5007C52A5003F007F005F3F7F0026004C0039264C00130026001C1326003F00FF009F7FFF002900A5006752A500
310
1F007F004F3F7F0013004C002F264C000900260017132600000000002D2D2D005B5B5B0089898900B7B7B700B3B3B30000000000000000000000000000000000000000000000000000000000000000000000000000000000000000000000000000000000000000000000000000000000000000000000000000000000000000
310
00000000000000070707070707070707070700000000000000000000000000000000000000000000000000000000000000000000000000000000000000000000000000000000000000000000000000000000000000000000000000000000000000000000000000000000000000000000000000000000000000000000000000
310
00000000000000000000000000000000000000000000000000000000000000000000000000000000000000000000000000000000000000000707070700000000000000000000000707000000000000000000000000000000000000000000000000000000000000000000000000000000000000000000000000000000000000
310
00000000000000000000000000000000000000000000000000000000000000000000000000000000000000000000000000000000000000000000000000000000000000000000000000000000000000000000000000000000000000000000000000000000000000000000070707000000000000000000000000000000000007
310
07070000000000000000000000000000000000000000000000000000000000000000000000000000000000000000000000000000000000000000000000000000000000000000000000000000000000000000000000000000000000000000000000000000000000000000000000000000000000000000000000000000000000
310
00000000000000000000000000000000000000000000000000000000000007070000000000000000000000000000000000000000000000070700000000000000000000000000000000000000000000000000000000000000000000000000000000000000000000000000000000000000000000000000000000000000000000
310
00000000000000000000000000000000000000000000000000000000000000000000000000000000000000000000000000000000000000000000000000000000000000000000000000000000000000000000070000000000000000000000000000000000000000000000000000000700000000000000000000000000000000
310
00000000000000000000000000000000000000000000000000000000000000000000000000000000000000000000000000000000000000000000000000000000000000000000000000000000000000000000000000000000000000000000000000000000000000000000000000000000000000000000000000000000000000
310
00000000000000070000000000000000000000000000000000000000000000000000000000070000000000000000000000000000000000000000000000000000000000000000000000000000000000000000000000000000000000000000000000000000000000000000000000000000000000000000000000000000000000
310
00000000000000000000000000000000000000000000000000000000000000000000000000000000000000000000000000000000000000000000000700000000000000000000000000000000000000000000000000000000000000070700000000000000000000000000000000000000000000000000000000000000000000
310
00000000000000000000000000000000000000000000000000000000000000000000000000000000000000000000000000000000000000000000000000000000000000000000000000000000000000000000000000000000000000000000000000000000000000000000000000000007000000000000000000000000000000
310
00000000000000000000000000000000000007000000000000000000000000000000000000000000000000000000000000000000000000000000000000000000000000000000000000000000000000000000000000000000000000000000000000000000000000000000000000000000000000000000000000000000000000
310
00000000000000000000000000000000000000000000000000000000000000000000000007000000000000000000000000000000000000000000000000000000000000000000000007000000000000000000000000000000000000000000000000000000000000000000000000000000000000000000000000000000000000
310
00000000000000000000000000000000000000000000000000000000000000000000000000000000000000000000000000000000000000000000000000000000000000000000000000000000000000000000000000000000070000000000000000000000000000000000000000000000000000000000000000000000000007
310
00000000000000000000000000000000000000000000000000000000000000000000000000000000000000000000000000000000000000000000000000000000000000000000000000000000000000000000000000000000000000000000000000000000000000000000000000000000000000000000000000000000000000
310
00000000000000000000000000000700000000000000000000000000000000000000000000000000000000000000000000000000070000000000000000000000000000000000000000000000000000000000000000000000000000000000000000000000000000000000000000000000000000000000000000000000000000
310
00000000000000000000000000000000000000000000000000000000000000000000000000000000000000000000000000000000000000000000000000000000000007000000000000000000000000000000000000000000000000000000000000000000000000000007000000000000000000000000000000000000000000
310
00000000000000000000000000000000000000000000000000000000000000000000000000000000000000000000000000000000000000000000000000000000000000000000000000000000000000000000000000000000000000000000000000000000000000000000000000000000000000000000000700000000000000
310
00000000000000000000000000000000000000000000000000000000000000000700000000000000000000000000000000000000000000000000000000000000000000000000000000000000000000000000000000000000000000000000000000000000000000000000000000000000000000000000000000000000000000
310
00000000000000000000000000000000000000000000000000000000000000000000000000000000000000000007000000000000000000000000000000000000000000000000000000000000000000000000000000070000000000000000000000000000000000000000000000000000000000000000000000000000000000
310
00000000000000000000000000000000000000000000000000000000000000000000000000000000000000000000000000000000000000000000000000000000000000000000000000000000000000000000000000000000000000000000000000000700000000000000000000000000000000000000000000000000000000
310
00000000000000000000000700000000000000000000000000000000000000000000000000000000000000000000000000000000000000000000000000000000000000000000000000000000000000000000000000000000000000000000000000000000000000000000000000000000000000000000000000000000000000
310
00000000000000000000000000000000000000000000000007000000000000000000000000000000000000000000000000000000000000000000000000000000000000000000000000000000000000000000000000000000000000000000000000000000000000000000000000000000000000000000000000000000000000
310
00000000000000000000000000000000000000000000000000000000000000000000000000000000000000000000000000000000000000000000000000000000000000000000000000000000000700000000000000000000000000000000000000000000000000000000000000000000000000000007000000000000000000
310
00000000000000000000000000000000000000000000000000000000000000000000000000000000000000000000000000000000000000000000000000000000000000000000000000000000000000000000000000000000000000000000000000000000000000000000000000000000000000000000000000000000000000
310
00000007000000000000000000000000000000000000000000000000000000000000000000000000000000070000000000000000000000000000000000000000000000000000000000000000000000000000000000000000000000000000000000000000000000000000000000000000000000000000000000000000000000
310
00000000000000000000000000000000000000000000000000000000000000000000000000000000000000000000000000000000000000000700000000000000000000000000000000000000000000000000000000000000000000000000000007000000000000000000000000000000000000000000000000000000000000
310
00000000000000000000000000000000000000000000000000000000000000000000000000000000000000000000000000000000000000000000000000000000000000000000000000000000000000000000000000000000000000000000000000000000000000000000000000070000000000000000000000000000000000
310
00000000000000000000000000000000000000000000070000000000000000000000000000000000000000000000000000000000000000000000000000000000000000000000000000000000000000000000000000000000000000000000000000000000000000000000000000000000000000000000000000000000000000
310
00000000000000000000000000000000000000000000000000000000000000000000000700000000000000000000000000000000000000000000000000000000000000000000000000000007000000000000000000000000000000000000000000000000000000000000000000000000000000000000000000000000000000
310
00000000000000000000000000000000000000000000000000000000000000000000000000000000000000000000000000000000000000000000000000000000000000000000000000000000000000000000000000000000070000000000000000000000000000000000000000000000000000000000000000000000000000
310
00070000000000000000000000000000000000000000000000000000000000000000000000000000000000000000000000000000000000000000000000000000000000000000000000000000000000000000000000000000000000000000000000000000000000000000000000000000000000000000000000000000000000
310
00000000000000000000000000000007000000000000000000000000000000000000000000000000000000000000000000000000000700000000000000000000000000000000000000000000000000000000000000000000000000000000000000000000000000000000000000000000000000000000000000000000000000
310
00000000000000000000000000000000000000000000000000000000000000000000000000000000000000000000000000000000000000000000000000000000000000000700000000000000000000000000000000000000000000000000000000000000000000000000070000000000000000000000000000000000000000
310
00000000000000000000000000000000000000000000000000000000000000000000000000000000000000000000000000000000000000000000000000000000000000000000000000000000000000000000000000000000000000000000000000000000000000000000000000000000000000000000000000070000000000
310
00000000000000000000000000000000000000000000000000000000000000070000000000000000000000000000000000000000000000000000000000000000000000000000000000000000000000000000000000000000000000000000000000000000000000000000000000000000000000000000000000000000000000
310
00000000000000000000000000000000000000000000000000000000000000000000000000000000000000000000000007000000000000000000000000000000000000000000000000000000000000000000000007000000000000000000000000000000000000000000000000000000000000000000000000000000000000
310
00000000000000000000000000000000000000000000000000000000000000000000000000000000000000000000000000000000000000000000000000000000000000000000000000000000000000000000000000000000000000000000000000000000000007070000000000000000000000000000000000000000000000
310
00000000000000000007000000000000000000000000000000000000000000000000000000000000000000000000000000000000000000000000000000000000000000000000000000000000000000000000000000000000000000000000000000000000000000000000000000000000000000000000000000000000000000
310
00000000000000000000000000000000000000000000000000000000000007000000000000000000000000000000000000000000000000000000000007070000000000000000000000000000000000000000000000000000000000000000000000000000000000000000000000000000000000000000000000000000000000
310
00000000000000000000000000000000000000000000000000000000000000000000000000000000000000000000000000000000000000000000000000000000000000000000000000000000000000000000000007000000000000000000000000000000000000000000000000000000070000000000000000000000000000
310
00000000000000000000000000000000000000000000000000000000000000000000000000000000000000000000000000000000000000000000000000000000000000000000000000000000000000000000000000000000000000000000000000000000000000000000000000000000000000000000000000000000000000
310
00000000000000000000070000000000000000000000000000000000000000000000000000070000000000000000000000000000000000000000000000000000000000000000000000000000000000000000000000000000000000000000000000000000000000000000000000000000000000000000000000000000000000
310
00000000000000000000000000000000000000000000000000000000000000000000000000000000000000000000000000000000000000000000000000000000070700000000000000000000000000000000000000000000070700000000000000000000000000000000000000000000000000000000000000000000000000
310
00000000000000000000000000000000000000000000000000000000000000000000000000000000000000000000000000000000000000000000000000000000000000000000000000000000000000000000000000000000000000000000000000000000000000000000000000000000000000000000000707070700000000
310
00000000000000000000000007070000000000000000000000000000000000000000000000000000000000000000000000000000000000000000000000000000000000000000000000000000000000000000000000000000000000000000000000000000000000000000000000000000000000000000000000000000000000
310
00000000000000000000000000000000000000000000000000000000000000000000000000000000000000000000000000070707070707070707070707070707070000000000000000000000000000000000000000000000000000000000000000000000000000000000000000000000000000000000000000000000000000
310
00000000000000000000000000000000000000000000000000000000000000000000000000000000000000000000000000000000000000000000000000000000000000000000000000000000000000000000000000000000000000000000000000000000000000000700000000000000000007000000000000000000000000
310
00000000000000000000000000000000000000000000000000000000000000000000000000000000000000000000000000000000000000000000000000000000000000000000000000000000000000000000000000000000000000000000000000000000000000000000000000000000000000000000000000000000000000
310
00000000000000000000000000000000000000000000000000000000000007000000000000000000070000000000000000000000000000000000000000000000000000000000000000000000000000000000000000000000000000000000000000000000000000000000000000000000000000000000000000000000000000
310
00000000000000000000000000000000000000000000000000000000000000000000000000000000000000000000000000000000000000000000000000000000000000000000000000000000000000000000000700000000000000000007000000000000000000000000000000000000000000000000000000000000000000
310
00000000000000000000000000000000000000000000000000000000000000000000000000000000000000000000000000000000000000000000000000000000000000000000000000000000000000000000000000000000000000000000000000000000000000000000000000000000000000000000000000000000000000
310
00000000000000000007000000000000000000070000000000000000000000000000000000000000000000000000000000000000000000000000000000000000000000000000000000000000000000000000000000000000000000000000000000000000000000000000000000000000000000000000000000000000000000
310
00000000000000000000000000000000000000000000000000000000000000000000000000000000000000000000000000000000000000000000000000000700000000000000000007000000000000000000000000000000000000000000000000000000000000000000000000000000000000000000000000000000000000
310
00000000000000000000000000000000000000000000000000000000000000000000000000000000000000000000000000000000000000000000000000000000000000000000000000000000000000000000000000000000000000000000000000000000000000000000000000000000000000000700000000000000070000
310
00000000000000000000000000000000000000000000000000000000000000000000000000000000000000000000000000000000000000000000000000000000000000000000000000000000000000000000000000000000000000000000000000000000000000000000000000000000000000000000000000000000000000
310
00000000000000000000000000000000000000000000000000000000000000000000000000000000000007000000000000000700000000000000000000000000000000000000000000000000000000000000000000000000000000000000000000000000000000000000000000000000000000000000000000000000000000
310
00000000000000000000000000000000000000000000000000000000000000000000000000000000000000000000000000000000000000000000000000000000000000000000000000000000000000000000000000000000000000000000000700000000000000070000000000000000000000000000000000000000000000
310
00000000000000000000000000000000000000000000000000000000000000000000000000000000000000000000000000000000000000000000000000000000000000000000000000000000000000000000000000000000000000000000000000000000000000000000000000000000000000000000000000000000000000
310
00000000000000000000000000000000000000000007000000000000000700000000000000000000000000000000000000000000000000000000000000000000000000000000000000000000000000000000000000000000000000000000000000000000000000000000000000000000000000000000000000000000000000
310
00000000000000000000000000000000000000000000000000000000000000000000000000000000000000000000000000000000000000000000000000000000000000000000000000070700000000000000070700000000000000000000000000000000000000000000000000000000000000000000000000000000000000
310
00000000000000000000000000000000000000000000000000000000000000000000000000000000000000000000000000000000000000000000000000000000000000000000000000000000000000000000000000000000000000000000000000000000000000000000000000000000000000000000000000000000000007
310
07000000000000000707000000000000000000000000000000000000000000000000000000000000000000000000000000000000000000000000000000000000000000000000000000000000000000000000000000000000000000000000000000000000000000000000000000000000000000000000000000000000000000
310
00000000000000000000000000000000000000000000000000000000000000000000000000000000000000000000000000000000070700000000000000070700000000000000000000000000000000000000000000000000000000000000000000000000000000000000000000000000000000000000000000000000000000
310
00000000000000000000000000000000000000000000000000000000000000000000000000000000000000000000000000000000000000000000000000000000000000000000000000000000000000000000000000000000000000000000000000000000000000000007070700000000000707070000000000000000000000
310
00000000000000000000000000000000000000000000000000000000000000000000000000000000000000000000000000000000000000000000000000000000000000000000000000000000000000000000000000000000000000000000000000000000000000000000000000000000000000000000000000000000000000
310
00000000000000000000000000000000000000000000000000000000000000070007070000000707000700000000000000000000000000000000000000000000000000000000000000000000000000000000000000000000000000000000000000000000000000000000000000000000000000000000000000000000000000
310
00000000000000000000000000000000000000000000000000000000000000000000000000000000000000000000000000000000000000000000000000000000000000000000000000000000000000000000000007000007070707070000070000000000000000000000000000000000000000000000000000000000000000
310
00000000000000000000000000000000000000000000000000000000000000000000000000000000000000000000000000000000000000000000000000000000000000000000000000000000000000000000000000000000000000000000000000000000000000000000000000000000000000000000000000000000000000
310
00000000000000000000070000000000000000000700000000000000000000000000000000000000000000000000000000000000000000000000000000000000000000000000000000000000000000000000000000000000000000000000000000000000000000000000000000000000000000000000000000000000000000
310
00000000000000000000000000000000000000000000000000000000000000000000000000000000000000000000000000000000000000000000000000000007000000000000000000070000000000000000000000000000000000000000000000000000000000000000000000000000000000000000000000000000000000
310
00000000000000000000000000000000000000000000000000000000000000000000000000000000000000000000000000000000000000000000000000000000000000000000000000000000000000000000000000000000000000000000000000000000000000000000000000000000000000000700000000000000000007
310
00000000000000000000000000000000000000000000000000000000000000000000000000000000000000000000000000000000000000000000000000000000000000000000000000000000000000000000000000000000000000000000000000000000000000000000000000000000000000000000000000000000000000
310
00000000000000000000000000000000000000000000000000000000000000000000000000000000000007000000000000000000070000000000000000000000000000000000000000000000000000000000000000000000000000000000000000000000000000000000000000000000000000000000000000000000000000
310
00000000000000000000000000000000000000000000000000000000000000000000000000000000000000000000000000000000000000000000000000000000000000000000000000000000000000000000000000000000000000000000000700070000000000000707000000000000000000000000000000000000000000
310
00000000000000000000000000000000000000000000000000000000000000000000000000000000000000000000000000000000000000000000000000000000000000000000000000000000000000000000000000000000000000000000000000000000000000000000000000000000000000000000000000000000000000
310
00000000000000000000000000000000000000000007000700000000000007070000000000000000000000000000000000000000000000000000000000000000000000000000000000000000000000000000000000000000000000000000000000000000000000000000000000000000000000000000000000000000000000
310
00000000000000000000000000000000000000000000000000000000000000000000000000000000000000000000000000000000000000000000000000000000000000000000000000000700070000000000000707000000000000000000000000000000000000000000000000000000000000000000000000000000000000
310
00000000000000000000000000000000000000000000000000000000000000000000000000000000000000000000000000000000000000000000000000000000000000000000000000000000000000000000000000000000000000000000000000000000000000000000000000000000000000000000000000000000000000
310
07000700000000000007070000000000000000000000000000000000000000000000000000000000000000000000000000000000000000000000000000000000000000000000000000000000000000000000000000000000000000000000000000000000000000000000000000000000000000000000000000000000000000
310
00000000000000000000000000000000000000000000000000000000000000000000000000000000000000000000000000000000000700070000000000000707000000000000000000000000000000000000000000000000000000000000000000000000000000000000000000000000000000000000000000000000000000
310
00000000000000000000000000000000000000000000000000000000000000000000000000000000000000000000000000000000000000000000000000000000000000000000000000000000000000000000000000000000000000000000000000000000000000000000070007000000000000070700000000000000000000
310
00000000000000000000000000000000000000000000000000000000000000000000000000000000000000000000000000000000000000000000000000000000000000000000000000000000000000000000000000000000000000000000000000000000000000000000000000000000000000000000000000000000000000
310
00000000000000000000000000000000000000000000000000000000000000000700070000000000000707000000000000000000000000000000000000000000000000000000000000000000000000000000000000000000000000000000000000000000000000000000000000000000000000000000000000000000000000
310
00000000000000000000000000000000000000000000000000000000000000000000000000000000000000000000000000000000000000000000000000000000000000000000000000000000000000000000000000070007000707070000070700000000000000000000000000000000000000000000000000000000000000
310
00000000000000000000000000000000000000000000000000000000000000000000000000000000000000000000000000000000000000000000000000000000000000000000000000000000000000000000000000000000000000000000000000000000000000000000000000000000000000000000000000000000000000
310
00000000000000000000000700070700000007000707000000000000000000000000000000000000000000000000000000000000000000000000000000000000000000000000000000000000000000000000000000000000000000000000000000000000000000000000000000000000000000000000000000000000000000
310
00000000000000000000000000000000000000000000000000000000000000000000000000000000000000000000000000000000000000000000000000000000070007000000000007070700000000000000000000000000000000000000000000000000000000000000000000000000000000000000000000000000000000
310
00000000000000000000000000000000000000000000000000000000000000000000000000000000000000000000000000000000000000000000000000000000000000000000000000000000000000000000000000000000000000000000000000000000000000000000000000000000000000000007000700000000000707
310
07000000000000000000000000000000000000000000000000000000000000000000000000000000000000000000000000000000000000000000000000000000000000000000000000000000000000000000000000000000000000000000000000000000000000000000000000000000000000000000000000000000000000
310
00000000000000000000000000000000000000000000000000000000000000000000000000000000000000070007000000000000070700000000000000000000000000000000000000000000000000000000000000000000000000000000000000000000000000000000000000000000000000000000000000000000000000
310
00000000000000000000000000000000000000000000000000000000000000000000000000000000000000000000000000000000000000000000000000000000000000000000000000000000000000000000000000000000000000000000000007000700000000000007070000000000000000000000000000000000000000
310
00000000000000000000000000000000000000000000000000000000000000000000000000000000000000000000000000000000000000000000000000000000000000000000000000000000000000000000000000000000000000000000000000000000000000000000000000000000000000000000000000000000000000
310
00000000000000000000000000000000000000000000000707000000000000070000000000000000000000000000000000000000000000000000000000000000000000000000000000000000000000000000000000000000000000000000000000000000000000000000000000000000000000000000000000000000000000
310
00000000000000000000000000000000000000000000000000000000000000000000000000000000000000000000000000000000000000000000000000000000000000000000000000000000000700000000000007000000000000000000000000000000000000000000000000000000000000000000000000000000000000
310
00000000000000000000000000000000000000000000000000000000000000000000000000000000000000000000000000000000000000000000000000000000000000000000000000000000000000000000000000000000000000000000000000000000000000000000000000000000000000000000000000000000000000
310
00000007000000000000070000000000000000000000000000000000000000000000000000000000000000000000000000000000000000000000000000000000000000000000000000000000000000000000000000000000000000000000000000000000000000000000000000000000000000000000000000000000000000
310
00000000000000000000000000000000000000000000000000000000000000000000000000000000000000000000000000000000000000000700000000000007000000000000000000000000000000000000000000000000000000000000000000000000000000000000000000000000000000000000000000000000000000
310
00000000000000000000000000000000000000000000000000000000000000000000000000000000000000000000000000000000000000000000000000000000000000000000000000000000000000000000000000000000000000000000000000000000000000000000000000070000000000000700000000000000000000
310
00000000000000000000000000000000000000000000000000000000000000000000000000000000000000000000000000000000000000000000000000000000000000000000000000000000000000000000000000000000000000000000000000000000000000000000000000000000000000000000000000000000000000
310
00000000000000000000000000000000000000000000000000000000000000000000000700000000000007000000000000000000000000000000000000000000000000000000000000000000000000000000000000000000000000000000000000000000000000000000000000000000000000000000000000000000000000
310
00000000000000000000000000000000000000000000000000000000000000000000000000000000000000000000000000000000000000000000000000000000000000000000000000000000000000000000000000000000070000000000000700000000000000000000000000000000000000000000000000000000000000
310
00000000000000000000000000000000000000000000000000000000000000000000000000000000000000000000000000000000000000000000000000000000000000000000000000000000000000000000000000000000000000000000000000000000000000000000000000000000000000000000000000000000000000
310
00000000000000000000000000000700000000000007000000000000000000000000000000000000000000000000000000000000000000000000000000000000000000000000000000000000000000000000000000000000000000000000000000000000000000000000000000000000000000000000000000000000000000
310
00000000000000000000000000000000000000000000000000000000000000000000000000000000000000000000000000000000000000000000000000000000000000070000000000000700000000000000000000000000000000000000000000000000000000000000000000000000000000000000000000000000000000
310
00000000000000000000000000000000000000000000000000000000000000000000000000000000000000000000000000000000000000000000000000000000000000000000000000000000000000000000000000000000000000000000000000000000000000000000000000000000000000000000000007000000000000
310
07000000000000000000000000000000000000000000000000000000000000000000000000000000000000000000000000000000000000000000000000000000000000000000000000000000000000000000000000000000000000000000000000000000000000000000000000000000000000000000000000000000000000
310
00000000000000000000000000000000000000000000000000000000000000000000000000000000000000070707070707070707070707070000000000000000000000000000000000000000000000000000000000000000000000000000000000000000000000000000000000000000000000000000000000000000000000
310
00000000000000000000000000000000000000000000000000000000000000000000000000000000000000000000000000000000000000000000000000000000000000000000000000000000000000000000000000000000000000000000000007000000000000000000000007000000000000000000000000000000000000
310
00000000000000000000000000000000000000000000000000000000000000000000000000000000000000000000000000000000000000000000000000000000000000000000000000000000000000000000000000000000000000000000000000000000000000000000000000000000000000000000000000000000000000
310
00000000000000000000000000000000000000000000070000000000000000000000070000000000000000000000000000000000000000000000000000000000000000000000000000000000000000000000000000000000000000000000000000000000000000000000000000000000000000000000000000000000000000
310
00000000000000000000000000000000000000000000000000000000000000000000000000000000000000000000000000000000000000000000000000000000000000000000000000000007000000000000000000000007000000000000000000000000000000000000000000000000000000000000000000000000000000
310
00000000000000000000000000000000000000000000000000000000000000000000000000000000000000000000000000000000000000000000000000000000000000000000000000000000000000000000000000000000000000000000000000000000000000000000000000000000000000000000000000000000000000
310
00070000000000000000000000070000000000000000000000000000000000000000000000000000000000000000000000000000000000000000000000000000000000000000000000000000000000000000000000000000000000000000000000000000000000000000000000000000000000000000000000000000000000
310
00000000000000000000000000000000000000000000000000000000000000000000000000000000000000000000000000000000070707070707070707070707070707070707000000000000000000000000000000000000000000000000000000000000000000000000000000000000000000000000000000000000000000
310
00000000000000000000000000000000000000000000000000000000000000000000000000000000000000000000000000000000000000000000000000000000000000000000000000000000000000000000000000000000000000000000000000000000000000000007000000000000000000000000000000000700000000
310
00000000000000000000000000000000000000000000000000000000000000000000000000000000000000000000000000000000000000000000000000000000000000000000000000000000000000000000000000000000000000000000000000000000000000000000000000000000000000000000000000000000000000
310
00000000000000000000000000000000000000000000000000000000000000070000000000000000000000000000000007000000000000000000000000000000000000000000000000000000000000000000000000000000000000000000000000000000000000000000000000000000000000000000000000000000000000
310
00000000000000000000000000000000000000000000000000000000000000000000000000000000000000000000000000000000000000000000000000000000000000000000000000000000000000000000000007070707070707070707070707070707070700000000000000000000000000000000000000000000000000
310
00000000000000000000000000000000000000000000000000000000000000000000000000000000000000000000000000000000000000000000000000000000000000000000000000000000000000000000000000000000000000000000000000000000000000000000000000000000000000000000000000000000000000
310
000000000000000000000000000000000000000000000000000000000000000000000000000000000000000000000000000000000000000000000000000000000000000000000000000000000000000000000000000000000000000000000000000000000000000000000000
  0
ENDSEC
  0
EOF
