  0
SECTION
  2
HEADER
  9
$ACADVER
  1
AC1015
  9
$ACADMAINTVER
 70
     6
  9
$DWGCODEPAGE
  3
ANSI_1252
  9
$INSBASE
 10
0.0
 20
0.0
 30
0.0
  9
$EXTMIN
 10
1.180128572512
 20
1.0
 30
0.0
  9
$EXTMAX
 10
253.8818
 20
1054.0
 30
0.0
  9
$LIMMIN
 10
0.0
 20
0.0
  9
$LIMMAX
 10
12.0
 20
9.0
  9
$ORTHOMODE
 70
     0
  9
$REGENMODE
 70
     1
  9
$FILLMODE
 70
     1
  9
$QTEXTMODE
 70
     0
  9
$MIRRTEXT
 70
     1
  9
$LTSCALE
 40
1.0
  9
$ATTMODE
 70
     1
  9
$TEXTSIZE
 40
0.2
  9
$TRACEWID
 40
0.05
  9
$TEXTSTYLE
  7
Standard
  9
$CLAYER
  8
0
  9
$CELTYPE
  6
ByBlock
  9
$CECOLOR
 62
   256
  9
$CELTSCALE
 40
1.0
  9
$DISPSILH
 70
     0
  9
$DIMSCALE
 40
1.0
  9
$DIMASZ
 40
0.18
  9
$DIMEXO
 40
0.0625
  9
$DIMDLI
 40
0.38
  9
$DIMRND
 40
0.0
  9
$DIMDLE
 40
0.0
  9
$DIMEXE
 40
0.18
  9
$DIMTP
 40
0.0
  9
$DIMTM
 40
0.0
  9
$DIMTXT
 40
0.18
  9
$DIMCEN
 40
0.09
  9
$DIMTSZ
 40
0.0
  9
$DIMTOL
 70
     0
  9
$DIMLIM
 70
     0
  9
$DIMTIH
 70
     1
  9
$DIMTOH
 70
     1
  9
$DIMSE1
 70
     0
  9
$DIMSE2
 70
     0
  9
$DIMTAD
 70
     0
  9
$DIMZIN
 70
     0
  9
$DIMBLK
  1

  9
$DIMASO
 70
     1
  9
$DIMSHO
 70
     1
  9
$DIMPOST
  1

  9
$DIMAPOST
  1

  9
$DIMALT
 70
     0
  9
$DIMALTD
 70
     2
  9
$DIMALTF
 40
25.4
  9
$DIMLFAC
 40
1.0
  9
$DIMTOFL
 70
     0
  9
$DIMTVP
 40
0.0
  9
$DIMTIX
 70
     0
  9
$DIMSOXD
 70
     0
  9
$DIMSAH
 70
     0
  9
$DIMBLK1
  1

  9
$DIMBLK2
  1

  9
$DIMSTYLE
  2
Standard
  9
$DIMCLRD
 70
     0
  9
$DIMCLRE
 70
     0
  9
$DIMCLRT
 70
     0
  9
$DIMTFAC
 40
1.0
  9
$DIMGAP
 40
0.09
  9
$DIMJUST
 70
     0
  9
$DIMSD1
 70
     0
  9
$DIMSD2
 70
     0
  9
$DIMTOLJ
 70
     1
  9
$DIMTZIN
 70
     0
  9
$DIMALTZ
 70
     0
  9
$DIMALTTZ
 70
     0
  9
$DIMUPT
 70
     0
  9
$DIMDEC
 70
     4
  9
$DIMTDEC
 70
     4
  9
$DIMALTU
 70
     2
  9
$DIMALTTD
 70
     2
  9
$DIMTXSTY
  7
Standard
  9
$DIMAUNIT
 70
     0
  9
$DIMADEC
 70
     0
  9
$DIMALTRND
 40
0.0
  9
$DIMAZIN
 70
     0
  9
$DIMDSEP
 70
    46
  9
$DIMATFIT
 70
     3
  9
$DIMFRAC
 70
     0
  9
$DIMLDRBLK
  1

  9
$DIMLUNIT
 70
     2
  9
$DIMLWD
 70
    -2
  9
$DIMLWE
 70
    -2
  9
$DIMTMOVE
 70
     2
  9
$LUNITS
 70
     2
  9
$LUPREC
 70
     4
  9
$SKETCHINC
 40
0.1
  9
$FILLETRAD
 40
0.5
  9
$AUNITS
 70
     0
  9
$AUPREC
 70
     0
  9
$MENU
  1
.
  9
$ELEVATION
 40
0.0
  9
$PELEVATION
 40
0.0
  9
$THICKNESS
 40
0.0
  9
$LIMCHECK
 70
     0
  9
$CHAMFERA
 40
0.5
  9
$CHAMFERB
 40
0.5
  9
$CHAMFERC
 40
1.0
  9
$CHAMFERD
 40
0.0
  9
$SKPOLY
 70
     0
  9
$TDCREATE
 40
2456645.862371412
  9
$TDUCREATE
 40
2456645.820704746
  9
$TDUPDATE
 40
2456645.863259549
  9
$TDUUPDATE
 40
2456645.821592882
  9
$TDINDWG
 40
0.0008877894
  9
$TDUSRTIMER
 40
0.0008877894
  9
$USRTIMER
 70
     1
  9
$ANGBASE
 50
0.0
  9
$ANGDIR
 70
     0
  9
$PDMODE
 70
     0
  9
$PDSIZE
 40
0.0
  9
$PLINEWID
 40
0.0
  9
$SPLFRAME
 70
     0
  9
$SPLINETYPE
 70
     6
  9
$SPLINESEGS
 70
     8
  9
$HANDSEED
  5
10AE
  9
$SURFTAB1
 70
     6
  9
$SURFTAB2
 70
     6
  9
$SURFTYPE
 70
     6
  9
$SURFU
 70
     6
  9
$SURFV
 70
     6
  9
$UCSBASE
  2

  9
$UCSNAME
  2

  9
$UCSORG
 10
0.0
 20
0.0
 30
0.0
  9
$UCSXDIR
 10
1.0
 20
0.0
 30
0.0
  9
$UCSYDIR
 10
0.0
 20
1.0
 30
0.0
  9
$UCSORTHOREF
  2

  9
$UCSORTHOVIEW
 70
     0
  9
$UCSORGTOP
 10
0.0
 20
0.0
 30
0.0
  9
$UCSORGBOTTOM
 10
0.0
 20
0.0
 30
0.0
  9
$UCSORGLEFT
 10
0.0
 20
0.0
 30
0.0
  9
$UCSORGRIGHT
 10
0.0
 20
0.0
 30
0.0
  9
$UCSORGFRONT
 10
0.0
 20
0.0
 30
0.0
  9
$UCSORGBACK
 10
0.0
 20
0.0
 30
0.0
  9
$PUCSBASE
  2

  9
$PUCSNAME
  2

  9
$PUCSORG
 10
0.0
 20
0.0
 30
0.0
  9
$PUCSXDIR
 10
1.0
 20
0.0
 30
0.0
  9
$PUCSYDIR
 10
0.0
 20
1.0
 30
0.0
  9
$PUCSORTHOREF
  2

  9
$PUCSORTHOVIEW
 70
     0
  9
$PUCSORGTOP
 10
0.0
 20
0.0
 30
0.0
  9
$PUCSORGBOTTOM
 10
0.0
 20
0.0
 30
0.0
  9
$PUCSORGLEFT
 10
0.0
 20
0.0
 30
0.0
  9
$PUCSORGRIGHT
 10
0.0
 20
0.0
 30
0.0
  9
$PUCSORGFRONT
 10
0.0
 20
0.0
 30
0.0
  9
$PUCSORGBACK
 10
0.0
 20
0.0
 30
0.0
  9
$USERI1
 70
     0
  9
$USERI2
 70
     0
  9
$USERI3
 70
     0
  9
$USERI4
 70
     0
  9
$USERI5
 70
     0
  9
$USERR1
 40
0.0
  9
$USERR2
 40
0.0
  9
$USERR3
 40
0.0
  9
$USERR4
 40
0.0
  9
$USERR5
 40
0.0
  9
$WORLDVIEW
 70
     1
  9
$SHADEDGE
 70
     3
  9
$SHADEDIF
 70
    70
  9
$TILEMODE
 70
     1
  9
$MAXACTVP
 70
    64
  9
$PINSBASE
 10
0.0
 20
0.0
 30
0.0
  9
$PLIMCHECK
 70
     0
  9
$PEXTMIN
 10
1.000000000000E+20
 20
1.000000000000E+20
 30
1.000000000000E+20
  9
$PEXTMAX
 10
-1.000000000000E+20
 20
-1.000000000000E+20
 30
-1.000000000000E+20
  9
$PLIMMIN
 10
0.0
 20
0.0
  9
$PLIMMAX
 10
12.0
 20
9.0
  9
$UNITMODE
 70
     0
  9
$VISRETAIN
 70
     1
  9
$PLINEGEN
 70
     0
  9
$PSLTSCALE
 70
     1
  9
$TREEDEPTH
 70
  3020
  9
$CMLSTYLE
  2
Standard
  9
$CMLJUST
 70
     0
  9
$CMLSCALE
 40
1.0
  9
$PROXYGRAPHICS
 70
     1
  9
$MEASUREMENT
 70
     0
  9
$CELWEIGHT
370
    -1
  9
$ENDCAPS
280
     0
  9
$JOINSTYLE
280
     0
  9
$LWDISPLAY
290
     0
  9
$INSUNITS
 70
     0
  9
$HYPERLINKBASE
  1

  9
$STYLESHEET
  1

  9
$XEDIT
290
     1
  9
$CEPSNTYPE
380
     0
  9
$PSTYLEMODE
290
     1
  9
$FINGERPRINTGUID
  2
{AA96C434-E554-4186-932F-2CC448090031}
  9
$VERSIONGUID
  2
{FAEB1C32-E019-11D5-929B-00C0DF256EC4}
  9
$EXTNAMES
290
     1
  9
$PSVPSCALE
 40
0.0
  9
$OLESTARTUP
290
     0
  0
ENDSEC
  0
SECTION
  2
CLASSES
  0
CLASS
  1
ACDBDICTIONARYWDFLT
  2
AcDbDictionaryWithDefault
  3
ObjectDBX Classes
 90
        0
280
     0
281
     0
  0
CLASS
  1
SCALE
  2
AcDbScale
  3
ObjectDBX Classes
 90
     1153
280
     0
281
     0
  0
CLASS
  1
DICTIONARYVAR
  2
AcDbDictionaryVar
  3
ObjectDBX Classes
 90
        0
280
     0
281
     0
  0
CLASS
  1
ACDBPLACEHOLDER
  2
AcDbPlaceHolder
  3
ObjectDBX Classes
 90
        0
280
     0
281
     0
  0
CLASS
  1
LAYOUT
  2
AcDbLayout
  3
ObjectDBX Classes
 90
        0
280
     0
281
     0
  0
ENDSEC
  0
SECTION
  2
TABLES
  0
TABLE
  2
VPORT
  5
8
330
0
100
AcDbSymbolTable
 70
     1
  0
VPORT
  5
8F2
330
8
100
AcDbSymbolTableRecord
100
AcDbViewportTableRecord
  2
*Active
 70
     0
 10
0.0
 20
0.0
 11
1.0
 21
1.0
 12
126.9409
 22
527.0
 13
0.0
 23
0.0
 14
0.5
 24
0.5
 15
0.5
 25
0.5
 16
0.0
 26
0.0
 36
1.0
 17
0.0
 27
0.0
 37
0.0
 40
1075.08
 41
1.729542302358
 42
50.0
 43
0.0
 44
0.0
 50
0.0
 51
0.0
 71
    16
 72
   100
 73
     1
 74
     3
 75
     0
 76
     0
 77
     0
 78
     0
281
     0
 65
     1
110
0.0
120
0.0
130
0.0
111
1.0
121
0.0
131
0.0
112
0.0
122
1.0
132
0.0
 79
     0
146
0.0
  0
ENDTAB
  0
TABLE
  2
LTYPE
  5
5
330
0
100
AcDbSymbolTable
 70
     1
  0
LTYPE
  5
14
330
5
100
AcDbSymbolTableRecord
100
AcDbLinetypeTableRecord
  2
ByBlock
 70
     0
  3

 72
    65
 73
     0
 40
0.0
  0
LTYPE
  5
15
330
5
100
AcDbSymbolTableRecord
100
AcDbLinetypeTableRecord
  2
ByLayer
 70
     0
  3

 72
    65
 73
     0
 40
0.0
  0
LTYPE
  5
16
330
5
100
AcDbSymbolTableRecord
100
AcDbLinetypeTableRecord
  2
Continuous
 70
     0
  3
Solid line
 72
    65
 73
     0
 40
0.0
  0
ENDTAB
  0
TABLE
  2
LAYER
  5
2
330
0
100
AcDbSymbolTable
 70
     1
  0
LAYER
  5
10
330
2
100
AcDbSymbolTableRecord
100
AcDbLayerTableRecord
  2
0
 70
     0
 62
     7
  6
Continuous
370
    -3
390
F
  0
ENDTAB
  0
TABLE
  2
STYLE
  5
3
330
0
100
AcDbSymbolTable
 70
     1
  0
STYLE
  5
11
330
3
100
AcDbSymbolTableRecord
100
AcDbTextStyleTableRecord
  2
Standard
 70
     0
 40
0.0
 41
1.0
 50
0.0
 71
     0
 42
0.2
  3
txt
  4

  0
ENDTAB
  0
TABLE
  2
VIEW
  5
6
330
0
100
AcDbSymbolTable
 70
     0
  0
ENDTAB
  0
TABLE
  2
UCS
  5
7
330
0
100
AcDbSymbolTable
 70
     0
  0
ENDTAB
  0
TABLE
  2
APPID
  5
9
330
0
100
AcDbSymbolTable
 70
     1
  0
APPID
  5
12
330
9
100
AcDbSymbolTableRecord
100
AcDbRegAppTableRecord
  2
ACAD
 70
     0
  0
ENDTAB
  0
TABLE
  2
DIMSTYLE
  5
A
330
0
100
AcDbSymbolTable
 70
     1
100
AcDbDimStyleTable
  0
DIMSTYLE
105
20
330
A
100
AcDbSymbolTableRecord
100
AcDbDimStyleTableRecord
  2
Standard
 70
     0
340
11
  0
ENDTAB
  0
TABLE
  2
BLOCK_RECORD
  5
1
330
0
100
AcDbSymbolTable
 70
     1
  0
BLOCK_RECORD
  5
1D
330
1
100
AcDbSymbolTableRecord
100
AcDbBlockTableRecord
  2
*Model_Space
340
1E
  0
BLOCK_RECORD
  5
1B
330
1
100
AcDbSymbolTableRecord
100
AcDbBlockTableRecord
  2
*Paper_Space
340
1C
  0
ENDTAB
  0
ENDSEC
  0
SECTION
  2
BLOCKS
  0
BLOCK
  5
8F5
330
1D
100
AcDbEntity
  8
0
100
AcDbBlockBegin
  2
*Model_Space
 70
     0
 10
0.0
 20
0.0
 30
0.0
  3
*Model_Space
  1
*Model_Space
  0
ENDBLK
  5
8F6
330
1D
100
AcDbEntity
  8
0
100
AcDbBlockEnd
  0
BLOCK
  5
8F3
330
1B
100
AcDbEntity
 67
     1
  8
0
100
AcDbBlockBegin
  2
*Paper_Space
 70
     0
 10
0.0
 20
0.0
 30
0.0
  3
*Paper_Space
  1
*Paper_Space
  0
ENDBLK
  5
8F4
330
1B
100
AcDbEntity
 67
     1
  8
0
100
AcDbBlockEnd
  0
ENDSEC
  0
SECTION
  2
ENTITIES
  0
LINE
  5
21
330
1D
100
AcDbEntity
  8
0
100
AcDbLine
 10
164.0388
 20
33.995
 30
0.0
 11
165.9788
 21
32.8189
 31
0.0
  0
LINE
  5
22
330
1D
100
AcDbEntity
  8
0
100
AcDbLine
 10
163.0048
 20
35.4248
 30
0.0
 11
163.2698
 21
36.9697
 31
0.0
  0
LINE
  5
23
330
1D
100
AcDbEntity
  8
0
100
AcDbLine
 10
163.0048
 20
35.4248
 30
0.0
 11
164.0388
 21
33.995
 31
0.0
  0
LINE
  5
24
330
1D
100
AcDbEntity
  8
0
100
AcDbLine
 10
163.2698
 20
36.9697
 30
0.0
 11
164.7028
 21
38.3434
 31
0.0
  0
LINE
  5
25
330
1D
100
AcDbEntity
  8
0
100
AcDbLine
 10
165.9788
 20
32.8189
 30
0.0
 11
168.7778
 21
32.1161
 31
0.0
  0
LINE
  5
26
330
1D
100
AcDbEntity
  8
0
100
AcDbLine
 10
168.7778
 20
32.1161
 30
0.0
 11
171.9208
 21
31.9872
 31
0.0
  0
LINE
  5
27
330
1D
100
AcDbEntity
  8
0
100
AcDbLine
 10
171.9208
 20
31.9872
 30
0.0
 11
174.8268
 21
32.4955
 31
0.0
  0
LINE
  5
28
330
1D
100
AcDbEntity
  8
0
100
AcDbLine
 10
174.8268
 20
32.4955
 30
0.0
 11
177.2188
 21
33.4465
 31
0.0
  0
LINE
  5
29
330
1D
100
AcDbEntity
  8
0
100
AcDbLine
 10
177.2188
 20
33.4465
 30
0.0
 11
178.6478
 21
34.8204
 31
0.0
  0
LINE
  5
2A
330
1D
100
AcDbEntity
  8
0
100
AcDbLine
 10
164.7028
 20
38.3434
 30
0.0
 11
167.0978
 21
39.2956
 31
0.0
  0
LINE
  5
2B
330
1D
100
AcDbEntity
  8
0
100
AcDbLine
 10
167.0978
 20
39.2956
 30
0.0
 11
170.0078
 21
39.8008
 31
0.0
  0
LINE
  5
2C
330
1D
100
AcDbEntity
  8
0
100
AcDbLine
 10
170.0078
 20
39.8008
 30
0.0
 11
173.1508
 21
39.6697
 31
0.0
  0
LINE
  5
2D
330
1D
100
AcDbEntity
  8
0
100
AcDbLine
 10
173.1508
 20
39.6697
 30
0.0
 11
175.9448
 21
38.9659
 31
0.0
  0
LINE
  5
2E
330
1D
100
AcDbEntity
  8
0
100
AcDbLine
 10
175.9448
 20
38.9659
 30
0.0
 11
177.8808
 21
37.7897
 31
0.0
  0
LINE
  5
2F
330
1D
100
AcDbEntity
  8
0
100
AcDbLine
 10
178.6478
 20
34.8204
 30
0.0
 11
178.9108
 21
36.3621
 31
0.0
  0
LINE
  5
30
330
1D
100
AcDbEntity
  8
0
100
AcDbLine
 10
177.8808
 20
37.7897
 30
0.0
 11
178.9108
 21
36.3621
 31
0.0
  0
LINE
  5
31
330
1D
100
AcDbEntity
  8
0
100
AcDbLine
 10
188.0298
 20
2.0
 30
0.0
 11
188.4288
 21
2.0
 31
0.0
  0
LINE
  5
32
330
1D
100
AcDbEntity
  8
0
100
AcDbLine
 10
188.0298
 20
2.0
 30
0.0
 11
189.0268
 21
1.0
 31
0.0
  0
LINE
  5
33
330
1D
100
AcDbEntity
  8
0
100
AcDbLine
 10
188.0298
 20
2.0
 30
0.0
 11
188.0298
 21
79.0
 31
0.0
  0
LINE
  5
34
330
1D
100
AcDbEntity
  8
0
100
AcDbLine
 10
188.0298
 20
79.0
 30
0.0
 11
188.4288
 21
79.0
 31
0.0
  0
LINE
  5
35
330
1D
100
AcDbEntity
  8
0
100
AcDbLine
 10
188.0298
 20
79.0
 30
0.0
 11
189.0268
 21
80.0
 31
0.0
  0
LINE
  5
36
330
1D
100
AcDbEntity
  8
0
100
AcDbLine
 10
188.0298
 20
79.0
 30
0.0
 11
188.0298
 21
2.0
 31
0.0
  0
LINE
  5
37
330
1D
100
AcDbEntity
  8
0
100
AcDbLine
 10
162.6028
 20
557.33
 30
0.0
 11
163.0048
 21
35.4248
 31
0.0
  0
LINE
  5
38
330
1D
100
AcDbEntity
  8
0
100
AcDbLine
 10
162.6028
 20
557.33
 30
0.0
 11
163.0048
 21
35.4248
 31
0.0
  0
LINE
  5
39
330
1D
100
AcDbEntity
  8
0
100
AcDbLine
 10
143.239053994013
 20
670.38258219877
 30
0.0
 11
147.1038
 21
659.232
 31
0.0
  0
LINE
  5
3A
330
1D
100
AcDbEntity
  8
0
100
AcDbLine
 10
151.5758
 20
650.0
 30
0.0
 11
154.7688
 21
645.9
 31
0.0
  0
LINE
  5
3B
330
1D
100
AcDbEntity
  8
0
100
AcDbLine
 10
149.5798
 20
654.8
 30
0.0
 11
151.5758
 21
650.0
 31
0.0
  0
LINE
  5
3C
330
1D
100
AcDbEntity
  8
0
100
AcDbLine
 10
154.7688
 20
645.9
 30
0.0
 11
158.8588
 21
642.7
 31
0.0
  0
LINE
  5
3D
330
1D
100
AcDbEntity
  8
0
100
AcDbLine
 10
158.8588
 20
642.7
 30
0.0
 11
163.6488
 21
640.7
 31
0.0
  0
LINE
  5
3E
330
1D
100
AcDbEntity
  8
0
100
AcDbLine
 10
163.6488
 20
640.7
 30
0.0
 11
168.8368
 21
640.0
 31
0.0
  0
LINE
  5
3F
330
1D
100
AcDbEntity
  8
0
100
AcDbLine
 10
164.9458
 20
645.5
 30
0.0
 11
168.8368
 21
645.0
 31
0.0
  0
LINE
  5
40
330
1D
100
AcDbEntity
  8
0
100
AcDbLine
 10
161.3538
 20
647.0
 30
0.0
 11
164.9458
 21
645.5
 31
0.0
  0
LINE
  5
41
330
1D
100
AcDbEntity
  8
0
100
AcDbLine
 10
158.2608
 20
649.4
 30
0.0
 11
161.3538
 21
647.0
 31
0.0
  0
LINE
  5
42
330
1D
100
AcDbEntity
  8
0
100
AcDbLine
 10
155.8658
 20
652.5
 30
0.0
 11
158.2608
 21
649.4
 31
0.0
  0
LINE
  5
43
330
1D
100
AcDbEntity
  8
0
100
AcDbLine
 10
154.3698
 20
656.1
 30
0.0
 11
155.8658
 21
652.5
 31
0.0
  0
LINE
  5
44
330
1D
100
AcDbEntity
  8
0
100
AcDbLine
 10
153.8708
 20
660.0
 30
0.0
 11
154.3698
 21
663.9
 31
0.0
  0
LINE
  5
45
330
1D
100
AcDbEntity
  8
0
100
AcDbLine
 10
153.8708
 20
660.0
 30
0.0
 11
154.3698
 21
656.1
 31
0.0
  0
LINE
  5
46
330
1D
100
AcDbEntity
  8
0
100
AcDbLine
 10
155.8658
 20
667.5
 30
0.0
 11
158.2608
 21
670.6
 31
0.0
  0
LINE
  5
47
330
1D
100
AcDbEntity
  8
0
100
AcDbLine
 10
154.3698
 20
663.9
 30
0.0
 11
155.8658
 21
667.5
 31
0.0
  0
LINE
  5
48
330
1D
100
AcDbEntity
  8
0
100
AcDbLine
 10
164.9458
 20
674.5
 30
0.0
 11
168.8368
 21
675.0
 31
0.0
  0
LINE
  5
49
330
1D
100
AcDbEntity
  8
0
100
AcDbLine
 10
161.3538
 20
673.0
 30
0.0
 11
164.9458
 21
674.5
 31
0.0
  0
LINE
  5
4A
330
1D
100
AcDbEntity
  8
0
100
AcDbLine
 10
158.2608
 20
670.6
 30
0.0
 11
161.3538
 21
673.0
 31
0.0
  0
LINE
  5
4B
330
1D
100
AcDbEntity
  8
0
100
AcDbLine
 10
163.6488
 20
679.3
 30
0.0
 11
168.8368
 21
680.0
 31
0.0
  0
LINE
  5
4C
330
1D
100
AcDbEntity
  8
0
100
AcDbLine
 10
158.8588
 20
677.3
 30
0.0
 11
163.6488
 21
679.3
 31
0.0
  0
LINE
  5
4D
330
1D
100
AcDbEntity
  8
0
100
AcDbLine
 10
154.7688
 20
674.1
 30
0.0
 11
158.8588
 21
677.3
 31
0.0
  0
LINE
  5
4E
330
1D
100
AcDbEntity
  8
0
100
AcDbLine
 10
151.5758
 20
670.0
 30
0.0
 11
154.7688
 21
674.1
 31
0.0
  0
LINE
  5
4F
330
1D
100
AcDbEntity
  8
0
100
AcDbLine
 10
149.5798
 20
665.2
 30
0.0
 11
151.5758
 21
670.0
 31
0.0
  0
LINE
  5
50
330
1D
100
AcDbEntity
  8
0
100
AcDbLine
 10
148.8818
 20
660.0
 30
0.0
 11
149.5798
 21
665.2
 31
0.0
  0
LINE
  5
51
330
1D
100
AcDbEntity
  8
0
100
AcDbLine
 10
148.8818
 20
660.0
 30
0.0
 11
149.277684076597
 21
662.949279653729
 31
0.0
  0
LINE
  5
52
330
1D
100
AcDbEntity
  8
0
100
AcDbLine
 10
148.8818
 20
660.0
 30
0.0
 11
149.5798
 21
654.8
 31
0.0
  0
LINE
  5
53
330
1D
100
AcDbEntity
  8
0
100
AcDbLine
 10
147.1038
 20
659.232
 30
0.0
 11
153.3038
 21
634.835
 31
0.0
  0
LINE
  5
54
330
1D
100
AcDbEntity
  8
0
100
AcDbLine
 10
153.3038
 20
634.835
 30
0.0
 11
157.9028
 21
610.628
 31
0.0
  0
LINE
  5
55
330
1D
100
AcDbEntity
  8
0
100
AcDbLine
 10
168.8368
 20
640.0
 30
0.0
 11
198.7698
 21
640.0
 31
0.0
  0
LINE
  5
56
330
1D
100
AcDbEntity
  8
0
100
AcDbLine
 10
168.8368
 20
640.0
 30
0.0
 11
168.8368
 21
645.0
 31
0.0
  0
LINE
  5
57
330
1D
100
AcDbEntity
  8
0
100
AcDbLine
 10
168.8368
 20
640.0
 30
0.0
 11
188.0298
 21
640.0
 31
0.0
  0
LINE
  5
58
330
1D
100
AcDbEntity
  8
0
100
AcDbLine
 10
168.8368
 20
645.0
 30
0.0
 11
172.7278
 21
645.5
 31
0.0
  0
LINE
  5
59
330
1D
100
AcDbEntity
  8
0
100
AcDbLine
 10
168.8368
 20
645.0
 30
0.0
 11
168.8368
 21
640.0
 31
0.0
  0
LINE
  5
5A
330
1D
100
AcDbEntity
  8
0
100
AcDbLine
 10
172.7278
 20
645.5
 30
0.0
 11
176.3198
 21
647.0
 31
0.0
  0
LINE
  5
5B
330
1D
100
AcDbEntity
  8
0
100
AcDbLine
 10
168.8368
 20
680.0
 30
0.0
 11
198.7698
 21
680.0
 31
0.0
  0
LINE
  5
5C
330
1D
100
AcDbEntity
  8
0
100
AcDbLine
 10
168.8368
 20
680.0
 30
0.0
 11
168.8368
 21
675.0
 31
0.0
  0
LINE
  5
5D
330
1D
100
AcDbEntity
  8
0
100
AcDbLine
 10
168.8368
 20
675.0
 30
0.0
 11
172.7278
 21
674.5
 31
0.0
  0
LINE
  5
5E
330
1D
100
AcDbEntity
  8
0
100
AcDbLine
 10
168.8368
 20
675.0
 30
0.0
 11
168.8368
 21
680.0
 31
0.0
  0
LINE
  5
5F
330
1D
100
AcDbEntity
  8
0
100
AcDbLine
 10
172.7278
 20
674.5
 30
0.0
 11
176.3198
 21
673.0
 31
0.0
  0
LINE
  5
60
330
1D
100
AcDbEntity
  8
0
100
AcDbLine
 10
168.0898012362
 20
640.100790118477
 30
0.0
 11
172.9028
 21
616.133
 31
0.0
  0
LINE
  5
61
330
1D
100
AcDbEntity
  8
0
100
AcDbLine
 10
157.9028
 20
610.628
 30
0.0
 11
160.8018
 21
588.931
 31
0.0
  0
LINE
  5
62
330
1D
100
AcDbEntity
  8
0
100
AcDbLine
 10
176.3198
 20
647.0
 30
0.0
 11
179.4128
 21
649.4
 31
0.0
  0
LINE
  5
63
330
1D
100
AcDbEntity
  8
0
100
AcDbLine
 10
176.3198
 20
673.0
 30
0.0
 11
179.4128
 21
670.6
 31
0.0
  0
LINE
  5
64
330
1D
100
AcDbEntity
  8
0
100
AcDbLine
 10
172.9028
 20
616.133
 30
0.0
 11
176.6028
 21
591.735
 31
0.0
  0
LINE
  5
65
330
1D
100
AcDbEntity
  8
0
100
AcDbLine
 10
160.8018
 20
588.931
 30
0.0
 11
162.6028
 21
557.33
 31
0.0
  0
LINE
  5
66
330
1D
100
AcDbEntity
  8
0
100
AcDbLine
 10
179.4128
 20
649.4
 30
0.0
 11
181.8078
 21
652.5
 31
0.0
  0
LINE
  5
67
330
1D
100
AcDbEntity
  8
0
100
AcDbLine
 10
181.8078
 20
652.5
 30
0.0
 11
183.3048
 21
656.1
 31
0.0
  0
LINE
  5
68
330
1D
100
AcDbEntity
  8
0
100
AcDbLine
 10
187.7948
 20
640.0
 30
0.0
 11
188.1938
 21
640.0
 31
0.0
  0
LINE
  5
69
330
1D
100
AcDbEntity
  8
0
100
AcDbLine
 10
187.7948
 20
640.0
 30
0.0
 11
188.0298
 21
640.0
 31
0.0
  0
LINE
  5
6A
330
1D
100
AcDbEntity
  8
0
100
AcDbLine
 10
183.3048
 20
656.1
 30
0.0
 11
183.8038
 21
660.0
 31
0.0
  0
LINE
  5
6B
330
1D
100
AcDbEntity
  8
0
100
AcDbLine
 10
179.4128
 20
670.6
 30
0.0
 11
181.8078
 21
667.5
 31
0.0
  0
LINE
  5
6C
330
1D
100
AcDbEntity
  8
0
100
AcDbLine
 10
181.8078
 20
667.5
 30
0.0
 11
183.3048
 21
663.9
 31
0.0
  0
LINE
  5
6D
330
1D
100
AcDbEntity
  8
0
100
AcDbLine
 10
183.3048
 20
663.9
 30
0.0
 11
183.8038
 21
660.0
 31
0.0
  0
LINE
  5
6E
330
1D
100
AcDbEntity
  8
0
100
AcDbLine
 10
176.6028
 20
591.735
 30
0.0
 11
178.6028
 21
557.334
 31
0.0
  0
LINE
  5
6F
330
1D
100
AcDbEntity
  8
0
100
AcDbLine
 10
178.6028
 20
557.334
 30
0.0
 11
178.9108
 21
36.3621
 31
0.0
  0
LINE
  5
70
330
1D
100
AcDbEntity
  8
0
100
AcDbLine
 10
178.6028
 20
557.334
 30
0.0
 11
178.9108
 21
36.3621
 31
0.0
  0
LINE
  5
71
330
1D
100
AcDbEntity
  8
0
100
AcDbLine
 10
188.0298
 20
81.0
 30
0.0
 11
188.0298
 21
547.5
 31
0.0
  0
LINE
  5
72
330
1D
100
AcDbEntity
  8
0
100
AcDbLine
 10
188.0298
 20
81.0
 30
0.0
 11
188.4288
 21
81.0
 31
0.0
  0
LINE
  5
73
330
1D
100
AcDbEntity
  8
0
100
AcDbLine
 10
188.0298
 20
81.0
 30
0.0
 11
189.0268
 21
80.0
 31
0.0
  0
LINE
  5
74
330
1D
100
AcDbEntity
  8
0
100
AcDbLine
 10
188.0298
 20
81.0
 30
0.0
 11
188.0298
 21
547.5
 31
0.0
  0
LINE
  5
75
330
1D
100
AcDbEntity
  8
0
100
AcDbLine
 10
188.0298
 20
640.0
 30
0.0
 11
188.0298
 21
547.5
 31
0.0
  0
LINE
  5
78
330
1D
100
AcDbEntity
  8
0
100
AcDbLine
 10
127.591504572512
 20
698.996791530814
 30
0.0
 11
143.239053994013
 21
670.38258219877
 31
0.0
  0
LINE
  5
821
330
1D
100
AcDbEntity
  8
0
100
AcDbLine
 10
150.102504572512
 20
711.633111530814
 30
0.0
 11
168.862643347061
 21
680.0
 31
0.0
  0
LINE
  5
825
330
1D
100
AcDbEntity
  8
0
100
AcDbLine
 10
188.0298
 20
680.0
 30
0.0
 11
188.0298
 21
974.0
 31
0.0
  0
LINE
  5
826
330
1D
100
AcDbEntity
  8
0
100
AcDbLine
 10
188.4288
 20
2.0
 30
0.0
 11
189.5258
 21
2.0
 31
0.0
  0
LINE
  5
827
330
1D
100
AcDbEntity
  8
0
100
AcDbLine
 10
188.4288
 20
79.0
 30
0.0
 11
189.5258
 21
79.0
 31
0.0
  0
LINE
  5
828
330
1D
100
AcDbEntity
  8
0
100
AcDbLine
 10
188.1938
 20
640.0
 30
0.0
 11
189.2908
 21
640.0
 31
0.0
  0
LINE
  5
829
330
1D
100
AcDbEntity
  8
0
100
AcDbLine
 10
188.4288
 20
81.0
 30
0.0
 11
189.5258
 21
81.0
 31
0.0
  0
LINE
  5
82A
330
1D
100
AcDbEntity
  8
0
100
AcDbLine
 10
189.4258
 20
1.0
 30
0.0
 11
190.3248
 21
1.0
 31
0.0
  0
LINE
  5
82B
330
1D
100
AcDbEntity
  8
0
100
AcDbLine
 10
189.0268
 20
1.0
 30
0.0
 11
189.4258
 21
1.0
 31
0.0
  0
LINE
  5
82D
330
1D
100
AcDbEntity
  8
0
100
AcDbLine
 10
189.5258
 20
2.0
 30
0.0
 11
191.2218
 21
2.0
 31
0.0
  0
LINE
  5
82E
330
1D
100
AcDbEntity
  8
0
100
AcDbLine
 10
190.3248
 20
1.0
 30
0.0
 11
191.9208
 21
1.0
 31
0.0
  0
LINE
  5
82F
330
1D
100
AcDbEntity
  8
0
100
AcDbLine
 10
191.2218
 20
2.0
 30
0.0
 11
193.5168
 21
2.0
 31
0.0
  0
LINE
  5
830
330
1D
100
AcDbEntity
  8
0
100
AcDbLine
 10
191.2218
 20
79.0
 30
0.0
 11
193.5168
 21
79.0
 31
0.0
  0
LINE
  5
831
330
1D
100
AcDbEntity
  8
0
100
AcDbLine
 10
189.5258
 20
79.0
 30
0.0
 11
191.2218
 21
79.0
 31
0.0
  0
LINE
  5
832
330
1D
100
AcDbEntity
  8
0
100
AcDbLine
 10
190.3248
 20
80.0
 30
0.0
 11
191.9208
 21
80.0
 31
0.0
  0
LINE
  5
833
330
1D
100
AcDbEntity
  8
0
100
AcDbLine
 10
189.4258
 20
80.0
 30
0.0
 11
190.3248
 21
80.0
 31
0.0
  0
LINE
  5
834
330
1D
100
AcDbEntity
  8
0
100
AcDbLine
 10
189.0268
 20
80.0
 30
0.0
 11
189.4258
 21
80.0
 31
0.0
  0
LINE
  5
835
330
1D
100
AcDbEntity
  8
0
100
AcDbLine
 10
191.2218
 20
81.0
 30
0.0
 11
193.5168
 21
81.0
 31
0.0
  0
LINE
  5
836
330
1D
100
AcDbEntity
  8
0
100
AcDbLine
 10
190.9868
 20
640.0
 30
0.0
 11
193.2818
 21
640.0
 31
0.0
  0
LINE
  5
837
330
1D
100
AcDbEntity
  8
0
100
AcDbLine
 10
189.2908
 20
640.0
 30
0.0
 11
190.9868
 21
640.0
 31
0.0
  0
LINE
  5
838
330
1D
100
AcDbEntity
  8
0
100
AcDbLine
 10
189.5258
 20
81.0
 30
0.0
 11
191.2218
 21
81.0
 31
0.0
  0
LINE
  5
83B
330
1D
100
AcDbEntity
  8
0
100
AcDbLine
 10
191.9208
 20
1.0
 30
0.0
 11
194.0158
 21
1.0
 31
0.0
  0
LINE
  5
83C
330
1D
100
AcDbEntity
  8
0
100
AcDbLine
 10
194.0158
 20
1.0
 30
0.0
 11
196.4108
 21
1.0
 31
0.0
  0
LINE
  5
83D
330
1D
100
AcDbEntity
  8
0
100
AcDbLine
 10
193.5168
 20
2.0
 30
0.0
 11
196.2108
 21
2.0
 31
0.0
  0
LINE
  5
83E
330
1D
100
AcDbEntity
  8
0
100
AcDbLine
 10
193.5168
 20
79.0
 30
0.0
 11
196.2108
 21
79.0
 31
0.0
  0
LINE
  5
83F
330
1D
100
AcDbEntity
  8
0
100
AcDbLine
 10
196.2108
 20
2.0
 30
0.0
 11
199.0048
 21
2.0
 31
0.0
  0
LINE
  5
840
330
1D
100
AcDbEntity
  8
0
100
AcDbLine
 10
196.2108
 20
79.0
 30
0.0
 11
199.0048
 21
79.0
 31
0.0
  0
LINE
  5
841
330
1D
100
AcDbEntity
  8
0
100
AcDbLine
 10
194.0158
 20
80.0
 30
0.0
 11
196.4108
 21
80.0
 31
0.0
  0
LINE
  5
842
330
1D
100
AcDbEntity
  8
0
100
AcDbLine
 10
191.9208
 20
80.0
 30
0.0
 11
194.0158
 21
80.0
 31
0.0
  0
LINE
  5
843
330
1D
100
AcDbEntity
  8
0
100
AcDbLine
 10
196.2108
 20
81.0
 30
0.0
 11
199.0048
 21
81.0
 31
0.0
  0
LINE
  5
844
330
1D
100
AcDbEntity
  8
0
100
AcDbLine
 10
195.9758
 20
640.0
 30
0.0
 11
198.7698
 21
640.0
 31
0.0
  0
LINE
  5
845
330
1D
100
AcDbEntity
  8
0
100
AcDbLine
 10
193.2818
 20
640.0
 30
0.0
 11
195.9758
 21
640.0
 31
0.0
  0
LINE
  5
846
330
1D
100
AcDbEntity
  8
0
100
AcDbLine
 10
193.5168
 20
81.0
 30
0.0
 11
196.2108
 21
81.0
 31
0.0
  0
LINE
  5
848
330
1D
100
AcDbEntity
  8
0
100
AcDbLine
 10
196.4108
 20
1.0
 30
0.0
 11
199.0048
 21
1.0
 31
0.0
  0
LINE
  5
849
330
1D
100
AcDbEntity
  8
0
100
AcDbLine
 10
199.0048
 20
1.0
 30
0.0
 11
201.5988
 21
1.0
 31
0.0
  0
LINE
  5
84A
330
1D
100
AcDbEntity
  8
0
100
AcDbLine
 10
199.0048
 20
2.0
 30
0.0
 11
201.7988
 21
2.0
 31
0.0
  0
LINE
  5
84C
330
1D
100
AcDbEntity
  8
0
100
AcDbLine
 10
203.9938
 20
1.0
 30
0.0
 11
206.0888
 21
1.0
 31
0.0
  0
LINE
  5
84D
330
1D
100
AcDbEntity
  8
0
100
AcDbLine
 10
206.0888
 20
1.0
 30
0.0
 11
207.6858
 21
1.0
 31
0.0
  0
LINE
  5
84E
330
1D
100
AcDbEntity
  8
0
100
AcDbLine
 10
201.7988
 20
2.0
 30
0.0
 11
204.4928
 21
2.0
 31
0.0
  0
LINE
  5
84F
330
1D
100
AcDbEntity
  8
0
100
AcDbLine
 10
204.4928
 20
2.0
 30
0.0
 11
206.7878
 21
2.0
 31
0.0
  0
LINE
  5
850
330
1D
100
AcDbEntity
  8
0
100
AcDbLine
 10
206.7878
 20
2.0
 30
0.0
 11
208.4838
 21
2.0
 31
0.0
  0
LINE
  5
852
330
1D
100
AcDbEntity
  8
0
100
AcDbLine
 10
201.5988
 20
1.0
 30
0.0
 11
203.9938
 21
1.0
 31
0.0
  0
LINE
  5
853
330
1D
100
AcDbEntity
  8
0
100
AcDbLine
 10
196.4108
 20
80.0
 30
0.0
 11
199.0048
 21
80.0
 31
0.0
  0
LINE
  5
854
330
1D
100
AcDbEntity
  8
0
100
AcDbLine
 10
199.0048
 20
79.0
 30
0.0
 11
201.7988
 21
79.0
 31
0.0
  0
LINE
  5
855
330
1D
100
AcDbEntity
  8
0
100
AcDbLine
 10
199.0048
 20
80.0
 30
0.0
 11
201.5988
 21
80.0
 31
0.0
  0
LINE
  5
856
330
1D
100
AcDbEntity
  8
0
100
AcDbLine
 10
201.7988
 20
79.0
 30
0.0
 11
204.4928
 21
79.0
 31
0.0
  0
LINE
  5
857
330
1D
100
AcDbEntity
  8
0
100
AcDbLine
 10
201.5988
 20
80.0
 30
0.0
 11
203.9938
 21
80.0
 31
0.0
  0
LINE
  5
858
330
1D
100
AcDbEntity
  8
0
100
AcDbLine
 10
199.0048
 20
81.0
 30
0.0
 11
201.7988
 21
81.0
 31
0.0
  0
LINE
  5
859
330
1D
100
AcDbEntity
  8
0
100
AcDbLine
 10
204.4928
 20
79.0
 30
0.0
 11
206.7878
 21
79.0
 31
0.0
  0
LINE
  5
85A
330
1D
100
AcDbEntity
  8
0
100
AcDbLine
 10
203.9938
 20
80.0
 30
0.0
 11
206.0888
 21
80.0
 31
0.0
  0
LINE
  5
85B
330
1D
100
AcDbEntity
  8
0
100
AcDbLine
 10
206.0888
 20
80.0
 30
0.0
 11
207.6858
 21
80.0
 31
0.0
  0
LINE
  5
85C
330
1D
100
AcDbEntity
  8
0
100
AcDbLine
 10
201.7988
 20
81.0
 30
0.0
 11
204.4928
 21
81.0
 31
0.0
  0
LINE
  5
85D
330
1D
100
AcDbEntity
  8
0
100
AcDbLine
 10
204.4928
 20
81.0
 30
0.0
 11
206.7878
 21
81.0
 31
0.0
  0
LINE
  5
85E
330
1D
100
AcDbEntity
  8
0
100
AcDbLine
 10
206.7878
 20
81.0
 30
0.0
 11
208.4838
 21
81.0
 31
0.0
  0
LINE
  5
85F
330
1D
100
AcDbEntity
  8
0
100
AcDbLine
 10
206.7878
 20
26.0
 30
0.0
 11
253.8818
 21
26.0
 31
0.0
  0
LINE
  5
860
330
1D
100
AcDbEntity
  8
0
100
AcDbLine
 10
208.4838
 20
2.0
 30
0.0
 11
209.5808
 21
2.0
 31
0.0
  0
LINE
  5
861
330
1D
100
AcDbEntity
  8
0
100
AcDbLine
 10
207.6858
 20
1.0
 30
0.0
 11
208.5838
 21
1.0
 31
0.0
  0
LINE
  5
862
330
1D
100
AcDbEntity
  8
0
100
AcDbLine
 10
209.5808
 20
2.0
 30
0.0
 11
209.9798
 21
2.0
 31
0.0
  0
LINE
  5
863
330
1D
100
AcDbEntity
  8
0
100
AcDbLine
 10
209.9798
 20
2.0
 30
0.0
 11
209.9798
 21
26.0
 31
0.0
  0
LINE
  5
864
330
1D
100
AcDbEntity
  8
0
100
AcDbLine
 10
208.9828
 20
1.0
 30
0.0
 11
209.9798
 21
2.0
 31
0.0
  0
LINE
  5
865
330
1D
100
AcDbEntity
  8
0
100
AcDbLine
 10
208.5838
 20
1.0
 30
0.0
 11
208.9828
 21
1.0
 31
0.0
  0
LINE
  5
866
330
1D
100
AcDbEntity
  8
0
100
AcDbLine
 10
207.6858
 20
80.0
 30
0.0
 11
208.5838
 21
80.0
 31
0.0
  0
LINE
  5
867
330
1D
100
AcDbEntity
  8
0
100
AcDbLine
 10
208.5838
 20
80.0
 30
0.0
 11
208.9828
 21
80.0
 31
0.0
  0
LINE
  5
868
330
1D
100
AcDbEntity
  8
0
100
AcDbLine
 10
208.4838
 20
81.0
 30
0.0
 11
209.5808
 21
81.0
 31
0.0
  0
LINE
  5
869
330
1D
100
AcDbEntity
  8
0
100
AcDbLine
 10
209.5808
 20
81.0
 30
0.0
 11
209.9798
 21
81.0
 31
0.0
  0
LINE
  5
86A
330
1D
100
AcDbEntity
  8
0
100
AcDbLine
 10
209.9798
 20
26.0
 30
0.0
 11
209.9798
 21
2.0
 31
0.0
  0
LINE
  5
86B
330
1D
100
AcDbEntity
  8
0
100
AcDbLine
 10
209.9798
 20
81.0
 30
0.0
 11
209.9798
 21
547.5
 31
0.0
  0
LINE
  5
86C
330
1D
100
AcDbEntity
  8
0
100
AcDbLine
 10
208.9828
 20
80.0
 30
0.0
 11
209.9798
 21
81.0
 31
0.0
  0
LINE
  5
86D
330
1D
100
AcDbEntity
  8
0
100
AcDbLine
 10
208.9828
 20
80.0
 30
0.0
 11
209.9798
 21
79.0
 31
0.0
  0
LINE
  5
86E
330
1D
100
AcDbEntity
  8
0
100
AcDbLine
 10
209.9798
 20
81.0
 30
0.0
 11
209.9798
 21
547.5
 31
0.0
  0
LINE
  5
86F
330
1D
100
AcDbEntity
  8
0
100
AcDbLine
 10
253.8818
 20
79.0
 30
0.0
 11
253.8818
 21
26.0
 31
0.0
  0
LINE
  5
870
330
1D
100
AcDbEntity
  8
0
100
AcDbLine
 10
209.9798
 20
26.0
 30
0.0
 11
253.8818
 21
26.0
 31
0.0
  0
LINE
  5
871
330
1D
100
AcDbEntity
  8
0
100
AcDbLine
 10
253.8818
 20
26.0
 30
0.0
 11
253.8818
 21
79.0
 31
0.0
  0
LINE
  5
872
330
1D
100
AcDbEntity
  8
0
100
AcDbLine
 10
206.7878
 20
79.0
 30
0.0
 11
253.8818
 21
79.0
 31
0.0
  0
LINE
  5
873
330
1D
100
AcDbEntity
  8
0
100
AcDbLine
 10
198.7698
 20
680.0
 30
0.0
 11
202.6608
 21
680.0
 31
0.0
  0
LINE
  5
874
330
1D
100
AcDbEntity
  8
0
100
AcDbLine
 10
198.7698
 20
640.0
 30
0.0
 11
202.6608
 21
640.0
 31
0.0
  0
LINE
  5
875
330
1D
100
AcDbEntity
  8
0
100
AcDbLine
 10
198.7698
 20
640.0
 30
0.0
 11
199.0048
 21
640.0
 31
0.0
  0
LINE
  5
876
330
1D
100
AcDbEntity
  8
0
100
AcDbLine
 10
202.6608
 20
680.0
 30
0.0
 11
206.5008
 21
680.0
 31
0.0
  0
LINE
  5
877
330
1D
100
AcDbEntity
  8
0
100
AcDbLine
 10
202.6608
 20
640.0
 30
0.0
 11
206.7628
 21
640.0
 31
0.0
  0
LINE
  5
878
330
1D
100
AcDbEntity
  8
0
100
AcDbLine
 10
199.0048
 20
974.0
 30
0.0
 11
201.7988
 21
974.0
 31
0.0
  0
LINE
  5
879
330
1D
100
AcDbEntity
  8
0
100
AcDbLine
 10
201.7988
 20
974.0
 30
0.0
 11
204.4928
 21
974.0
 31
0.0
  0
LINE
  5
87A
330
1D
100
AcDbEntity
  8
0
100
AcDbLine
 10
206.5008
 20
680.0
 30
0.0
 11
209.8248
 21
680.0
 31
0.0
  0
LINE
  5
87B
330
1D
100
AcDbEntity
  8
0
100
AcDbLine
 10
206.7628
 20
640.0
 30
0.0
 11
209.9998
 21
640.0
 31
0.0
  0
LINE
  5
87C
330
1D
100
AcDbEntity
  8
0
100
AcDbLine
 10
204.4928
 20
974.0
 30
0.0
 11
206.7878
 21
974.0
 31
0.0
  0
LINE
  5
87D
330
1D
100
AcDbEntity
  8
0
100
AcDbLine
 10
206.7878
 20
974.0
 30
0.0
 11
208.4838
 21
974.0
 31
0.0
  0
LINE
  5
87E
330
1D
100
AcDbEntity
  8
0
100
AcDbLine
 10
209.8248
 20
680.0
 30
0.0
 11
211.9248
 21
680.0
 31
0.0
  0
LINE
  5
87F
330
1D
100
AcDbEntity
  8
0
100
AcDbLine
 10
209.9798
 20
640.0
 30
0.0
 11
209.9798
 21
547.5
 31
0.0
  0
LINE
  5
880
330
1D
100
AcDbEntity
  8
0
100
AcDbLine
 10
209.9798
 20
974.0
 30
0.0
 11
209.9798
 21
680.0
 31
0.0
  0
LINE
  5
881
330
1D
100
AcDbEntity
  8
0
100
AcDbLine
 10
208.4838
 20
974.0
 30
0.0
 11
209.5808
 21
974.0
 31
0.0
  0
LINE
  5
882
330
1D
100
AcDbEntity
  8
0
100
AcDbLine
 10
209.5808
 20
974.0
 30
0.0
 11
209.9798
 21
974.0
 31
0.0
  0
LINE
  5
883
330
1D
100
AcDbEntity
  8
0
100
AcDbLine
 10
209.9998
 20
640.0
 30
0.0
 11
212.1438
 21
640.0
 31
0.0
  0
LINE
  5
884
330
1D
100
AcDbEntity
  8
0
100
AcDbLine
 10
212.1438
 20
640.0
 30
0.0
 11
213.2378
 21
640.0
 31
0.0
  0
LINE
  5
885
330
1D
100
AcDbEntity
  8
0
100
AcDbLine
 10
213.7368
 20
640.0
 30
0.0
 11
213.7368
 21
655.080016035278
 31
0.0
  0
LINE
  5
886
330
1D
100
AcDbEntity
  8
0
100
AcDbLine
 10
213.2378
 20
640.0
 30
0.0
 11
213.7368
 21
640.0
 31
0.0
  0
LINE
  5
887
330
1D
100
AcDbEntity
  8
0
100
AcDbLine
 10
213.7368
 20
655.080016035278
 30
0.0
 11
213.7368
 21
640.0
 31
0.0
  0
LINE
  5
888
330
1D
100
AcDbEntity
  8
0
100
AcDbLine
 10
213.7368
 20
655.0
 30
0.0
 11
216.7298
 21
655.0
 31
0.0
  0
LINE
  5
889
330
1D
100
AcDbEntity
  8
0
100
AcDbLine
 10
216.7298
 20
655.0
 30
0.0
 11
216.7298
 21
655.2
 31
0.0
  0
LINE
  5
88A
330
1D
100
AcDbEntity
  8
0
100
AcDbLine
 10
216.7298
 20
661.3
 30
0.0
 11
216.7298
 21
660.0
 31
0.0
  0
LINE
  5
88B
330
1D
100
AcDbEntity
  8
0
100
AcDbLine
 10
216.7298
 20
661.3
 30
0.0
 11
216.7298
 21
662.5
 31
0.0
  0
LINE
  5
88C
330
1D
100
AcDbEntity
  8
0
100
AcDbLine
 10
216.7298
 20
662.5
 30
0.0
 11
216.7298
 21
661.3
 31
0.0
  0
LINE
  5
88D
330
1D
100
AcDbEntity
  8
0
100
AcDbLine
 10
216.7298
 20
662.5
 30
0.0
 11
216.7298
 21
663.5
 31
0.0
  0
LINE
  5
88E
330
1D
100
AcDbEntity
  8
0
100
AcDbLine
 10
216.7298
 20
663.5
 30
0.0
 11
216.7298
 21
662.5
 31
0.0
  0
LINE
  5
88F
330
1D
100
AcDbEntity
  8
0
100
AcDbLine
 10
216.7298
 20
663.5
 30
0.0
 11
216.7298
 21
664.3
 31
0.0
  0
LINE
  5
890
330
1D
100
AcDbEntity
  8
0
100
AcDbLine
 10
213.7368
 20
664.880016035278
 30
0.0
 11
213.7368
 21
680.0
 31
0.0
  0
LINE
  5
891
330
1D
100
AcDbEntity
  8
0
100
AcDbLine
 10
213.7368
 20
665.0
 30
0.0
 11
216.7298
 21
665.0
 31
0.0
  0
LINE
  5
892
330
1D
100
AcDbEntity
  8
0
100
AcDbLine
 10
216.7298
 20
664.3
 30
0.0
 11
216.7298
 21
663.5
 31
0.0
  0
LINE
  5
893
330
1D
100
AcDbEntity
  8
0
100
AcDbLine
 10
216.7298
 20
664.3
 30
0.0
 11
216.7298
 21
664.8
 31
0.0
  0
LINE
  5
894
330
1D
100
AcDbEntity
  8
0
100
AcDbLine
 10
216.7298
 20
664.8
 30
0.0
 11
216.7298
 21
664.3
 31
0.0
  0
LINE
  5
895
330
1D
100
AcDbEntity
  8
0
100
AcDbLine
 10
216.7298
 20
664.8
 30
0.0
 11
216.7298
 21
665.0
 31
0.0
  0
LINE
  5
896
330
1D
100
AcDbEntity
  8
0
100
AcDbLine
 10
211.9248
 20
680.0
 30
0.0
 11
213.2378
 21
680.0
 31
0.0
  0
LINE
  5
897
330
1D
100
AcDbEntity
  8
0
100
AcDbLine
 10
213.7368
 20
680.0
 30
0.0
 11
213.7368
 21
664.880016035278
 31
0.0
  0
LINE
  5
898
330
1D
100
AcDbEntity
  8
0
100
AcDbLine
 10
213.2378
 20
680.0
 30
0.0
 11
213.7368
 21
680.0
 31
0.0
  0
LINE
  5
899
330
1D
100
AcDbEntity
  8
0
100
AcDbLine
 10
216.7298
 20
665.0
 30
0.0
 11
216.7298
 21
664.8
 31
0.0
  0
LINE
  5
89A
330
1D
100
AcDbEntity
  8
0
100
AcDbLine
 10
216.7298
 20
660.0
 30
0.0
 11
216.7298
 21
658.7
 31
0.0
  0
LINE
  5
89B
330
1D
100
AcDbEntity
  8
0
100
AcDbLine
 10
216.7298
 20
660.0
 30
0.0
 11
216.7298
 21
661.3
 31
0.0
  0
LINE
  5
89C
330
1D
100
AcDbEntity
  8
0
100
AcDbLine
 10
216.7298
 20
658.7
 30
0.0
 11
216.7298
 21
657.5
 31
0.0
  0
LINE
  5
89D
330
1D
100
AcDbEntity
  8
0
100
AcDbLine
 10
216.7298
 20
658.7
 30
0.0
 11
216.7298
 21
660.0
 31
0.0
  0
LINE
  5
89E
330
1D
100
AcDbEntity
  8
0
100
AcDbLine
 10
216.7298
 20
657.5
 30
0.0
 11
216.7298
 21
656.5
 31
0.0
  0
LINE
  5
89F
330
1D
100
AcDbEntity
  8
0
100
AcDbLine
 10
216.7298
 20
657.5
 30
0.0
 11
216.7298
 21
658.7
 31
0.0
  0
LINE
  5
8A0
330
1D
100
AcDbEntity
  8
0
100
AcDbLine
 10
216.7298
 20
656.5
 30
0.0
 11
216.7298
 21
655.7
 31
0.0
  0
LINE
  5
8A1
330
1D
100
AcDbEntity
  8
0
100
AcDbLine
 10
216.7298
 20
656.5
 30
0.0
 11
216.7298
 21
657.5
 31
0.0
  0
LINE
  5
8A2
330
1D
100
AcDbEntity
  8
0
100
AcDbLine
 10
216.7298
 20
655.7
 30
0.0
 11
216.7298
 21
655.2
 31
0.0
  0
LINE
  5
8A3
330
1D
100
AcDbEntity
  8
0
100
AcDbLine
 10
216.7298
 20
655.7
 30
0.0
 11
216.7298
 21
656.5
 31
0.0
  0
LINE
  5
8A4
330
1D
100
AcDbEntity
  8
0
100
AcDbLine
 10
216.7298
 20
655.2
 30
0.0
 11
216.7298
 21
655.0
 31
0.0
  0
LINE
  5
8A5
330
1D
100
AcDbEntity
  8
0
100
AcDbLine
 10
216.7298
 20
655.2
 30
0.0
 11
216.7298
 21
655.7
 31
0.0
  0
LINE
  5
8A6
330
1D
100
AcDbEntity
  8
0
100
AcDbLine
 10
209.9798
 20
680.0
 30
0.0
 11
209.9798
 21
974.0
 31
0.0
  0
LINE
  5
8A7
330
1D
100
AcDbEntity
  8
0
100
AcDbLine
 10
209.9798
 20
547.5
 30
0.0
 11
209.9798
 21
640.0
 31
0.0
  0
LINE
  5
8A8
330
1D
100
AcDbEntity
  8
0
100
AcDbLine
 10
196.2108
 20
974.0
 30
0.0
 11
199.0048
 21
974.0
 31
0.0
  0
LINE
  5
8A9
330
1D
100
AcDbEntity
  8
0
100
AcDbLine
 10
193.5168
 20
974.0
 30
0.0
 11
196.2108
 21
974.0
 31
0.0
  0
LINE
  5
8AA
330
1D
100
AcDbEntity
  8
0
100
AcDbLine
 10
191.2218
 20
974.0
 30
0.0
 11
193.5168
 21
974.0
 31
0.0
  0
LINE
  5
8AB
330
1D
100
AcDbEntity
  8
0
100
AcDbLine
 10
189.5258
 20
974.0
 30
0.0
 11
191.2218
 21
974.0
 31
0.0
  0
LINE
  5
8AC
330
1D
100
AcDbEntity
  8
0
100
AcDbLine
 10
188.4288
 20
974.0
 30
0.0
 11
189.5258
 21
974.0
 31
0.0
  0
LINE
  5
8AD
330
1D
100
AcDbEntity
  8
0
100
AcDbLine
 10
188.0298
 20
1053.0
 30
0.0
 11
189.0268
 21
1054.0
 31
0.0
  0
LINE
  5
8AE
330
1D
100
AcDbEntity
  8
0
100
AcDbLine
 10
188.0298
 20
1053.0
 30
0.0
 11
188.0298
 21
976.0
 31
0.0
  0
LINE
  5
8AF
330
1D
100
AcDbEntity
  8
0
100
AcDbLine
 10
188.0298
 20
1053.0
 30
0.0
 11
188.4288
 21
1053.0
 31
0.0
  0
LINE
  5
8B0
330
1D
100
AcDbEntity
  8
0
100
AcDbLine
 10
188.4288
 20
1053.0
 30
0.0
 11
189.5258
 21
1053.0
 31
0.0
  0
LINE
  5
8B1
330
1D
100
AcDbEntity
  8
0
100
AcDbLine
 10
188.4288
 20
976.0
 30
0.0
 11
189.5258
 21
976.0
 31
0.0
  0
LINE
  5
8B2
330
1D
100
AcDbEntity
  8
0
100
AcDbLine
 10
199.0048
 20
975.0
 30
0.0
 11
201.5988
 21
975.0
 31
0.0
  0
LINE
  5
8B3
330
1D
100
AcDbEntity
  8
0
100
AcDbLine
 10
201.5988
 20
975.0
 30
0.0
 11
203.9938
 21
975.0
 31
0.0
  0
LINE
  5
8B4
330
1D
100
AcDbEntity
  8
0
100
AcDbLine
 10
203.9938
 20
975.0
 30
0.0
 11
206.0888
 21
975.0
 31
0.0
  0
LINE
  5
8B5
330
1D
100
AcDbEntity
  8
0
100
AcDbLine
 10
206.0888
 20
975.0
 30
0.0
 11
207.6858
 21
975.0
 31
0.0
  0
LINE
  5
8B6
330
1D
100
AcDbEntity
  8
0
100
AcDbLine
 10
207.6858
 20
975.0
 30
0.0
 11
208.5838
 21
975.0
 31
0.0
  0
LINE
  5
8B7
330
1D
100
AcDbEntity
  8
0
100
AcDbLine
 10
208.9828
 20
975.0
 30
0.0
 11
209.9798
 21
974.0
 31
0.0
  0
LINE
  5
8B8
330
1D
100
AcDbEntity
  8
0
100
AcDbLine
 10
208.9828
 20
975.0
 30
0.0
 11
209.9798
 21
976.0
 31
0.0
  0
LINE
  5
8B9
330
1D
100
AcDbEntity
  8
0
100
AcDbLine
 10
208.5838
 20
975.0
 30
0.0
 11
208.9828
 21
975.0
 31
0.0
  0
LINE
  5
8BA
330
1D
100
AcDbEntity
  8
0
100
AcDbLine
 10
196.4108
 20
975.0
 30
0.0
 11
199.0048
 21
975.0
 31
0.0
  0
LINE
  5
8BB
330
1D
100
AcDbEntity
  8
0
100
AcDbLine
 10
194.0158
 20
975.0
 30
0.0
 11
196.4108
 21
975.0
 31
0.0
  0
LINE
  5
8BC
330
1D
100
AcDbEntity
  8
0
100
AcDbLine
 10
191.9208
 20
975.0
 30
0.0
 11
194.0158
 21
975.0
 31
0.0
  0
LINE
  5
8BD
330
1D
100
AcDbEntity
  8
0
100
AcDbLine
 10
190.3248
 20
975.0
 30
0.0
 11
191.9208
 21
975.0
 31
0.0
  0
LINE
  5
8BE
330
1D
100
AcDbEntity
  8
0
100
AcDbLine
 10
189.4258
 20
1054.0
 30
0.0
 11
190.3248
 21
1054.0
 31
0.0
  0
LINE
  5
8BF
330
1D
100
AcDbEntity
  8
0
100
AcDbLine
 10
189.5258
 20
1053.0
 30
0.0
 11
191.2218
 21
1053.0
 31
0.0
  0
LINE
  5
8C0
330
1D
100
AcDbEntity
  8
0
100
AcDbLine
 10
199.0048
 20
976.0
 30
0.0
 11
201.7988
 21
976.0
 31
0.0
  0
LINE
  5
8C1
330
1D
100
AcDbEntity
  8
0
100
AcDbLine
 10
201.7988
 20
976.0
 30
0.0
 11
204.4928
 21
976.0
 31
0.0
  0
LINE
  5
8C2
330
1D
100
AcDbEntity
  8
0
100
AcDbLine
 10
204.4928
 20
976.0
 30
0.0
 11
206.7878
 21
976.0
 31
0.0
  0
LINE
  5
8C3
330
1D
100
AcDbEntity
  8
0
100
AcDbLine
 10
206.7878
 20
976.0
 30
0.0
 11
208.4838
 21
976.0
 31
0.0
  0
LINE
  5
8C4
330
1D
100
AcDbEntity
  8
0
100
AcDbLine
 10
206.7878
 20
976.0
 30
0.0
 11
253.8818
 21
976.0
 31
0.0
  0
LINE
  5
8C5
330
1D
100
AcDbEntity
  8
0
100
AcDbLine
 10
208.4838
 20
976.0
 30
0.0
 11
209.5808
 21
976.0
 31
0.0
  0
LINE
  5
8C6
330
1D
100
AcDbEntity
  8
0
100
AcDbLine
 10
253.8818
 20
976.0
 30
0.0
 11
253.8818
 21
1029.0
 31
0.0
  0
LINE
  5
8C7
330
1D
100
AcDbEntity
  8
0
100
AcDbLine
 10
209.9798
 20
976.0
 30
0.0
 11
253.8818
 21
976.0
 31
0.0
  0
LINE
  5
8C8
330
1D
100
AcDbEntity
  8
0
100
AcDbLine
 10
209.5808
 20
976.0
 30
0.0
 11
209.9798
 21
976.0
 31
0.0
  0
LINE
  5
8C9
330
1D
100
AcDbEntity
  8
0
100
AcDbLine
 10
196.2108
 20
976.0
 30
0.0
 11
199.0048
 21
976.0
 31
0.0
  0
LINE
  5
8CA
330
1D
100
AcDbEntity
  8
0
100
AcDbLine
 10
193.5168
 20
976.0
 30
0.0
 11
196.2108
 21
976.0
 31
0.0
  0
LINE
  5
8CB
330
1D
100
AcDbEntity
  8
0
100
AcDbLine
 10
190.3248
 20
1054.0
 30
0.0
 11
191.9208
 21
1054.0
 31
0.0
  0
LINE
  5
8CC
330
1D
100
AcDbEntity
  8
0
100
AcDbLine
 10
253.8818
 20
1029.0
 30
0.0
 11
253.8818
 21
976.0
 31
0.0
  0
LINE
  5
8CD
330
1D
100
AcDbEntity
  8
0
100
AcDbLine
 10
206.7878
 20
1029.0
 30
0.0
 11
253.8818
 21
1029.0
 31
0.0
  0
LINE
  5
8CE
330
1D
100
AcDbEntity
  8
0
100
AcDbLine
 10
199.0048
 20
1053.0
 30
0.0
 11
201.7988
 21
1053.0
 31
0.0
  0
LINE
  5
8CF
330
1D
100
AcDbEntity
  8
0
100
AcDbLine
 10
201.7988
 20
1053.0
 30
0.0
 11
204.4928
 21
1053.0
 31
0.0
  0
LINE
  5
8D0
330
1D
100
AcDbEntity
  8
0
100
AcDbLine
 10
204.4928
 20
1053.0
 30
0.0
 11
206.7878
 21
1053.0
 31
0.0
  0
LINE
  5
8D1
330
1D
100
AcDbEntity
  8
0
100
AcDbLine
 10
206.7878
 20
1053.0
 30
0.0
 11
208.4838
 21
1053.0
 31
0.0
  0
LINE
  5
8D2
330
1D
100
AcDbEntity
  8
0
100
AcDbLine
 10
208.4838
 20
1053.0
 30
0.0
 11
209.5808
 21
1053.0
 31
0.0
  0
LINE
  5
8D3
330
1D
100
AcDbEntity
  8
0
100
AcDbLine
 10
209.9798
 20
1053.0
 30
0.0
 11
209.9798
 21
1029.0
 31
0.0
  0
LINE
  5
8D4
330
1D
100
AcDbEntity
  8
0
100
AcDbLine
 10
209.5808
 20
1053.0
 30
0.0
 11
209.9798
 21
1053.0
 31
0.0
  0
LINE
  5
8D5
330
1D
100
AcDbEntity
  8
0
100
AcDbLine
 10
209.9798
 20
1029.0
 30
0.0
 11
209.9798
 21
1053.0
 31
0.0
  0
LINE
  5
8D6
330
1D
100
AcDbEntity
  8
0
100
AcDbLine
 10
196.2108
 20
1053.0
 30
0.0
 11
199.0048
 21
1053.0
 31
0.0
  0
LINE
  5
8D7
330
1D
100
AcDbEntity
  8
0
100
AcDbLine
 10
199.0048
 20
1054.0
 30
0.0
 11
201.5988
 21
1054.0
 31
0.0
  0
LINE
  5
8D8
330
1D
100
AcDbEntity
  8
0
100
AcDbLine
 10
201.5988
 20
1054.0
 30
0.0
 11
203.9938
 21
1054.0
 31
0.0
  0
LINE
  5
8D9
330
1D
100
AcDbEntity
  8
0
100
AcDbLine
 10
203.9938
 20
1054.0
 30
0.0
 11
206.0888
 21
1054.0
 31
0.0
  0
LINE
  5
8DA
330
1D
100
AcDbEntity
  8
0
100
AcDbLine
 10
206.0888
 20
1054.0
 30
0.0
 11
207.6858
 21
1054.0
 31
0.0
  0
LINE
  5
8DB
330
1D
100
AcDbEntity
  8
0
100
AcDbLine
 10
207.6858
 20
1054.0
 30
0.0
 11
208.5838
 21
1054.0
 31
0.0
  0
LINE
  5
8DC
330
1D
100
AcDbEntity
  8
0
100
AcDbLine
 10
208.9828
 20
1054.0
 30
0.0
 11
209.9798
 21
1053.0
 31
0.0
  0
LINE
  5
8DD
330
1D
100
AcDbEntity
  8
0
100
AcDbLine
 10
208.5838
 20
1054.0
 30
0.0
 11
208.9828
 21
1054.0
 31
0.0
  0
LINE
  5
8DE
330
1D
100
AcDbEntity
  8
0
100
AcDbLine
 10
196.4108
 20
1054.0
 30
0.0
 11
199.0048
 21
1054.0
 31
0.0
  0
LINE
  5
8DF
330
1D
100
AcDbEntity
  8
0
100
AcDbLine
 10
194.0158
 20
1054.0
 30
0.0
 11
196.4108
 21
1054.0
 31
0.0
  0
LINE
  5
8E0
330
1D
100
AcDbEntity
  8
0
100
AcDbLine
 10
191.9208
 20
1054.0
 30
0.0
 11
194.0158
 21
1054.0
 31
0.0
  0
LINE
  5
8E1
330
1D
100
AcDbEntity
  8
0
100
AcDbLine
 10
193.5168
 20
1053.0
 30
0.0
 11
196.2108
 21
1053.0
 31
0.0
  0
LINE
  5
8E2
330
1D
100
AcDbEntity
  8
0
100
AcDbLine
 10
191.2218
 20
1053.0
 30
0.0
 11
193.5168
 21
1053.0
 31
0.0
  0
LINE
  5
8E3
330
1D
100
AcDbEntity
  8
0
100
AcDbLine
 10
191.2218
 20
976.0
 30
0.0
 11
193.5168
 21
976.0
 31
0.0
  0
LINE
  5
8E4
330
1D
100
AcDbEntity
  8
0
100
AcDbLine
 10
189.5258
 20
976.0
 30
0.0
 11
191.2218
 21
976.0
 31
0.0
  0
LINE
  5
8E5
330
1D
100
AcDbEntity
  8
0
100
AcDbLine
 10
189.4258
 20
975.0
 30
0.0
 11
190.3248
 21
975.0
 31
0.0
  0
LINE
  5
8E6
330
1D
100
AcDbEntity
  8
0
100
AcDbLine
 10
189.0268
 20
975.0
 30
0.0
 11
189.4258
 21
975.0
 31
0.0
  0
LINE
  5
8EB
330
1D
100
AcDbEntity
  8
0
100
AcDbLine
 10
189.0268
 20
1054.0
 30
0.0
 11
189.4258
 21
1054.0
 31
0.0
  0
LINE
  5
8EC
330
1D
100
AcDbEntity
  8
0
100
AcDbLine
 10
188.0298
 20
976.0
 30
0.0
 11
189.0268
 21
975.0
 31
0.0
  0
LINE
  5
8ED
330
1D
100
AcDbEntity
  8
0
100
AcDbLine
 10
188.0298
 20
976.0
 30
0.0
 11
188.0298
 21
1053.0
 31
0.0
  0
LINE
  5
8EE
330
1D
100
AcDbEntity
  8
0
100
AcDbLine
 10
188.0298
 20
976.0
 30
0.0
 11
188.4288
 21
976.0
 31
0.0
  0
LINE
  5
8EF
330
1D
100
AcDbEntity
  8
0
100
AcDbLine
 10
188.0298
 20
974.0
 30
0.0
 11
189.0268
 21
975.0
 31
0.0
  0
LINE
  5
8F0
330
1D
100
AcDbEntity
  8
0
100
AcDbLine
 10
188.0298
 20
974.0
 30
0.0
 11
188.4288
 21
974.0
 31
0.0
  0
LINE
  5
8F1
330
1D
100
AcDbEntity
  8
0
100
AcDbLine
 10
188.0298
 20
547.5
 30
0.0
 11
188.0298
 21
640.0
 31
0.0
  0
LINE
  5
CE2
330
1D
100
AcDbEntity
  8
0
100
AcDbLine
 10
15.422904572512
 20
850.446911530814
 30
0.0
 11
16.493782193158
 21
851.595357119876
 31
0.0
  0
LINE
  5
CE3
330
1D
100
AcDbEntity
  8
0
100
AcDbLine
 10
15.789104572512
 20
847.780911530814
 30
0.0
 11
17.141896368204
 21
849.231691471238
 31
0.0
  0
LINE
  5
CE4
330
1D
100
AcDbEntity
  8
0
100
AcDbLine
 10
15.579398791998
 20
850.614741255348
 30
0.0
 11
15.686258188898
 21
850.529979493488
 31
0.0
  0
LINE
  5
CE5
330
1D
100
AcDbEntity
  8
0
100
AcDbLine
 10
12.713604572512
 20
852.972911530814
 30
0.0
 11
13.699212658059
 21
854.029911169771
 31
0.0
  0
LINE
  5
CE6
330
1D
100
AcDbEntity
  8
0
100
AcDbLine
 10
12.384504572512
 20
853.279911530814
 30
0.0
 11
12.713604572512
 21
852.972911530814
 31
0.0
  0
LINE
  5
CE7
330
1D
100
AcDbEntity
  8
0
100
AcDbLine
 10
13.228904572512
 20
852.492911530814
 30
0.0
 11
13.558004572512
 21
852.185911530814
 31
0.0
  0
LINE
  5
CE8
330
1D
100
AcDbEntity
  8
0
100
AcDbLine
 10
13.228904572512
 20
852.492911530814
 30
0.0
 11
14.66468194743
 21
854.03273318543
 31
0.0
  0
LINE
  5
CE9
330
1D
100
AcDbEntity
  8
0
100
AcDbLine
 10
13.228904572512
 20
852.492911530814
 30
0.0
 11
13.917414441468
 21
853.231314589781
 31
0.0
  0
LINE
  5
CEA
330
1D
100
AcDbEntity
  8
0
100
AcDbLine
 10
13.228904572512
 20
852.492911530814
 30
0.0
 11
13.917414441468
 21
853.231314589781
 31
0.0
  0
LINE
  5
CEB
330
1D
100
AcDbEntity
  8
0
100
AcDbLine
 10
13.558004572512
 20
852.185911530814
 30
0.0
 11
14.325904572512
 21
851.469911530814
 31
0.0
  0
LINE
  5
CEC
330
1D
100
AcDbEntity
  8
0
100
AcDbLine
 10
11.810606876988
 20
853.815021245614
 30
0.0
 11
12.384504572512
 21
853.279911530814
 31
0.0
  0
LINE
  5
CED
330
1D
100
AcDbEntity
  8
0
100
AcDbLine
 10
13.492896788859
 20
853.808651013272
 30
0.0
 11
13.917414441468
 21
853.231314589781
 31
0.0
  0
LINE
  5
CEE
330
1D
100
AcDbEntity
  8
0
100
AcDbLine
 10
13.492896788859
 20
853.808651013272
 30
0.0
 11
13.917414441468
 21
853.231314589781
 31
0.0
  0
LINE
  5
CEF
330
1D
100
AcDbEntity
  8
0
100
AcDbLine
 10
11.616604572512
 20
853.995911530814
 30
0.0
 11
12.384504572512
 21
853.279911530814
 31
0.0
  0
LINE
  5
CF0
330
1D
100
AcDbEntity
  8
0
100
AcDbLine
 10
13.621499186172
 20
853.946568598894
 30
0.0
 11
13.848304572512
 21
853.697911530814
 31
0.0
  0
LINE
  5
CF1
330
1D
100
AcDbEntity
  8
0
100
AcDbLine
 10
15.093804572512
 20
850.753911530814
 30
0.0
 11
15.422904572512
 21
850.446911530814
 31
0.0
  0
LINE
  5
CF2
330
1D
100
AcDbEntity
  8
0
100
AcDbLine
 10
14.325904572512
 20
851.469911530814
 30
0.0
 11
15.093804572512
 21
850.753911530814
 31
0.0
  0
LINE
  5
CF3
330
1D
100
AcDbEntity
  8
0
100
AcDbLine
 10
16.003363252486
 20
851.069415165026
 30
0.0
 11
16.545104572512
 21
850.633911530814
 31
0.0
  0
LINE
  5
CF4
330
1D
100
AcDbEntity
  8
0
100
AcDbLine
 10
14.41906808973
 20
853.769320804537
 30
0.0
 11
14.66468194743
 21
854.03273318543
 31
0.0
  0
LINE
  5
CF5
330
1D
100
AcDbEntity
  8
0
100
AcDbLine
 10
15.307404572512
 20
853.256911530814
 30
0.0
 11
16.143604572512
 21
852.116911530814
 31
0.0
  0
LINE
  5
CF6
330
1D
100
AcDbEntity
  8
0
100
AcDbLine
 10
13.848304572512
 20
853.697911530814
 30
0.0
 11
13.904304572512
 21
853.693911530814
 31
0.0
  0
LINE
  5
CF7
330
1D
100
AcDbEntity
  8
0
100
AcDbLine
 10
15.5994065354
 20
850.636198239987
 30
0.0
 11
16.019104572512
 21
850.122911530814
 31
0.0
  0
LINE
  5
CF8
330
1D
100
AcDbEntity
  8
0
100
AcDbLine
 10
16.135704572512
 20
853.200911530814
 30
0.0
 11
16.464804572512
 21
852.893911530814
 31
0.0
  0
LINE
  5
CF9
330
1D
100
AcDbEntity
  8
0
100
AcDbLine
 10
16.135704572512
 20
853.200911530814
 30
0.0
 11
17.462129915393
 21
854.623026209281
 31
0.0
  0
LINE
  5
CFA
330
1D
100
AcDbEntity
  8
0
100
AcDbLine
 10
16.233429757502
 20
851.316146311316
 30
0.0
 11
16.513604572512
 21
850.707911530814
 31
0.0
  0
LINE
  5
CFB
330
1D
100
AcDbEntity
  8
0
100
AcDbLine
 10
16.464804572512
 20
852.893911530814
 30
0.0
 11
17.232704572512
 21
852.177911530814
 31
0.0
  0
LINE
  5
CFC
330
1D
100
AcDbEntity
  8
0
100
AcDbLine
 10
16.30123112994
 20
851.388858809557
 30
0.0
 11
16.563704572512
 21
851.096911530814
 31
0.0
  0
LINE
  5
CFD
330
1D
100
AcDbEntity
  8
0
100
AcDbLine
 10
16.143604572512
 20
852.116911530814
 30
0.0
 11
16.704904572512
 21
851.280911530814
 31
0.0
  0
LINE
  5
CFE
330
1D
100
AcDbEntity
  8
0
100
AcDbLine
 10
16.019104572512
 20
850.122911530814
 30
0.0
 11
16.867604572512
 21
849.086911530814
 31
0.0
  0
LINE
  5
CFF
330
1D
100
AcDbEntity
  8
0
100
AcDbLine
 10
10.611336585862
 20
854.933314198316
 30
0.0
 11
10.713514572512
 21
854.837911530814
 31
0.0
  0
LINE
  5
D00
330
1D
100
AcDbEntity
  8
0
100
AcDbLine
 10
10.611336585862
 20
854.933314198316
 30
0.0
 11
10.713514572512
 21
854.837911530814
 31
0.0
  0
LINE
  5
D01
330
1D
100
AcDbEntity
  8
0
100
AcDbLine
 10
10.713514572512
 20
854.837911530814
 30
0.0
 11
11.481404572512
 21
854.121911530814
 31
0.0
  0
LINE
  5
D02
330
1D
100
AcDbEntity
  8
0
100
AcDbLine
 10
9.616484572512
 20
855.860911530814
 30
0.0
 11
9.945594572512
 21
855.554911530814
 31
0.0
  0
LINE
  5
D03
330
1D
100
AcDbEntity
  8
0
100
AcDbLine
 10
9.616484572512
 20
855.860911530814
 30
0.0
 11
10.94078064132
 21
857.281123354683
 31
0.0
  0
LINE
  5
D04
330
1D
100
AcDbEntity
  8
0
100
AcDbLine
 10
9.616484572512
 20
855.860911530814
 30
0.0
 11
10.94078064132
 21
857.281123354683
 31
0.0
  0
LINE
  5
D05
330
1D
100
AcDbEntity
  8
0
100
AcDbLine
 10
9.945594572512
 20
855.554911530814
 30
0.0
 11
10.51961446771
 21
855.018954315405
 31
0.0
  0
LINE
  5
D06
330
1D
100
AcDbEntity
  8
0
100
AcDbLine
 10
10.519574572512
 20
855.018911530814
 30
0.0
 11
10.848684572512
 21
854.711911530814
 31
0.0
  0
LINE
  5
D07
330
1D
100
AcDbEntity
  8
0
100
AcDbLine
 10
10.519574572512
 20
855.018911530814
 30
0.0
 11
11.896581260999
 21
856.495647354193
 31
0.0
  0
LINE
  5
D08
330
1D
100
AcDbEntity
  8
0
100
AcDbLine
 10
10.519574572512
 20
855.018911530814
 30
0.0
 11
10.611336585862
 21
854.933314198316
 31
0.0
  0
LINE
  5
D09
330
1D
100
AcDbEntity
  8
0
100
AcDbLine
 10
10.519574572512
 20
855.018911530814
 30
0.0
 11
10.611336585862
 21
854.933314198316
 31
0.0
  0
LINE
  5
D0A
330
1D
100
AcDbEntity
  8
0
100
AcDbLine
 10
11.481404572512
 20
854.121911530814
 30
0.0
 11
11.810504572512
 21
853.814911530814
 31
0.0
  0
LINE
  5
D0B
330
1D
100
AcDbEntity
  8
0
100
AcDbLine
 10
13.121204572512
 20
856.011911530814
 30
0.0
 11
13.450304572512
 21
855.704911530814
 31
0.0
  0
LINE
  5
D0C
330
1D
100
AcDbEntity
  8
0
100
AcDbLine
 10
13.450304572512
 20
855.704911530814
 30
0.0
 11
14.323671118285
 21
856.641283405109
 31
0.0
  0
LINE
  5
D0D
330
1D
100
AcDbEntity
  8
0
100
AcDbLine
 10
13.450304572512
 20
855.704911530814
 30
0.0
 11
14.323671118285
 21
856.641283405109
 31
0.0
  0
LINE
  5
D0E
330
1D
100
AcDbEntity
  8
0
100
AcDbLine
 10
13.898904572512
 20
854.842911530814
 30
0.0
 11
14.398604572512
 21
854.353911530814
 31
0.0
  0
LINE
  5
D0F
330
1D
100
AcDbEntity
  8
0
100
AcDbLine
 10
13.776704572512
 20
854.829911530814
 30
0.0
 11
14.085504572512
 21
854.256911530814
 31
0.0
  0
LINE
  5
D10
330
1D
100
AcDbEntity
  8
0
100
AcDbLine
 10
13.776704572512
 20
854.829911530814
 30
0.0
 11
13.898904572512
 21
854.842911530814
 31
0.0
  0
LINE
  5
D11
330
1D
100
AcDbEntity
  8
0
100
AcDbLine
 10
13.687004572512
 20
854.049911530814
 30
0.0
 11
13.904304572512
 21
853.693911530814
 31
0.0
  0
LINE
  5
D12
330
1D
100
AcDbEntity
  8
0
100
AcDbLine
 10
13.180004572512
 20
854.787911530814
 30
0.0
 11
13.687004572512
 21
854.049911530814
 31
0.0
  0
LINE
  5
D13
330
1D
100
AcDbEntity
  8
0
100
AcDbLine
 10
12.553304572512
 20
855.639911530814
 30
0.0
 11
13.180004572512
 21
854.787911530814
 31
0.0
  0
LINE
  5
D14
330
1D
100
AcDbEntity
  8
0
100
AcDbLine
 10
11.304204572512
 20
857.103911530814
 30
0.0
 11
11.788611607874
 21
856.379858043988
 31
0.0
  0
LINE
  5
D15
330
1D
100
AcDbEntity
  8
0
100
AcDbLine
 10
11.304204572512
 20
857.103911530814
 30
0.0
 11
11.310904572512
 21
857.194911530814
 31
0.0
  0
LINE
  5
D16
330
1D
100
AcDbEntity
  8
0
100
AcDbLine
 10
11.256304572512
 20
857.750911530814
 30
0.0
 11
11.585404572512
 21
857.443911530814
 31
0.0
  0
LINE
  5
D17
330
1D
100
AcDbEntity
  8
0
100
AcDbLine
 10
11.256304572512
 20
857.750911530814
 30
0.0
 11
12.599447032803
 21
859.190949312288
 31
0.0
  0
LINE
  5
D18
330
1D
100
AcDbEntity
  8
0
100
AcDbLine
 10
10.907329768675
 20
857.326511070277
 30
0.0
 11
10.940706732052
 21
857.281044092336
 31
0.0
  0
LINE
  5
D19
330
1D
100
AcDbEntity
  8
0
100
AcDbLine
 10
12.353304572512
 20
856.727911530814
 30
0.0
 11
13.121204572512
 21
856.011911530814
 31
0.0
  0
LINE
  5
D1A
330
1D
100
AcDbEntity
  8
0
100
AcDbLine
 10
11.585404572512
 20
857.443911530814
 30
0.0
 11
12.353304572512
 21
856.727911530814
 31
0.0
  0
LINE
  5
D1B
330
1D
100
AcDbEntity
  8
0
100
AcDbLine
 10
11.310904572512
 20
857.194911530814
 30
0.0
 11
11.822704572512
 21
856.591911530814
 31
0.0
  0
LINE
  5
D1C
330
1D
100
AcDbEntity
  8
0
100
AcDbLine
 10
11.822704572512
 20
856.591911530814
 30
0.0
 11
12.553304572512
 21
855.639911530814
 31
0.0
  0
LINE
  5
D1D
330
1D
100
AcDbEntity
  8
0
100
AcDbLine
 10
10.892294572512
 20
857.346911530814
 30
0.0
 11
11.68606581549
 21
856.269885415376
 31
0.0
  0
LINE
  5
D1E
330
1D
100
AcDbEntity
  8
0
100
AcDbLine
 10
7.607124572512
 20
861.153911530814
 30
0.0
 11
8.375546914657
 21
861.977773278649
 31
0.0
  0
LINE
  5
D1F
330
1D
100
AcDbEntity
  8
0
100
AcDbLine
 10
5.606504572512
 20
863.018911530814
 30
0.0
 11
7.607124572512
 21
861.153911530814
 31
0.0
  0
LINE
  5
D20
330
1D
100
AcDbEntity
  8
0
100
AcDbLine
 10
7.702154572512
 20
861.064911530814
 30
0.0
 11
8.031264572512
 21
860.757911530814
 31
0.0
  0
LINE
  5
D21
330
1D
100
AcDbEntity
  8
0
100
AcDbLine
 10
7.702154572512
 20
861.064911530814
 30
0.0
 11
8.97269440539
 21
862.427501647629
 31
0.0
  0
LINE
  5
D22
330
1D
100
AcDbEntity
  8
0
100
AcDbLine
 10
8.031264572512
 20
860.757911530814
 30
0.0
 11
8.799184572512
 21
860.041911530814
 31
0.0
  0
LINE
  5
D23
330
1D
100
AcDbEntity
  8
0
100
AcDbLine
 10
8.799184572512
 20
860.041911530814
 30
0.0
 11
9.567104572512
 21
859.325911530814
 31
0.0
  0
LINE
  5
D24
330
1D
100
AcDbEntity
  8
0
100
AcDbLine
 10
8.799184572512
 20
860.041911530814
 30
0.0
 11
9.252883118486
 21
859.618888092282
 31
0.0
  0
LINE
  5
D25
330
1D
100
AcDbEntity
  8
0
100
AcDbLine
 10
9.252883118486
 20
859.618888092282
 30
0.0
 11
10.076864572512
 21
858.290911530814
 31
0.0
  0
LINE
  5
D26
330
1D
100
AcDbEntity
  8
0
100
AcDbLine
 10
9.896214572512
 20
859.018911530814
 30
0.0
 11
10.656034951998
 21
859.833771142655
 31
0.0
  0
LINE
  5
D27
330
1D
100
AcDbEntity
  8
0
100
AcDbLine
 10
9.567104572512
 20
859.325911530814
 30
0.0
 11
9.896214572512
 21
859.018911530814
 31
0.0
  0
LINE
  5
D28
330
1D
100
AcDbEntity
  8
0
100
AcDbLine
 10
10.076864572512
 20
858.290911530814
 30
0.0
 11
10.357854572512
 21
858.072911530814
 31
0.0
  0
LINE
  5
D29
330
1D
100
AcDbEntity
  8
0
100
AcDbLine
 10
10.298804572512
 20
860.480911530814
 30
0.0
 11
10.781264572512
 21
859.606911530814
 31
0.0
  0
LINE
  5
D2A
330
1D
100
AcDbEntity
  8
0
100
AcDbLine
 10
9.461504572512
 20
861.767911530814
 30
0.0
 11
10.298804572512
 21
860.480911530814
 31
0.0
  0
LINE
  5
D2B
330
1D
100
AcDbEntity
  8
0
100
AcDbLine
 10
10.697824572512
 20
859.397911530814
 30
0.0
 11
10.853814572512
 21
859.315911530814
 31
0.0
  0
LINE
  5
D2C
330
1D
100
AcDbEntity
  8
0
100
AcDbLine
 10
10.4771766305
 20
859.641956831845
 30
0.0
 11
10.697824572512
 21
859.397911530814
 31
0.0
  0
LINE
  5
D2D
330
1D
100
AcDbEntity
  8
0
100
AcDbLine
 10
10.781264572512
 20
859.606911530814
 30
0.0
 11
10.853814572512
 21
859.315911530814
 31
0.0
  0
LINE
  5
D2E
330
1D
100
AcDbEntity
  8
0
100
AcDbLine
 10
4.509474572512
 20
864.041911530814
 30
0.0
 11
4.838574572512
 21
863.734911530814
 31
0.0
  0
LINE
  5
D2F
330
1D
100
AcDbEntity
  8
0
100
AcDbLine
 10
4.509474572512
 20
864.041911530814
 30
0.0
 11
5.735380009101
 21
865.356618078811
 31
0.0
  0
LINE
  5
D30
330
1D
100
AcDbEntity
  8
0
100
AcDbLine
 10
4.838574572512
 20
863.734911530814
 30
0.0
 11
5.606504572512
 21
863.018911530814
 31
0.0
  0
LINE
  5
D31
330
1D
100
AcDbEntity
  8
0
100
AcDbLine
 10
6.001154572512
 20
864.942911530814
 30
0.0
 11
6.424223087559
 21
864.284018971309
 31
0.0
  0
LINE
  5
D32
330
1D
100
AcDbEntity
  8
0
100
AcDbLine
 10
5.563664572512
 20
865.623911530814
 30
0.0
 11
6.001154572512
 21
864.942911530814
 31
0.0
  0
LINE
  5
D33
330
1D
100
AcDbEntity
  8
0
100
AcDbLine
 10
8.332024572512
 20
862.066911530814
 30
0.0
 11
8.451974210687
 21
861.86905540882
 31
0.0
  0
LINE
  5
D34
330
1D
100
AcDbEntity
  8
0
100
AcDbLine
 10
8.332024572512
 20
862.066911530814
 30
0.0
 11
8.451313341794
 21
861.868346660145
 31
0.0
  0
LINE
  5
D35
330
1D
100
AcDbEntity
  8
0
100
AcDbLine
 10
7.722794572512
 20
862.948911530814
 30
0.0
 11
8.332024572512
 21
862.066911530814
 31
0.0
  0
LINE
  5
D36
330
1D
100
AcDbEntity
  8
0
100
AcDbLine
 10
6.590274572512
 20
864.658911530814
 30
0.0
 11
7.098624572512
 21
863.908911530814
 31
0.0
  0
LINE
  5
D37
330
1D
100
AcDbEntity
  8
0
100
AcDbLine
 10
6.303064572512
 20
865.057911530814
 30
0.0
 11
6.336684572512
 21
865.010911530814
 31
0.0
  0
LINE
  5
D38
330
1D
100
AcDbEntity
  8
0
100
AcDbLine
 10
7.098624572512
 20
863.908911530814
 30
0.0
 11
7.722794572512
 21
862.948911530814
 31
0.0
  0
LINE
  5
D39
330
1D
100
AcDbEntity
  8
0
100
AcDbLine
 10
8.369014572512
 20
863.118911530814
 30
0.0
 11
8.396184572512
 21
862.808911530814
 31
0.0
  0
LINE
  5
D3A
330
1D
100
AcDbEntity
  8
0
100
AcDbLine
 10
8.369014572512
 20
863.118911530814
 30
0.0
 11
8.817504572512
 21
862.636911530814
 31
0.0
  0
LINE
  5
D3B
330
1D
100
AcDbEntity
  8
0
100
AcDbLine
 10
8.396184572512
 20
862.808911530814
 30
0.0
 11
8.606694572512
 21
862.398911530814
 31
0.0
  0
LINE
  5
D3C
330
1D
100
AcDbEntity
  8
0
100
AcDbLine
 10
8.606694572512
 20
862.398911530814
 30
0.0
 11
8.738028629317
 21
862.175834396468
 31
0.0
  0
LINE
  5
D3D
330
1D
100
AcDbEntity
  8
0
100
AcDbLine
 10
4.592844572512
 20
869.102911530814
 30
0.0
 11
6.078584572512
 21
867.717911530814
 31
0.0
  0
LINE
  5
D3E
330
1D
100
AcDbEntity
  8
0
100
AcDbLine
 10
2.722824572512
 20
870.847911530814
 30
0.0
 11
3.432694572512
 21
870.184911530814
 31
0.0
  0
LINE
  5
D3F
330
1D
100
AcDbEntity
  8
0
100
AcDbLine
 10
3.432694572512
 20
870.184911530814
 30
0.0
 11
4.592844572512
 21
869.102911530814
 31
0.0
  0
LINE
  5
D40
330
1D
100
AcDbEntity
  8
0
100
AcDbLine
 10
2.588209648419
 20
870.973567738466
 30
0.0
 11
5.382714572512
 21
865.906911530814
 31
0.0
  0
LINE
  5
D41
330
1D
100
AcDbEntity
  8
0
100
AcDbLine
 10
2.041584572512
 20
871.471911530814
 30
0.0
 11
2.276904572512
 21
871.263911530814
 31
0.0
  0
LINE
  5
D42
330
1D
100
AcDbEntity
  8
0
100
AcDbLine
 10
1.921974572512
 20
871.598911530814
 30
0.0
 11
2.041584572512
 21
871.471911530814
 31
0.0
  0
LINE
  5
D43
330
1D
100
AcDbEntity
  8
0
100
AcDbLine
 10
1.999934572512
 20
871.522911530814
 30
0.0
 11
2.251454572512
 21
871.287911530814
 31
0.0
  0
LINE
  5
D44
330
1D
100
AcDbEntity
  8
0
100
AcDbLine
 10
1.180128572512
 20
872.947911530814
 30
0.0
 11
1.308559572512
 21
873.863911530814
 31
0.0
  0
LINE
  5
D45
330
1D
100
AcDbEntity
  8
0
100
AcDbLine
 10
1.180128572512
 20
872.947911530814
 30
0.0
 11
1.921974572512
 21
871.598911530814
 31
0.0
  0
LINE
  5
D46
330
1D
100
AcDbEntity
  8
0
100
AcDbLine
 10
1.308559572512
 20
873.863911530814
 30
0.0
 11
11.551704572512
 21
884.479911530814
 31
0.0
  0
LINE
  5
D47
330
1D
100
AcDbEntity
  8
0
100
AcDbLine
 10
2.276904572512
 20
871.263911530814
 30
0.0
 11
2.536261288296
 21
871.022058899241
 31
0.0
  0
LINE
  5
D48
330
1D
100
AcDbEntity
  8
0
100
AcDbLine
 10
2.276904572512
 20
871.263911530814
 30
0.0
 11
2.536261288296
 21
871.022058899241
 31
0.0
  0
LINE
  5
D49
330
1D
100
AcDbEntity
  8
0
100
AcDbLine
 10
2.251454572512
 20
871.287911530814
 30
0.0
 11
2.722824572512
 21
870.847911530814
 31
0.0
  0
LINE
  5
D4A
330
1D
100
AcDbEntity
  8
0
100
AcDbLine
 10
2.588209648419
 20
870.973567738466
 30
0.0
 11
5.382714572512
 21
865.906911530814
 31
0.0
  0
LINE
  5
D4B
330
1D
100
AcDbEntity
  8
0
100
AcDbLine
 10
7.878944572512
 20
866.039911530814
 30
0.0
 11
9.977824572512
 21
864.082911530814
 31
0.0
  0
LINE
  5
D4C
330
1D
100
AcDbEntity
  8
0
100
AcDbLine
 10
6.078584572512
 20
867.717911530814
 30
0.0
 11
7.878944572512
 21
866.039911530814
 31
0.0
  0
LINE
  5
D4D
330
1D
100
AcDbEntity
  8
0
100
AcDbLine
 10
5.382714572512
 20
865.906911530814
 30
0.0
 11
5.462644572512
 21
865.781911530814
 31
0.0
  0
LINE
  5
D4E
330
1D
100
AcDbEntity
  8
0
100
AcDbLine
 10
5.382714572512
 20
865.906911530814
 30
0.0
 11
5.563664572512
 21
865.623911530814
 31
0.0
  0
LINE
  5
D4F
330
1D
100
AcDbEntity
  8
0
100
AcDbLine
 10
9.977824572512
 20
864.082911530814
 30
0.0
 11
12.360904572512
 21
861.861911530814
 31
0.0
  0
LINE
  5
D50
330
1D
100
AcDbEntity
  8
0
100
AcDbLine
 10
11.551704572512
 20
884.479911530814
 30
0.0
 11
12.151504572512
 21
884.679911530814
 31
0.0
  0
LINE
  5
D51
330
1D
100
AcDbEntity
  8
0
100
AcDbLine
 10
8.817504572512
 20
862.636911530814
 30
0.0
 11
9.461504572512
 21
861.767911530814
 31
0.0
  0
LINE
  5
D52
330
1D
100
AcDbEntity
  8
0
100
AcDbLine
 10
12.560004572512
 20
859.238911530814
 30
0.0
 11
12.622504572512
 21
859.164911530814
 31
0.0
  0
LINE
  5
D53
330
1D
100
AcDbEntity
  8
0
100
AcDbLine
 10
12.498204572512
 20
859.310911530814
 30
0.0
 11
12.560004572512
 21
859.238911530814
 31
0.0
  0
LINE
  5
D54
330
1D
100
AcDbEntity
  8
0
100
AcDbLine
 10
12.622504572512
 20
859.164911530814
 30
0.0
 11
12.674504572512
 21
859.100911530814
 31
0.0
  0
LINE
  5
D55
330
1D
100
AcDbEntity
  8
0
100
AcDbLine
 10
12.745204572512
 20
859.014911530814
 30
0.0
 11
13.334104572512
 21
858.248911530814
 31
0.0
  0
LINE
  5
D56
330
1D
100
AcDbEntity
  8
0
100
AcDbLine
 10
12.685304572512
 20
859.088911530814
 30
0.0
 11
12.745204572512
 21
859.014911530814
 31
0.0
  0
LINE
  5
D57
330
1D
100
AcDbEntity
  8
0
100
AcDbLine
 10
13.334104572512
 20
858.248911530814
 30
0.0
 11
14.157404572512
 21
856.955911530814
 31
0.0
  0
LINE
  5
D58
330
1D
100
AcDbEntity
  8
0
100
AcDbLine
 10
11.891204572512
 20
859.334911530814
 30
0.0
 11
12.196319160447
 21
858.758739487849
 31
0.0
  0
LINE
  5
D59
330
1D
100
AcDbEntity
  8
0
100
AcDbLine
 10
11.788304572512
 20
859.944911530814
 30
0.0
 11
11.929404572512
 21
859.872911530814
 31
0.0
  0
LINE
  5
D5A
330
1D
100
AcDbEntity
  8
0
100
AcDbLine
 10
12.437304572512
 20
859.380911530814
 30
0.0
 11
12.498204572512
 21
859.310911530814
 31
0.0
  0
LINE
  5
D5B
330
1D
100
AcDbEntity
  8
0
100
AcDbLine
 10
12.377404572512
 20
859.447911530814
 30
0.0
 11
12.437304572512
 21
859.380911530814
 31
0.0
  0
LINE
  5
D5C
330
1D
100
AcDbEntity
  8
0
100
AcDbLine
 10
12.318704572512
 20
859.510911530814
 30
0.0
 11
12.377404572512
 21
859.447911530814
 31
0.0
  0
LINE
  5
D5D
330
1D
100
AcDbEntity
  8
0
100
AcDbLine
 10
12.262004572512
 20
859.570911530814
 30
0.0
 11
12.318704572512
 21
859.510911530814
 31
0.0
  0
LINE
  5
D5E
330
1D
100
AcDbEntity
  8
0
100
AcDbLine
 10
12.207104572512
 20
859.627911530814
 30
0.0
 11
12.262004572512
 21
859.570911530814
 31
0.0
  0
LINE
  5
D5F
330
1D
100
AcDbEntity
  8
0
100
AcDbLine
 10
12.154304572512
 20
859.679911530814
 30
0.0
 11
12.207104572512
 21
859.627911530814
 31
0.0
  0
LINE
  5
D60
330
1D
100
AcDbEntity
  8
0
100
AcDbLine
 10
12.103704572512
 20
859.727911530814
 30
0.0
 11
12.154304572512
 21
859.679911530814
 31
0.0
  0
LINE
  5
D61
330
1D
100
AcDbEntity
  8
0
100
AcDbLine
 10
12.055904572512
 20
859.770911530814
 30
0.0
 11
12.103704572512
 21
859.727911530814
 31
0.0
  0
LINE
  5
D62
330
1D
100
AcDbEntity
  8
0
100
AcDbLine
 10
12.010704572512
 20
859.809911530814
 30
0.0
 11
12.055904572512
 21
859.770911530814
 31
0.0
  0
LINE
  5
D63
330
1D
100
AcDbEntity
  8
0
100
AcDbLine
 10
12.151504572512
 20
884.679911530814
 30
0.0
 11
12.635304572512
 21
884.502911530814
 31
0.0
  0
LINE
  5
D64
330
1D
100
AcDbEntity
  8
0
100
AcDbLine
 10
12.360904572512
 20
861.861911530814
 30
0.0
 11
15.206604572512
 21
859.208911530814
 31
0.0
  0
LINE
  5
D65
330
1D
100
AcDbEntity
  8
0
100
AcDbLine
 10
11.929404572512
 20
859.872911530814
 30
0.0
 11
11.969704572512
 21
859.840911530814
 31
0.0
  0
LINE
  5
D66
330
1D
100
AcDbEntity
  8
0
100
AcDbLine
 10
11.969704572512
 20
859.840911530814
 30
0.0
 11
12.010704572512
 21
859.809911530814
 31
0.0
  0
LINE
  5
D67
330
1D
100
AcDbEntity
  8
0
100
AcDbLine
 10
11.707104572512
 20
859.826911530814
 30
0.0
 11
11.788304572512
 21
859.944911530814
 31
0.0
  0
LINE
  5
D68
330
1D
100
AcDbEntity
  8
0
100
AcDbLine
 10
11.707104572512
 20
859.826911530814
 30
0.0
 11
11.891204572512
 21
859.334911530814
 31
0.0
  0
LINE
  5
D69
330
1D
100
AcDbEntity
  8
0
100
AcDbLine
 10
10.357854572512
 20
858.072911530814
 30
0.0
 11
10.892294572512
 21
857.346911530814
 31
0.0
  0
LINE
  5
D6A
330
1D
100
AcDbEntity
  8
0
100
AcDbLine
 10
14.558604572512
 20
855.767911530814
 30
0.0
 11
14.646904572512
 21
855.889911530814
 31
0.0
  0
LINE
  5
D6B
330
1D
100
AcDbEntity
  8
0
100
AcDbLine
 10
14.398604572512
 20
854.353911530814
 30
0.0
 11
15.307404572512
 21
853.256911530814
 31
0.0
  0
LINE
  5
D6C
330
1D
100
AcDbEntity
  8
0
100
AcDbLine
 10
14.085504572512
 20
854.256911530814
 30
0.0
 11
14.418166488765
 21
853.768353868636
 31
0.0
  0
LINE
  5
D6D
330
1D
100
AcDbEntity
  8
0
100
AcDbLine
 10
14.157404572512
 20
856.955911530814
 30
0.0
 11
14.543704572512
 21
856.224911530814
 31
0.0
  0
LINE
  5
D6E
330
1D
100
AcDbEntity
  8
0
100
AcDbLine
 10
15.206604572512
 20
859.208911530814
 30
0.0
 11
18.064704572512
 21
856.544911530814
 31
0.0
  0
LINE
  5
D6F
330
1D
100
AcDbEntity
  8
0
100
AcDbLine
 10
14.543704572512
 20
856.224911530814
 30
0.0
 11
14.646904572512
 21
855.889911530814
 31
0.0
  0
LINE
  5
D70
330
1D
100
AcDbEntity
  8
0
100
AcDbLine
 10
14.249704572512
 20
856.000911530814
 30
0.0
 11
14.558604572512
 21
855.767911530814
 31
0.0
  0
LINE
  5
D71
330
1D
100
AcDbEntity
  8
0
100
AcDbLine
 10
13.988422941244
 20
856.281850168962
 30
0.0
 11
14.249704572512
 21
856.000911530814
 31
0.0
  0
LINE
  5
D72
330
1D
100
AcDbEntity
  8
0
100
AcDbLine
 10
33.611304572512
 20
828.253911530814
 30
0.0
 11
34.121694465106
 21
828.655985464078
 31
0.0
  0
LINE
  5
D73
330
1D
100
AcDbEntity
  8
0
100
AcDbLine
 10
31.920104572512
 20
829.358911530814
 30
0.0
 11
32.723604572512
 21
828.755911530814
 31
0.0
  0
LINE
  5
D74
330
1D
100
AcDbEntity
  8
0
100
AcDbLine
 10
32.723604572512
 20
828.755911530814
 30
0.0
 11
33.461604572512
 21
828.260911530814
 31
0.0
  0
LINE
  5
D75
330
1D
100
AcDbEntity
  8
0
100
AcDbLine
 10
33.461604572512
 20
828.260911530814
 30
0.0
 11
33.611304572512
 21
828.253911530814
 31
0.0
  0
LINE
  5
D76
330
1D
100
AcDbEntity
  8
0
100
AcDbLine
 10
34.441004572512
 20
830.387911530814
 30
0.0
 11
34.770104572512
 21
830.080911530814
 31
0.0
  0
LINE
  5
D77
330
1D
100
AcDbEntity
  8
0
100
AcDbLine
 10
30.732004572512
 20
830.327911530814
 30
0.0
 11
31.920104572512
 21
829.358911530814
 31
0.0
  0
LINE
  5
D78
330
1D
100
AcDbEntity
  8
0
100
AcDbLine
 10
32.525004572512
 20
830.290911530814
 30
0.0
 11
35.794704572512
 21
826.942911530814
 31
0.0
  0
LINE
  5
D79
330
1D
100
AcDbEntity
  8
0
100
AcDbLine
 10
35.794704572512
 20
826.942911530814
 30
0.0
 11
40.496504572512
 21
822.383911530814
 31
0.0
  0
LINE
  5
D7A
330
1D
100
AcDbEntity
  8
0
100
AcDbLine
 10
34.770104572512
 20
830.080911530814
 30
0.0
 11
36.020981788386
 21
831.422394808952
 31
0.0
  0
LINE
  5
D7B
330
1D
100
AcDbEntity
  8
0
100
AcDbLine
 10
35.965904572512
 20
828.281911530814
 30
0.0
 11
36.295004572512
 21
827.974911530814
 31
0.0
  0
LINE
  5
D7C
330
1D
100
AcDbEntity
  8
0
100
AcDbLine
 10
35.965904572512
 20
828.281911530814
 30
0.0
 11
36.609777390328
 21
828.972422643645
 31
0.0
  0
LINE
  5
D7D
330
1D
100
AcDbEntity
  8
0
100
AcDbLine
 10
35.902304572512
 20
829.395911530814
 30
0.0
 11
36.038004572512
 21
829.386911530814
 31
0.0
  0
LINE
  5
D7E
330
1D
100
AcDbEntity
  8
0
100
AcDbLine
 10
35.902304572512
 20
829.395911530814
 30
0.0
 11
36.057304572512
 21
829.108911530814
 31
0.0
  0
LINE
  5
D7F
330
1D
100
AcDbEntity
  8
0
100
AcDbLine
 10
32.576004572512
 20
832.126911530814
 30
0.0
 11
32.905104572512
 21
831.819911530814
 31
0.0
  0
LINE
  5
D80
330
1D
100
AcDbEntity
  8
0
100
AcDbLine
 10
32.576004572512
 20
832.126911530814
 30
0.0
 11
33.917713689467
 21
833.565806029555
 31
0.0
  0
LINE
  5
D81
330
1D
100
AcDbEntity
  8
0
100
AcDbLine
 10
32.905104572512
 20
831.819911530814
 30
0.0
 11
33.673004572512
 21
831.103911530814
 31
0.0
  0
LINE
  5
D82
330
1D
100
AcDbEntity
  8
0
100
AcDbLine
 10
33.673004572512
 20
831.103911530814
 30
0.0
 11
34.441004572512
 21
830.387911530814
 31
0.0
  0
LINE
  5
D83
330
1D
100
AcDbEntity
  8
0
100
AcDbLine
 10
29.916704572512
 20
831.097911530814
 30
0.0
 11
30.732004572512
 21
830.327911530814
 31
0.0
  0
LINE
  5
D84
330
1D
100
AcDbEntity
  8
0
100
AcDbLine
 10
29.916704572512
 20
831.097911530814
 30
0.0
 11
30.52990054456
 21
832.427205915114
 31
0.0
  0
LINE
  5
D85
330
1D
100
AcDbEntity
  8
0
100
AcDbLine
 10
35.737631260805
 20
831.11852006427
 30
0.0
 11
35.900704572512
 21
830.974911530814
 31
0.0
  0
LINE
  5
D86
330
1D
100
AcDbEntity
  8
0
100
AcDbLine
 10
35.900704572512
 20
830.974911530814
 30
0.0
 11
36.317604572512
 21
830.774911530814
 31
0.0
  0
LINE
  5
D87
330
1D
100
AcDbEntity
  8
0
100
AcDbLine
 10
36.295004572512
 20
827.974911530814
 30
0.0
 11
37.062904572512
 21
827.258911530814
 31
0.0
  0
LINE
  5
D88
330
1D
100
AcDbEntity
  8
0
100
AcDbLine
 10
37.062904572512
 20
827.258911530814
 30
0.0
 11
37.830804572512
 21
826.542911530814
 31
0.0
  0
LINE
  5
D89
330
1D
100
AcDbEntity
  8
0
100
AcDbLine
 10
37.830804572512
 20
826.542911530814
 30
0.0
 11
38.159904572512
 21
826.235911530814
 31
0.0
  0
LINE
  5
D8A
330
1D
100
AcDbEntity
  8
0
100
AcDbLine
 10
36.374905114655
 20
828.720537625424
 30
0.0
 11
36.483976934724
 21
828.837509955626
 31
0.0
  0
LINE
  5
D8B
330
1D
100
AcDbEntity
  8
0
100
AcDbLine
 10
36.057304572512
 20
829.108911530814
 30
0.0
 11
36.374905114655
 21
828.720537625424
 31
0.0
  0
LINE
  5
D8C
330
1D
100
AcDbEntity
  8
0
100
AcDbLine
 10
37.665504572512
 20
829.704911530814
 30
0.0
 11
37.994604572512
 21
829.397911530814
 31
0.0
  0
LINE
  5
D8D
330
1D
100
AcDbEntity
  8
0
100
AcDbLine
 10
37.665504572512
 20
829.704911530814
 30
0.0
 11
39.098649155916
 21
831.241864534189
 31
0.0
  0
LINE
  5
D8E
330
1D
100
AcDbEntity
  8
0
100
AcDbLine
 10
36.496604572512
 20
829.072911530814
 30
0.0
 11
37.510204572512
 21
828.172911530814
 31
0.0
  0
LINE
  5
D8F
330
1D
100
AcDbEntity
  8
0
100
AcDbLine
 10
37.510204572512
 20
828.172911530814
 30
0.0
 11
38.079804572512
 21
827.594911530814
 31
0.0
  0
LINE
  5
D90
330
1D
100
AcDbEntity
  8
0
100
AcDbLine
 10
36.038004572512
 20
829.386911530814
 30
0.0
 11
36.496604572512
 21
829.072911530814
 31
0.0
  0
LINE
  5
D91
330
1D
100
AcDbEntity
  8
0
100
AcDbLine
 10
36.310804572512
 20
830.946911530814
 30
0.0
 11
36.317604572512
 21
830.774911530814
 31
0.0
  0
LINE
  5
D92
330
1D
100
AcDbEntity
  8
0
100
AcDbLine
 10
35.997504572512
 20
831.460911530814
 30
0.0
 11
36.310804572512
 21
830.946911530814
 31
0.0
  0
LINE
  5
D93
330
1D
100
AcDbEntity
  8
0
100
AcDbLine
 10
30.008404572512
 20
832.874911530814
 30
0.0
 11
30.502562889923
 21
832.367942983775
 31
0.0
  0
LINE
  5
D94
330
1D
100
AcDbEntity
  8
0
100
AcDbLine
 10
30.057404572512
 20
833.791911530814
 30
0.0
 11
30.617782952624
 21
834.392880368371
 31
0.0
  0
LINE
  5
D95
330
1D
100
AcDbEntity
  8
0
100
AcDbLine
 10
30.057404572512
 20
833.791911530814
 30
0.0
 11
30.617782952624
 21
834.392880368371
 31
0.0
  0
LINE
  5
D96
330
1D
100
AcDbEntity
  8
0
100
AcDbLine
 10
31.310404572512
 20
833.379911530814
 30
0.0
 11
31.317804572512
 21
833.496911530814
 31
0.0
  0
LINE
  5
D97
330
1D
100
AcDbEntity
  8
0
100
AcDbLine
 10
33.329204572512
 20
833.647911530814
 30
0.0
 11
33.633776233245
 21
833.261301842632
 31
0.0
  0
LINE
  5
D98
330
1D
100
AcDbEntity
  8
0
100
AcDbLine
 10
29.728304572512
 20
834.098911530814
 30
0.0
 11
30.057404572512
 21
833.791911530814
 31
0.0
  0
LINE
  5
D99
330
1D
100
AcDbEntity
  8
0
100
AcDbLine
 10
27.863404572512
 20
835.837911530814
 30
0.0
 11
28.192504572512
 21
835.530911530814
 31
0.0
  0
LINE
  5
D9A
330
1D
100
AcDbEntity
  8
0
100
AcDbLine
 10
27.863404572512
 20
835.837911530814
 30
0.0
 11
28.550271587435
 21
836.574552685561
 31
0.0
  0
LINE
  5
D9B
330
1D
100
AcDbEntity
  8
0
100
AcDbLine
 10
28.960404572512
 20
834.814911530814
 30
0.0
 11
29.728304572512
 21
834.098911530814
 31
0.0
  0
LINE
  5
D9C
330
1D
100
AcDbEntity
  8
0
100
AcDbLine
 10
28.192504572512
 20
835.530911530814
 30
0.0
 11
28.960404572512
 21
834.814911530814
 31
0.0
  0
LINE
  5
D9D
330
1D
100
AcDbEntity
  8
0
100
AcDbLine
 10
28.461504572512
 20
834.457911530814
 30
0.0
 11
30.008404572512
 21
832.874911530814
 31
0.0
  0
LINE
  5
D9E
330
1D
100
AcDbEntity
  8
0
100
AcDbLine
 10
30.648504572512
 20
833.886911530814
 30
0.0
 11
31.310404572512
 21
833.379911530814
 31
0.0
  0
LINE
  5
D9F
330
1D
100
AcDbEntity
  8
0
100
AcDbLine
 10
32.316104572512
 20
834.693911530814
 30
0.0
 11
33.57456859789
 21
836.043531161549
 31
0.0
  0
LINE
  5
DA0
330
1D
100
AcDbEntity
  8
0
100
AcDbLine
 10
31.987004572512
 20
835.000911530814
 30
0.0
 11
32.316104572512
 21
834.693911530814
 31
0.0
  0
LINE
  5
DA1
330
1D
100
AcDbEntity
  8
0
100
AcDbLine
 10
31.219004572512
 20
835.716911530814
 30
0.0
 11
31.987004572512
 21
835.000911530814
 31
0.0
  0
LINE
  5
DA2
330
1D
100
AcDbEntity
  8
0
100
AcDbLine
 10
33.236653947271
 20
835.681139995181
 30
0.0
 11
33.608304572512
 21
835.472911530814
 31
0.0
  0
LINE
  5
DA3
330
1D
100
AcDbEntity
  8
0
100
AcDbLine
 10
30.384916461744
 20
834.143146421993
 30
0.0
 11
30.648504572512
 21
833.886911530814
 31
0.0
  0
LINE
  5
DA4
330
1D
100
AcDbEntity
  8
0
100
AcDbLine
 10
30.917504572512
 20
834.044911530814
 30
0.0
 11
31.317804572512
 21
833.496911530814
 31
0.0
  0
LINE
  5
DA5
330
1D
100
AcDbEntity
  8
0
100
AcDbLine
 10
30.021704572512
 20
835.084911530814
 30
0.0
 11
30.917504572512
 21
834.044911530814
 31
0.0
  0
LINE
  5
DA6
330
1D
100
AcDbEntity
  8
0
100
AcDbLine
 10
29.218804572512
 20
835.919911530814
 30
0.0
 11
30.021704572512
 21
835.084911530814
 31
0.0
  0
LINE
  5
DA7
330
1D
100
AcDbEntity
  8
0
100
AcDbLine
 10
33.608304572512
 20
835.472911530814
 30
0.0
 11
33.773404572512
 21
835.481911530814
 31
0.0
  0
LINE
  5
DA8
330
1D
100
AcDbEntity
  8
0
100
AcDbLine
 10
33.258704572512
 20
833.941911530814
 30
0.0
 11
33.535604572512
 21
833.879911530814
 31
0.0
  0
LINE
  5
DA9
330
1D
100
AcDbEntity
  8
0
100
AcDbLine
 10
33.258704572512
 20
833.941911530814
 30
0.0
 11
33.329204572512
 21
833.647911530814
 31
0.0
  0
LINE
  5
DAA
330
1D
100
AcDbEntity
  8
0
100
AcDbLine
 10
33.535604572512
 20
833.879911530814
 30
0.0
 11
34.383504572512
 21
833.182911530814
 31
0.0
  0
LINE
  5
DAB
330
1D
100
AcDbEntity
  8
0
100
AcDbLine
 10
36.014604572512
 20
834.662911530814
 30
0.0
 11
36.343804572512
 21
834.355911530814
 31
0.0
  0
LINE
  5
DAC
330
1D
100
AcDbEntity
  8
0
100
AcDbLine
 10
36.014604572512
 20
834.662911530814
 30
0.0
 11
37.34130056714
 21
836.085705446461
 31
0.0
  0
LINE
  5
DAD
330
1D
100
AcDbEntity
  8
0
100
AcDbLine
 10
36.343804572512
 20
834.355911530814
 30
0.0
 11
37.111704572512
 21
833.639911530814
 31
0.0
  0
LINE
  5
DAE
330
1D
100
AcDbEntity
  8
0
100
AcDbLine
 10
37.111704572512
 20
833.639911530814
 30
0.0
 11
37.879604572512
 21
832.923911530814
 31
0.0
  0
LINE
  5
DAF
330
1D
100
AcDbEntity
  8
0
100
AcDbLine
 10
36.384804572512
 20
835.746911530814
 30
0.0
 11
36.656668069291
 21
835.351482266216
 31
0.0
  0
LINE
  5
DB0
330
1D
100
AcDbEntity
  8
0
100
AcDbLine
 10
34.383504572512
 20
833.182911530814
 30
0.0
 11
35.251904572512
 21
832.324911530814
 31
0.0
  0
LINE
  5
DB1
330
1D
100
AcDbEntity
  8
0
100
AcDbLine
 10
35.251904572512
 20
832.324911530814
 30
0.0
 11
35.997504572512
 21
831.460911530814
 31
0.0
  0
LINE
  5
DB2
330
1D
100
AcDbEntity
  8
0
100
AcDbLine
 10
37.994604572512
 20
829.397911530814
 30
0.0
 11
38.762504572512
 21
828.681911530814
 31
0.0
  0
LINE
  5
DB3
330
1D
100
AcDbEntity
  8
0
100
AcDbLine
 10
37.879604572512
 20
832.923911530814
 30
0.0
 11
38.208704572512
 21
832.616911530814
 31
0.0
  0
LINE
  5
DB4
330
1D
100
AcDbEntity
  8
0
100
AcDbLine
 10
37.930204572512
 20
831.692911530814
 30
0.0
 11
38.347404572512
 21
831.787911530814
 31
0.0
  0
LINE
  5
DB5
330
1D
100
AcDbEntity
  8
0
100
AcDbLine
 10
37.930204572512
 20
831.692911530814
 30
0.0
 11
38.261404572512
 21
831.161911530814
 31
0.0
  0
LINE
  5
DB6
330
1D
100
AcDbEntity
  8
0
100
AcDbLine
 10
38.159904572512
 20
826.235911530814
 30
0.0
 11
38.736234463021
 21
826.853987310753
 31
0.0
  0
LINE
  5
DB7
330
1D
100
AcDbEntity
  8
0
100
AcDbLine
 10
38.159904572512
 20
826.235911530814
 30
0.0
 11
38.736234463021
 21
826.853987310753
 31
0.0
  0
LINE
  5
DB8
330
1D
100
AcDbEntity
  8
0
100
AcDbLine
 10
38.735983076003
 20
826.853717714764
 30
0.0
 11
38.89247464892
 21
826.65760481009
 31
0.0
  0
LINE
  5
DB9
330
1D
100
AcDbEntity
  8
0
100
AcDbLine
 10
38.534107133117
 20
826.637219086278
 30
0.0
 11
38.816804572512
 21
826.431911530814
 31
0.0
  0
LINE
  5
DBA
330
1D
100
AcDbEntity
  8
0
100
AcDbLine
 10
38.208704572512
 20
832.616911530814
 30
0.0
 11
39.414928210354
 21
833.910506792863
 31
0.0
  0
LINE
  5
DBB
330
1D
100
AcDbEntity
  8
0
100
AcDbLine
 10
38.261404572512
 20
831.161911530814
 30
0.0
 11
38.648090640201
 21
830.758670255019
 31
0.0
  0
LINE
  5
DBC
330
1D
100
AcDbEntity
  8
0
100
AcDbLine
 10
38.762504572512
 20
828.681911530814
 30
0.0
 11
39.530504572512
 21
827.965911530814
 31
0.0
  0
LINE
  5
DBD
330
1D
100
AcDbEntity
  8
0
100
AcDbLine
 10
38.347404572512
 20
831.787911530814
 30
0.0
 11
38.914904572512
 21
831.431911530814
 31
0.0
  0
LINE
  5
DBE
330
1D
100
AcDbEntity
  8
0
100
AcDbLine
 10
38.806254104369
 20
833.257743975975
 30
0.0
 11
39.121404572512
 21
833.066911530814
 31
0.0
  0
LINE
  5
DBF
330
1D
100
AcDbEntity
  8
0
100
AcDbLine
 10
38.608204572512
 20
827.014911530814
 30
0.0
 11
39.005204572512
 21
826.515911530814
 31
0.0
  0
LINE
  5
DC0
330
1D
100
AcDbEntity
  8
0
100
AcDbLine
 10
38.079804572512
 20
827.594911530814
 30
0.0
 11
38.608204572512
 21
827.014911530814
 31
0.0
  0
LINE
  5
DC1
330
1D
100
AcDbEntity
  8
0
100
AcDbLine
 10
26.823216263228
 20
836.388442030213
 30
0.0
 11
28.461504572512
 21
834.457911530814
 31
0.0
  0
LINE
  5
DC2
330
1D
100
AcDbEntity
  8
0
100
AcDbLine
 10
27.867004572512
 20
836.517911530814
 30
0.0
 11
29.012194654754
 21
837.746052331624
 31
0.0
  0
LINE
  5
DC3
330
1D
100
AcDbEntity
  8
0
100
AcDbLine
 10
27.867004572512
 20
836.517911530814
 30
0.0
 11
29.012194654754
 21
837.746052331624
 31
0.0
  0
LINE
  5
DC4
330
1D
100
AcDbEntity
  8
0
100
AcDbLine
 10
27.537904572512
 20
836.824911530814
 30
0.0
 11
27.867004572512
 21
836.517911530814
 31
0.0
  0
LINE
  5
DC5
330
1D
100
AcDbEntity
  8
0
100
AcDbLine
 10
28.367400177306
 20
836.378429413078
 30
0.0
 11
28.550271587435
 21
836.574552685561
 31
0.0
  0
LINE
  5
DC6
330
1D
100
AcDbEntity
  8
0
100
AcDbLine
 10
30.451104572512
 20
836.432911530814
 30
0.0
 11
31.219004572512
 21
835.716911530814
 31
0.0
  0
LINE
  5
DC7
330
1D
100
AcDbEntity
  8
0
100
AcDbLine
 10
28.367400177306
 20
836.378429413078
 30
0.0
 11
28.550271587435
 21
836.574552685561
 31
0.0
  0
LINE
  5
DC8
330
1D
100
AcDbEntity
  8
0
100
AcDbLine
 10
36.149504572512
 20
836.336911530814
 30
0.0
 11
36.250604572512
 21
836.609911530814
 31
0.0
  0
LINE
  5
DC9
330
1D
100
AcDbEntity
  8
0
100
AcDbLine
 10
36.149504572512
 20
836.336911530814
 30
0.0
 11
36.384804572512
 21
835.746911530814
 31
0.0
  0
LINE
  5
DCA
330
1D
100
AcDbEntity
  8
0
100
AcDbLine
 10
36.639904572512
 20
836.567911530814
 30
0.0
 11
37.837004572512
 21
835.744911530814
 31
0.0
  0
LINE
  5
DCB
330
1D
100
AcDbEntity
  8
0
100
AcDbLine
 10
36.250604572512
 20
836.609911530814
 30
0.0
 11
36.639904572512
 21
836.567911530814
 31
0.0
  0
LINE
  5
DCC
330
1D
100
AcDbEntity
  8
0
100
AcDbLine
 10
30.122004572512
 20
836.739911530814
 30
0.0
 11
30.451104572512
 21
836.432911530814
 31
0.0
  0
LINE
  5
DCD
330
1D
100
AcDbEntity
  8
0
100
AcDbLine
 10
30.122004572512
 20
836.739911530814
 30
0.0
 11
31.543915445571
 21
838.264817121071
 31
0.0
  0
LINE
  5
DCE
330
1D
100
AcDbEntity
  8
0
100
AcDbLine
 10
33.008704572512
 20
836.830911530814
 30
0.0
 11
33.601604572512
 21
836.005911530814
 31
0.0
  0
LINE
  5
DCF
330
1D
100
AcDbEntity
  8
0
100
AcDbLine
 10
28.185113562799
 20
836.859062433301
 30
0.0
 11
28.482504572512
 21
836.640911530814
 31
0.0
  0
LINE
  5
DD0
330
1D
100
AcDbEntity
  8
0
100
AcDbLine
 10
28.482504572512
 20
836.640911530814
 30
0.0
 11
29.218804572512
 21
835.919911530814
 31
0.0
  0
LINE
  5
DD1
330
1D
100
AcDbEntity
  8
0
100
AcDbLine
 10
28.065966336603
 20
836.731284894826
 30
0.0
 11
28.342614578125
 21
836.351847713847
 31
0.0
  0
LINE
  5
DD2
330
1D
100
AcDbEntity
  8
0
100
AcDbLine
 10
33.601604572512
 20
836.005911530814
 30
0.0
 11
33.773404572512
 21
835.481911530814
 31
0.0
  0
LINE
  5
DD3
330
1D
100
AcDbEntity
  8
0
100
AcDbLine
 10
60.084404572512
 20
805.790911530814
 30
0.0
 11
60.729322884772
 21
806.482543867452
 31
0.0
  0
LINE
  5
DD4
330
1D
100
AcDbEntity
  8
0
100
AcDbLine
 10
59.563204572512
 20
805.593911530814
 30
0.0
 11
59.892304572512
 21
805.286911530814
 31
0.0
  0
LINE
  5
DD5
330
1D
100
AcDbEntity
  8
0
100
AcDbLine
 10
59.563204572512
 20
805.593911530814
 30
0.0
 11
59.903954724641
 21
805.959243658727
 31
0.0
  0
LINE
  5
DD6
330
1D
100
AcDbEntity
  8
0
100
AcDbLine
 10
59.892304572512
 20
805.286911530814
 30
0.0
 11
60.660304572512
 21
804.570911530814
 31
0.0
  0
LINE
  5
DD7
330
1D
100
AcDbEntity
  8
0
100
AcDbLine
 10
60.660304572512
 20
804.570911530814
 30
0.0
 11
61.428204572512
 21
803.853911530814
 31
0.0
  0
LINE
  5
DD8
330
1D
100
AcDbEntity
  8
0
100
AcDbLine
 10
60.557804572512
 20
805.816911530814
 30
0.0
 11
61.530504572512
 21
804.954911530814
 31
0.0
  0
LINE
  5
DD9
330
1D
100
AcDbEntity
  8
0
100
AcDbLine
 10
60.309750350716
 20
806.032580009081
 30
0.0
 11
60.557804572512
 21
805.816911530814
 31
0.0
  0
LINE
  5
DDA
330
1D
100
AcDbEntity
  8
0
100
AcDbLine
 10
61.757304572512
 20
803.547911530814
 30
0.0
 11
62.362864442845
 21
804.19715695191
 31
0.0
  0
LINE
  5
DDB
330
1D
100
AcDbEntity
  8
0
100
AcDbLine
 10
61.428204572512
 20
803.853911530814
 30
0.0
 11
61.757304572512
 21
803.547911530814
 31
0.0
  0
LINE
  5
DDC
330
1D
100
AcDbEntity
  8
0
100
AcDbLine
 10
62.007704572512
 20
804.680911530814
 30
0.0
 11
62.775604572512
 21
803.964911530814
 31
0.0
  0
LINE
  5
DDD
330
1D
100
AcDbEntity
  8
0
100
AcDbLine
 10
62.254304572512
 20
804.297911530814
 30
0.0
 11
62.679904572512
 21
803.902911530814
 31
0.0
  0
LINE
  5
DDE
330
1D
100
AcDbEntity
  8
0
100
AcDbLine
 10
63.872604572512
 20
802.941911530814
 30
0.0
 11
65.032130974077
 21
804.185427088152
 31
0.0
  0
LINE
  5
DDF
330
1D
100
AcDbEntity
  8
0
100
AcDbLine
 10
63.543504572512
 20
803.248911530814
 30
0.0
 11
63.872604572512
 21
802.941911530814
 31
0.0
  0
LINE
  5
DE0
330
1D
100
AcDbEntity
  8
0
100
AcDbLine
 10
62.775604572512
 20
803.964911530814
 30
0.0
 11
63.543504572512
 21
803.248911530814
 31
0.0
  0
LINE
  5
DE1
330
1D
100
AcDbEntity
  8
0
100
AcDbLine
 10
62.684726857547
 20
803.900059214995
 30
0.0
 11
62.789604572512
 21
803.802911530814
 31
0.0
  0
LINE
  5
DE2
330
1D
100
AcDbEntity
  8
0
100
AcDbLine
 10
62.789604572512
 20
803.802911530814
 30
0.0
 11
63.473501540935
 21
803.314183272719
 31
0.0
  0
LINE
  5
DE3
330
1D
100
AcDbEntity
  8
0
100
AcDbLine
 10
64.652104572512
 20
804.539911530814
 30
0.0
 11
64.981204572512
 21
804.232911530814
 31
0.0
  0
LINE
  5
DE4
330
1D
100
AcDbEntity
  8
0
100
AcDbLine
 10
64.652104572512
 20
804.539911530814
 30
0.0
 11
65.845931058214
 21
805.820211665187
 31
0.0
  0
LINE
  5
DE5
330
1D
100
AcDbEntity
  8
0
100
AcDbLine
 10
64.981204572512
 20
804.232911530814
 30
0.0
 11
65.749104572512
 21
803.516911530814
 31
0.0
  0
LINE
  5
DE6
330
1D
100
AcDbEntity
  8
0
100
AcDbLine
 10
63.921323609372
 20
802.994159483247
 30
0.0
 11
64.485604572512
 21
802.590911530814
 31
0.0
  0
LINE
  5
DE7
330
1D
100
AcDbEntity
  8
0
100
AcDbLine
 10
64.485604572512
 20
802.590911530814
 30
0.0
 11
65.579436596077
 21
801.622260683359
 31
0.0
  0
LINE
  5
DE8
330
1D
100
AcDbEntity
  8
0
100
AcDbLine
 10
64.485604572512
 20
802.590911530814
 30
0.0
 11
65.579436596077
 21
801.622260683359
 31
0.0
  0
LINE
  5
DE9
330
1D
100
AcDbEntity
  8
0
100
AcDbLine
 10
62.679904572512
 20
803.902911530814
 30
0.0
 11
62.789604572512
 21
803.802911530814
 31
0.0
  0
LINE
  5
DEA
330
1D
100
AcDbEntity
  8
0
100
AcDbLine
 10
61.678604572512
 20
804.987911530814
 30
0.0
 11
62.007704572512
 21
804.680911530814
 31
0.0
  0
LINE
  5
DEB
330
1D
100
AcDbEntity
  8
0
100
AcDbLine
 10
61.678604572512
 20
804.987911530814
 30
0.0
 11
62.822539134878
 21
806.214705869398
 31
0.0
  0
LINE
  5
DEC
330
1D
100
AcDbEntity
  8
0
100
AcDbLine
 10
61.530504572512
 20
804.954911530814
 30
0.0
 11
62.254304572512
 21
804.297911530814
 31
0.0
  0
LINE
  5
DED
330
1D
100
AcDbEntity
  8
0
100
AcDbLine
 10
63.411104572512
 20
805.815911530814
 30
0.0
 11
64.166604572512
 21
805.263911530814
 31
0.0
  0
LINE
  5
DEE
330
1D
100
AcDbEntity
  8
0
100
AcDbLine
 10
64.166604572512
 20
805.263911530814
 30
0.0
 11
64.812304572512
 21
804.758911530814
 31
0.0
  0
LINE
  5
DEF
330
1D
100
AcDbEntity
  8
0
100
AcDbLine
 10
61.332404572512
 20
805.811911530814
 30
0.0
 11
61.502904572512
 21
805.782911530814
 31
0.0
  0
LINE
  5
DF0
330
1D
100
AcDbEntity
  8
0
100
AcDbLine
 10
59.755304572512
 20
806.097911530814
 30
0.0
 11
60.084404572512
 21
805.790911530814
 31
0.0
  0
LINE
  5
DF1
330
1D
100
AcDbEntity
  8
0
100
AcDbLine
 10
59.755304572512
 20
806.097911530814
 30
0.0
 11
59.903954724641
 21
805.959243658727
 31
0.0
  0
LINE
  5
DF2
330
1D
100
AcDbEntity
  8
0
100
AcDbLine
 10
60.946404572512
 20
806.043911530814
 30
0.0
 11
61.332404572512
 21
805.811911530814
 31
0.0
  0
LINE
  5
DF3
330
1D
100
AcDbEntity
  8
0
100
AcDbLine
 10
68.079904572512
 20
797.651911530814
 30
0.0
 11
68.655913549124
 21
798.269474234185
 31
0.0
  0
LINE
  5
DF4
330
1D
100
AcDbEntity
  8
0
100
AcDbLine
 10
67.750804572512
 20
797.958911530814
 30
0.0
 11
68.079904572512
 21
797.651911530814
 31
0.0
  0
LINE
  5
DF5
330
1D
100
AcDbEntity
  8
0
100
AcDbLine
 10
68.849804572512
 20
798.019911530814
 30
0.0
 11
68.985604572512
 21
797.808911530814
 31
0.0
  0
LINE
  5
DF6
330
1D
100
AcDbEntity
  8
0
100
AcDbLine
 10
68.849804572512
 20
798.019911530814
 30
0.0
 11
72.594804572512
 21
792.496911530814
 31
0.0
  0
LINE
  5
DF7
330
1D
100
AcDbEntity
  8
0
100
AcDbLine
 10
68.652299295216
 20
798.265599245244
 30
0.0
 11
68.985604572512
 21
797.808911530814
 31
0.0
  0
LINE
  5
DF8
330
1D
100
AcDbEntity
  8
0
100
AcDbLine
 10
72.594804572512
 20
792.496911530814
 30
0.0
 11
75.749604572512
 21
787.776111530814
 31
0.0
  0
LINE
  5
DF9
330
1D
100
AcDbEntity
  8
0
100
AcDbLine
 10
71.521004572512
 20
798.134911530814
 30
0.0
 11
72.967212601253
 21
799.685450109429
 31
0.0
  0
LINE
  5
DFA
330
1D
100
AcDbEntity
  8
0
100
AcDbLine
 10
67.637904572512
 20
799.430911530814
 30
0.0
 11
68.571753721464
 21
800.432403125453
 31
0.0
  0
LINE
  5
DFB
330
1D
100
AcDbEntity
  8
0
100
AcDbLine
 10
66.215004572512
 20
799.390911530814
 30
0.0
 11
66.982904572512
 21
798.674911530814
 31
0.0
  0
LINE
  5
DFC
330
1D
100
AcDbEntity
  8
0
100
AcDbLine
 10
66.982904572512
 20
798.674911530814
 30
0.0
 11
67.750804572512
 21
797.958911530814
 31
0.0
  0
LINE
  5
DFD
330
1D
100
AcDbEntity
  8
0
100
AcDbLine
 10
70.423904572512
 20
799.157911530814
 30
0.0
 11
71.191904572512
 21
798.441911530814
 31
0.0
  0
LINE
  5
DFE
330
1D
100
AcDbEntity
  8
0
100
AcDbLine
 10
71.191904572512
 20
798.441911530814
 30
0.0
 11
71.521004572512
 21
798.134911530814
 31
0.0
  0
LINE
  5
DFF
330
1D
100
AcDbEntity
  8
0
100
AcDbLine
 10
67.982904572512
 20
799.135911530814
 30
0.0
 11
68.546804572512
 21
798.409911530814
 31
0.0
  0
LINE
  5
E00
330
1D
100
AcDbEntity
  8
0
100
AcDbLine
 10
68.546804572512
 20
798.409911530814
 30
0.0
 11
68.849804572512
 21
798.019911530814
 31
0.0
  0
LINE
  5
E01
330
1D
100
AcDbEntity
  8
0
100
AcDbLine
 10
88.775604572512
 20
765.284611530814
 30
0.0
 11
88.828804572512
 21
765.189111530814
 31
0.0
  0
LINE
  5
E02
330
1D
100
AcDbEntity
  8
0
100
AcDbLine
 10
88.775604572512
 20
765.284611530814
 30
0.0
 11
88.916304572512
 21
765.665911530814
 31
0.0
  0
LINE
  5
E03
330
1D
100
AcDbEntity
  8
0
100
AcDbLine
 10
88.828804572512
 20
765.189111530814
 30
0.0
 11
126.996504572512
 21
699.404141530814
 31
0.0
  0
LINE
  5
E04
330
1D
100
AcDbEntity
  8
0
100
AcDbLine
 10
88.828804572512
 20
765.189111530814
 30
0.0
 11
126.996504572512
 21
699.404141530814
 31
0.0
  0
LINE
  5
E05
330
1D
100
AcDbEntity
  8
0
100
AcDbLine
 10
88.916304572512
 20
765.665911530814
 30
0.0
 11
89.176804572512
 21
766.536911530814
 31
0.0
  0
LINE
  5
E06
330
1D
100
AcDbEntity
  8
0
100
AcDbLine
 10
89.176804572512
 20
766.536911530814
 30
0.0
 11
89.525204572512
 21
768.217711530814
 31
0.0
  0
LINE
  5
E07
330
1D
100
AcDbEntity
  8
0
100
AcDbLine
 10
89.525204572512
 20
768.217711530814
 30
0.0
 11
89.826704572512
 21
769.922811530814
 31
0.0
  0
LINE
  5
E08
330
1D
100
AcDbEntity
  8
0
100
AcDbLine
 10
85.551204572512
 20
770.307611530814
 30
0.0
 11
85.689704572512
 21
770.224211530814
 31
0.0
  0
LINE
  5
E09
330
1D
100
AcDbEntity
  8
0
100
AcDbLine
 10
85.689704572512
 20
770.224211530814
 30
0.0
 11
86.069604572512
 21
770.227811530814
 31
0.0
  0
LINE
  5
E0A
330
1D
100
AcDbEntity
  8
0
100
AcDbLine
 10
85.445504572512
 20
770.434111530814
 30
0.0
 11
85.551204572512
 21
770.307611530814
 31
0.0
  0
LINE
  5
E0B
330
1D
100
AcDbEntity
  8
0
100
AcDbLine
 10
86.197504572512
 20
771.783711530814
 30
0.0
 11
86.295404572512
 21
773.049011530814
 31
0.0
  0
LINE
  5
E0C
330
1D
100
AcDbEntity
  8
0
100
AcDbLine
 10
85.749965035969
 20
777.906785814866
 30
0.0
 11
86.323204572512
 21
774.149811530814
 31
0.0
  0
LINE
  5
E0D
330
1D
100
AcDbEntity
  8
0
100
AcDbLine
 10
85.248504572512
 20
779.376411530814
 30
0.0
 11
85.747504572512
 21
777.922911530814
 31
0.0
  0
LINE
  5
E0E
330
1D
100
AcDbEntity
  8
0
100
AcDbLine
 10
89.826704572512
 20
769.922811530814
 30
0.0
 11
90.151604572512
 21
771.818611530814
 31
0.0
  0
LINE
  5
E0F
330
1D
100
AcDbEntity
  8
0
100
AcDbLine
 10
86.295404572512
 20
773.049011530814
 30
0.0
 11
86.323204572512
 21
774.149811530814
 31
0.0
  0
LINE
  5
E10
330
1D
100
AcDbEntity
  8
0
100
AcDbLine
 10
86.090204572512
 20
769.821211530814
 30
0.0
 11
88.863004572512
 21
765.869611530814
 31
0.0
  0
LINE
  5
E11
330
1D
100
AcDbEntity
  8
0
100
AcDbLine
 10
86.090204572512
 20
769.821211530814
 30
0.0
 11
86.197504572512
 21
771.783711530814
 31
0.0
  0
LINE
  5
E12
330
1D
100
AcDbEntity
  8
0
100
AcDbLine
 10
75.842804572512
 20
786.984711530814
 30
0.0
 11
75.860804572512
 21
787.181511530814
 31
0.0
  0
LINE
  5
E13
330
1D
100
AcDbEntity
  8
0
100
AcDbLine
 10
75.860804572512
 20
787.181511530814
 30
0.0
 11
75.895004572512
 21
787.256111530814
 31
0.0
  0
LINE
  5
E14
330
1D
100
AcDbEntity
  8
0
100
AcDbLine
 10
77.809204572512
 20
786.555911530814
 30
0.0
 11
78.527004572512
 21
786.140111530814
 31
0.0
  0
LINE
  5
E15
330
1D
100
AcDbEntity
  8
0
100
AcDbLine
 10
77.109104572512
 20
786.935211530814
 30
0.0
 11
77.809204572512
 21
786.555911530814
 31
0.0
  0
LINE
  5
E16
330
1D
100
AcDbEntity
  8
0
100
AcDbLine
 10
76.609604572512
 20
787.195011530814
 30
0.0
 11
77.109104572512
 21
786.935211530814
 31
0.0
  0
LINE
  5
E17
330
1D
100
AcDbEntity
  8
0
100
AcDbLine
 10
78.527004572512
 20
786.140111530814
 30
0.0
 11
79.017455845424
 21
785.842222923055
 31
0.0
  0
LINE
  5
E18
330
1D
100
AcDbEntity
  8
0
100
AcDbLine
 10
83.494704572512
 20
782.262211530814
 30
0.0
 11
83.837004572512
 21
781.857811530814
 31
0.0
  0
LINE
  5
E19
330
1D
100
AcDbEntity
  8
0
100
AcDbLine
 10
83.119704572512
 20
782.666211530814
 30
0.0
 11
83.494704572512
 21
782.262211530814
 31
0.0
  0
LINE
  5
E1A
330
1D
100
AcDbEntity
  8
0
100
AcDbLine
 10
75.895004572512
 20
787.256111530814
 30
0.0
 11
76.116904572512
 21
787.442811530814
 31
0.0
  0
LINE
  5
E1B
330
1D
100
AcDbEntity
  8
0
100
AcDbLine
 10
76.116904572512
 20
787.442811530814
 30
0.0
 11
76.263704572512
 21
787.374911530814
 31
0.0
  0
LINE
  5
E1C
330
1D
100
AcDbEntity
  8
0
100
AcDbLine
 10
76.263704572512
 20
787.374911530814
 30
0.0
 11
76.609604572512
 21
787.195011530814
 31
0.0
  0
LINE
  5
E1D
330
1D
100
AcDbEntity
  8
0
100
AcDbLine
 10
83.819804572512
 20
795.243911530814
 30
0.0
 11
85.733704572512
 21
793.459911530814
 31
0.0
  0
LINE
  5
E1E
330
1D
100
AcDbEntity
  8
0
100
AcDbLine
 10
75.749604572512
 20
787.776111530814
 30
0.0
 11
76.116904572512
 21
787.442811530814
 31
0.0
  0
LINE
  5
E1F
330
1D
100
AcDbEntity
  8
0
100
AcDbLine
 10
87.930204572512
 20
791.393911530814
 30
0.0
 11
88.239804572512
 21
791.102911530814
 31
0.0
  0
LINE
  5
E20
330
1D
100
AcDbEntity
  8
0
100
AcDbLine
 10
87.416804572512
 20
791.889911530814
 30
0.0
 11
87.930204572512
 21
791.393911530814
 31
0.0
  0
LINE
  5
E21
330
1D
100
AcDbEntity
  8
0
100
AcDbLine
 10
85.733704572512
 20
793.459911530814
 30
0.0
 11
87.416804572512
 21
791.889911530814
 31
0.0
  0
LINE
  5
E24
330
1D
100
AcDbEntity
  8
0
100
AcDbLine
 10
126.996504572512
 20
699.404141530814
 30
0.0
 11
127.309504572512
 21
699.104451530814
 31
0.0
  0
LINE
  5
E25
330
1D
100
AcDbEntity
  8
0
100
AcDbLine
 10
127.309504572512
 20
699.104451530814
 30
0.0
 11
127.591504572512
 21
698.996791530814
 31
0.0
  0
LINE
  5
E26
330
1D
100
AcDbEntity
  8
0
100
AcDbLine
 10
127.591504572512
 20
698.996791530814
 30
0.0
 11
128.193264907849
 21
699.302408446504
 31
0.0
  0
LINE
  5
E33
330
1D
100
AcDbEntity
  8
0
100
AcDbLine
 10
90.924404572512
 20
777.531711530814
 30
0.0
 11
91.170804572512
 21
781.283411530814
 31
0.0
  0
LINE
  5
E37
330
1D
100
AcDbEntity
  8
0
100
AcDbLine
 10
149.191873017277
 20
710.930732956708
 30
0.0
 11
149.567504572512
 21
711.162811530814
 31
0.0
  0
LINE
  5
E38
330
1D
100
AcDbEntity
  8
0
100
AcDbLine
 10
150.018504572512
 20
712.169311530814
 30
0.0
 11
150.102504572512
 21
711.633111530814
 31
0.0
  0
LINE
  5
E39
330
1D
100
AcDbEntity
  8
0
100
AcDbLine
 10
149.567504572512
 20
711.162811530814
 30
0.0
 11
150.102504572512
 21
711.633111530814
 31
0.0
  0
LINE
  5
E3A
330
1D
100
AcDbEntity
  8
0
100
AcDbLine
 10
149.191873017277
 20
710.930732956708
 30
0.0
 11
149.567504572512
 21
711.162811530814
 31
0.0
  0
LINE
  5
E3B
330
1D
100
AcDbEntity
  8
0
100
AcDbLine
 10
106.360504572512
 20
793.812911530814
 30
0.0
 11
109.099504572512
 21
788.616311530814
 31
0.0
  0
LINE
  5
E3C
330
1D
100
AcDbEntity
  8
0
100
AcDbLine
 10
109.099504572512
 20
788.616311530814
 30
0.0
 11
150.018504572512
 21
712.169311530814
 31
0.0
  0
LINE
  5
E3D
330
1D
100
AcDbEntity
  8
0
100
AcDbLine
 10
74.744204572512
 20
798.546911530814
 30
0.0
 11
75.073404572512
 21
798.239911530814
 31
0.0
  0
LINE
  5
E3E
330
1D
100
AcDbEntity
  8
0
100
AcDbLine
 10
74.744204572512
 20
798.546911530814
 30
0.0
 11
75.792618677222
 21
799.671266481232
 31
0.0
  0
LINE
  5
E3F
330
1D
100
AcDbEntity
  8
0
100
AcDbLine
 10
75.073404572512
 20
798.239911530814
 30
0.0
 11
75.841304572512
 21
797.523911530814
 31
0.0
  0
LINE
  5
E40
330
1D
100
AcDbEntity
  8
0
100
AcDbLine
 10
75.841304572512
 20
797.523911530814
 30
0.0
 11
76.609204572512
 21
796.807911530814
 31
0.0
  0
LINE
  5
E41
330
1D
100
AcDbEntity
  8
0
100
AcDbLine
 10
76.609204572512
 20
796.807911530814
 30
0.0
 11
76.938304572512
 21
796.500911530814
 31
0.0
  0
LINE
  5
E42
330
1D
100
AcDbEntity
  8
0
100
AcDbLine
 10
76.938304572512
 20
796.500911530814
 30
0.0
 11
78.311644418842
 21
797.973727899737
 31
0.0
  0
LINE
  5
E43
330
1D
100
AcDbEntity
  8
0
100
AcDbLine
 10
77.986504572512
 20
798.274911530814
 30
0.0
 11
78.456104572512
 21
797.839911530814
 31
0.0
  0
LINE
  5
E44
330
1D
100
AcDbEntity
  8
0
100
AcDbLine
 10
75.321106532419
 20
799.165600817436
 30
0.0
 11
75.792618677222
 21
799.671266481232
 31
0.0
  0
LINE
  5
E45
330
1D
100
AcDbEntity
  8
0
100
AcDbLine
 10
76.923004572512
 20
799.010911530814
 30
0.0
 11
77.986504572512
 21
798.274911530814
 31
0.0
  0
LINE
  5
E46
330
1D
100
AcDbEntity
  8
0
100
AcDbLine
 10
104.683504572512
 20
797.477911530814
 30
0.0
 11
106.360504572512
 21
793.812911530814
 31
0.0
  0
LINE
  5
E47
330
1D
100
AcDbEntity
  8
0
100
AcDbLine
 10
78.493904572512
 20
797.795911530814
 30
0.0
 11
78.526404572512
 21
797.755911530814
 31
0.0
  0
LINE
  5
E48
330
1D
100
AcDbEntity
  8
0
100
AcDbLine
 10
78.493904572512
 20
797.795911530814
 30
0.0
 11
78.526304572512
 21
797.755911530814
 31
0.0
  0
LINE
  5
E49
330
1D
100
AcDbEntity
  8
0
100
AcDbLine
 10
78.456104572512
 20
797.839911530814
 30
0.0
 11
78.493904572512
 21
797.795911530814
 31
0.0
  0
LINE
  5
E4A
330
1D
100
AcDbEntity
  8
0
100
AcDbLine
 10
104.568504572512
 20
798.204911530814
 30
0.0
 11
104.683504572512
 21
797.477911530814
 31
0.0
  0
LINE
  5
E4B
330
1D
100
AcDbEntity
  8
0
100
AcDbLine
 10
104.352504572512
 20
799.100911530814
 30
0.0
 11
104.568504572512
 21
798.204911530814
 31
0.0
  0
LINE
  5
E4C
330
1D
100
AcDbEntity
  8
0
100
AcDbLine
 10
80.929604572512
 20
797.937911530814
 30
0.0
 11
83.819804572512
 21
795.243911530814
 31
0.0
  0
LINE
  5
E4D
330
1D
100
AcDbEntity
  8
0
100
AcDbLine
 10
78.076724885014
 20
797.632688093314
 30
0.0
 11
78.413404572512
 21
797.528911530814
 31
0.0
  0
LINE
  5
E4E
330
1D
100
AcDbEntity
  8
0
100
AcDbLine
 10
73.001404572512
 20
799.318911530814
 30
0.0
 11
73.351304572512
 21
799.274911530814
 31
0.0
  0
LINE
  5
E4F
330
1D
100
AcDbEntity
  8
0
100
AcDbLine
 10
67.308804572512
 20
799.737911530814
 30
0.0
 11
67.637904572512
 21
799.430911530814
 31
0.0
  0
LINE
  5
E50
330
1D
100
AcDbEntity
  8
0
100
AcDbLine
 10
65.885904572512
 20
799.697911530814
 30
0.0
 11
66.215004572512
 21
799.390911530814
 31
0.0
  0
LINE
  5
E51
330
1D
100
AcDbEntity
  8
0
100
AcDbLine
 10
65.885904572512
 20
799.697911530814
 30
0.0
 11
66.567717422131
 21
800.428910879262
 31
0.0
  0
LINE
  5
E52
330
1D
100
AcDbEntity
  8
0
100
AcDbLine
 10
67.684606624685
 20
799.480996400255
 30
0.0
 11
67.982904572512
 21
799.135911530814
 31
0.0
  0
LINE
  5
E53
330
1D
100
AcDbEntity
  8
0
100
AcDbLine
 10
65.443904572512
 20
801.476911530814
 30
0.0
 11
65.773004572512
 21
801.169911530814
 31
0.0
  0
LINE
  5
E54
330
1D
100
AcDbEntity
  8
0
100
AcDbLine
 10
65.443904572512
 20
801.476911530814
 30
0.0
 11
66.342355963791
 21
802.440441365978
 31
0.0
  0
LINE
  5
E55
330
1D
100
AcDbEntity
  8
0
100
AcDbLine
 10
65.443904572512
 20
801.476911530814
 30
0.0
 11
65.579436596077
 21
801.622260683359
 31
0.0
  0
LINE
  5
E56
330
1D
100
AcDbEntity
  8
0
100
AcDbLine
 10
65.773004572512
 20
801.169911530814
 30
0.0
 11
66.540904572512
 21
800.453911530814
 31
0.0
  0
LINE
  5
E57
330
1D
100
AcDbEntity
  8
0
100
AcDbLine
 10
66.540904572512
 20
800.453911530814
 30
0.0
 11
67.308804572512
 21
799.737911530814
 31
0.0
  0
LINE
  5
E58
330
1D
100
AcDbEntity
  8
0
100
AcDbLine
 10
68.225179842887
 20
800.060725508456
 30
0.0
 11
68.662504572512
 21
799.766911530814
 31
0.0
  0
LINE
  5
E59
330
1D
100
AcDbEntity
  8
0
100
AcDbLine
 10
67.693504572512
 20
801.333911530814
 30
0.0
 11
68.728104572512
 21
800.271911530814
 31
0.0
  0
LINE
  5
E5A
330
1D
100
AcDbEntity
  8
0
100
AcDbLine
 10
68.662504572512
 20
799.766911530814
 30
0.0
 11
68.922504572512
 21
799.710911530814
 31
0.0
  0
LINE
  5
E5B
330
1D
100
AcDbEntity
  8
0
100
AcDbLine
 10
68.922504572512
 20
799.710911530814
 30
0.0
 11
68.940704572512
 21
799.859911530814
 31
0.0
  0
LINE
  5
E5C
330
1D
100
AcDbEntity
  8
0
100
AcDbLine
 10
69.326904572512
 20
800.180911530814
 30
0.0
 11
69.656004572512
 21
799.873911530814
 31
0.0
  0
LINE
  5
E5D
330
1D
100
AcDbEntity
  8
0
100
AcDbLine
 10
69.326904572512
 20
800.180911530814
 30
0.0
 11
70.45592241573
 21
801.391377582077
 31
0.0
  0
LINE
  5
E5E
330
1D
100
AcDbEntity
  8
0
100
AcDbLine
 10
69.656004572512
 20
799.873911530814
 30
0.0
 11
70.423904572512
 21
799.157911530814
 31
0.0
  0
LINE
  5
E5F
330
1D
100
AcDbEntity
  8
0
100
AcDbLine
 10
68.728104572512
 20
800.271911530814
 30
0.0
 11
68.940704572512
 21
799.859911530814
 31
0.0
  0
LINE
  5
E60
330
1D
100
AcDbEntity
  8
0
100
AcDbLine
 10
65.317304572512
 20
802.848911530814
 30
0.0
 11
65.711192565284
 21
802.400682976999
 31
0.0
  0
LINE
  5
E61
330
1D
100
AcDbEntity
  8
0
100
AcDbLine
 10
66.011883292379
 20
802.08603123127
 30
0.0
 11
66.342355963791
 21
802.440441365978
 31
0.0
  0
LINE
  5
E62
330
1D
100
AcDbEntity
  8
0
100
AcDbLine
 10
66.846104572512
 20
802.493911530814
 30
0.0
 11
68.323442830731
 21
804.078259334424
 31
0.0
  0
LINE
  5
E63
330
1D
100
AcDbEntity
  8
0
100
AcDbLine
 10
66.517004572512
 20
802.800911530814
 30
0.0
 11
66.846104572512
 21
802.493911530814
 31
0.0
  0
LINE
  5
E64
330
1D
100
AcDbEntity
  8
0
100
AcDbLine
 10
66.403104572512
 20
802.399911530814
 30
0.0
 11
67.693504572512
 21
801.333911530814
 31
0.0
  0
LINE
  5
E65
330
1D
100
AcDbEntity
  8
0
100
AcDbLine
 10
65.673704572512
 20
802.439911530814
 30
0.0
 11
66.011883292379
 21
802.08603123127
 31
0.0
  0
LINE
  5
E66
330
1D
100
AcDbEntity
  8
0
100
AcDbLine
 10
65.613204572512
 20
802.926911530814
 30
0.0
 11
66.403104572512
 21
802.399911530814
 31
0.0
  0
LINE
  5
E67
330
1D
100
AcDbEntity
  8
0
100
AcDbLine
 10
70.725204572512
 20
802.294911530814
 30
0.0
 11
71.493204572512
 21
801.578911530814
 31
0.0
  0
LINE
  5
E68
330
1D
100
AcDbEntity
  8
0
100
AcDbLine
 10
69.713704572512
 20
801.600911530814
 30
0.0
 11
70.229634604487
 21
801.148765195594
 31
0.0
  0
LINE
  5
E69
330
1D
100
AcDbEntity
  8
0
100
AcDbLine
 10
69.711104572512
 20
801.735911530814
 30
0.0
 11
70.120504572512
 21
801.588911530814
 31
0.0
  0
LINE
  5
E6A
330
1D
100
AcDbEntity
  8
0
100
AcDbLine
 10
69.711104572512
 20
801.735911530814
 30
0.0
 11
69.713704572512
 21
801.600911530814
 31
0.0
  0
LINE
  5
E6B
330
1D
100
AcDbEntity
  8
0
100
AcDbLine
 10
70.120504572512
 20
801.588911530814
 30
0.0
 11
71.152904572512
 21
800.980911530814
 31
0.0
  0
LINE
  5
E6C
330
1D
100
AcDbEntity
  8
0
100
AcDbLine
 10
71.822304572512
 20
801.271911530814
 30
0.0
 11
73.152686979418
 21
802.69865888039
 31
0.0
  0
LINE
  5
E6D
330
1D
100
AcDbEntity
  8
0
100
AcDbLine
 10
71.493204572512
 20
801.578911530814
 30
0.0
 11
71.822304572512
 21
801.271911530814
 31
0.0
  0
LINE
  5
E6E
330
1D
100
AcDbEntity
  8
0
100
AcDbLine
 10
72.257404572512
 20
800.237911530814
 30
0.0
 11
73.069404572512
 21
799.605911530814
 31
0.0
  0
LINE
  5
E6F
330
1D
100
AcDbEntity
  8
0
100
AcDbLine
 10
71.152904572512
 20
800.980911530814
 30
0.0
 11
72.257404572512
 21
800.237911530814
 31
0.0
  0
LINE
  5
E70
330
1D
100
AcDbEntity
  8
0
100
AcDbLine
 10
65.264904572512
 20
803.100911530814
 30
0.0
 11
65.317304572512
 21
802.848911530814
 31
0.0
  0
LINE
  5
E71
330
1D
100
AcDbEntity
  8
0
100
AcDbLine
 10
65.264904572512
 20
803.100911530814
 30
0.0
 11
65.613204572512
 21
802.926911530814
 31
0.0
  0
LINE
  5
E72
330
1D
100
AcDbEntity
  8
0
100
AcDbLine
 10
69.628204572512
 20
803.317911530814
 30
0.0
 11
69.957304572512
 21
803.010911530814
 31
0.0
  0
LINE
  5
E73
330
1D
100
AcDbEntity
  8
0
100
AcDbLine
 10
69.628204572512
 20
803.317911530814
 30
0.0
 11
70.606766250601
 21
804.367354362711
 31
0.0
  0
LINE
  5
E74
330
1D
100
AcDbEntity
  8
0
100
AcDbLine
 10
69.957304572512
 20
803.010911530814
 30
0.0
 11
70.725204572512
 21
802.294911530814
 31
0.0
  0
LINE
  5
E75
330
1D
100
AcDbEntity
  8
0
100
AcDbLine
 10
72.540804572512
 20
803.216911530814
 30
0.0
 11
73.112104572512
 21
802.742911530814
 31
0.0
  0
LINE
  5
E76
330
1D
100
AcDbEntity
  8
0
100
AcDbLine
 10
65.749104572512
 20
803.516911530814
 30
0.0
 11
66.517004572512
 21
802.800911530814
 31
0.0
  0
LINE
  5
E77
330
1D
100
AcDbEntity
  8
0
100
AcDbLine
 10
68.653304572512
 20
803.346911530814
 30
0.0
 11
69.003404572512
 21
803.292911530814
 31
0.0
  0
LINE
  5
E78
330
1D
100
AcDbEntity
  8
0
100
AcDbLine
 10
72.771620031098
 20
802.28998972203
 30
0.0
 11
73.467904572512
 21
802.055911530814
 31
0.0
  0
LINE
  5
E79
330
1D
100
AcDbEntity
  8
0
100
AcDbLine
 10
68.092504572512
 20
804.280911530814
 30
0.0
 11
68.688504572512
 21
803.757911530814
 31
0.0
  0
LINE
  5
E7A
330
1D
100
AcDbEntity
  8
0
100
AcDbLine
 10
67.243304572512
 20
804.931911530814
 30
0.0
 11
68.092504572512
 21
804.280911530814
 31
0.0
  0
LINE
  5
E7B
330
1D
100
AcDbEntity
  8
0
100
AcDbLine
 10
69.750004572512
 20
804.613911530814
 30
0.0
 11
69.800504572512
 21
804.346911530814
 31
0.0
  0
LINE
  5
E7C
330
1D
100
AcDbEntity
  8
0
100
AcDbLine
 10
69.750004572512
 20
804.613911530814
 30
0.0
 11
70.370804572512
 21
804.482911530814
 31
0.0
  0
LINE
  5
E7D
330
1D
100
AcDbEntity
  8
0
100
AcDbLine
 10
68.688504572512
 20
803.757911530814
 30
0.0
 11
69.003404572512
 21
803.292911530814
 31
0.0
  0
LINE
  5
E7E
330
1D
100
AcDbEntity
  8
0
100
AcDbLine
 10
66.002504572512
 20
805.745911530814
 30
0.0
 11
67.243304572512
 21
804.931911530814
 31
0.0
  0
LINE
  5
E7F
330
1D
100
AcDbEntity
  8
0
100
AcDbLine
 10
69.800504572512
 20
804.346911530814
 30
0.0
 11
70.160504572512
 21
803.948911530814
 31
0.0
  0
LINE
  5
E80
330
1D
100
AcDbEntity
  8
0
100
AcDbLine
 10
71.461204572512
 20
803.948911530814
 30
0.0
 11
72.540804572512
 21
803.216911530814
 31
0.0
  0
LINE
  5
E81
330
1D
100
AcDbEntity
  8
0
100
AcDbLine
 10
70.370804572512
 20
804.482911530814
 30
0.0
 11
71.461204572512
 21
803.948911530814
 31
0.0
  0
LINE
  5
E82
330
1D
100
AcDbEntity
  8
0
100
AcDbLine
 10
67.985957655541
 20
803.716328752115
 30
0.0
 11
68.653304572512
 21
803.346911530814
 31
0.0
  0
LINE
  5
E83
330
1D
100
AcDbEntity
  8
0
100
AcDbLine
 10
78.864868638384
 20
799.863021320217
 30
0.0
 11
78.960404572512
 21
799.760911530814
 31
0.0
  0
LINE
  5
E84
330
1D
100
AcDbEntity
  8
0
100
AcDbLine
 10
74.650504572512
 20
799.671911530814
 30
0.0
 11
75.321106532419
 21
799.165600817436
 31
0.0
  0
LINE
  5
E85
330
1D
100
AcDbEntity
  8
0
100
AcDbLine
 10
73.112104572512
 20
802.742911530814
 30
0.0
 11
73.499104572512
 21
802.320911530814
 31
0.0
  0
LINE
  5
E86
330
1D
100
AcDbEntity
  8
0
100
AcDbLine
 10
103.765504572512
 20
799.931911530814
 30
0.0
 11
104.295504572512
 21
799.208911530814
 31
0.0
  0
LINE
  5
E87
330
1D
100
AcDbEntity
  8
0
100
AcDbLine
 10
103.765504572512
 20
799.931911530814
 30
0.0
 11
104.352504572512
 21
799.100911530814
 31
0.0
  0
LINE
  5
E88
330
1D
100
AcDbEntity
  8
0
100
AcDbLine
 10
74.119204572512
 20
804.286911530814
 30
0.0
 11
77.685204572512
 21
800.962911530814
 31
0.0
  0
LINE
  5
E89
330
1D
100
AcDbEntity
  8
0
100
AcDbLine
 10
77.685204572512
 20
800.962911530814
 30
0.0
 11
80.929604572512
 21
797.937911530814
 31
0.0
  0
LINE
  5
E8A
330
1D
100
AcDbEntity
  8
0
100
AcDbLine
 10
74.497104572512
 20
800.206911530814
 30
0.0
 11
75.456004572512
 21
799.867911530814
 31
0.0
  0
LINE
  5
E8B
330
1D
100
AcDbEntity
  8
0
100
AcDbLine
 10
74.249004572512
 20
800.137911530814
 30
0.0
 11
74.650504572512
 21
799.671911530814
 31
0.0
  0
LINE
  5
E8C
330
1D
100
AcDbEntity
  8
0
100
AcDbLine
 10
74.249004572512
 20
800.137911530814
 30
0.0
 11
74.497104572512
 21
800.206911530814
 31
0.0
  0
LINE
  5
E8D
330
1D
100
AcDbEntity
  8
0
100
AcDbLine
 10
73.467904572512
 20
802.055911530814
 30
0.0
 11
73.499104572512
 21
802.320911530814
 31
0.0
  0
LINE
  5
E8E
330
1D
100
AcDbEntity
  8
0
100
AcDbLine
 10
75.456004572512
 20
799.867911530814
 30
0.0
 11
76.923004572512
 21
799.010911530814
 31
0.0
  0
LINE
  5
E8F
330
1D
100
AcDbEntity
  8
0
100
AcDbLine
 10
73.069404572512
 20
799.605911530814
 30
0.0
 11
73.351304572512
 21
799.274911530814
 31
0.0
  0
LINE
  5
E90
330
1D
100
AcDbEntity
  8
0
100
AcDbLine
 10
72.751927149502
 20
799.454633801041
 30
0.0
 11
73.001404572512
 21
799.318911530814
 31
0.0
  0
LINE
  5
E91
330
1D
100
AcDbEntity
  8
0
100
AcDbLine
 10
64.993504572512
 20
805.999911530814
 30
0.0
 11
65.512126781835
 21
805.462228603979
 31
0.0
  0
LINE
  5
E92
330
1D
100
AcDbEntity
  8
0
100
AcDbLine
 10
64.993504572512
 20
805.999911530814
 30
0.0
 11
65.109004572512
 21
806.169911530814
 31
0.0
  0
LINE
  5
E93
330
1D
100
AcDbEntity
  8
0
100
AcDbLine
 10
50.929404572512
 20
815.011911530814
 30
0.0
 11
52.261057748658
 21
816.440021696552
 31
0.0
  0
LINE
  5
E94
330
1D
100
AcDbEntity
  8
0
100
AcDbLine
 10
50.600304572512
 20
815.318911530814
 30
0.0
 11
50.929404572512
 21
815.011911530814
 31
0.0
  0
LINE
  5
E95
330
1D
100
AcDbEntity
  8
0
100
AcDbLine
 10
52.329904572512
 20
813.776911530814
 30
0.0
 11
52.684504572512
 21
813.387911530814
 31
0.0
  0
LINE
  5
E96
330
1D
100
AcDbEntity
  8
0
100
AcDbLine
 10
52.329904572512
 20
813.776911530814
 30
0.0
 11
52.397604572512
 21
813.829911530814
 31
0.0
  0
LINE
  5
E97
330
1D
100
AcDbEntity
  8
0
100
AcDbLine
 10
52.588004572512
 20
812.781911530814
 30
0.0
 11
52.917104572512
 21
812.474911530814
 31
0.0
  0
LINE
  5
E98
330
1D
100
AcDbEntity
  8
0
100
AcDbLine
 10
52.588004572512
 20
812.781911530814
 30
0.0
 11
53.128093408375
 21
813.361121170916
 31
0.0
  0
LINE
  5
E99
330
1D
100
AcDbEntity
  8
0
100
AcDbLine
 10
52.934682398881
 20
813.153700624958
 30
0.0
 11
53.128093408375
 21
813.361121170916
 31
0.0
  0
LINE
  5
E9A
330
1D
100
AcDbEntity
  8
0
100
AcDbLine
 10
52.917104572512
 20
812.474911530814
 30
0.0
 11
53.685004572512
 21
811.758911530814
 31
0.0
  0
LINE
  5
E9B
330
1D
100
AcDbEntity
  8
0
100
AcDbLine
 10
52.684504572512
 20
813.387911530814
 30
0.0
 11
52.934682398881
 21
813.153700624958
 31
0.0
  0
LINE
  5
E9C
330
1D
100
AcDbEntity
  8
0
100
AcDbLine
 10
53.685004572512
 20
811.758911530814
 30
0.0
 11
54.452904572512
 21
811.042911530814
 31
0.0
  0
LINE
  5
E9D
330
1D
100
AcDbEntity
  8
0
100
AcDbLine
 10
52.963004572512
 20
813.483911530814
 30
0.0
 11
53.875904572512
 21
812.804911530814
 31
0.0
  0
LINE
  5
E9E
330
1D
100
AcDbEntity
  8
0
100
AcDbLine
 10
52.397604572512
 20
813.829911530814
 30
0.0
 11
52.963004572512
 21
813.483911530814
 31
0.0
  0
LINE
  5
E9F
330
1D
100
AcDbEntity
  8
0
100
AcDbLine
 10
53.637004572512
 20
814.811911530814
 30
0.0
 11
54.404904572512
 21
814.095911530814
 31
0.0
  0
LINE
  5
EA0
330
1D
100
AcDbEntity
  8
0
100
AcDbLine
 10
52.540004572512
 20
815.834911530814
 30
0.0
 11
52.869104572512
 21
815.527911530814
 31
0.0
  0
LINE
  5
EA1
330
1D
100
AcDbEntity
  8
0
100
AcDbLine
 10
52.540004572512
 20
815.834911530814
 30
0.0
 11
53.908086668468
 21
817.301688112285
 31
0.0
  0
LINE
  5
EA2
330
1D
100
AcDbEntity
  8
0
100
AcDbLine
 10
52.869104572512
 20
815.527911530814
 30
0.0
 11
53.637004572512
 21
814.811911530814
 31
0.0
  0
LINE
  5
EA3
330
1D
100
AcDbEntity
  8
0
100
AcDbLine
 10
49.832404572512
 20
816.034911530814
 30
0.0
 11
50.600304572512
 21
815.318911530814
 31
0.0
  0
LINE
  5
EA4
330
1D
100
AcDbEntity
  8
0
100
AcDbLine
 10
46.069604572512
 20
816.597911530814
 30
0.0
 11
46.284904572512
 21
816.469911530814
 31
0.0
  0
LINE
  5
EA5
330
1D
100
AcDbEntity
  8
0
100
AcDbLine
 10
46.284904572512
 20
816.469911530814
 30
0.0
 11
47.028798194406
 21
817.109246406647
 31
0.0
  0
LINE
  5
EA6
330
1D
100
AcDbEntity
  8
0
100
AcDbLine
 10
46.046304572512
 20
816.718911530814
 30
0.0
 11
46.284904572512
 21
816.469911530814
 31
0.0
  0
LINE
  5
EA7
330
1D
100
AcDbEntity
  8
0
100
AcDbLine
 10
47.973104572512
 20
816.243911530814
 30
0.0
 11
49.169804572512
 21
814.987911530814
 31
0.0
  0
LINE
  5
EA8
330
1D
100
AcDbEntity
  8
0
100
AcDbLine
 10
49.064504572512
 20
816.750911530814
 30
0.0
 11
49.832404572512
 21
816.034911530814
 31
0.0
  0
LINE
  5
EA9
330
1D
100
AcDbEntity
  8
0
100
AcDbLine
 10
48.928504572512
 20
816.342911530814
 30
0.0
 11
52.745825504677
 21
812.951164067156
 31
0.0
  0
LINE
  5
EAA
330
1D
100
AcDbEntity
  8
0
100
AcDbLine
 10
52.015429997868
 20
816.17660214094
 30
0.0
 11
52.255904572512
 21
816.022911530814
 31
0.0
  0
LINE
  5
EAB
330
1D
100
AcDbEntity
  8
0
100
AcDbLine
 10
46.729770476702
 20
816.852248842558
 30
0.0
 11
49.169804572512
 21
814.987911530814
 31
0.0
  0
LINE
  5
EAC
330
1D
100
AcDbEntity
  8
0
100
AcDbLine
 10
51.922504572512
 20
816.814911530814
 30
0.0
 11
52.363204572512
 21
816.326911530814
 31
0.0
  0
LINE
  5
EAD
330
1D
100
AcDbEntity
  8
0
100
AcDbLine
 10
53.407866887557
 20
816.76538209498
 30
0.0
 11
53.908086668468
 21
817.301688112285
 31
0.0
  0
LINE
  5
EAE
330
1D
100
AcDbEntity
  8
0
100
AcDbLine
 10
52.363204572512
 20
816.326911530814
 30
0.0
 11
52.603004572512
 21
815.969911530814
 31
0.0
  0
LINE
  5
EAF
330
1D
100
AcDbEntity
  8
0
100
AcDbLine
 10
52.255904572512
 20
816.022911530814
 30
0.0
 11
52.603004572512
 21
815.969911530814
 31
0.0
  0
LINE
  5
EB0
330
1D
100
AcDbEntity
  8
0
100
AcDbLine
 10
45.044604572512
 20
817.333911530814
 30
0.0
 11
45.340304572512
 21
817.112911530814
 31
0.0
  0
LINE
  5
EB1
330
1D
100
AcDbEntity
  8
0
100
AcDbLine
 10
45.340304572512
 20
817.112911530814
 30
0.0
 11
46.069604572512
 21
816.597911530814
 31
0.0
  0
LINE
  5
EB2
330
1D
100
AcDbEntity
  8
0
100
AcDbLine
 10
48.735404572512
 20
817.057911530814
 30
0.0
 11
49.064504572512
 21
816.750911530814
 31
0.0
  0
LINE
  5
EB3
330
1D
100
AcDbEntity
  8
0
100
AcDbLine
 10
48.735404572512
 20
817.057911530814
 30
0.0
 11
49.99911793674
 21
818.413160731102
 31
0.0
  0
LINE
  5
EB4
330
1D
100
AcDbEntity
  8
0
100
AcDbLine
 10
44.767004572512
 20
817.539911530814
 30
0.0
 11
45.044604572512
 21
817.333911530814
 31
0.0
  0
LINE
  5
EB5
330
1D
100
AcDbEntity
  8
0
100
AcDbLine
 10
45.146704572512
 20
817.440911530814
 30
0.0
 11
46.046304572512
 21
816.718911530814
 31
0.0
  0
LINE
  5
EB6
330
1D
100
AcDbEntity
  8
0
100
AcDbLine
 10
51.298004572512
 20
817.398911530814
 30
0.0
 11
51.922504572512
 21
816.814911530814
 31
0.0
  0
LINE
  5
EB7
330
1D
100
AcDbEntity
  8
0
100
AcDbLine
 10
52.970104572512
 20
817.251911530814
 30
0.0
 11
53.401566452651
 21
816.758627141895
 31
0.0
  0
LINE
  5
EB8
330
1D
100
AcDbEntity
  8
0
100
AcDbLine
 10
52.737604572512
 20
817.664911530814
 30
0.0
 11
52.828004572512
 21
817.809911530814
 31
0.0
  0
LINE
  5
EB9
330
1D
100
AcDbEntity
  8
0
100
AcDbLine
 10
52.737604572512
 20
817.664911530814
 30
0.0
 11
52.970104572512
 21
817.251911530814
 31
0.0
  0
LINE
  5
EBA
330
1D
100
AcDbEntity
  8
0
100
AcDbLine
 10
57.890404572512
 20
807.836911530814
 30
0.0
 11
58.219504572512
 21
807.529911530814
 31
0.0
  0
LINE
  5
EBB
330
1D
100
AcDbEntity
  8
0
100
AcDbLine
 10
57.890404572512
 20
807.836911530814
 30
0.0
 11
58.359093221817
 21
808.339563922529
 31
0.0
  0
LINE
  5
EBC
330
1D
100
AcDbEntity
  8
0
100
AcDbLine
 10
57.890404572512
 20
807.836911530814
 30
0.0
 11
58.049734646184
 21
808.007787532873
 31
0.0
  0
LINE
  5
EBD
330
1D
100
AcDbEntity
  8
0
100
AcDbLine
 10
58.224704572512
 20
808.208911530814
 30
0.0
 11
59.384065706014
 21
809.452249849059
 31
0.0
  0
LINE
  5
EBE
330
1D
100
AcDbEntity
  8
0
100
AcDbLine
 10
58.231695948705
 20
808.202934746373
 30
0.0
 11
58.359093221817
 21
808.339563922529
 31
0.0
  0
LINE
  5
EBF
330
1D
100
AcDbEntity
  8
0
100
AcDbLine
 10
58.219504572512
 20
807.529911530814
 30
0.0
 11
58.987404572512
 21
806.813911530814
 31
0.0
  0
LINE
  5
EC0
330
1D
100
AcDbEntity
  8
0
100
AcDbLine
 10
58.987404572512
 20
806.813911530814
 30
0.0
 11
59.755304572512
 21
806.097911530814
 31
0.0
  0
LINE
  5
EC1
330
1D
100
AcDbEntity
  8
0
100
AcDbLine
 10
58.351583126172
 20
808.344980407863
 30
0.0
 11
59.079604572512
 21
807.819911530814
 31
0.0
  0
LINE
  5
EC2
330
1D
100
AcDbEntity
  8
0
100
AcDbLine
 10
59.079604572512
 20
807.819911530814
 30
0.0
 11
60.377304572512
 21
806.800911530814
 31
0.0
  0
LINE
  5
EC3
330
1D
100
AcDbEntity
  8
0
100
AcDbLine
 10
60.377304572512
 20
806.800911530814
 30
0.0
 11
61.502904572512
 21
805.782911530814
 31
0.0
  0
LINE
  5
EC4
330
1D
100
AcDbEntity
  8
0
100
AcDbLine
 10
60.886004572512
 20
808.051911530814
 30
0.0
 11
61.215104572512
 21
807.744911530814
 31
0.0
  0
LINE
  5
EC5
330
1D
100
AcDbEntity
  8
0
100
AcDbLine
 10
60.577292191632
 20
806.319500980409
 30
0.0
 11
60.946404572512
 21
806.043911530814
 31
0.0
  0
LINE
  5
EC6
330
1D
100
AcDbEntity
  8
0
100
AcDbLine
 10
60.118104572512
 20
808.767911530814
 30
0.0
 11
60.886004572512
 21
808.051911530814
 31
0.0
  0
LINE
  5
EC7
330
1D
100
AcDbEntity
  8
0
100
AcDbLine
 10
57.895604572512
 20
808.515911530814
 30
0.0
 11
58.224704572512
 21
808.208911530814
 31
0.0
  0
LINE
  5
EC8
330
1D
100
AcDbEntity
  8
0
100
AcDbLine
 10
57.848004572512
 20
808.184911530814
 30
0.0
 11
58.049734646184
 21
808.007787532873
 31
0.0
  0
LINE
  5
EC9
330
1D
100
AcDbEntity
  8
0
100
AcDbLine
 10
54.782004572512
 20
810.735911530814
 30
0.0
 11
55.443140398601
 21
811.444936080963
 31
0.0
  0
LINE
  5
ECA
330
1D
100
AcDbEntity
  8
0
100
AcDbLine
 10
54.452904572512
 20
811.042911530814
 30
0.0
 11
54.782004572512
 21
810.735911530814
 31
0.0
  0
LINE
  5
ECB
330
1D
100
AcDbEntity
  8
0
100
AcDbLine
 10
54.734104572512
 20
813.788911530814
 30
0.0
 11
56.122688575315
 21
815.277712702182
 31
0.0
  0
LINE
  5
ECC
330
1D
100
AcDbEntity
  8
0
100
AcDbLine
 10
54.404904572512
 20
814.095911530814
 30
0.0
 11
54.734104572512
 21
813.788911530814
 31
0.0
  0
LINE
  5
ECD
330
1D
100
AcDbEntity
  8
0
100
AcDbLine
 10
53.875904572512
 20
812.804911530814
 30
0.0
 11
54.806404572512
 21
812.028911530814
 31
0.0
  0
LINE
  5
ECE
330
1D
100
AcDbEntity
  8
0
100
AcDbLine
 10
54.806404572512
 20
812.028911530814
 30
0.0
 11
55.529304572512
 21
811.365911530814
 31
0.0
  0
LINE
  5
ECF
330
1D
100
AcDbEntity
  8
0
100
AcDbLine
 10
54.979779755452
 20
810.948012364835
 30
0.0
 11
56.998204572512
 21
809.074911530814
 31
0.0
  0
LINE
  5
ED0
330
1D
100
AcDbEntity
  8
0
100
AcDbLine
 10
54.583104572512
 20
816.825911530814
 30
0.0
 11
55.152604572512
 21
816.364911530814
 31
0.0
  0
LINE
  5
ED1
330
1D
100
AcDbEntity
  8
0
100
AcDbLine
 10
55.512604572512
 20
811.120911530814
 30
0.0
 11
55.778804572512
 21
811.035911530814
 31
0.0
  0
LINE
  5
ED2
330
1D
100
AcDbEntity
  8
0
100
AcDbLine
 10
55.289640916234
 20
811.280318014389
 30
0.0
 11
55.512604572512
 21
811.120911530814
 31
0.0
  0
LINE
  5
ED3
330
1D
100
AcDbEntity
  8
0
100
AcDbLine
 10
55.289640916234
 20
811.280318014389
 30
0.0
 11
55.443140398601
 21
811.444936080963
 31
0.0
  0
LINE
  5
ED4
330
1D
100
AcDbEntity
  8
0
100
AcDbLine
 10
55.529304572512
 20
811.365911530814
 30
0.0
 11
55.778804572512
 21
811.035911530814
 31
0.0
  0
LINE
  5
ED5
330
1D
100
AcDbEntity
  8
0
100
AcDbLine
 10
55.152604572512
 20
816.364911530814
 30
0.0
 11
56.191104572512
 21
815.187911530814
 31
0.0
  0
LINE
  5
ED6
330
1D
100
AcDbEntity
  8
0
100
AcDbLine
 10
57.127704572512
 20
809.231911530814
 30
0.0
 11
57.895604572512
 21
808.515911530814
 31
0.0
  0
LINE
  5
ED7
330
1D
100
AcDbEntity
  8
0
100
AcDbLine
 10
56.998204572512
 20
809.074911530814
 30
0.0
 11
57.848004572512
 21
808.184911530814
 31
0.0
  0
LINE
  5
ED8
330
1D
100
AcDbEntity
  8
0
100
AcDbLine
 10
56.030604572512
 20
810.254911530814
 30
0.0
 11
56.359704572512
 21
809.947911530814
 31
0.0
  0
LINE
  5
ED9
330
1D
100
AcDbEntity
  8
0
100
AcDbLine
 10
56.030604572512
 20
810.254911530814
 30
0.0
 11
57.278613916484
 21
811.593319205566
 31
0.0
  0
LINE
  5
EDA
330
1D
100
AcDbEntity
  8
0
100
AcDbLine
 10
56.359704572512
 20
809.947911530814
 30
0.0
 11
57.127704572512
 21
809.231911530814
 31
0.0
  0
LINE
  5
EDB
330
1D
100
AcDbEntity
  8
0
100
AcDbLine
 10
56.96573497633
 20
811.257777186756
 30
0.0
 11
57.278613916484
 21
811.593319205566
 31
0.0
  0
LINE
  5
EDC
330
1D
100
AcDbEntity
  8
0
100
AcDbLine
 10
59.021004572512
 20
809.790911530814
 30
0.0
 11
59.350104572512
 21
809.483911530814
 31
0.0
  0
LINE
  5
EDD
330
1D
100
AcDbEntity
  8
0
100
AcDbLine
 10
59.021004572512
 20
809.790911530814
 30
0.0
 11
60.259796140645
 21
811.11943374919
 31
0.0
  0
LINE
  5
EDE
330
1D
100
AcDbEntity
  8
0
100
AcDbLine
 10
59.350104572512
 20
809.483911530814
 30
0.0
 11
60.118104572512
 21
808.767911530814
 31
0.0
  0
LINE
  5
EDF
330
1D
100
AcDbEntity
  8
0
100
AcDbLine
 10
59.446804572512
 20
810.413911530814
 30
0.0
 11
59.534785610132
 21
810.341907793153
 31
0.0
  0
LINE
  5
EE0
330
1D
100
AcDbEntity
  8
0
100
AcDbLine
 10
57.794304572512
 20
811.224911530814
 30
0.0
 11
58.600204572512
 21
810.592911530814
 31
0.0
  0
LINE
  5
EE1
330
1D
100
AcDbEntity
  8
0
100
AcDbLine
 10
58.600204572512
 20
810.592911530814
 30
0.0
 11
59.248508540335
 21
810.034894525045
 31
0.0
  0
LINE
  5
EE2
330
1D
100
AcDbEntity
  8
0
100
AcDbLine
 10
57.150404572512
 20
811.684911530814
 30
0.0
 11
57.794304572512
 21
811.224911530814
 31
0.0
  0
LINE
  5
EE3
330
1D
100
AcDbEntity
  8
0
100
AcDbLine
 10
59.543604572512
 20
811.399911530814
 30
0.0
 11
60.117604572512
 21
811.208911530814
 31
0.0
  0
LINE
  5
EE4
330
1D
100
AcDbEntity
  8
0
100
AcDbLine
 10
56.118704572512
 20
812.236911530814
 30
0.0
 11
56.276704572512
 21
811.921911530814
 31
0.0
  0
LINE
  5
EE5
330
1D
100
AcDbEntity
  8
0
100
AcDbLine
 10
56.118704572512
 20
812.236911530814
 30
0.0
 11
56.620104572512
 21
812.012911530814
 31
0.0
  0
LINE
  5
EE6
330
1D
100
AcDbEntity
  8
0
100
AcDbLine
 10
58.143804572512
 20
811.841911530814
 30
0.0
 11
59.446804572512
 21
810.413911530814
 31
0.0
  0
LINE
  5
EE7
330
1D
100
AcDbEntity
  8
0
100
AcDbLine
 10
58.143804572512
 20
811.841911530814
 30
0.0
 11
58.196204572512
 21
811.837911530814
 31
0.0
  0
LINE
  5
EE8
330
1D
100
AcDbEntity
  8
0
100
AcDbLine
 10
57.853504572512
 20
814.297911530814
 30
0.0
 11
58.621404572512
 21
813.581911530814
 31
0.0
  0
LINE
  5
EE9
330
1D
100
AcDbEntity
  8
0
100
AcDbLine
 10
58.621404572512
 20
813.581911530814
 30
0.0
 11
59.389404572512
 21
812.865911530814
 31
0.0
  0
LINE
  5
EEA
330
1D
100
AcDbEntity
  8
0
100
AcDbLine
 10
59.389404572512
 20
812.865911530814
 30
0.0
 11
59.718504572512
 21
812.558911530814
 31
0.0
  0
LINE
  5
EEB
330
1D
100
AcDbEntity
  8
0
100
AcDbLine
 10
56.620104572512
 20
812.012911530814
 30
0.0
 11
57.150404572512
 21
811.684911530814
 31
0.0
  0
LINE
  5
EEC
330
1D
100
AcDbEntity
  8
0
100
AcDbLine
 10
56.276704572512
 20
811.921911530814
 30
0.0
 11
56.957248236494
 21
811.248675718257
 31
0.0
  0
LINE
  5
EED
330
1D
100
AcDbEntity
  8
0
100
AcDbLine
 10
57.524404572512
 20
814.604911530814
 30
0.0
 11
57.853504572512
 21
814.297911530814
 31
0.0
  0
LINE
  5
EEE
330
1D
100
AcDbEntity
  8
0
100
AcDbLine
 10
57.524404572512
 20
814.604911530814
 30
0.0
 11
58.648085725831
 21
815.809985424564
 31
0.0
  0
LINE
  5
EEF
330
1D
100
AcDbEntity
  8
0
100
AcDbLine
 10
58.111829163783
 20
815.234885645265
 30
0.0
 11
58.648085725831
 21
815.809985424564
 31
0.0
  0
LINE
  5
EF0
330
1D
100
AcDbEntity
  8
0
100
AcDbLine
 10
58.009204572512
 20
815.342911530814
 30
0.0
 11
58.111829163783
 21
815.234885645265
 31
0.0
  0
LINE
  5
EF1
330
1D
100
AcDbEntity
  8
0
100
AcDbLine
 10
57.675004572512
 20
815.902911530814
 30
0.0
 11
58.126204572512
 21
816.066911530814
 31
0.0
  0
LINE
  5
EF2
330
1D
100
AcDbEntity
  8
0
100
AcDbLine
 10
57.675004572512
 20
815.902911530814
 30
0.0
 11
58.009204572512
 21
815.342911530814
 31
0.0
  0
LINE
  5
EF3
330
1D
100
AcDbEntity
  8
0
100
AcDbLine
 10
58.126204572512
 20
816.066911530814
 30
0.0
 11
59.068704572512
 21
815.602911530814
 31
0.0
  0
LINE
  5
EF4
330
1D
100
AcDbEntity
  8
0
100
AcDbLine
 10
59.068704572512
 20
815.602911530814
 30
0.0
 11
59.820904572512
 21
815.077911530814
 31
0.0
  0
LINE
  5
EF5
330
1D
100
AcDbEntity
  8
0
100
AcDbLine
 10
56.191104572512
 20
815.187911530814
 30
0.0
 11
56.574504572512
 21
814.818911530814
 31
0.0
  0
LINE
  5
EF6
330
1D
100
AcDbEntity
  8
0
100
AcDbLine
 10
56.556904572512
 20
814.558911530814
 30
0.0
 11
56.574504572512
 21
814.818911530814
 31
0.0
  0
LINE
  5
EF7
330
1D
100
AcDbEntity
  8
0
100
AcDbLine
 10
55.77791326822
 20
814.908054201129
 30
0.0
 11
56.556904572512
 21
814.558911530814
 31
0.0
  0
LINE
  5
EF8
330
1D
100
AcDbEntity
  8
0
100
AcDbLine
 10
58.196204572512
 20
811.837911530814
 30
0.0
 11
59.543604572512
 21
811.399911530814
 31
0.0
  0
LINE
  5
EF9
330
1D
100
AcDbEntity
  8
0
100
AcDbLine
 10
59.718504572512
 20
812.558911530814
 30
0.0
 11
61.020886391273
 21
813.955630097151
 31
0.0
  0
LINE
  5
EFA
330
1D
100
AcDbEntity
  8
0
100
AcDbLine
 10
60.946104572512
 20
813.255911530814
 30
0.0
 11
61.333904572512
 21
813.372911530814
 31
0.0
  0
LINE
  5
EFB
330
1D
100
AcDbEntity
  8
0
100
AcDbLine
 10
60.532785881252
 20
813.432174506199
 30
0.0
 11
60.946104572512
 21
813.255911530814
 31
0.0
  0
LINE
  5
EFC
330
1D
100
AcDbEntity
  8
0
100
AcDbLine
 10
59.820904572512
 20
815.077911530814
 30
0.0
 11
60.474104572512
 21
814.527911530814
 31
0.0
  0
LINE
  5
EFD
330
1D
100
AcDbEntity
  8
0
100
AcDbLine
 10
60.474104572512
 20
814.527911530814
 30
0.0
 11
61.035904572512
 21
813.939911530814
 31
0.0
  0
LINE
  5
EFE
330
1D
100
AcDbEntity
  8
0
100
AcDbLine
 10
61.035904572512
 20
813.939911530814
 30
0.0
 11
61.333904572512
 21
813.372911530814
 31
0.0
  0
LINE
  5
EFF
330
1D
100
AcDbEntity
  8
0
100
AcDbLine
 10
60.117604572512
 20
811.208911530814
 30
0.0
 11
61.155304572512
 21
810.555911530814
 31
0.0
  0
LINE
  5
F00
330
1D
100
AcDbEntity
  8
0
100
AcDbLine
 10
53.729004572512
 20
817.427911530814
 30
0.0
 11
54.583104572512
 21
816.825911530814
 31
0.0
  0
LINE
  5
F01
330
1D
100
AcDbEntity
  8
0
100
AcDbLine
 10
40.496504572512
 20
822.383911530814
 30
0.0
 11
42.896256418828
 21
820.221440261273
 31
0.0
  0
LINE
  5
F02
330
1D
100
AcDbEntity
  8
0
100
AcDbLine
 10
40.864104572512
 20
822.248911530814
 30
0.0
 11
42.574704572512
 21
821.007911530814
 31
0.0
  0
LINE
  5
F03
330
1D
100
AcDbEntity
  8
0
100
AcDbLine
 10
40.864104572512
 20
822.248911530814
 30
0.0
 11
42.124204572512
 21
821.783911530814
 31
0.0
  0
LINE
  5
F04
330
1D
100
AcDbEntity
  8
0
100
AcDbLine
 10
41.831204572512
 20
823.495911530814
 30
0.0
 11
42.599104572512
 21
822.779911530814
 31
0.0
  0
LINE
  5
F05
330
1D
100
AcDbEntity
  8
0
100
AcDbLine
 10
42.467804572512
 20
819.384911530814
 30
0.0
 11
42.788804572512
 21
819.194911530814
 31
0.0
  0
LINE
  5
F06
330
1D
100
AcDbEntity
  8
0
100
AcDbLine
 10
42.467804572512
 20
819.384911530814
 30
0.0
 11
43.167420095987
 21
820.750872468302
 31
0.0
  0
LINE
  5
F07
330
1D
100
AcDbEntity
  8
0
100
AcDbLine
 10
42.467804572512
 20
819.384911530814
 30
0.0
 11
42.811004572512
 21
819.058911530814
 31
0.0
  0
LINE
  5
F08
330
1D
100
AcDbEntity
  8
0
100
AcDbLine
 10
42.811004572512
 20
819.058911530814
 30
0.0
 11
43.487904572512
 21
818.518911530814
 31
0.0
  0
LINE
  5
F09
330
1D
100
AcDbEntity
  8
0
100
AcDbLine
 10
42.788804572512
 20
819.194911530814
 30
0.0
 11
43.956604572512
 21
818.356911530814
 31
0.0
  0
LINE
  5
F0A
330
1D
100
AcDbEntity
  8
0
100
AcDbLine
 10
43.733904572512
 20
818.329911530814
 30
0.0
 11
44.306004572512
 21
817.885911530814
 31
0.0
  0
LINE
  5
F0B
330
1D
100
AcDbEntity
  8
0
100
AcDbLine
 10
43.487904572512
 20
818.518911530814
 30
0.0
 11
43.733904572512
 21
818.329911530814
 31
0.0
  0
LINE
  5
F0C
330
1D
100
AcDbEntity
  8
0
100
AcDbLine
 10
42.928204572512
 20
822.472911530814
 30
0.0
 11
44.233732326781
 21
823.873003905407
 31
0.0
  0
LINE
  5
F0D
330
1D
100
AcDbEntity
  8
0
100
AcDbLine
 10
42.599104572512
 20
822.779911530814
 30
0.0
 11
42.928204572512
 21
822.472911530814
 31
0.0
  0
LINE
  5
F0E
330
1D
100
AcDbEntity
  8
0
100
AcDbLine
 10
42.574704572512
 20
821.007911530814
 30
0.0
 11
43.050441565793
 21
820.522478304067
 31
0.0
  0
LINE
  5
F0F
330
1D
100
AcDbEntity
  8
0
100
AcDbLine
 10
42.124204572512
 20
821.783911530814
 30
0.0
 11
44.564004572512
 21
819.367911530814
 31
0.0
  0
LINE
  5
F10
330
1D
100
AcDbEntity
  8
0
100
AcDbLine
 10
40.734104572512
 20
824.518911530814
 30
0.0
 11
41.063304572512
 21
824.211911530814
 31
0.0
  0
LINE
  5
F11
330
1D
100
AcDbEntity
  8
0
100
AcDbLine
 10
40.734104572512
 20
824.518911530814
 30
0.0
 11
42.086686345369
 21
825.969466235605
 31
0.0
  0
LINE
  5
F12
330
1D
100
AcDbEntity
  8
0
100
AcDbLine
 10
39.005204572512
 20
826.515911530814
 30
0.0
 11
39.023004572512
 21
826.353911530814
 31
0.0
  0
LINE
  5
F13
330
1D
100
AcDbEntity
  8
0
100
AcDbLine
 10
39.859604572512
 20
827.658911530814
 30
0.0
 11
41.228009845538
 21
829.126435895464
 31
0.0
  0
LINE
  5
F14
330
1D
100
AcDbEntity
  8
0
100
AcDbLine
 10
39.530504572512
 20
827.965911530814
 30
0.0
 11
39.859604572512
 21
827.658911530814
 31
0.0
  0
LINE
  5
F15
330
1D
100
AcDbEntity
  8
0
100
AcDbLine
 10
41.063304572512
 20
824.211911530814
 30
0.0
 11
41.831204572512
 21
823.495911530814
 31
0.0
  0
LINE
  5
F16
330
1D
100
AcDbEntity
  8
0
100
AcDbLine
 10
41.183904572512
 20
826.566911530814
 30
0.0
 11
41.572304572512
 21
826.352911530814
 31
0.0
  0
LINE
  5
F17
330
1D
100
AcDbEntity
  8
0
100
AcDbLine
 10
40.982704572512
 20
826.500911530814
 30
0.0
 11
41.183904572512
 21
826.566911530814
 31
0.0
  0
LINE
  5
F18
330
1D
100
AcDbEntity
  8
0
100
AcDbLine
 10
40.982704572512
 20
826.500911530814
 30
0.0
 11
41.404604572512
 21
825.863911530814
 31
0.0
  0
LINE
  5
F19
330
1D
100
AcDbEntity
  8
0
100
AcDbLine
 10
38.914904572512
 20
831.431911530814
 30
0.0
 11
39.480504572512
 21
830.846911530814
 31
0.0
  0
LINE
  5
F1A
330
1D
100
AcDbEntity
  8
0
100
AcDbLine
 10
39.480504572512
 20
830.846911530814
 30
0.0
 11
40.522104572512
 21
829.993911530814
 31
0.0
  0
LINE
  5
F1B
330
1D
100
AcDbEntity
  8
0
100
AcDbLine
 10
39.437304572512
 20
833.879911530814
 30
0.0
 11
39.557304572512
 21
832.962911530814
 31
0.0
  0
LINE
  5
F1C
330
1D
100
AcDbEntity
  8
0
100
AcDbLine
 10
39.121404572512
 20
833.066911530814
 30
0.0
 11
39.557304572512
 21
832.962911530814
 31
0.0
  0
LINE
  5
F1D
330
1D
100
AcDbEntity
  8
0
100
AcDbLine
 10
39.161404572512
 20
836.876911530814
 30
0.0
 11
43.113004572512
 21
833.193911530814
 31
0.0
  0
LINE
  5
F1E
330
1D
100
AcDbEntity
  8
0
100
AcDbLine
 10
38.858004572512
 20
834.663911530814
 30
0.0
 11
38.929004572512
 21
834.574911530814
 31
0.0
  0
LINE
  5
F1F
330
1D
100
AcDbEntity
  8
0
100
AcDbLine
 10
38.929004572512
 20
834.574911530814
 30
0.0
 11
39.437304572512
 21
833.879911530814
 31
0.0
  0
LINE
  5
F20
330
1D
100
AcDbEntity
  8
0
100
AcDbLine
 10
40.785800951699
 20
828.652196034827
 30
0.0
 11
41.165504572512
 21
828.408911530814
 31
0.0
  0
LINE
  5
F21
330
1D
100
AcDbEntity
  8
0
100
AcDbLine
 10
40.522104572512
 20
829.993911530814
 30
0.0
 11
41.195404572512
 21
829.177911530814
 31
0.0
  0
LINE
  5
F22
330
1D
100
AcDbEntity
  8
0
100
AcDbLine
 10
41.165504572512
 20
828.408911530814
 30
0.0
 11
41.604404572512
 21
828.284911530814
 31
0.0
  0
LINE
  5
F23
330
1D
100
AcDbEntity
  8
0
100
AcDbLine
 10
41.195404572512
 20
829.177911530814
 30
0.0
 11
41.464604572512
 21
828.752911530814
 31
0.0
  0
LINE
  5
F24
330
1D
100
AcDbEntity
  8
0
100
AcDbLine
 10
41.697201409858
 20
825.551769341422
 30
0.0
 11
42.086686345369
 21
825.969466235605
 31
0.0
  0
LINE
  5
F25
330
1D
100
AcDbEntity
  8
0
100
AcDbLine
 10
41.404604572512
 20
825.863911530814
 30
0.0
 11
41.697201409858
 21
825.551769341422
 31
0.0
  0
LINE
  5
F26
330
1D
100
AcDbEntity
  8
0
100
AcDbLine
 10
43.681704572512
 20
824.531911530814
 30
0.0
 11
44.577304572512
 21
823.462911530814
 31
0.0
  0
LINE
  5
F27
330
1D
100
AcDbEntity
  8
0
100
AcDbLine
 10
42.969304572512
 20
825.221911530814
 30
0.0
 11
43.681704572512
 21
824.531911530814
 31
0.0
  0
LINE
  5
F28
330
1D
100
AcDbEntity
  8
0
100
AcDbLine
 10
42.209504572512
 20
825.877911530814
 30
0.0
 11
42.969304572512
 21
825.221911530814
 31
0.0
  0
LINE
  5
F29
330
1D
100
AcDbEntity
  8
0
100
AcDbLine
 10
43.424104572512
 20
827.753911530814
 30
0.0
 11
43.753204572512
 21
827.446911530814
 31
0.0
  0
LINE
  5
F2A
330
1D
100
AcDbEntity
  8
0
100
AcDbLine
 10
43.424104572512
 20
827.753911530814
 30
0.0
 11
44.62484351054
 21
829.041272691351
 31
0.0
  0
LINE
  5
F2B
330
1D
100
AcDbEntity
  8
0
100
AcDbLine
 10
43.753204572512
 20
827.446911530814
 30
0.0
 11
44.521104572512
 21
826.730911530814
 31
0.0
  0
LINE
  5
F2C
330
1D
100
AcDbEntity
  8
0
100
AcDbLine
 10
43.113004572512
 20
833.193911530814
 30
0.0
 11
47.105904572512
 21
829.470911530814
 31
0.0
  0
LINE
  5
F2D
330
1D
100
AcDbEntity
  8
0
100
AcDbLine
 10
41.464604572512
 20
828.752911530814
 30
0.0
 11
41.604404572512
 21
828.284911530814
 31
0.0
  0
LINE
  5
F2E
330
1D
100
AcDbEntity
  8
0
100
AcDbLine
 10
41.572304572512
 20
826.352911530814
 30
0.0
 11
42.209504572512
 21
825.877911530814
 31
0.0
  0
LINE
  5
F2F
330
1D
100
AcDbEntity
  8
0
100
AcDbLine
 10
44.306004572512
 20
817.885911530814
 30
0.0
 11
44.767004572512
 21
817.539911530814
 31
0.0
  0
LINE
  5
F30
330
1D
100
AcDbEntity
  8
0
100
AcDbLine
 10
46.858204572512
 20
818.124911530814
 30
0.0
 11
47.522024552985
 21
818.836814659433
 31
0.0
  0
LINE
  5
F31
330
1D
100
AcDbEntity
  8
0
100
AcDbLine
 10
43.956604572512
 20
818.356911530814
 30
0.0
 11
45.146704572512
 21
817.440911530814
 31
0.0
  0
LINE
  5
F32
330
1D
100
AcDbEntity
  8
0
100
AcDbLine
 10
46.529104572512
 20
818.431911530814
 30
0.0
 11
46.858204572512
 21
818.124911530814
 31
0.0
  0
LINE
  5
F33
330
1D
100
AcDbEntity
  8
0
100
AcDbLine
 10
47.254344795678
 20
818.549745781875
 30
0.0
 11
47.337904572512
 21
818.482911530814
 31
0.0
  0
LINE
  5
F34
330
1D
100
AcDbEntity
  8
0
100
AcDbLine
 10
47.337904572512
 20
818.482911530814
 30
0.0
 11
47.932904572512
 21
818.124911530814
 31
0.0
  0
LINE
  5
F35
330
1D
100
AcDbEntity
  8
0
100
AcDbLine
 10
47.977604572512
 20
818.105911530814
 30
0.0
 11
47.997804572512
 21
818.287911530814
 31
0.0
  0
LINE
  5
F36
330
1D
100
AcDbEntity
  8
0
100
AcDbLine
 10
49.542104572512
 20
818.247911530814
 30
0.0
 11
49.699952254677
 21
818.09232527676
 31
0.0
  0
LINE
  5
F37
330
1D
100
AcDbEntity
  8
0
100
AcDbLine
 10
50.441304572512
 20
818.115911530814
 30
0.0
 11
51.298004572512
 21
817.398911530814
 31
0.0
  0
LINE
  5
F38
330
1D
100
AcDbEntity
  8
0
100
AcDbLine
 10
47.921904572512
 20
818.134911530814
 30
0.0
 11
47.977604572512
 21
818.105911530814
 31
0.0
  0
LINE
  5
F39
330
1D
100
AcDbEntity
  8
0
100
AcDbLine
 10
45.761204572512
 20
819.147911530814
 30
0.0
 11
46.529104572512
 21
818.431911530814
 31
0.0
  0
LINE
  5
F3A
330
1D
100
AcDbEntity
  8
0
100
AcDbLine
 10
47.502004572512
 20
818.859911530814
 30
0.0
 11
47.997804572512
 21
818.287911530814
 31
0.0
  0
LINE
  5
F3B
330
1D
100
AcDbEntity
  8
0
100
AcDbLine
 10
52.980304572512
 20
818.841911530814
 30
0.0
 11
54.262385865696
 21
820.216859122947
 31
0.0
  0
LINE
  5
F3C
330
1D
100
AcDbEntity
  8
0
100
AcDbLine
 10
52.651104572512
 20
819.148911530814
 30
0.0
 11
52.980304572512
 21
818.841911530814
 31
0.0
  0
LINE
  5
F3D
330
1D
100
AcDbEntity
  8
0
100
AcDbLine
 10
49.469904572512
 20
818.768911530814
 30
0.0
 11
50.441304572512
 21
818.115911530814
 31
0.0
  0
LINE
  5
F3E
330
1D
100
AcDbEntity
  8
0
100
AcDbLine
 10
44.207104572512
 20
821.513911530814
 30
0.0
 11
44.740104572512
 21
821.233911530814
 31
0.0
  0
LINE
  5
F3F
330
1D
100
AcDbEntity
  8
0
100
AcDbLine
 10
44.207104572512
 20
821.513911530814
 30
0.0
 11
44.606104572512
 21
820.958911530814
 31
0.0
  0
LINE
  5
F40
330
1D
100
AcDbEntity
  8
0
100
AcDbLine
 10
44.664204572512
 20
820.170911530814
 30
0.0
 11
44.993304572512
 21
819.863911530814
 31
0.0
  0
LINE
  5
F41
330
1D
100
AcDbEntity
  8
0
100
AcDbLine
 10
44.664204572512
 20
820.170911530814
 30
0.0
 11
45.287602832928
 21
820.839465031794
 31
0.0
  0
LINE
  5
F42
330
1D
100
AcDbEntity
  8
0
100
AcDbLine
 10
44.993304572512
 20
819.863911530814
 30
0.0
 11
45.761204572512
 21
819.147911530814
 31
0.0
  0
LINE
  5
F43
330
1D
100
AcDbEntity
  8
0
100
AcDbLine
 10
44.606104572512
 20
820.958911530814
 30
0.0
 11
45.003177020223
 21
820.534437114767
 31
0.0
  0
LINE
  5
F44
330
1D
100
AcDbEntity
  8
0
100
AcDbLine
 10
45.474604572512
 20
822.422911530814
 30
0.0
 11
45.803704572512
 21
822.115911530814
 31
0.0
  0
LINE
  5
F45
330
1D
100
AcDbEntity
  8
0
100
AcDbLine
 10
45.474604572512
 20
822.422911530814
 30
0.0
 11
46.853195472762
 21
823.901359308589
 31
0.0
  0
LINE
  5
F46
330
1D
100
AcDbEntity
  8
0
100
AcDbLine
 10
45.803704572512
 20
822.115911530814
 30
0.0
 11
46.571604572512
 21
821.399911530814
 31
0.0
  0
LINE
  5
F47
330
1D
100
AcDbEntity
  8
0
100
AcDbLine
 10
44.740104572512
 20
821.233911530814
 30
0.0
 11
45.411904572512
 21
820.749911530814
 31
0.0
  0
LINE
  5
F48
330
1D
100
AcDbEntity
  8
0
100
AcDbLine
 10
45.411904572512
 20
820.749911530814
 30
0.0
 11
46.775204572512
 21
819.575911530814
 31
0.0
  0
LINE
  5
F49
330
1D
100
AcDbEntity
  8
0
100
AcDbLine
 10
45.618104572512
 20
825.707911530814
 30
0.0
 11
46.858617230909
 21
827.037915718234
 31
0.0
  0
LINE
  5
F4A
330
1D
100
AcDbEntity
  8
0
100
AcDbLine
 10
44.091890867634
 20
828.469872438429
 30
0.0
 11
44.62484351054
 21
829.041272691351
 31
0.0
  0
LINE
  5
F4B
330
1D
100
AcDbEntity
  8
0
100
AcDbLine
 10
44.521104572512
 20
826.730911530814
 30
0.0
 11
45.289004572512
 21
826.014911530814
 31
0.0
  0
LINE
  5
F4C
330
1D
100
AcDbEntity
  8
0
100
AcDbLine
 10
45.289004572512
 20
826.014911530814
 30
0.0
 11
45.618104572512
 21
825.707911530814
 31
0.0
  0
LINE
  5
F4D
330
1D
100
AcDbEntity
  8
0
100
AcDbLine
 10
44.577304572512
 20
823.462911530814
 30
0.0
 11
44.617904572512
 21
823.130911530814
 31
0.0
  0
LINE
  5
F4E
330
1D
100
AcDbEntity
  8
0
100
AcDbLine
 10
43.934604572512
 20
828.674911530814
 30
0.0
 11
44.088665303355
 21
828.466414179483
 31
0.0
  0
LINE
  5
F4F
330
1D
100
AcDbEntity
  8
0
100
AcDbLine
 10
43.934604572512
 20
828.674911530814
 30
0.0
 11
44.000704572512
 21
829.314911530814
 31
0.0
  0
LINE
  5
F50
330
1D
100
AcDbEntity
  8
0
100
AcDbLine
 10
44.979204572512
 20
828.885911530814
 30
0.0
 11
46.050904572512
 21
827.981911530814
 31
0.0
  0
LINE
  5
F51
330
1D
100
AcDbEntity
  8
0
100
AcDbLine
 10
44.000704572512
 20
829.314911530814
 30
0.0
 11
44.979204572512
 21
828.885911530814
 31
0.0
  0
LINE
  5
F52
330
1D
100
AcDbEntity
  8
0
100
AcDbLine
 10
43.99439837468
 20
829.253853034402
 30
0.0
 11
44.110999422142
 21
829.266555383148
 31
0.0
  0
LINE
  5
F53
330
1D
100
AcDbEntity
  8
0
100
AcDbLine
 10
43.940404572512
 20
828.679911530814
 30
0.0
 11
44.091890867634
 21
828.469872438429
 31
0.0
  0
LINE
  5
F54
330
1D
100
AcDbEntity
  8
0
100
AcDbLine
 10
46.279891044842
 20
826.417439783846
 30
0.0
 11
46.524804572512
 21
826.255911530814
 31
0.0
  0
LINE
  5
F55
330
1D
100
AcDbEntity
  8
0
100
AcDbLine
 10
46.008904572512
 20
824.362911530814
 30
0.0
 11
46.491104572512
 21
824.141911530814
 31
0.0
  0
LINE
  5
F56
330
1D
100
AcDbEntity
  8
0
100
AcDbLine
 10
47.668704572512
 20
820.376911530814
 30
0.0
 11
48.988897342977
 21
821.792731167644
 31
0.0
  0
LINE
  5
F57
330
1D
100
AcDbEntity
  8
0
100
AcDbLine
 10
46.571604572512
 20
821.399911530814
 30
0.0
 11
47.339604572512
 21
820.683911530814
 31
0.0
  0
LINE
  5
F58
330
1D
100
AcDbEntity
  8
0
100
AcDbLine
 10
47.339604572512
 20
820.683911530814
 30
0.0
 11
47.668704572512
 21
820.376911530814
 31
0.0
  0
LINE
  5
F59
330
1D
100
AcDbEntity
  8
0
100
AcDbLine
 10
46.775204572512
 20
819.575911530814
 30
0.0
 11
47.502004572512
 21
818.859911530814
 31
0.0
  0
LINE
  5
F5A
330
1D
100
AcDbEntity
  8
0
100
AcDbLine
 10
47.036004572512
 20
823.779911530814
 30
0.0
 11
47.710504572512
 21
823.239911530814
 31
0.0
  0
LINE
  5
F5B
330
1D
100
AcDbEntity
  8
0
100
AcDbLine
 10
47.710504572512
 20
823.239911530814
 30
0.0
 11
48.322104572512
 21
822.655911530814
 31
0.0
  0
LINE
  5
F5C
330
1D
100
AcDbEntity
  8
0
100
AcDbLine
 10
50.786204572512
 20
820.887911530814
 30
0.0
 11
51.115304572512
 21
820.581911530814
 31
0.0
  0
LINE
  5
F5D
330
1D
100
AcDbEntity
  8
0
100
AcDbLine
 10
50.786204572512
 20
820.887911530814
 30
0.0
 11
52.064714650139
 21
822.2590292299
 31
0.0
  0
LINE
  5
F5E
330
1D
100
AcDbEntity
  8
0
100
AcDbLine
 10
51.115304572512
 20
820.581911530814
 30
0.0
 11
51.883204572512
 21
819.864911530814
 31
0.0
  0
LINE
  5
F5F
330
1D
100
AcDbEntity
  8
0
100
AcDbLine
 10
51.883204572512
 20
819.864911530814
 30
0.0
 11
52.651104572512
 21
819.148911530814
 31
0.0
  0
LINE
  5
F60
330
1D
100
AcDbEntity
  8
0
100
AcDbLine
 10
51.036204572512
 20
821.785911530814
 30
0.0
 11
51.334379020235
 21
821.475792456129
 31
0.0
  0
LINE
  5
F61
330
1D
100
AcDbEntity
  8
0
100
AcDbLine
 10
48.754204572512
 20
821.472911530814
 30
0.0
 11
49.190104572512
 21
821.420911530814
 31
0.0
  0
LINE
  5
F62
330
1D
100
AcDbEntity
  8
0
100
AcDbLine
 10
50.667604572512
 20
822.427911530814
 30
0.0
 11
51.036204572512
 21
821.785911530814
 31
0.0
  0
LINE
  5
F63
330
1D
100
AcDbEntity
  8
0
100
AcDbLine
 10
50.667604572512
 20
822.427911530814
 30
0.0
 11
50.676104572512
 21
822.757911530814
 31
0.0
  0
LINE
  5
F64
330
1D
100
AcDbEntity
  8
0
100
AcDbLine
 10
51.133804572512
 20
822.740911530814
 30
0.0
 11
51.787804572512
 21
822.449911530814
 31
0.0
  0
LINE
  5
F65
330
1D
100
AcDbEntity
  8
0
100
AcDbLine
 10
50.676104572512
 20
822.757911530814
 30
0.0
 11
51.133804572512
 21
822.740911530814
 31
0.0
  0
LINE
  5
F66
330
1D
100
AcDbEntity
  8
0
100
AcDbLine
 10
48.820504572512
 20
822.103911530814
 30
0.0
 11
49.190104572512
 21
821.420911530814
 31
0.0
  0
LINE
  5
F67
330
1D
100
AcDbEntity
  8
0
100
AcDbLine
 10
48.322104572512
 20
822.655911530814
 30
0.0
 11
48.820504572512
 21
822.103911530814
 31
0.0
  0
LINE
  5
F68
330
1D
100
AcDbEntity
  8
0
100
AcDbLine
 10
51.622604572512
 20
825.259911530814
 30
0.0
 11
55.093104572512
 21
822.024911530814
 31
0.0
  0
LINE
  5
F69
330
1D
100
AcDbEntity
  8
0
100
AcDbLine
 10
46.857104572512
 20
827.040911530814
 30
0.0
 11
47.123704572512
 21
826.512911530814
 31
0.0
  0
LINE
  5
F6A
330
1D
100
AcDbEntity
  8
0
100
AcDbLine
 10
47.074604572512
 20
826.162911530814
 30
0.0
 11
47.123704572512
 21
826.512911530814
 31
0.0
  0
LINE
  5
F6B
330
1D
100
AcDbEntity
  8
0
100
AcDbLine
 10
46.524804572512
 20
826.255911530814
 30
0.0
 11
47.074604572512
 21
826.162911530814
 31
0.0
  0
LINE
  5
F6C
330
1D
100
AcDbEntity
  8
0
100
AcDbLine
 10
46.491104572512
 20
824.141911530814
 30
0.0
 11
47.036004572512
 21
823.779911530814
 31
0.0
  0
LINE
  5
F6D
330
1D
100
AcDbEntity
  8
0
100
AcDbLine
 10
46.298304572512
 20
823.522911530814
 30
0.0
 11
46.397399359552
 21
823.412548051695
 31
0.0
  0
LINE
  5
F6E
330
1D
100
AcDbEntity
  8
0
100
AcDbLine
 10
47.105904572512
 20
829.470911530814
 30
0.0
 11
51.622604572512
 21
825.259911530814
 31
0.0
  0
LINE
  5
F6F
330
1D
100
AcDbEntity
  8
0
100
AcDbLine
 10
46.050904572512
 20
827.981911530814
 30
0.0
 11
46.857104572512
 21
827.040911530814
 31
0.0
  0
LINE
  5
F70
330
1D
100
AcDbEntity
  8
0
100
AcDbLine
 10
45.898304572512
 20
824.090911530814
 30
0.0
 11
46.298304572512
 21
823.522911530814
 31
0.0
  0
LINE
  5
F71
330
1D
100
AcDbEntity
  8
0
100
AcDbLine
 10
45.898304572512
 20
824.090911530814
 30
0.0
 11
46.008904572512
 21
824.362911530814
 31
0.0
  0
LINE
  5
F72
330
1D
100
AcDbEntity
  8
0
100
AcDbLine
 10
44.564004572512
 20
819.367911530814
 30
0.0
 11
47.973104572512
 21
816.243911530814
 31
0.0
  0
LINE
  5
F73
330
1D
100
AcDbEntity
  8
0
100
AcDbLine
 10
53.983104572512
 20
819.506911530814
 30
0.0
 11
54.465604572512
 21
819.572911530814
 31
0.0
  0
LINE
  5
F74
330
1D
100
AcDbEntity
  8
0
100
AcDbLine
 10
58.510504572512
 20
818.838911530814
 30
0.0
 11
61.854004572512
 21
815.721911530814
 31
0.0
  0
LINE
  5
F75
330
1D
100
AcDbEntity
  8
0
100
AcDbLine
 10
54.441504572512
 20
819.950911530814
 30
0.0
 11
54.465604572512
 21
819.572911530814
 31
0.0
  0
LINE
  5
F76
330
1D
100
AcDbEntity
  8
0
100
AcDbLine
 10
54.113504572512
 20
820.437911530814
 30
0.0
 11
54.441504572512
 21
819.950911530814
 31
0.0
  0
LINE
  5
F77
330
1D
100
AcDbEntity
  8
0
100
AcDbLine
 10
54.731780267593
 20
822.36171721484
 30
0.0
 11
54.828504572512
 21
822.258911530814
 31
0.0
  0
LINE
  5
F78
330
1D
100
AcDbEntity
  8
0
100
AcDbLine
 10
55.093104572512
 20
822.024911530814
 30
0.0
 11
58.510504572512
 21
818.838911530814
 31
0.0
  0
LINE
  5
F79
330
1D
100
AcDbEntity
  8
0
100
AcDbLine
 10
54.828504572512
 20
822.258911530814
 30
0.0
 11
54.969877453195
 21
822.139776746486
 31
0.0
  0
LINE
  5
F7A
330
1D
100
AcDbEntity
  8
0
100
AcDbLine
 10
54.828504572512
 20
822.258911530814
 30
0.0
 11
54.969877453195
 21
822.139776746486
 31
0.0
  0
LINE
  5
F7B
330
1D
100
AcDbEntity
  8
0
100
AcDbLine
 10
53.723128640799
 20
819.638541330734
 30
0.0
 11
53.983104572512
 21
819.506911530814
 31
0.0
  0
LINE
  5
F7C
330
1D
100
AcDbEntity
  8
0
100
AcDbLine
 10
49.163304572512
 20
818.748911530814
 30
0.0
 11
49.469904572512
 21
818.768911530814
 31
0.0
  0
LINE
  5
F7D
330
1D
100
AcDbEntity
  8
0
100
AcDbLine
 10
49.163304572512
 20
818.748911530814
 30
0.0
 11
49.542104572512
 21
818.247911530814
 31
0.0
  0
LINE
  5
F7E
330
1D
100
AcDbEntity
  8
0
100
AcDbLine
 10
43.917804572512
 20
823.522911530814
 30
0.0
 11
44.617904572512
 21
823.130911530814
 31
0.0
  0
LINE
  5
F7F
330
1D
100
AcDbEntity
  8
0
100
AcDbLine
 10
52.828004572512
 20
817.809911530814
 30
0.0
 11
53.729004572512
 21
817.427911530814
 31
0.0
  0
LINE
  5
F80
330
1D
100
AcDbEntity
  8
0
100
AcDbLine
 10
62.212004572512
 20
806.387911530814
 30
0.0
 11
62.641013258633
 21
806.02003134464
 31
0.0
  0
LINE
  5
F81
330
1D
100
AcDbEntity
  8
0
100
AcDbLine
 10
62.224304572512
 20
806.574911530814
 30
0.0
 11
62.683504572512
 21
806.308911530814
 31
0.0
  0
LINE
  5
F82
330
1D
100
AcDbEntity
  8
0
100
AcDbLine
 10
61.215104572512
 20
807.744911530814
 30
0.0
 11
62.654743764113
 21
809.288829572951
 31
0.0
  0
LINE
  5
F83
330
1D
100
AcDbEntity
  8
0
100
AcDbLine
 10
62.047004572512
 20
806.624911530814
 30
0.0
 11
62.212004572512
 21
806.387911530814
 31
0.0
  0
LINE
  5
F84
330
1D
100
AcDbEntity
  8
0
100
AcDbLine
 10
62.047004572512
 20
806.624911530814
 30
0.0
 11
62.224304572512
 21
806.574911530814
 31
0.0
  0
LINE
  5
F85
330
1D
100
AcDbEntity
  8
0
100
AcDbLine
 10
64.985304572512
 20
807.647911530814
 30
0.0
 11
65.753204572512
 21
806.930911530814
 31
0.0
  0
LINE
  5
F86
330
1D
100
AcDbEntity
  8
0
100
AcDbLine
 10
63.888304572512
 20
808.670911530814
 30
0.0
 11
64.217404572512
 21
808.363911530814
 31
0.0
  0
LINE
  5
F87
330
1D
100
AcDbEntity
  8
0
100
AcDbLine
 10
63.888304572512
 20
808.670911530814
 30
0.0
 11
64.999798930758
 21
809.862624887144
 31
0.0
  0
LINE
  5
F88
330
1D
100
AcDbEntity
  8
0
100
AcDbLine
 10
64.217404572512
 20
808.363911530814
 30
0.0
 11
64.985304572512
 21
807.647911530814
 31
0.0
  0
LINE
  5
F89
330
1D
100
AcDbEntity
  8
0
100
AcDbLine
 10
62.683504572512
 20
806.308911530814
 30
0.0
 11
63.411104572512
 21
805.815911530814
 31
0.0
  0
LINE
  5
F8A
330
1D
100
AcDbEntity
  8
0
100
AcDbLine
 10
62.681604572512
 20
808.761911530814
 30
0.0
 11
63.048304572512
 21
808.724911530814
 31
0.0
  0
LINE
  5
F8B
330
1D
100
AcDbEntity
  8
0
100
AcDbLine
 10
62.335997438489
 20
808.946995170368
 30
0.0
 11
62.681604572512
 21
808.761911530814
 31
0.0
  0
LINE
  5
F8C
330
1D
100
AcDbEntity
  8
0
100
AcDbLine
 10
63.912104572512
 20
809.779911530814
 30
0.0
 11
64.41863036044
 21
809.239512099941
 31
0.0
  0
LINE
  5
F8D
330
1D
100
AcDbEntity
  8
0
100
AcDbLine
 10
62.705904572512
 20
809.240911530814
 30
0.0
 11
63.048304572512
 21
808.724911530814
 31
0.0
  0
LINE
  5
F8E
330
1D
100
AcDbEntity
  8
0
100
AcDbLine
 10
66.082304572512
 20
806.624911530814
 30
0.0
 11
67.456919495119
 21
808.098692222031
 31
0.0
  0
LINE
  5
F8F
330
1D
100
AcDbEntity
  8
0
100
AcDbLine
 10
65.753204572512
 20
806.930911530814
 30
0.0
 11
66.082304572512
 21
806.624911530814
 31
0.0
  0
LINE
  5
F90
330
1D
100
AcDbEntity
  8
0
100
AcDbLine
 10
66.761604572512
 20
808.726911530814
 30
0.0
 11
67.339704572512
 21
808.214911530814
 31
0.0
  0
LINE
  5
F91
330
1D
100
AcDbEntity
  8
0
100
AcDbLine
 10
66.761604572512
 20
808.726911530814
 30
0.0
 11
67.323904572512
 21
808.232911530814
 31
0.0
  0
LINE
  5
F92
330
1D
100
AcDbEntity
  8
0
100
AcDbLine
 10
67.636604572512
 20
807.906911530814
 30
0.0
 11
67.686204572512
 21
807.847911530814
 31
0.0
  0
LINE
  5
F93
330
1D
100
AcDbEntity
  8
0
100
AcDbLine
 10
67.606804572512
 20
807.937911530814
 30
0.0
 11
67.662504572512
 21
807.873911530814
 31
0.0
  0
LINE
  5
F94
330
1D
100
AcDbEntity
  8
0
100
AcDbLine
 10
67.606704572512
 20
807.937911530814
 30
0.0
 11
67.662504572512
 21
807.873911530814
 31
0.0
  0
LINE
  5
F95
330
1D
100
AcDbEntity
  8
0
100
AcDbLine
 10
67.582304572512
 20
807.967911530814
 30
0.0
 11
67.636604572512
 21
807.906911530814
 31
0.0
  0
LINE
  5
F96
330
1D
100
AcDbEntity
  8
0
100
AcDbLine
 10
67.546404572512
 20
808.004911530814
 30
0.0
 11
67.582304572512
 21
807.967911530814
 31
0.0
  0
LINE
  5
F97
330
1D
100
AcDbEntity
  8
0
100
AcDbLine
 10
67.546404572512
 20
808.004911530814
 30
0.0
 11
67.606804572512
 21
807.937911530814
 31
0.0
  0
LINE
  5
F98
330
1D
100
AcDbEntity
  8
0
100
AcDbLine
 10
67.546404572512
 20
808.004911530814
 30
0.0
 11
67.606704572512
 21
807.937911530814
 31
0.0
  0
LINE
  5
F99
330
1D
100
AcDbEntity
  8
0
100
AcDbLine
 10
67.481204572512
 20
808.073911530814
 30
0.0
 11
67.523704572512
 21
808.031911530814
 31
0.0
  0
LINE
  5
F9A
330
1D
100
AcDbEntity
  8
0
100
AcDbLine
 10
67.481204572512
 20
808.073911530814
 30
0.0
 11
67.546404572512
 21
808.004911530814
 31
0.0
  0
LINE
  5
F9B
330
1D
100
AcDbEntity
  8
0
100
AcDbLine
 10
67.481104572512
 20
808.073911530814
 30
0.0
 11
67.546404572512
 21
808.004911530814
 31
0.0
  0
LINE
  5
F9C
330
1D
100
AcDbEntity
  8
0
100
AcDbLine
 10
67.461204572512
 20
808.096911530814
 30
0.0
 11
67.523704572512
 21
808.031911530814
 31
0.0
  0
LINE
  5
F9D
330
1D
100
AcDbEntity
  8
0
100
AcDbLine
 10
67.412604572512
 20
808.143911530814
 30
0.0
 11
67.461204572512
 21
808.096911530814
 31
0.0
  0
LINE
  5
F9E
330
1D
100
AcDbEntity
  8
0
100
AcDbLine
 10
67.412604572512
 20
808.143911530814
 30
0.0
 11
67.481204572512
 21
808.073911530814
 31
0.0
  0
LINE
  5
F9F
330
1D
100
AcDbEntity
  8
0
100
AcDbLine
 10
67.339704572512
 20
808.214911530814
 30
0.0
 11
67.412604572512
 21
808.143911530814
 31
0.0
  0
LINE
  5
FA0
330
1D
100
AcDbEntity
  8
0
100
AcDbLine
 10
67.394504572512
 20
808.164911530814
 30
0.0
 11
67.461204572512
 21
808.096911530814
 31
0.0
  0
LINE
  5
FA1
330
1D
100
AcDbEntity
  8
0
100
AcDbLine
 10
67.323904572512
 20
808.232911530814
 30
0.0
 11
67.394504572512
 21
808.164911530814
 31
0.0
  0
LINE
  5
FA2
330
1D
100
AcDbEntity
  8
0
100
AcDbLine
 10
66.900063616073
 20
807.501664335289
 30
0.0
 11
67.649104572512
 21
807.228911530814
 31
0.0
  0
LINE
  5
FA3
330
1D
100
AcDbEntity
  8
0
100
AcDbLine
 10
67.863820599281
 20
807.324327017586
 30
0.0
 11
67.961604421007
 21
807.429193714376
 31
0.0
  0
LINE
  5
FA4
330
1D
100
AcDbEntity
  8
0
100
AcDbLine
 10
70.830604572512
 20
807.352911530814
 30
0.0
 11
74.119204572512
 21
804.286911530814
 31
0.0
  0
LINE
  5
FA5
330
1D
100
AcDbEntity
  8
0
100
AcDbLine
 10
67.686204572512
 20
807.847911530814
 30
0.0
 11
67.993404572512
 21
807.381911530814
 31
0.0
  0
LINE
  5
FA6
330
1D
100
AcDbEntity
  8
0
100
AcDbLine
 10
67.662504572512
 20
807.873911530814
 30
0.0
 11
67.703316899974
 21
807.81213542569
 31
0.0
  0
LINE
  5
FA7
330
1D
100
AcDbEntity
  8
0
100
AcDbLine
 10
67.649104572512
 20
807.228911530814
 30
0.0
 11
67.993404572512
 21
807.381911530814
 31
0.0
  0
LINE
  5
FA8
330
1D
100
AcDbEntity
  8
0
100
AcDbLine
 10
65.698304572512
 20
809.477911530814
 30
0.0
 11
66.761604572512
 21
808.726911530814
 31
0.0
  0
LINE
  5
FA9
330
1D
100
AcDbEntity
  8
0
100
AcDbLine
 10
61.854004572512
 20
815.721911530814
 30
0.0
 11
64.951704572512
 21
812.833911530814
 31
0.0
  0
LINE
  5
FAA
330
1D
100
AcDbEntity
  8
0
100
AcDbLine
 10
64.214604572512
 20
810.187911530814
 30
0.0
 11
64.863104572512
 21
809.937911530814
 31
0.0
  0
LINE
  5
FAB
330
1D
100
AcDbEntity
  8
0
100
AcDbLine
 10
63.834204572512
 20
810.149911530814
 30
0.0
 11
63.912104572512
 21
809.779911530814
 31
0.0
  0
LINE
  5
FAC
330
1D
100
AcDbEntity
  8
0
100
AcDbLine
 10
63.834204572512
 20
810.149911530814
 30
0.0
 11
64.214604572512
 21
810.187911530814
 31
0.0
  0
LINE
  5
FAD
330
1D
100
AcDbEntity
  8
0
100
AcDbLine
 10
63.834204572512
 20
810.149911530814
 30
0.0
 11
64.214891851537
 21
810.18780078331
 31
0.0
  0
LINE
  5
FAE
330
1D
100
AcDbEntity
  8
0
100
AcDbLine
 10
64.863104572512
 20
809.937911530814
 30
0.0
 11
65.698304572512
 21
809.477911530814
 31
0.0
  0
LINE
  5
FAF
330
1D
100
AcDbEntity
  8
0
100
AcDbLine
 10
64.951704572512
 20
812.833911530814
 30
0.0
 11
67.948704572512
 21
810.039911530814
 31
0.0
  0
LINE
  5
FB0
330
1D
100
AcDbEntity
  8
0
100
AcDbLine
 10
82.720304572512
 20
823.054911530814
 30
0.0
 11
93.181504572512
 21
811.842911530814
 31
0.0
  0
LINE
  5
FB1
330
1D
100
AcDbEntity
  8
0
100
AcDbLine
 10
93.181504572512
 20
811.842911530814
 30
0.0
 11
103.765504572512
 21
799.931911530814
 31
0.0
  0
LINE
  5
FB2
330
1D
100
AcDbEntity
  8
0
100
AcDbLine
 10
72.295604572512
 20
833.568911530814
 30
0.0
 11
82.720304572512
 21
823.054911530814
 31
0.0
  0
LINE
  5
FB3
330
1D
100
AcDbEntity
  8
0
100
AcDbLine
 10
67.948704572512
 20
810.039911530814
 30
0.0
 11
70.830604572512
 21
807.352911530814
 31
0.0
  0
LINE
  5
FB4
330
1D
100
AcDbEntity
  8
0
100
AcDbLine
 10
62.104804572512
 20
809.803911530814
 30
0.0
 11
62.705904572512
 21
809.240911530814
 31
0.0
  0
LINE
  5
FB5
330
1D
100
AcDbEntity
  8
0
100
AcDbLine
 10
61.155304572512
 20
810.555911530814
 30
0.0
 11
62.104804572512
 21
809.803911530814
 31
0.0
  0
LINE
  5
FB6
330
1D
100
AcDbEntity
  8
0
100
AcDbLine
 10
65.109004572512
 20
806.169911530814
 30
0.0
 11
66.002504572512
 21
805.745911530814
 31
0.0
  0
LINE
  5
FB7
330
1D
100
AcDbEntity
  8
0
100
AcDbLine
 10
38.816804572512
 20
826.431911530814
 30
0.0
 11
39.023004572512
 21
826.353911530814
 31
0.0
  0
LINE
  5
FB8
330
1D
100
AcDbEntity
  8
0
100
AcDbLine
 10
21.748404572512
 20
842.223911530814
 30
0.0
 11
22.876348708854
 21
843.433557192574
 31
0.0
  0
LINE
  5
FB9
330
1D
100
AcDbEntity
  8
0
100
AcDbLine
 10
21.043204572512
 20
842.197911530814
 30
0.0
 11
21.811104572512
 21
841.481911530814
 31
0.0
  0
LINE
  5
FBA
330
1D
100
AcDbEntity
  8
0
100
AcDbLine
 10
21.811104572512
 20
841.481911530814
 30
0.0
 11
22.579004572512
 21
840.765911530814
 31
0.0
  0
LINE
  5
FBB
330
1D
100
AcDbEntity
  8
0
100
AcDbLine
 10
19.883504572512
 20
843.962911530814
 30
0.0
 11
20.651404572512
 21
843.246911530814
 31
0.0
  0
LINE
  5
FBC
330
1D
100
AcDbEntity
  8
0
100
AcDbLine
 10
20.651404572512
 20
843.246911530814
 30
0.0
 11
21.419304572512
 21
842.530911530814
 31
0.0
  0
LINE
  5
FBD
330
1D
100
AcDbEntity
  8
0
100
AcDbLine
 10
20.651404572512
 20
843.246911530814
 30
0.0
 11
21.055097010618
 21
842.870503423399
 31
0.0
  0
LINE
  5
FBE
330
1D
100
AcDbEntity
  8
0
100
AcDbLine
 10
21.419304572512
 20
842.530911530814
 30
0.0
 11
21.748404572512
 21
842.223911530814
 31
0.0
  0
LINE
  5
FBF
330
1D
100
AcDbEntity
  8
0
100
AcDbLine
 10
20.714104572512
 20
842.504911530814
 30
0.0
 11
21.043204572512
 21
842.197911530814
 31
0.0
  0
LINE
  5
FC0
330
1D
100
AcDbEntity
  8
0
100
AcDbLine
 10
20.714104572512
 20
842.504911530814
 30
0.0
 11
21.055097010618
 21
842.870503423399
 31
0.0
  0
LINE
  5
FC1
330
1D
100
AcDbEntity
  8
0
100
AcDbLine
 10
21.945065985338
 20
842.434817919877
 30
0.0
 11
22.241004572512
 21
842.094911530814
 31
0.0
  0
LINE
  5
FC2
330
1D
100
AcDbEntity
  8
0
100
AcDbLine
 10
22.579004572512
 20
840.765911530814
 30
0.0
 11
22.908104572512
 21
840.458911530814
 31
0.0
  0
LINE
  5
FC3
330
1D
100
AcDbEntity
  8
0
100
AcDbLine
 10
22.704704572512
 20
841.950911530814
 30
0.0
 11
22.887804572512
 21
841.803911530814
 31
0.0
  0
LINE
  5
FC4
330
1D
100
AcDbEntity
  8
0
100
AcDbLine
 10
22.704704572512
 20
841.950911530814
 30
0.0
 11
22.972104572512
 21
841.550911530814
 31
0.0
  0
LINE
  5
FC5
330
1D
100
AcDbEntity
  8
0
100
AcDbLine
 10
22.241004572512
 20
842.094911530814
 30
0.0
 11
22.953704572512
 21
841.273911530814
 31
0.0
  0
LINE
  5
FC6
330
1D
100
AcDbEntity
  8
0
100
AcDbLine
 10
19.554404572512
 20
844.269911530814
 30
0.0
 11
19.883504572512
 21
843.962911530814
 31
0.0
  0
LINE
  5
FC7
330
1D
100
AcDbEntity
  8
0
100
AcDbLine
 10
19.554404572512
 20
844.269911530814
 30
0.0
 11
20.915093039047
 21
845.729160129676
 31
0.0
  0
LINE
  5
FC8
330
1D
100
AcDbEntity
  8
0
100
AcDbLine
 10
19.554404572512
 20
844.269911530814
 30
0.0
 11
19.971799280712
 21
844.717539814652
 31
0.0
  0
LINE
  5
FC9
330
1D
100
AcDbEntity
  8
0
100
AcDbLine
 10
19.817404572512
 20
845.281911530814
 30
0.0
 11
20.140796149744
 21
844.898777805869
 31
0.0
  0
LINE
  5
FCA
330
1D
100
AcDbEntity
  8
0
100
AcDbLine
 10
19.817404572512
 20
845.281911530814
 30
0.0
 11
20.140617817929
 21
844.898586556765
 31
0.0
  0
LINE
  5
FCB
330
1D
100
AcDbEntity
  8
0
100
AcDbLine
 10
19.563404572512
 20
845.197911530814
 30
0.0
 11
19.971799280712
 21
844.717539814652
 31
0.0
  0
LINE
  5
FCC
330
1D
100
AcDbEntity
  8
0
100
AcDbLine
 10
19.563404572512
 20
845.197911530814
 30
0.0
 11
19.817404572512
 21
845.281911530814
 31
0.0
  0
LINE
  5
FCD
330
1D
100
AcDbEntity
  8
0
100
AcDbLine
 10
21.611204572512
 20
844.982911530814
 30
0.0
 11
22.421004572512
 21
844.025911530814
 31
0.0
  0
LINE
  5
FCE
330
1D
100
AcDbEntity
  8
0
100
AcDbLine
 10
22.421004572512
 20
844.025911530814
 30
0.0
 11
23.025204572512
 21
843.239911530814
 31
0.0
  0
LINE
  5
FCF
330
1D
100
AcDbEntity
  8
0
100
AcDbLine
 10
22.858904572512
 20
840.504911530814
 30
0.0
 11
23.188004572512
 21
840.197911530814
 31
0.0
  0
LINE
  5
FD0
330
1D
100
AcDbEntity
  8
0
100
AcDbLine
 10
22.858904572512
 20
840.504911530814
 30
0.0
 11
23.492857793857
 21
841.18461855367
 31
0.0
  0
LINE
  5
FD1
330
1D
100
AcDbEntity
  8
0
100
AcDbLine
 10
22.887804572512
 20
841.803911530814
 30
0.0
 11
23.358304572512
 21
841.331911530814
 31
0.0
  0
LINE
  5
FD2
330
1D
100
AcDbEntity
  8
0
100
AcDbLine
 10
23.188004572512
 20
840.197911530814
 30
0.0
 11
23.955904572512
 21
839.481911530814
 31
0.0
  0
LINE
  5
FD3
330
1D
100
AcDbEntity
  8
0
100
AcDbLine
 10
23.955904572512
 20
839.481911530814
 30
0.0
 11
24.723804572512
 21
838.765911530814
 31
0.0
  0
LINE
  5
FD4
330
1D
100
AcDbEntity
  8
0
100
AcDbLine
 10
23.545104572512
 20
842.872911530814
 30
0.0
 11
24.313004572512
 21
842.156911530814
 31
0.0
  0
LINE
  5
FD5
330
1D
100
AcDbEntity
  8
0
100
AcDbLine
 10
22.972104572512
 20
841.550911530814
 30
0.0
 11
23.378084020172
 21
841.061561303724
 31
0.0
  0
LINE
  5
FD6
330
1D
100
AcDbEntity
  8
0
100
AcDbLine
 10
23.358304572512
 20
841.331911530814
 30
0.0
 11
24.163104572512
 21
840.450911530814
 31
0.0
  0
LINE
  5
FD7
330
1D
100
AcDbEntity
  8
0
100
AcDbLine
 10
22.953704572512
 20
841.273911530814
 30
0.0
 11
23.23011437448
 21
840.902912362509
 31
0.0
  0
LINE
  5
FD8
330
1D
100
AcDbEntity
  8
0
100
AcDbLine
 10
23.216004572512
 20
843.179911530814
 30
0.0
 11
23.545104572512
 21
842.872911530814
 31
0.0
  0
LINE
  5
FD9
330
1D
100
AcDbEntity
  8
0
100
AcDbLine
 10
23.216004572512
 20
843.179911530814
 30
0.0
 11
24.674278976037
 21
844.74338696169
 31
0.0
  0
LINE
  5
FDA
330
1D
100
AcDbEntity
  8
0
100
AcDbLine
 10
23.975104572512
 20
844.818911530814
 30
0.0
 11
24.291361908819
 21
844.332845965283
 31
0.0
  0
LINE
  5
FDB
330
1D
100
AcDbEntity
  8
0
100
AcDbLine
 10
23.025204572512
 20
843.239911530814
 30
0.0
 11
23.304504572512
 21
842.769911530814
 31
0.0
  0
LINE
  5
FDC
330
1D
100
AcDbEntity
  8
0
100
AcDbLine
 10
23.006804572512
 20
842.950911530814
 30
0.0
 11
23.304504572512
 21
842.769911530814
 31
0.0
  0
LINE
  5
FDD
330
1D
100
AcDbEntity
  8
0
100
AcDbLine
 10
22.706408534589
 20
843.251307568737
 30
0.0
 11
23.006804572512
 21
842.950911530814
 31
0.0
  0
LINE
  5
FDE
330
1D
100
AcDbEntity
  8
0
100
AcDbLine
 10
17.983204572512
 20
845.734911530814
 30
0.0
 11
19.073163577645
 21
846.903854925567
 31
0.0
  0
LINE
  5
FDF
330
1D
100
AcDbEntity
  8
0
100
AcDbLine
 10
17.983204572512
 20
845.734911530814
 30
0.0
 11
18.792966230994
 21
846.603352947004
 31
0.0
  0
LINE
  5
FE0
330
1D
100
AcDbEntity
  8
0
100
AcDbLine
 10
17.654004572512
 20
846.041911530814
 30
0.0
 11
17.983204572512
 21
845.734911530814
 31
0.0
  0
LINE
  5
FE1
330
1D
100
AcDbEntity
  8
0
100
AcDbLine
 10
20.326104572512
 20
846.133911530814
 30
0.0
 11
20.370804572512
 21
846.202911530814
 31
0.0
  0
LINE
  5
FE2
330
1D
100
AcDbEntity
  8
0
100
AcDbLine
 10
20.326104572512
 20
846.133911530814
 30
0.0
 11
20.647804572512
 21
845.654911530814
 31
0.0
  0
LINE
  5
FE3
330
1D
100
AcDbEntity
  8
0
100
AcDbLine
 10
19.665504572512
 20
846.137911530814
 30
0.0
 11
19.712504572512
 21
845.978911530814
 31
0.0
  0
LINE
  5
FE4
330
1D
100
AcDbEntity
  8
0
100
AcDbLine
 10
20.738975848864
 20
845.54028606384
 30
0.0
 11
20.915093039047
 21
845.729160129676
 31
0.0
  0
LINE
  5
FE5
330
1D
100
AcDbEntity
  8
0
100
AcDbLine
 10
20.647804572512
 20
845.654911530814
 30
0.0
 11
20.737425013291
 21
845.538622895016
 31
0.0
  0
LINE
  5
FE6
330
1D
100
AcDbEntity
  8
0
100
AcDbLine
 10
20.559604572512
 20
846.065911530814
 30
0.0
 11
20.892004572512
 21
845.753911530814
 31
0.0
  0
LINE
  5
FE7
330
1D
100
AcDbEntity
  8
0
100
AcDbLine
 10
23.964304572512
 20
845.899911530814
 30
0.0
 11
24.293404572512
 21
845.592911530814
 31
0.0
  0
LINE
  5
FE8
330
1D
100
AcDbEntity
  8
0
100
AcDbLine
 10
20.892004572512
 20
845.753911530814
 30
0.0
 11
21.611204572512
 21
844.982911530814
 31
0.0
  0
LINE
  5
FE9
330
1D
100
AcDbEntity
  8
0
100
AcDbLine
 10
23.771804572512
 20
845.354911530814
 30
0.0
 11
24.062704572512
 21
845.281911530814
 31
0.0
  0
LINE
  5
FEA
330
1D
100
AcDbEntity
  8
0
100
AcDbLine
 10
23.771804572512
 20
845.354911530814
 30
0.0
 11
23.975104572512
 21
844.818911530814
 31
0.0
  0
LINE
  5
FEB
330
1D
100
AcDbEntity
  8
0
100
AcDbLine
 10
24.723804572512
 20
838.765911530814
 30
0.0
 11
25.052904572512
 21
838.458911530814
 31
0.0
  0
LINE
  5
FEC
330
1D
100
AcDbEntity
  8
0
100
AcDbLine
 10
24.293404572512
 20
845.592911530814
 30
0.0
 11
25.305376599829
 21
846.678184757764
 31
0.0
  0
LINE
  5
FED
330
1D
100
AcDbEntity
  8
0
100
AcDbLine
 10
24.313004572512
 20
842.156911530814
 30
0.0
 11
25.081004572512
 21
841.440911530814
 31
0.0
  0
LINE
  5
FEE
330
1D
100
AcDbEntity
  8
0
100
AcDbLine
 10
24.484204572512
 20
844.971911530814
 30
0.0
 11
25.060604572512
 21
844.278911530814
 31
0.0
  0
LINE
  5
FEF
330
1D
100
AcDbEntity
  8
0
100
AcDbLine
 10
24.163104572512
 20
840.450911530814
 30
0.0
 11
25.133204572512
 21
839.332911530814
 31
0.0
  0
LINE
  5
FF0
330
1D
100
AcDbEntity
  8
0
100
AcDbLine
 10
24.062704572512
 20
845.281911530814
 30
0.0
 11
24.484204572512
 21
844.971911530814
 31
0.0
  0
LINE
  5
FF1
330
1D
100
AcDbEntity
  8
0
100
AcDbLine
 10
15.789104572512
 20
847.780911530814
 30
0.0
 11
16.886104572512
 21
846.757911530814
 31
0.0
  0
LINE
  5
FF2
330
1D
100
AcDbEntity
  8
0
100
AcDbLine
 10
17.425604572512
 20
848.578911530814
 30
0.0
 11
17.754704572512
 21
848.271911530814
 31
0.0
  0
LINE
  5
FF3
330
1D
100
AcDbEntity
  8
0
100
AcDbLine
 10
17.425604572512
 20
848.578911530814
 30
0.0
 11
18.872918452364
 21
850.131060169705
 31
0.0
  0
LINE
  5
FF4
330
1D
100
AcDbEntity
  8
0
100
AcDbLine
 10
17.754704572512
 20
848.271911530814
 30
0.0
 11
18.522604572512
 21
847.555911530814
 31
0.0
  0
LINE
  5
FF5
330
1D
100
AcDbEntity
  8
0
100
AcDbLine
 10
16.886104572512
 20
846.757911530814
 30
0.0
 11
17.654004572512
 21
846.041911530814
 31
0.0
  0
LINE
  5
FF6
330
1D
100
AcDbEntity
  8
0
100
AcDbLine
 10
16.513604572512
 20
850.707911530814
 30
0.0
 11
16.545104572512
 21
850.633911530814
 31
0.0
  0
LINE
  5
FF7
330
1D
100
AcDbEntity
  8
0
100
AcDbLine
 10
16.704904572512
 20
851.280911530814
 30
0.0
 11
16.839404572512
 21
850.893911530814
 31
0.0
  0
LINE
  5
FF8
330
1D
100
AcDbEntity
  8
0
100
AcDbLine
 10
16.563704572512
 20
851.096911530814
 30
0.0
 11
16.839404572512
 21
850.893911530814
 31
0.0
  0
LINE
  5
FF9
330
1D
100
AcDbEntity
  8
0
100
AcDbLine
 10
16.557104572512
 20
849.847911530814
 30
0.0
 11
16.802304572512
 21
849.604911530814
 31
0.0
  0
LINE
  5
FFA
330
1D
100
AcDbEntity
  8
0
100
AcDbLine
 10
18.000604572512
 20
851.460911530814
 30
0.0
 11
18.329704572512
 21
851.154911530814
 31
0.0
  0
LINE
  5
FFB
330
1D
100
AcDbEntity
  8
0
100
AcDbLine
 10
16.802304572512
 20
849.604911530814
 30
0.0
 11
17.139104572512
 21
849.234911530814
 31
0.0
  0
LINE
  5
FFC
330
1D
100
AcDbEntity
  8
0
100
AcDbLine
 10
17.139104572512
 20
849.234911530814
 30
0.0
 11
17.57186459085
 21
848.735765749894
 31
0.0
  0
LINE
  5
FFD
330
1D
100
AcDbEntity
  8
0
100
AcDbLine
 10
16.720504572512
 20
849.528911530814
 30
0.0
 11
17.034351904116
 21
849.116357129546
 31
0.0
  0
LINE
  5
FFE
330
1D
100
AcDbEntity
  8
0
100
AcDbLine
 10
16.867604572512
 20
849.086911530814
 30
0.0
 11
16.930838126786
 21
849.005345433447
 31
0.0
  0
LINE
  5
FFF
330
1D
100
AcDbEntity
  8
0
100
AcDbLine
 10
18.792966230994
 20
846.603352947004
 30
0.0
 11
19.817404572512
 21
845.281911530814
 31
0.0
  0
LINE
  5
1000
330
1D
100
AcDbEntity
  8
0
100
AcDbLine
 10
19.290504572512
 20
846.839911530814
 30
0.0
 11
19.619604572512
 21
846.532911530814
 31
0.0
  0
LINE
  5
1001
330
1D
100
AcDbEntity
  8
0
100
AcDbLine
 10
18.963295860666
 20
846.786025593039
 30
0.0
 11
19.331204572512
 21
846.365911530814
 31
0.0
  0
LINE
  5
1002
330
1D
100
AcDbEntity
  8
0
100
AcDbLine
 10
18.963295860666
 20
846.786025593039
 30
0.0
 11
19.073163577645
 21
846.903854925567
 31
0.0
  0
LINE
  5
1003
330
1D
100
AcDbEntity
  8
0
100
AcDbLine
 10
19.619604572512
 20
846.532911530814
 30
0.0
 11
20.770867898117
 21
847.767565484403
 31
0.0
  0
LINE
  5
1004
330
1D
100
AcDbEntity
  8
0
100
AcDbLine
 10
19.331204572512
 20
846.365911530814
 30
0.0
 11
19.712504572512
 21
845.978911530814
 31
0.0
  0
LINE
  5
1005
330
1D
100
AcDbEntity
  8
0
100
AcDbLine
 10
18.974904572512
 20
847.030911530814
 30
0.0
 11
19.665504572512
 21
846.137911530814
 31
0.0
  0
LINE
  5
1006
330
1D
100
AcDbEntity
  8
0
100
AcDbLine
 10
18.522604572512
 20
847.555911530814
 30
0.0
 11
19.290504572512
 21
846.839911530814
 31
0.0
  0
LINE
  5
1007
330
1D
100
AcDbEntity
  8
0
100
AcDbLine
 10
18.472804572512
 20
850.049911530814
 30
0.0
 11
18.609609604372
 21
849.848678803985
 31
0.0
  0
LINE
  5
1008
330
1D
100
AcDbEntity
  8
0
100
AcDbLine
 10
18.626753155166
 20
847.458802030644
 30
0.0
 11
18.974904572512
 21
847.030911530814
 31
0.0
  0
LINE
  5
1009
330
1D
100
AcDbEntity
  8
0
100
AcDbLine
 10
19.608304572512
 20
849.328911530814
 30
0.0
 11
20.770867898117
 21
847.767565484403
 31
0.0
  0
LINE
  5
100A
330
1D
100
AcDbEntity
  8
0
100
AcDbLine
 10
20.984904572512
 20
847.096911530814
 30
0.0
 11
21.050459028566
 21
847.171722225344
 31
0.0
  0
LINE
  5
100B
330
1D
100
AcDbEntity
  8
0
100
AcDbLine
 10
20.516419071042
 20
847.49468590651
 30
0.0
 11
20.637304572512
 21
847.367911530814
 31
0.0
  0
LINE
  5
100C
330
1D
100
AcDbEntity
  8
0
100
AcDbLine
 10
20.637304572512
 20
847.367911530814
 30
0.0
 11
20.984904572512
 21
847.096911530814
 31
0.0
  0
LINE
  5
100D
330
1D
100
AcDbEntity
  8
0
100
AcDbLine
 10
20.762026602222
 20
847.758083777925
 30
0.0
 11
21.074704572512
 21
847.229911530814
 31
0.0
  0
LINE
  5
100E
330
1D
100
AcDbEntity
  8
0
100
AcDbLine
 10
22.099404572512
 20
847.638911530814
 30
0.0
 11
22.428504572512
 21
847.331911530814
 31
0.0
  0
LINE
  5
100F
330
1D
100
AcDbEntity
  8
0
100
AcDbLine
 10
22.099404572512
 20
847.638911530814
 30
0.0
 11
23.476398631546
 21
849.115690109038
 31
0.0
  0
LINE
  5
1010
330
1D
100
AcDbEntity
  8
0
100
AcDbLine
 10
22.428504572512
 20
847.331911530814
 30
0.0
 11
23.196404572512
 21
846.615911530814
 31
0.0
  0
LINE
  5
1011
330
1D
100
AcDbEntity
  8
0
100
AcDbLine
 10
22.457104572512
 20
849.133911530814
 30
0.0
 11
22.85454664449
 21
848.448775326592
 31
0.0
  0
LINE
  5
1012
330
1D
100
AcDbEntity
  8
0
100
AcDbLine
 10
22.300604572512
 20
849.627911530814
 30
0.0
 11
22.457104572512
 21
849.133911530814
 31
0.0
  0
LINE
  5
1013
330
1D
100
AcDbEntity
  8
0
100
AcDbLine
 10
22.300604572512
 20
849.627911530814
 30
0.0
 11
22.405904572512
 21
849.849911530814
 31
0.0
  0
LINE
  5
1014
330
1D
100
AcDbEntity
  8
0
100
AcDbLine
 10
21.050459028566
 20
847.171722225344
 30
0.0
 11
21.074704572512
 21
847.229911530814
 31
0.0
  0
LINE
  5
1015
330
1D
100
AcDbEntity
  8
0
100
AcDbLine
 10
20.370804572512
 20
846.202911530814
 30
0.0
 11
20.559604572512
 21
846.065911530814
 31
0.0
  0
LINE
  5
1016
330
1D
100
AcDbEntity
  8
0
100
AcDbLine
 10
22.85454664449
 20
848.448775326592
 30
0.0
 11
23.476398631546
 21
849.115690109038
 31
0.0
  0
LINE
  5
1017
330
1D
100
AcDbEntity
  8
0
100
AcDbLine
 10
23.196404572512
 20
846.615911530814
 30
0.0
 11
23.964304572512
 21
845.899911530814
 31
0.0
  0
LINE
  5
1018
330
1D
100
AcDbEntity
  8
0
100
AcDbLine
 10
24.078304572512
 20
848.464911530814
 30
0.0
 11
24.150604572512
 21
848.378911530814
 31
0.0
  0
LINE
  5
1019
330
1D
100
AcDbEntity
  8
0
100
AcDbLine
 10
24.793404572512
 20
847.529911530814
 30
0.0
 11
25.449804572512
 21
846.437911530814
 31
0.0
  0
LINE
  5
101A
330
1D
100
AcDbEntity
  8
0
100
AcDbLine
 10
24.658504572512
 20
847.723911530814
 30
0.0
 11
24.793404572512
 21
847.529911530814
 31
0.0
  0
LINE
  5
101B
330
1D
100
AcDbEntity
  8
0
100
AcDbLine
 10
24.592604572512
 20
847.813911530814
 30
0.0
 11
24.658504572512
 21
847.723911530814
 31
0.0
  0
LINE
  5
101C
330
1D
100
AcDbEntity
  8
0
100
AcDbLine
 10
24.524204572512
 20
847.905911530814
 30
0.0
 11
24.592604572512
 21
847.813911530814
 31
0.0
  0
LINE
  5
101D
330
1D
100
AcDbEntity
  8
0
100
AcDbLine
 10
24.450104572512
 20
848.003911530814
 30
0.0
 11
24.524204572512
 21
847.905911530814
 31
0.0
  0
LINE
  5
101E
330
1D
100
AcDbEntity
  8
0
100
AcDbLine
 10
24.382304572512
 20
848.090911530814
 30
0.0
 11
24.450104572512
 21
848.003911530814
 31
0.0
  0
LINE
  5
101F
330
1D
100
AcDbEntity
  8
0
100
AcDbLine
 10
24.305804572512
 20
848.187911530814
 30
0.0
 11
24.376104572512
 21
848.099911530814
 31
0.0
  0
LINE
  5
1020
330
1D
100
AcDbEntity
  8
0
100
AcDbLine
 10
24.221604572512
 20
848.292911530814
 30
0.0
 11
24.305804572512
 21
848.187911530814
 31
0.0
  0
LINE
  5
1021
330
1D
100
AcDbEntity
  8
0
100
AcDbLine
 10
24.150604572512
 20
848.378911530814
 30
0.0
 11
24.221604572512
 21
848.292911530814
 31
0.0
  0
LINE
  5
1022
330
1D
100
AcDbEntity
  8
0
100
AcDbLine
 10
23.930004572512
 20
848.636911530814
 30
0.0
 11
24.004704572512
 21
848.550911530814
 31
0.0
  0
LINE
  5
1023
330
1D
100
AcDbEntity
  8
0
100
AcDbLine
 10
23.898904572512
 20
848.669911530814
 30
0.0
 11
23.982704572512
 21
848.574911530814
 31
0.0
  0
LINE
  5
1024
330
1D
100
AcDbEntity
  8
0
100
AcDbLine
 10
23.854504572512
 20
848.721911530814
 30
0.0
 11
23.898904572512
 21
848.669911530814
 31
0.0
  0
LINE
  5
1025
330
1D
100
AcDbEntity
  8
0
100
AcDbLine
 10
23.854504572512
 20
848.721911530814
 30
0.0
 11
23.930004572512
 21
848.636911530814
 31
0.0
  0
LINE
  5
1026
330
1D
100
AcDbEntity
  8
0
100
AcDbLine
 10
23.817404572512
 20
848.759911530814
 30
0.0
 11
23.854504572512
 21
848.721911530814
 31
0.0
  0
LINE
  5
1027
330
1D
100
AcDbEntity
  8
0
100
AcDbLine
 10
23.817404572512
 20
848.759911530814
 30
0.0
 11
23.898904572512
 21
848.669911530814
 31
0.0
  0
LINE
  5
1028
330
1D
100
AcDbEntity
  8
0
100
AcDbLine
 10
23.778204572512
 20
848.804911530814
 30
0.0
 11
23.854504572512
 21
848.721911530814
 31
0.0
  0
LINE
  5
1029
330
1D
100
AcDbEntity
  8
0
100
AcDbLine
 10
23.735904572512
 20
848.848911530814
 30
0.0
 11
23.778204572512
 21
848.804911530814
 31
0.0
  0
LINE
  5
102A
330
1D
100
AcDbEntity
  8
0
100
AcDbLine
 10
23.735904572512
 20
848.848911530814
 30
0.0
 11
23.817404572512
 21
848.759911530814
 31
0.0
  0
LINE
  5
102B
330
1D
100
AcDbEntity
  8
0
100
AcDbLine
 10
23.701304572512
 20
848.887911530814
 30
0.0
 11
23.735904572512
 21
848.848911530814
 31
0.0
  0
LINE
  5
102C
330
1D
100
AcDbEntity
  8
0
100
AcDbLine
 10
23.701304572512
 20
848.887911530814
 30
0.0
 11
23.778204572512
 21
848.804911530814
 31
0.0
  0
LINE
  5
102D
330
1D
100
AcDbEntity
  8
0
100
AcDbLine
 10
23.653904572512
 20
848.935911530814
 30
0.0
 11
23.701304572512
 21
848.887911530814
 31
0.0
  0
LINE
  5
102E
330
1D
100
AcDbEntity
  8
0
100
AcDbLine
 10
23.653904572512
 20
848.935911530814
 30
0.0
 11
23.735904572512
 21
848.848911530814
 31
0.0
  0
LINE
  5
102F
330
1D
100
AcDbEntity
  8
0
100
AcDbLine
 10
23.624104572512
 20
848.968911530814
 30
0.0
 11
23.701304572512
 21
848.887911530814
 31
0.0
  0
LINE
  5
1030
330
1D
100
AcDbEntity
  8
0
100
AcDbLine
 10
23.571504572512
 20
849.019911530814
 30
0.0
 11
23.624104572512
 21
848.968911530814
 31
0.0
  0
LINE
  5
1031
330
1D
100
AcDbEntity
  8
0
100
AcDbLine
 10
23.571504572512
 20
849.019911530814
 30
0.0
 11
23.653904572512
 21
848.935911530814
 31
0.0
  0
LINE
  5
1032
330
1D
100
AcDbEntity
  8
0
100
AcDbLine
 10
23.491404572512
 20
849.100911530814
 30
0.0
 11
23.571504572512
 21
849.019911530814
 31
0.0
  0
LINE
  5
1033
330
1D
100
AcDbEntity
  8
0
100
AcDbLine
 10
23.547504572512
 20
849.046911530814
 30
0.0
 11
23.624104572512
 21
848.968911530814
 31
0.0
  0
LINE
  5
1034
330
1D
100
AcDbEntity
  8
0
100
AcDbLine
 10
23.471404572512
 20
849.123911530814
 30
0.0
 11
23.547504572512
 21
849.046911530814
 31
0.0
  0
LINE
  5
1035
330
1D
100
AcDbEntity
  8
0
100
AcDbLine
 10
23.395804572512
 20
849.196911530814
 30
0.0
 11
23.471404572512
 21
849.123911530814
 31
0.0
  0
LINE
  5
1036
330
1D
100
AcDbEntity
  8
0
100
AcDbLine
 10
23.321204572512
 20
849.266911530814
 30
0.0
 11
23.395804572512
 21
849.196911530814
 31
0.0
  0
LINE
  5
1037
330
1D
100
AcDbEntity
  8
0
100
AcDbLine
 10
23.248104572512
 20
849.333911530814
 30
0.0
 11
23.321204572512
 21
849.266911530814
 31
0.0
  0
LINE
  5
1038
330
1D
100
AcDbEntity
  8
0
100
AcDbLine
 10
23.182204572512
 20
849.389911530814
 30
0.0
 11
23.248104572512
 21
849.333911530814
 31
0.0
  0
LINE
  5
1039
330
1D
100
AcDbEntity
  8
0
100
AcDbLine
 10
24.004704572512
 20
848.550911530814
 30
0.0
 11
24.065504572512
 21
848.478911530814
 31
0.0
  0
LINE
  5
103A
330
1D
100
AcDbEntity
  8
0
100
AcDbLine
 10
23.982704572512
 20
848.574911530814
 30
0.0
 11
24.065504572512
 21
848.478911530814
 31
0.0
  0
LINE
  5
103B
330
1D
100
AcDbEntity
  8
0
100
AcDbLine
 10
23.109404572512
 20
849.452911530814
 30
0.0
 11
23.182204572512
 21
849.389911530814
 31
0.0
  0
LINE
  5
103C
330
1D
100
AcDbEntity
  8
0
100
AcDbLine
 10
23.039104572512
 20
849.510911530814
 30
0.0
 11
23.109404572512
 21
849.452911530814
 31
0.0
  0
LINE
  5
103D
330
1D
100
AcDbEntity
  8
0
100
AcDbLine
 10
22.761204572512
 20
849.713911530814
 30
0.0
 11
23.039104572512
 21
849.510911530814
 31
0.0
  0
LINE
  5
103E
330
1D
100
AcDbEntity
  8
0
100
AcDbLine
 10
22.405904572512
 20
849.849911530814
 30
0.0
 11
22.761204572512
 21
849.713911530814
 31
0.0
  0
LINE
  5
103F
330
1D
100
AcDbEntity
  8
0
100
AcDbLine
 10
18.329704572512
 20
851.154911530814
 30
0.0
 11
19.230140746903
 21
852.120305857375
 31
0.0
  0
LINE
  5
1040
330
1D
100
AcDbEntity
  8
0
100
AcDbLine
 10
24.406704572512
 20
850.631911530814
 30
0.0
 11
27.846604572512
 21
847.425911530814
 31
0.0
  0
LINE
  5
1041
330
1D
100
AcDbEntity
  8
0
100
AcDbLine
 10
18.491004572512
 20
850.461911530814
 30
0.0
 11
18.943504572512
 21
850.069911530814
 31
0.0
  0
LINE
  5
1042
330
1D
100
AcDbEntity
  8
0
100
AcDbLine
 10
18.943504572512
 20
850.069911530814
 30
0.0
 11
19.608304572512
 21
849.328911530814
 31
0.0
  0
LINE
  5
1043
330
1D
100
AcDbEntity
  8
0
100
AcDbLine
 10
18.258304572512
 20
850.548911530814
 30
0.0
 11
18.491004572512
 21
850.461911530814
 31
0.0
  0
LINE
  5
1044
330
1D
100
AcDbEntity
  8
0
100
AcDbLine
 10
18.258304572512
 20
850.548911530814
 30
0.0
 11
18.472804572512
 21
850.049911530814
 31
0.0
  0
LINE
  5
1045
330
1D
100
AcDbEntity
  8
0
100
AcDbLine
 10
24.831085070142
 20
846.16953838707
 30
0.0
 11
25.005804572512
 21
846.023911530814
 31
0.0
  0
LINE
  5
1046
330
1D
100
AcDbEntity
  8
0
100
AcDbLine
 10
25.052904572512
 20
838.458911530814
 30
0.0
 11
25.457735171232
 21
838.892946917594
 31
0.0
  0
LINE
  5
1047
330
1D
100
AcDbEntity
  8
0
100
AcDbLine
 10
25.052904572512
 20
838.458911530814
 30
0.0
 11
25.457735171232
 21
838.892946917594
 31
0.0
  0
LINE
  5
1048
330
1D
100
AcDbEntity
  8
0
100
AcDbLine
 10
25.133204572512
 20
839.332911530814
 30
0.0
 11
25.688323224126
 21
838.580339773909
 31
0.0
  0
LINE
  5
1049
330
1D
100
AcDbEntity
  8
0
100
AcDbLine
 10
25.673004572512
 20
838.563911530814
 30
0.0
 11
26.002104572512
 21
838.256911530814
 31
0.0
  0
LINE
  5
104A
330
1D
100
AcDbEntity
  8
0
100
AcDbLine
 10
25.673004572512
 20
838.563911530814
 30
0.0
 11
27.054888457718
 21
840.045890817676
 31
0.0
  0
LINE
  5
104B
330
1D
100
AcDbEntity
  8
0
100
AcDbLine
 10
25.463004572512
 20
837.905911530814
 30
0.0
 11
26.823216263228
 21
836.388442030213
 31
0.0
  0
LINE
  5
104C
330
1D
100
AcDbEntity
  8
0
100
AcDbLine
 10
25.046648674381
 20
838.464747327612
 30
0.0
 11
25.463004572512
 21
837.905911530814
 31
0.0
  0
LINE
  5
104D
330
1D
100
AcDbEntity
  8
0
100
AcDbLine
 10
25.081004572512
 20
841.440911530814
 30
0.0
 11
25.410104572512
 21
841.133911530814
 31
0.0
  0
LINE
  5
104E
330
1D
100
AcDbEntity
  8
0
100
AcDbLine
 10
25.060604572512
 20
844.278911530814
 30
0.0
 11
25.580804572512
 21
843.870911530814
 31
0.0
  0
LINE
  5
104F
330
1D
100
AcDbEntity
  8
0
100
AcDbLine
 10
25.005804572512
 20
846.023911530814
 30
0.0
 11
25.441704572512
 21
845.882911530814
 31
0.0
  0
LINE
  5
1050
330
1D
100
AcDbEntity
  8
0
100
AcDbLine
 10
25.410104572512
 20
841.133911530814
 30
0.0
 11
26.653875388469
 21
842.467408921764
 31
0.0
  0
LINE
  5
1051
330
1D
100
AcDbEntity
  8
0
100
AcDbLine
 10
25.580804572512
 20
843.870911530814
 30
0.0
 11
26.327604572512
 21
842.972911530814
 31
0.0
  0
LINE
  5
1052
330
1D
100
AcDbEntity
  8
0
100
AcDbLine
 10
25.441704572512
 20
845.882911530814
 30
0.0
 11
25.449804572512
 21
846.437911530814
 31
0.0
  0
LINE
  5
1053
330
1D
100
AcDbEntity
  8
0
100
AcDbLine
 10
25.882004572512
 20
840.983911530814
 30
0.0
 11
26.128704572512
 21
840.872911530814
 31
0.0
  0
LINE
  5
1054
330
1D
100
AcDbEntity
  8
0
100
AcDbLine
 10
25.882004572512
 20
840.983911530814
 30
0.0
 11
25.895704572512
 21
840.830911530814
 31
0.0
  0
LINE
  5
1055
330
1D
100
AcDbEntity
  8
0
100
AcDbLine
 10
17.232704572512
 20
852.177911530814
 30
0.0
 11
18.000604572512
 21
851.460911530814
 31
0.0
  0
LINE
  5
1056
330
1D
100
AcDbEntity
  8
0
100
AcDbLine
 10
18.207204572512
 20
853.752911530814
 30
0.0
 11
18.800904572512
 21
852.893911530814
 31
0.0
  0
LINE
  5
1057
330
1D
100
AcDbEntity
  8
0
100
AcDbLine
 10
18.800904572512
 20
852.893911530814
 30
0.0
 11
19.214704572512
 21
852.166911530814
 31
0.0
  0
LINE
  5
1058
330
1D
100
AcDbEntity
  8
0
100
AcDbLine
 10
16.864504572512
 20
855.135911530814
 30
0.0
 11
17.370604572512
 21
854.729911530814
 31
0.0
  0
LINE
  5
1059
330
1D
100
AcDbEntity
  8
0
100
AcDbLine
 10
17.370604572512
 20
854.729911530814
 30
0.0
 11
18.207204572512
 21
853.752911530814
 31
0.0
  0
LINE
  5
105A
330
1D
100
AcDbEntity
  8
0
100
AcDbLine
 10
16.703604572512
 20
854.751911530814
 30
0.0
 11
17.047060135472
 21
854.178012978961
 31
0.0
  0
LINE
  5
105B
330
1D
100
AcDbEntity
  8
0
100
AcDbLine
 10
18.90232552388
 20
851.768841794216
 30
0.0
 11
19.164604572512
 21
851.565911530814
 31
0.0
  0
LINE
  5
105C
330
1D
100
AcDbEntity
  8
0
100
AcDbLine
 10
18.064704572512
 20
856.544911530814
 30
0.0
 11
21.138404572512
 21
853.678911530814
 31
0.0
  0
LINE
  5
105D
330
1D
100
AcDbEntity
  8
0
100
AcDbLine
 10
16.632404572512
 20
855.161911530814
 30
0.0
 11
16.703604572512
 21
854.751911530814
 31
0.0
  0
LINE
  5
105E
330
1D
100
AcDbEntity
  8
0
100
AcDbLine
 10
16.632404572512
 20
855.161911530814
 30
0.0
 11
16.864504572512
 21
855.135911530814
 31
0.0
  0
LINE
  5
105F
330
1D
100
AcDbEntity
  8
0
100
AcDbLine
 10
21.138404572512
 20
853.678911530814
 30
0.0
 11
24.406704572512
 21
850.631911530814
 31
0.0
  0
LINE
  5
1060
330
1D
100
AcDbEntity
  8
0
100
AcDbLine
 10
19.214704572512
 20
852.166911530814
 30
0.0
 11
19.412104572512
 21
851.570911530814
 31
0.0
  0
LINE
  5
1061
330
1D
100
AcDbEntity
  8
0
100
AcDbLine
 10
19.164604572512
 20
851.565911530814
 30
0.0
 11
19.412104572512
 21
851.570911530814
 31
0.0
  0
LINE
  5
1062
330
1D
100
AcDbEntity
  8
0
100
AcDbLine
 10
26.002104572512
 20
838.256911530814
 30
0.0
 11
26.770004572512
 21
837.540911530814
 31
0.0
  0
LINE
  5
1063
330
1D
100
AcDbEntity
  8
0
100
AcDbLine
 10
26.720920655846
 20
839.687732386167
 30
0.0
 11
27.054888457718
 21
840.045890817676
 31
0.0
  0
LINE
  5
1064
330
1D
100
AcDbEntity
  8
0
100
AcDbLine
 10
26.770004572512
 20
837.540911530814
 30
0.0
 11
27.537904572512
 21
836.824911530814
 31
0.0
  0
LINE
  5
1065
330
1D
100
AcDbEntity
  8
0
100
AcDbLine
 10
26.101604572512
 20
840.472911530814
 30
0.0
 11
26.712996632196
 21
839.679234393648
 31
0.0
  0
LINE
  5
1066
330
1D
100
AcDbEntity
  8
0
100
AcDbLine
 10
26.584004572512
 20
840.497911530814
 30
0.0
 11
27.125704572512
 21
839.977911530814
 31
0.0
  0
LINE
  5
1067
330
1D
100
AcDbEntity
  8
0
100
AcDbLine
 10
31.072104572512
 20
838.082911530814
 30
0.0
 11
31.189841541493
 21
837.885096221595
 31
0.0
  0
LINE
  5
1068
330
1D
100
AcDbEntity
  8
0
100
AcDbLine
 10
31.072104572512
 20
838.082911530814
 30
0.0
 11
31.193518507196
 21
837.889039524697
 31
0.0
  0
LINE
  5
1069
330
1D
100
AcDbEntity
  8
0
100
AcDbLine
 10
30.766204572512
 20
838.631911530814
 30
0.0
 11
31.028204572512
 21
838.686911530814
 31
0.0
  0
LINE
  5
106A
330
1D
100
AcDbEntity
  8
0
100
AcDbLine
 10
30.766204572512
 20
838.631911530814
 30
0.0
 11
31.072104572512
 21
838.082911530814
 31
0.0
  0
LINE
  5
106B
330
1D
100
AcDbEntity
  8
0
100
AcDbLine
 10
30.919704572512
 20
839.413911530814
 30
0.0
 11
31.963649645738
 21
840.533473739842
 31
0.0
  0
LINE
  5
106C
330
1D
100
AcDbEntity
  8
0
100
AcDbLine
 10
31.028204572512
 20
838.686911530814
 30
0.0
 11
32.065504572512
 21
837.837911530814
 31
0.0
  0
LINE
  5
106D
330
1D
100
AcDbEntity
  8
0
100
AcDbLine
 10
32.065504572512
 20
837.837911530814
 30
0.0
 11
33.008704572512
 21
836.830911530814
 31
0.0
  0
LINE
  5
106E
330
1D
100
AcDbEntity
  8
0
100
AcDbLine
 10
28.812005740201
 20
837.531362929711
 30
0.0
 11
29.204404572512
 21
837.247911530814
 31
0.0
  0
LINE
  5
106F
330
1D
100
AcDbEntity
  8
0
100
AcDbLine
 10
28.368004572512
 20
838.619911530814
 30
0.0
 11
29.198804572512
 21
837.492911530814
 31
0.0
  0
LINE
  5
1070
330
1D
100
AcDbEntity
  8
0
100
AcDbLine
 10
30.590604572512
 20
839.720911530814
 30
0.0
 11
30.919704572512
 21
839.413911530814
 31
0.0
  0
LINE
  5
1071
330
1D
100
AcDbEntity
  8
0
100
AcDbLine
 10
29.822704572512
 20
840.436911530814
 30
0.0
 11
30.590604572512
 21
839.720911530814
 31
0.0
  0
LINE
  5
1072
330
1D
100
AcDbEntity
  8
0
100
AcDbLine
 10
31.534724854297
 20
840.073480202512
 30
0.0
 11
31.867704572512
 21
839.896911530814
 31
0.0
  0
LINE
  5
1073
330
1D
100
AcDbEntity
  8
0
100
AcDbLine
 10
35.280904572512
 20
840.494911530814
 30
0.0
 11
39.161404572512
 21
836.876911530814
 31
0.0
  0
LINE
  5
1074
330
1D
100
AcDbEntity
  8
0
100
AcDbLine
 10
32.089404572512
 20
839.905911530814
 30
0.0
 11
32.107104572512
 21
840.164911530814
 31
0.0
  0
LINE
  5
1075
330
1D
100
AcDbEntity
  8
0
100
AcDbLine
 10
31.867704572512
 20
839.896911530814
 30
0.0
 11
32.089404572512
 21
839.905911530814
 31
0.0
  0
LINE
  5
1076
330
1D
100
AcDbEntity
  8
0
100
AcDbLine
 10
27.633704572512
 20
839.447911530814
 30
0.0
 11
28.368004572512
 21
838.619911530814
 31
0.0
  0
LINE
  5
1077
330
1D
100
AcDbEntity
  8
0
100
AcDbLine
 10
27.125704572512
 20
839.977911530814
 30
0.0
 11
27.633704572512
 21
839.447911530814
 31
0.0
  0
LINE
  5
1078
330
1D
100
AcDbEntity
  8
0
100
AcDbLine
 10
28.725704572512
 20
841.459911530814
 30
0.0
 11
29.054804572512
 21
841.152911530814
 31
0.0
  0
LINE
  5
1079
330
1D
100
AcDbEntity
  8
0
100
AcDbLine
 10
28.725704572512
 20
841.459911530814
 30
0.0
 11
30.041544106424
 21
842.871062608678
 31
0.0
  0
LINE
  5
107A
330
1D
100
AcDbEntity
  8
0
100
AcDbLine
 10
29.054804572512
 20
841.152911530814
 30
0.0
 11
29.822704572512
 21
840.436911530814
 31
0.0
  0
LINE
  5
107B
330
1D
100
AcDbEntity
  8
0
100
AcDbLine
 10
27.056304572512
 20
841.843911530814
 30
0.0
 11
27.064804572512
 21
841.557911530814
 31
0.0
  0
LINE
  5
107C
330
1D
100
AcDbEntity
  8
0
100
AcDbLine
 10
26.723104572512
 20
841.672911530814
 30
0.0
 11
27.064804572512
 21
841.557911530814
 31
0.0
  0
LINE
  5
107D
330
1D
100
AcDbEntity
  8
0
100
AcDbLine
 10
26.271159472422
 20
842.057083587726
 30
0.0
 11
26.723104572512
 21
841.672911530814
 31
0.0
  0
LINE
  5
107E
330
1D
100
AcDbEntity
  8
0
100
AcDbLine
 10
26.327604572512
 20
842.972911530814
 30
0.0
 11
27.056304572512
 21
841.843911530814
 31
0.0
  0
LINE
  5
107F
330
1D
100
AcDbEntity
  8
0
100
AcDbLine
 10
29.083004572512
 20
843.180911530814
 30
0.0
 11
29.389104572512
 21
842.386911530814
 31
0.0
  0
LINE
  5
1080
330
1D
100
AcDbEntity
  8
0
100
AcDbLine
 10
29.083004572512
 20
843.180911530814
 30
0.0
 11
29.333004572512
 21
843.318911530814
 31
0.0
  0
LINE
  5
1081
330
1D
100
AcDbEntity
  8
0
100
AcDbLine
 10
29.479102065571
 20
842.267880631141
 30
0.0
 11
30.041544106424
 21
842.871062608678
 31
0.0
  0
LINE
  5
1082
330
1D
100
AcDbEntity
  8
0
100
AcDbLine
 10
30.377804572512
 20
842.592911530814
 30
0.0
 11
31.019404572512
 21
841.933911530814
 31
0.0
  0
LINE
  5
1083
330
1D
100
AcDbEntity
  8
0
100
AcDbLine
 10
29.389104572512
 20
842.386911530814
 30
0.0
 11
29.471525176965
 21
842.259754918053
 31
0.0
  0
LINE
  5
1084
330
1D
100
AcDbEntity
  8
0
100
AcDbLine
 10
31.019404572512
 20
841.933911530814
 30
0.0
 11
31.839704572512
 21
840.851911530814
 31
0.0
  0
LINE
  5
1085
330
1D
100
AcDbEntity
  8
0
100
AcDbLine
 10
31.839704572512
 20
840.851911530814
 30
0.0
 11
32.107104572512
 21
840.164911530814
 31
0.0
  0
LINE
  5
1086
330
1D
100
AcDbEntity
  8
0
100
AcDbLine
 10
29.821704572512
 20
843.052911530814
 30
0.0
 11
30.377804572512
 21
842.592911530814
 31
0.0
  0
LINE
  5
1087
330
1D
100
AcDbEntity
  8
0
100
AcDbLine
 10
12.635304572512
 20
884.502911530814
 30
0.0
 11
38.080304572512
 21
864.639911530814
 31
0.0
  0
LINE
  5
1088
330
1D
100
AcDbEntity
  8
0
100
AcDbLine
 10
61.008704572512
 20
844.379911530814
 30
0.0
 11
72.295604572512
 21
833.568911530814
 31
0.0
  0
LINE
  5
1089
330
1D
100
AcDbEntity
  8
0
100
AcDbLine
 10
31.500304572512
 20
844.018911530814
 30
0.0
 11
35.280904572512
 21
840.494911530814
 31
0.0
  0
LINE
  5
108A
330
1D
100
AcDbEntity
  8
0
100
AcDbLine
 10
38.080304572512
 20
864.639911530814
 30
0.0
 11
51.060604572512
 21
853.437911530814
 31
0.0
  0
LINE
  5
108B
330
1D
100
AcDbEntity
  8
0
100
AcDbLine
 10
51.060604572512
 20
853.437911530814
 30
0.0
 11
61.008704572512
 21
844.379911530814
 31
0.0
  0
LINE
  5
108C
330
1D
100
AcDbEntity
  8
0
100
AcDbLine
 10
27.846604572512
 20
847.425911530814
 30
0.0
 11
31.500304572512
 21
844.018911530814
 31
0.0
  0
LINE
  5
108D
330
1D
100
AcDbEntity
  8
0
100
AcDbLine
 10
27.935529840992
 20
847.342990549422
 30
0.0
 11
27.984504572512
 21
847.283911530814
 31
0.0
  0
LINE
  5
108E
330
1D
100
AcDbEntity
  8
0
100
AcDbLine
 10
29.333004572512
 20
843.318911530814
 30
0.0
 11
29.821704572512
 21
843.052911530814
 31
0.0
  0
LINE
  5
108F
330
1D
100
AcDbEntity
  8
0
100
AcDbLine
 10
26.128704572512
 20
840.872911530814
 30
0.0
 11
26.584004572512
 21
840.497911530814
 31
0.0
  0
LINE
  5
1090
330
1D
100
AcDbEntity
  8
0
100
AcDbLine
 10
25.895704572512
 20
840.830911530814
 30
0.0
 11
26.101604572512
 21
840.472911530814
 31
0.0
  0
LINE
  5
1091
330
1D
100
AcDbEntity
  8
0
100
AcDbLine
 10
29.198804572512
 20
837.492911530814
 30
0.0
 11
29.204404572512
 21
837.247911530814
 31
0.0
  0
LINE
  5
1092
330
1D
100
AcDbEntity
  8
0
100
AcDbLine
 10
16.508204572512
 20
849.845911530814
 30
0.0
 11
16.720504572512
 21
849.528911530814
 31
0.0
  0
LINE
  5
1093
330
1D
100
AcDbEntity
  8
0
100
AcDbLine
 10
128.193264907849
 20
699.302408446504
 30
0.0
 11
149.191873017277
 21
710.930732956708
 31
0.0
  0
LINE
  5
1094
330
1D
100
AcDbEntity
  8
0
100
AcDbLine
 10
90.151604572512
 20
771.818611530814
 30
0.0
 11
90.924404572512
 21
777.531711530814
 31
0.0
  0
LINE
  5
1095
330
1D
100
AcDbEntity
  8
0
100
AcDbLine
 10
91.170804572512
 20
781.283411530814
 30
0.0
 11
91.022829506923
 21
783.457883593902
 31
0.0
  0
LINE
  5
1096
330
1D
100
AcDbEntity
  8
0
100
AcDbLine
 10
91.022829506923
 20
783.457883593902
 30
0.0
 11
90.714592487233
 21
785.036057134716
 31
0.0
  0
LINE
  5
1097
330
1D
100
AcDbEntity
  8
0
100
AcDbLine
 10
90.714592487233
 20
785.036057134716
 30
0.0
 11
90.066853123498
 21
787.690079660138
 31
0.0
  0
LINE
  5
1098
330
1D
100
AcDbEntity
  8
0
100
AcDbLine
 10
90.066853123498
 20
787.690079660138
 30
0.0
 11
89.05816411993
 21
789.84500616776
 31
0.0
  0
LINE
  5
1099
330
1D
100
AcDbEntity
  8
0
100
AcDbLine
 10
89.05816411993
 20
789.84500616776
 30
0.0
 11
88.239804572512
 21
791.102911530814
 31
0.0
  0
LINE
  5
109A
330
1D
100
AcDbEntity
  8
0
100
AcDbLine
 10
85.248504572512
 20
779.376411530814
 30
0.0
 11
84.679892847457
 21
780.509312186133
 31
0.0
  0
LINE
  5
109B
330
1D
100
AcDbEntity
  8
0
100
AcDbLine
 10
84.679892847457
 20
780.509312186133
 30
0.0
 11
83.837004572512
 21
781.857811530814
 31
0.0
  0
LINE
  5
109C
330
1D
100
AcDbEntity
  8
0
100
AcDbLine
 10
83.119704572512
 20
782.666211530814
 30
0.0
 11
82.400904572512
 21
783.364011530814
 31
0.0
  0
LINE
  5
109D
330
1D
100
AcDbEntity
  8
0
100
AcDbLine
 10
82.400904572512
 20
783.364011530814
 30
0.0
 11
81.141683951642
 21
784.360170066686
 31
0.0
  0
LINE
  5
109E
330
1D
100
AcDbEntity
  8
0
100
AcDbLine
 10
81.141683951642
 20
784.360170066686
 30
0.0
 11
79.876461476244
 21
785.29183388948
 31
0.0
  0
LINE
  5
109F
330
1D
100
AcDbEntity
  8
0
100
AcDbLine
 10
79.876461476244
 20
785.29183388948
 30
0.0
 11
79.017455845424
 21
785.842222923055
 31
0.0
  0
LINE
  5
10A0
330
1D
100
AcDbEntity
  8
0
100
AcDbLine
 10
75.842804572512
 20
786.984711530814
 30
0.0
 11
85.445504572512
 21
770.434111530814
 31
0.0
  0
LINE
  5
10A1
330
1D
100
AcDbEntity
  8
0
100
AcDbLine
 10
78.413404572512
 20
797.528911530814
 30
0.0
 11
78.495723339004
 21
797.560707732805
 31
0.0
  0
LINE
  5
10A2
330
1D
100
AcDbEntity
  8
0
100
AcDbLine
 10
78.495723339004
 20
797.560707732805
 30
0.0
 11
78.541447436444
 21
797.652155927685
 31
0.0
  0
LINE
  5
10A3
330
1D
100
AcDbEntity
  8
0
100
AcDbLine
 10
78.541447436444
 20
797.652155927685
 30
0.0
 11
78.526304572512
 21
797.755911530814
 31
0.0
  0
LINE
  5
10A4
330
1D
100
AcDbEntity
  8
0
100
AcDbLine
 10
51.787804572512
 20
822.449911530814
 30
0.0
 11
52.064714650139
 21
822.2590292299
 31
0.0
  0
LINE
  5
10A5
330
1D
100
AcDbEntity
  8
0
100
AcDbLine
 10
52.064714650139
 20
822.2590292299
 30
0.0
 11
53.29171717369
 21
821.284347356023
 31
0.0
  0
LINE
  5
10A6
330
1D
100
AcDbEntity
  8
0
100
AcDbLine
 10
53.29171717369
 20
821.284347356023
 30
0.0
 11
54.113504572512
 21
820.437911530814
 31
0.0
  0
LINE
  5
10A7
330
1D
100
AcDbEntity
  8
0
100
AcDbLine
 10
37.837004572512
 20
835.744911530814
 30
0.0
 11
38.858004572512
 21
834.663911530814
 31
0.0
  0
ENDSEC
  0
SECTION
  2
OBJECTS
  0
DICTIONARY
  5
C
330
0
100
AcDbDictionary
281
     1
  3
ACAD_GROUP
350
D
  3
ACAD_LAYOUT
350
1A
  3
ACAD_MLEADERSTYLE
350
10AA
  3
ACAD_MLINESTYLE
350
17
  3
ACAD_PLOTSETTINGS
350
19
  3
ACAD_PLOTSTYLENAME
350
E
  3
ACAD_SCALELIST
350
8F7
  3
AcDbVariableDictionary
350
10A8
  3
DWGPROPS
350
10AD
  0
DICTIONARY
  5
D
102
{ACAD_REACTORS
330
C
102
}
330
C
100
AcDbDictionary
281
     1
  0
DICTIONARY
  5
1A
102
{ACAD_REACTORS
330
C
102
}
330
C
100
AcDbDictionary
281
     1
  3
Layout1
350
1C
  3
Model
350
1E
  0
DICTIONARY
  5
10AA
102
{ACAD_REACTORS
330
C
102
}
330
C
100
AcDbDictionary
281
     1
  0
DICTIONARY
  5
17
102
{ACAD_REACTORS
330
C
102
}
330
C
100
AcDbDictionary
281
     1
  3
Standard
350
18
  0
DICTIONARY
  5
19
102
{ACAD_REACTORS
330
C
102
}
330
C
100
AcDbDictionary
281
     1
  0
ACDBDICTIONARYWDFLT
  5
E
102
{ACAD_REACTORS
330
C
102
}
330
C
100
AcDbDictionary
281
     1
  3
Normal
350
F
100
AcDbDictionaryWithDefault
340
F
  0
DICTIONARY
  5
8F7
102
{ACAD_REACTORS
330
C
102
}
330
C
100
AcDbDictionary
281
     1
  3
A0
350
8F8
  3
A1
350
8F9
  3
A2
350
8FA
  3
A3
350
8FB
  3
A4
350
8FC
  3
A5
350
8FD
  3
A6
350
8FE
  3
A7
350
8FF
  3
A8
350
900
  3
A9
350
901
  3
B0
350
902
  3
B1
350
903
  3
B2
350
904
  3
B3
350
905
  3
B4
350
906
  3
B5
350
907
  3
B6
350
908
  3
B7
350
909
  3
B8
350
90A
  3
B9
350
90B
  3
C0
350
90C
  3
C1
350
90D
  3
C2
350
90E
  3
C3
350
90F
  3
C4
350
910
  3
C5
350
911
  3
C6
350
912
  3
C7
350
913
  3
C8
350
914
  3
C9
350
915
  3
D0
350
916
  3
D1
350
917
  3
D2
350
918
  0
DICTIONARY
  5
10A8
102
{ACAD_REACTORS
330
C
102
}
330
C
100
AcDbDictionary
281
     1
  3
CANNOSCALE
350
10AB
  0
XRECORD
  5
10AD
102
{ACAD_REACTORS
330
C
102
}
330
C
100
AcDbXrecord
280
     1
  1
DWGPROPS COOKIE
  2

  3

  4

  6

  7

  8
MARTIN
  9

300
=
301
=
302
=
303
=
304
=
305
=
306
=
307
=
308
=
309
=
 40
0.0
 41
2456645.820704746
 42
2456645.821592882
  1

 90
        0
  0
LAYOUT
  5
1C
102
{ACAD_REACTORS
330
1A
102
}
330
1A
100
AcDbPlotSettings
  1

  2
none_device
  4

  6

 40
0.0
 41
0.0
 42
0.0
 43
0.0
 44
0.0
 45
0.0
 46
0.0
 47
0.0
 48
0.0
 49
0.0
140
0.0
141
0.0
142
1.0
143
1.0
 70
   688
 72
     0
 73
     0
 74
     5
  7

 75
    16
147
1.0
148
0.0
149
0.0
100
AcDbLayout
  1
Layout1
 70
     1
 71
     1
 10
0.0
 20
0.0
 11
12.0
 21
9.0
 12
0.0
 22
0.0
 32
0.0
 14
1.000000000000E+20
 24
1.000000000000E+20
 34
1.000000000000E+20
 15
-1.000000000000E+20
 25
-1.000000000000E+20
 35
-1.000000000000E+20
146
0.0
 13
0.0
 23
0.0
 33
0.0
 16
1.0
 26
0.0
 36
0.0
 17
0.0
 27
1.0
 37
0.0
 76
     0
330
1B
  0
LAYOUT
  5
1E
102
{ACAD_REACTORS
330
1A
102
}
330
1A
100
AcDbPlotSettings
  1

  2
none_device
  4

  6

 40
0.0
 41
0.0
 42
0.0
 43
0.0
 44
0.0
 45
0.0
 46
0.0
 47
0.0
 48
0.0
 49
0.0
140
0.0
141
0.0
142
1.0
143
1.0
 70
  1712
 72
     0
 73
     0
 74
     0
  7

 75
     0
147
1.0
148
0.0
149
0.0
100
AcDbLayout
  1
Model
 70
     1
 71
     0
 10
0.0
 20
0.0
 11
12.0
 21
9.0
 12
0.0
 22
0.0
 32
0.0
 14
1.180128572512
 24
1.0
 34
0.0
 15
253.8818
 25
1054.0
 35
0.0
146
0.0
 13
0.0
 23
0.0
 33
0.0
 16
1.0
 26
0.0
 36
0.0
 17
0.0
 27
1.0
 37
0.0
 76
     0
330
1D
331
8F2
  0
MLINESTYLE
  5
18
102
{ACAD_REACTORS
330
17
102
}
330
17
100
AcDbMlineStyle
  2
Standard
 70
     0
  3

 62
   256
 51
90.0
 52
90.0
 71
     2
 49
0.5
 62
   256
  6
BYLAYER
 49
-0.5
 62
   256
  6
BYLAYER
  0
ACDBPLACEHOLDER
  5
F
102
{ACAD_REACTORS
330
E
102
}
330
E
  0
SCALE
  5
8F8
102
{ACAD_REACTORS
330
8F7
102
}
330
8F7
100
AcDbScale
 70
     0
300
1:1
140
1.0
141
1.0
290
     1
  0
SCALE
  5
8F9
102
{ACAD_REACTORS
330
8F7
102
}
330
8F7
100
AcDbScale
 70
     0
300
1:2
140
1.0
141
2.0
290
     0
  0
SCALE
  5
8FA
102
{ACAD_REACTORS
330
8F7
102
}
330
8F7
100
AcDbScale
 70
     0
300
1:4
140
1.0
141
4.0
290
     0
  0
SCALE
  5
8FB
102
{ACAD_REACTORS
330
8F7
102
}
330
8F7
100
AcDbScale
 70
     0
300
1:5
140
1.0
141
5.0
290
     0
  0
SCALE
  5
8FC
102
{ACAD_REACTORS
330
8F7
102
}
330
8F7
100
AcDbScale
 70
     0
300
1:8
140
1.0
141
8.0
290
     0
  0
SCALE
  5
8FD
102
{ACAD_REACTORS
330
8F7
102
}
330
8F7
100
AcDbScale
 70
     0
300
1:10
140
1.0
141
10.0
290
     0
  0
SCALE
  5
8FE
102
{ACAD_REACTORS
330
8F7
102
}
330
8F7
100
AcDbScale
 70
     0
300
1:16
140
1.0
141
16.0
290
     0
  0
SCALE
  5
8FF
102
{ACAD_REACTORS
330
8F7
102
}
330
8F7
100
AcDbScale
 70
     0
300
1:20
140
1.0
141
20.0
290
     0
  0
SCALE
  5
900
102
{ACAD_REACTORS
330
8F7
102
}
330
8F7
100
AcDbScale
 70
     0
300
1:30
140
1.0
141
30.0
290
     0
  0
SCALE
  5
901
102
{ACAD_REACTORS
330
8F7
102
}
330
8F7
100
AcDbScale
 70
     0
300
1:40
140
1.0
141
40.0
290
     0
  0
SCALE
  5
902
102
{ACAD_REACTORS
330
8F7
102
}
330
8F7
100
AcDbScale
 70
     0
300
1:50
140
1.0
141
50.0
290
     0
  0
SCALE
  5
903
102
{ACAD_REACTORS
330
8F7
102
}
330
8F7
100
AcDbScale
 70
     0
300
1:100
140
1.0
141
100.0
290
     0
  0
SCALE
  5
904
102
{ACAD_REACTORS
330
8F7
102
}
330
8F7
100
AcDbScale
 70
     0
300
2:1
140
2.0
141
1.0
290
     0
  0
SCALE
  5
905
102
{ACAD_REACTORS
330
8F7
102
}
330
8F7
100
AcDbScale
 70
     0
300
4:1
140
4.0
141
1.0
290
     0
  0
SCALE
  5
906
102
{ACAD_REACTORS
330
8F7
102
}
330
8F7
100
AcDbScale
 70
     0
300
8:1
140
8.0
141
1.0
290
     0
  0
SCALE
  5
907
102
{ACAD_REACTORS
330
8F7
102
}
330
8F7
100
AcDbScale
 70
     0
300
10:1
140
10.0
141
1.0
290
     0
  0
SCALE
  5
908
102
{ACAD_REACTORS
330
8F7
102
}
330
8F7
100
AcDbScale
 70
     0
300
100:1
140
100.0
141
1.0
290
     0
  0
SCALE
  5
909
102
{ACAD_REACTORS
330
8F7
102
}
330
8F7
100
AcDbScale
 70
     0
300
1/128" = 1'-0"
140
0.0078125
141
12.0
290
     0
  0
SCALE
  5
90A
102
{ACAD_REACTORS
330
8F7
102
}
330
8F7
100
AcDbScale
 70
     0
300
1/64" = 1'-0"
140
0.015625
141
12.0
290
     0
  0
SCALE
  5
90B
102
{ACAD_REACTORS
330
8F7
102
}
330
8F7
100
AcDbScale
 70
     0
300
1/32" = 1'-0"
140
0.03125
141
12.0
290
     0
  0
SCALE
  5
90C
102
{ACAD_REACTORS
330
8F7
102
}
330
8F7
100
AcDbScale
 70
     0
300
1/16" = 1'-0"
140
0.0625
141
12.0
290
     0
  0
SCALE
  5
90D
102
{ACAD_REACTORS
330
8F7
102
}
330
8F7
100
AcDbScale
 70
     0
300
3/32" = 1'-0"
140
0.09375
141
12.0
290
     0
  0
SCALE
  5
90E
102
{ACAD_REACTORS
330
8F7
102
}
330
8F7
100
AcDbScale
 70
     0
300
1/8" = 1'-0"
140
0.125
141
12.0
290
     0
  0
SCALE
  5
90F
102
{ACAD_REACTORS
330
8F7
102
}
330
8F7
100
AcDbScale
 70
     0
300
3/16" = 1'-0"
140
0.1875
141
12.0
290
     0
  0
SCALE
  5
910
102
{ACAD_REACTORS
330
8F7
102
}
330
8F7
100
AcDbScale
 70
     0
300
1/4" = 1'-0"
140
0.25
141
12.0
290
     0
  0
SCALE
  5
911
102
{ACAD_REACTORS
330
8F7
102
}
330
8F7
100
AcDbScale
 70
     0
300
3/8" = 1'-0"
140
0.375
141
12.0
290
     0
  0
SCALE
  5
912
102
{ACAD_REACTORS
330
8F7
102
}
330
8F7
100
AcDbScale
 70
     0
300
1/2" = 1'-0"
140
0.5
141
12.0
290
     0
  0
SCALE
  5
913
102
{ACAD_REACTORS
330
8F7
102
}
330
8F7
100
AcDbScale
 70
     0
300
3/4" = 1'-0"
140
0.75
141
12.0
290
     0
  0
SCALE
  5
914
102
{ACAD_REACTORS
330
8F7
102
}
330
8F7
100
AcDbScale
 70
     0
300
1" = 1'-0"
140
1.0
141
12.0
290
     0
  0
SCALE
  5
915
102
{ACAD_REACTORS
330
8F7
102
}
330
8F7
100
AcDbScale
 70
     0
300
1-1/2" = 1'-0"
140
1.5
141
12.0
290
     0
  0
SCALE
  5
916
102
{ACAD_REACTORS
330
8F7
102
}
330
8F7
100
AcDbScale
 70
     0
300
3" = 1'-0"
140
3.0
141
12.0
290
     0
  0
SCALE
  5
917
102
{ACAD_REACTORS
330
8F7
102
}
330
8F7
100
AcDbScale
 70
     0
300
6" = 1'-0"
140
6.0
141
12.0
290
     0
  0
SCALE
  5
918
102
{ACAD_REACTORS
330
8F7
102
}
330
8F7
100
AcDbScale
 70
     0
300
1'-0" = 1'-0"
140
12.0
141
12.0
290
     0
  0
DICTIONARYVAR
  5
10AB
102
{ACAD_REACTORS
330
10A8
102
}
330
10A8
100
DictionaryVariables
280
     0
  1
1:1
  0
ENDSEC
  0
SECTION
  2
THUMBNAILIMAGE
 90
    16364
310
28000000B40000005500000001000800000000000000000000000000000000000000000000000000FFFFFF000000FF0000FFFF0000FF0000FFFF0000FF000000FF00FF000000000080808000C0C0C0000000FF007F7FFF000000A5005252A50000007F003F3F7F0000004C0026264C000000260013132600003FFF007F9FFF
310
000029A5005267A500001F7F003F4F7F0000134C00262F4C000009260013172600007FFF007FBFFF000052A500527CA500003F7F003F5F7F0000264C0026394C0000132600131C260000BFFF007FDFFF00007CA5005291A500005F7F003F6F7F0000394C0026424C00001C26001321260000FFFF007FFFFF0000A5A50052A5
310
A500007F7F003F7F7F00004C4C00264C4C00002626001326260000FFBF007FFFDF0000A57C0052A59100007F5F003F7F6F00004C3900264C420000261C001326210000FF7F007FFFBF0000A5520052A57C00007F3F003F7F5F00004C2600264C39000026130013261C0000FF3F007FFF9F0000A5290052A56700007F1F003F
310
7F4F00004C1300264C2F00002609001326170000FF00007FFF7F0000A5000052A55200007F00003F7F3F00004C0000264C260000260000132613003FFF00009FFF7F0029A5000067A552001F7F00004F7F3F00134C00002F4C260009260000172613007FFF0000BFFF7F0052A500007CA552003F7F00005F7F3F00264C0000
310
394C2600132600001C261300BFFF0000DFFF7F007CA5000091A552005F7F00006F7F3F00394C0000424C26001C26000021261300FFFF0000FFFF7F00A5A50000A5A552007F7F00007F7F3F004C4C00004C4C26002626000026261300FFBF0000FFDF7F00A57C0000A59152007F5F00007F6F3F004C3900004C422600261C00
310
0026211300FF7F0000FFBF7F00A5520000A57C52007F3F00007F5F3F004C2600004C39260026130000261C1300FF3F0000FF9F7F00A5290000A56752007F1F00007F4F3F004C1300004C2F26002609000026171300FF000000FF7F7F00A5000000A55252007F0000007F3F3F004C0000004C2626002600000026131300FF00
310
3F00FF7F9F00A5002900A55267007F001F007F3F4F004C0013004C262F002600090026131700FF007F00FF7FBF00A5005200A5527C007F003F007F3F5F004C0026004C2639002600130026131C00FF00BF00FF7FDF00A5007C00A55291007F005F007F3F6F004C0039004C26420026001C0026132100FF00FF00FF7FFF00A5
310
00A500A552A5007F007F007F3F7F004C004C004C264C002600260026132600BF00FF00DF7FFF007C00A5009152A5005F007F006F3F7F0039004C0042264C001C002600211326007F00FF00BF7FFF005200A5007C52A5003F007F005F3F7F0026004C0039264C00130026001C1326003F00FF009F7FFF002900A5006752A500
310
1F007F004F3F7F0013004C002F264C000900260017132600000000002D2D2D005B5B5B0089898900B7B7B700B3B3B30000000000000000000000000000000000000000000000000000000000000000000000000000000000000000000000000000000000000000000000000000000000000000000000000000000000000000
310
00000000000000000000000000000000070707000000000000000000000000000000000000000000000000000000000000000000000000000000000000000000000000000000000000000000000000000000000000000000000000000000000000000000000000000000000000000000000000000000000000000000000000
310
00000000000000000000000000000000000000000000000000000000000000000000000000000000000000000000000000000000000000000000000000000000000000000007000700000000000000000000000000000000000000000000000000000000000000000000000000000000000000000000000000000000000000
310
00000000000000000000000000000000000000000000000000000000000000000000000000000000000000000000000000000000000000000000000000000000000000000000000000000000000000000000000000000000000000000000000000000000000000000000000000000000000000000000000007070707070707
310
07000000000000000000000000000000000000000000000000000000000000000000000000000000000000000000000000000000000000000000000000000000000000000000000000000000000000000000000000000000000000000000000000000000000000000000000000000000000000000000000000000000000000
310
00000000000000000000000000000000000000000000000000000000000000000000000000000000000000000000070707000000000700000000000000000000000000000000000000000000000000000000000000000000000000000000000000000000000000000000000000000000000000000000000000000000000000
310
00000000000000000000000000000000000000000000000000000000000000000000000000000000000000000000000000000000000000000000000000000000000000000000000000000000000000000000000000000000000000000000000000000007070700000000070000000000000000000000000000000000000000
310
00000000000000000000000000000000000000000000000000000000000000000000000000000000000000000000000000000000000000000000000000000000000000000000000000000000000000000000000000000000000000000000000000000000000000000000000000000000000000000000000000000000000000
310
00000000000000000000000000000000000000000000000000070707000000000700000000000000000000000000000000000000000000000000000000000000000000000000000000000000000000000000000000000000000000000000000000000000000000000000000000000000000000000000000000000000000000
310
00000000000000000000000000000000000000000000000000000000000000000000000000000000000000000000000000000000000000000000000000000000000000000000000000000000000007070707070707070000000000000000000000000000000000000000000000000000000000000000000000000000000000
310
00000000000000000000000000000000000000000000000000000000000000000000000000000000000000000000000000000000000000000000000000000000000000000000000000000000000000000000000000000000000000000000000000000000000000000000000000000000000000000000000000000000000000
310
00000000070707000700000000000000000000000000000000000000000000000000000000000000000000000000000000000000000000000000000000000000000000000000000000000000000000000000000000000000000000000000000000000000000000000000000000000000000000000000000000000000000000
310
00000000000000000000000000000000000000000000000000000000000000000000000000000000000000000000000000000000000000000007070700070000000000000000000000000000000000000000000000000000000000000000000000000000000000000000000000000000000000000000000000000000000000
310
00000000000000000000000000000000000000000000000000000000000000000000000000000000000000000000000000000000000000000000000000000000000000000000000000000000000000000000000000000000000000000000000000000000000000000000000000000707070007000000000000000000000000
310
00000000000000000000000000000000000000000000000000000000000000000000000000000000000000000000000000000000000000000000000000000000000000000000000000000000000000000000000000000000000000000000000000000000000000000000000000000000000000000000000000000000000000
310
00000000000000000000000000000000000000000000000000000000000000000000000007070700070000000000000000000000000000000000000000000000000000000000000000000000000000000000000000000000000000000000000000000000000000000000000000000000000000000000000000000000000000
310
00000000000000000000000000000000000000000000000000000000000000000000000000000000000000000000000000000000000000000000000000000000000000000000000000000000000000000000000000000000000707070007000000000000000000000000000000000000000000000000000000000000000000
310
00000000000000000000000000000000000000000000000000000000000000000000000000000000000000000000000000000000000000000000000000000000000000000000000000000000000000000000000000000000000000000000000000000000000000000000000000000000000000000000000000000000000000
310
00000000000000000000000000000007070700070000000000000000000000000000000000000000000000000000000000000000000000000000000000000000000000000000000000000000000000000000000000000000000000000000000000000000000000000000000000000000000000000000000000000000000000
310
00000000000000000000000000000000000000000000000000000000000000000000000000000000000000000000000000000000000000000000000000000000000000000707070007000000000000000000000000000000000000000000000000000000000000000000000000000000000000000000000000000000000000
310
00000000000000000000000000000000000000000000000000000000000000000000000000000000000000000000000000000000000000000000000000000000000000000000000000000000000000000000000000000000000000000000000000000000000000000000000000000000000000000000000000070707000700
310
00000000000000000000000000000000000000000000000000000000000000000000000000000000000000000000000000000000000000000000000000000000000000000000000000000000000000000000000000000000000000000000000000000000000000000000000000000000000000000000000000000000000000
310
00000000000000000000000000000000000000000000000000000000000000000000000000000000000000000000000707070007000000000000000000000000000000000000000000000000000000000000000000000000000000000000000000000000000000000000000000000000000000000000000000000000000000
310
00000000000000000000000000000000000000000000000000000000000000000000000000000000000000000000000000000000000000000000000000000000000000000000000000000000000000000000000000000000000000000000000000000000070707000700000000000000000000000000000000000000000000
310
00000000000000000000000000000000000000000000000000000000000000000000000000000000000000000000000000000000000000000000000000000000000000000000000000000000000000000000000000000000000000000000000000000000000000000000000000000000000000000000000000000000000000
310
00000000000000000000000000000000000000000000000000000707070007000000000000000000000000000000000000000000000000000000000000000000000000000000000000000000000000000000000000000000000000000000000000000000000000000000000000000000000000000000000000000000000000
310
00000000000000000000000000000000000000000000000000000000000000000000000000000000000000000000000000000000000000000000000000000000000000000000000000000000000000070707000700000000000000000000000000000000000000000000000000000000000000000000000000000000000000
310
00000000000000000000000000000000000000000000000000000000000000000000000000000000000000000000000000000000000000000000000000000000000000000000000000000000000000000000000000000000000000000000000000000000000000000000000000000000000000000000000000000000000000
310
00000000000707070007000000000000000000000000000000000000000000000000000000000000000000000000000000000000000000000000000000000000000000000000000000000000000000000000000000000000000000000000000000000000000000000000000000000000000000000000000000000000000000
310
00000000000000000000000000000000000000000000000000000000000000000000000000000000000000000000000000000000000000000000070707000700000000000000000000000000000000000000000000000000000000000000000000000000000000000000000000000000000000000000000000000000000000
310
00000000000000000000000000000000000000000000000000000000000000000000000000000000000000000000000000000000000000000000000000000000000000000000000000000000000000000000000000000000000000000000000000000000000000000000000000000007070700070000000000000000000000
310
00000000000000000000000000000000000000000000000000000000000000000000000000000000000000000000000000000000000000000000000000000000000000000000000000000000000000000000000000000000000000000000000000000000000000000000000000000000000000000000000000000000000000
310
00000000000000000000000000000000000000000000000000000000000000000000000000070707000700000000000000000000000000000000000000000000000000000000000000000000000000000000000000000000000000000000000000000000000000000000000000000000000000000000000000000000000000
310
00000000000000000000000000000000000000000000000000000000000000000000000000000000000000000000000000000000000000000000000000000000000000000000000000000000000000000000000000000000000007070700070000000000000000000000000000000000000000000000000000000000000000
310
00000000000000000000000000000000000000000000000000000000000000000000000000000000000000000000000000000000000000000000000000000000000000000000000000000000000000000000000000000000000000000000000000000000000000000000000000000000000000000000000000000000000000
310
00000000000000000000000000000000070707000700000000000000000000000000000000000000000000000000000000000000000000000000000000000000000000000000000000000000000000000000000000000000000000000000000000000000000000000000000000000000000000000000000000000000000000
310
00000000000000000000000000000000000000000000000000000000000000000000000000000000000000000000000000000000000000000000000000000000000000000007070700070000000000000000000000000000000000000000000000000000000000000000000000000000000000000000000000000000000000
310
00000000000000000000000000000000000000000000000000000000000000000000000000000000000000000000000000000000000000000000000000000000000000000000000000000000000000000000000000000000000000000000000000000000000000000000000000000000000000000000000000000707070007
310
00000000000000000000000000000000000000000000000000000000000000000000000000000000000000000000000000000000000000000000000000000000000000000000000000000000000000000000000000000000000000000000000000000000000000000000000000000000000000000000000000000000000000
310
00000000000000000000000000000000000000000000000000000000000000000000000000000000000000000000000007070700070000000000000000000000000000000000000000000000000000000000000000000000000000000000000000000000000000000000000000000000000000000000000000000000000000
310
00000000000000000000000000000000000000000000000000000000000000000000000000000000000000000000000000000000000000000000000000000000000000000000000000000000000000000000000000000000000000000000000000000000000707070007000000000000000000000000000000000000000000
310
00000000000000000000000000000000000000000000000000000000000000000000000000000000000000000000000000000000000000000000000000000000000000000000000000000000000000000000000000000000000000000000000000000000000000000000000000000000000000000000000000000000000000
310
00000000000000000000000000000000000000000000000000000007070700070000000000000000000000000000000000000000000000000000000000000000000000000000000000000000000000000000000000000000000000000000000000000000000000000000000000000000000000000000000000000000000000
310
00000000000000000000000000000000000000000000000000000000000000000000000000000000000000000000000000000000000000000000000000000000000000000000000000000000000000000707070007000000000000000000000000000000000000000000000000000000000000000000000000000000000000
310
00000000000000000000000000000000000000000000000000000000000000000000000000000000000000000000000000000000000000000000000000000000000000000000000000000000000000000000000000000000000000000000000000000000000000000000000000000000000000000000000000000000000000
310
00000000000007070700070000000000000000000000000000000000000000000000000000000000000000000000000000000000000000000000000000000000000000000000000000000000000000000000000000000000000000000000000000000000000000000000000000000000000000000000000000000000000000
310
00000000000000000000000000000000000000000000000000000000000000000000000000000000000000000000000000000000000000000000000707070007000000000000000000000000000000000000000000000000000000000000000000000000000000000000000000000000000000000000000000000000000000
310
00000000000000000000000000000000000000000000000000000000000000000000000000000000000000000000000000000000000000000000000000000000000000000000000000000000000000000000000000000000000000000000000000000000000000000000000000000000070707000700000000000000000000
310
00000000000000000000000000000000000000000000000000000000000000000000000000000000000000000000000000000000000000000000000000000000000000000000000000000000000000000000000000000000000000000000000000000000000000000000000000000000000000000000000000000000000000
310
00000000000000000000000000000000000000000000000000000000000000000000000000000707070007000000000000000000000000000000000000000000000000000000000000000000000000000000000000000000000000000000000000000000000000000000000000000000000000000000000000000000000000
310
00000000000000000000000000000000000000000000000000000000000000000000000000000000000000000000000000000000000000000000000000000000000000000000000000000000000000000000000000000000000000070707000700000000000000000000000000000000000000000000000000000000000000
310
00000000000000000000000000000000000000000000000000000000000000000000000000000000000000000000000000000000000000000000000000000000000000000000000000000000000000000000000000000000000000000000000000000000000000000000000000000000000000000000000000000000000000
310
00000000000000000000000000000000000707070007000000000000000000000000000000000000000000000000000000000000000000000000000000000000000000000000000000000000000000000000000000000000000000000000000000000000000000000000000000000000000000000000000000000000000000
310
00000000000000000000000000000000000000000000000000000000000000000000000000000000000000000000000000000000000000000000000000000000000000000000070707000700000000000000000000000000000000000000000000000000000000000000000000000000000000000000000000000000000000
310
00000000000000000000000000000000000000000000000000000000000000000000000000000000000000000000000000000000000000000000000000000000000000000000000000000000000000000000000000000000000000000000000000000000000000000000000000000000000000000000000000000007070700
310
07000000000000000000000000000000000000000000000000000000000000000000000000000000000000000000000000000000000000000000000000000000000000000000000000000000000000000000000000000000000000000000000000000000000000000000000000000000000000000000000000000000000000
310
00000000000000000000000000000000000000000000000000000000000000000000000000000000000000000000000000070707000700000000000000000000000000000000000000000000000000000000000000000000000000000000000000000000000000000000000000000000000000000000000000000000000000
310
00000000000000000000000000000000000000000000000000000000000000000000000000000000000000000000000000000000000000000000000000000000000000000000000000000000000000000000000000000000000000000000000000000000000007070700070000000000000000000000000000000000000000
310
00000000000000000000000000000000000000000000000000000000000000000000000000000000000000000000000000000000000000000000000000000000000000000000000000000000000000000000000000000000000000000000000000000000000000000000000000000000000000000000000000000000000000
310
00000000000000000000000000000000000000000000000000000000070707000700000000000000000000000000000000000000000000000000000000000000000000000000000000000000000000000000000000000000000000000000000000000000000000000000000000000000000000000000000000000000000000
310
00000000000000000000000000000000000000000000000000000000000000000000000000000000000000000000000000000000000000000000000000000000000000000000000000000000000000000007070700070000000000000000000000000000000000000000000000000000000000000000000000000000000000
310
00000000000000000000000000000000000000000000000000000000000000000000000000000000000000000000000000000000000000000000000000000000000000000000000000000000000000000000000000000000000000000000000000000000000000000000000000000000000000000000000000000000000000
310
00000000000000070707000700000000000000000000000000000000000000000000000000000000000000000000000000000000000000000000000000000000000000000000000000000000000000000000000000000000000000000000000000000000000000000000000000000000000000000000000000000000000000
310
00000000000000000000000000000000000000000000000000000000000000000000000000000000000000000000000000000000000000000000000007070700070000000000000000000000000000000000000000000000000000000000000000000000000000000000000000000000000000000000000000000000000000
310
00000000000000000000000000000000000000000000000000000000000000000000000000000000000000000000000000000000000000000000000000000000000000000000000000000000000000000000000000000000000000000000000000000000000000000000000000000000000707070007000000000000000000
310
00000000000000000000000000000000000000000000000000000000000000000000000000000000000000000000000000000000000000000000000000000000000000000000000000000000000000000000000000000000000000000000000000000000000000000000000000000000000000000000000000000000000000
310
00000000000000000000000000000000000000000000000000000000000000000000000000000007070700070000000000000000000000000000000000000000000000000000000000000000000000000000000000000000000000000000000000000000000000000000000000000000000000000000000000000000000000
310
00000000000000000000000000000000000000000000000000000000000000000000000000000000000000000000000000000000000000000000000000000000000000000000000000000000000000000000000000000000000000070007070007000000000000000000000000000000000000000000000000000000000000
310
00000000000000000000000000000000000000000000000000000000000000000000000000000000000000000000000000000000000000000000000000000000000000000000000000000000000000000000000000000000000000000000000000000000000000000000000000000000000000000000000000000000000000
310
00000000000000000000000000000000000700070700070000000000000000000000000000000000000000000000000000000000000000000000000000000000000000000000000000000000000000000000000000000000000000000000000000000000000000000000000000000000000000000000000000000000000000
310
00000000000000000000000000000000000000000000000000000000000000000000000000000000000000000000000000000000000000000000000000000000000000000000070007070007000000000000000000000000000000000000000000000000000000000000000000000000000000000000000000000000000000
310
00000000000000000000000000000000000000000000000000000000000000000000000000000000000000000000000000000000000000000000000000000000000000000000000000000000000000000000000000000000000000000000000000000000000000000000000000000000000000000000000000000007070707
310
07070000000000000000000000000000000000000000000000000000000000000000000000000000000000000000000000000000000000000000000000000000000000000000000000000000000000000000000000000000000000000000000000000000000000000000000000000000000000000000000000000000000000
310
00000000000000000000000000000000000000000000000000000000000000000000000000000000000000000000000000070707000007000000000000000000000000000000000000000000000000000000000000000000000000000000000000000000000000000000000000000000000000000000000000000000000000
310
00000000000000000000000000000000000000000000000000000000000000000000000000000000000000000000000000000000000000000000000000000000000000000000000000000000000000000000000000000000000000000000000000000000000007000700000700000000000000000000000000000000000000
310
00000000000000000000000000000000000000000000000000000000000000000000000000000000000000000000000000000000000000000000000000000000000000000000000000000000000000000000000000000000000000000000000000000000000000000000000000000000000000000000000000000000000000
310
00000000000000000000000000000000000000000000000000000007070707000007000000000000000000000000000000000000000000000000000000000000000000000000000000000000000000000000000000000000000000000000000000000000000000000000000000000000000000000000000000000000000000
310
00000000000000000000000000000000000000000000000000000000000000000000000000000000000000000000000000000000000000000000000000000000000000000000000000000000000000070000070707070700000000000000000000000000000000000000000000000000000000000000000000000000000000
310
00000000000000000000000000000000000000000000000000000000000000000000000000000000000000000000000000000000000000000000000000000000000000000000000000000000000000000000000000000000000000000000000000000000000000000000000000000000000000000000000000000000000000
310
00000000000700070000070007000000000000000000000000000000000000000000000000000000000000000000000000000000000000000000000000000000000000000000000000000000000000000000000000000000000000000000000000000000000000000000000000000000000000000000000000000000000000
310
00000000000000000000000000000000000000000000000000000000000000000000000000000000000000000000000000000000000000000007000707000007000700000000000000000000000000000000000000000000000000000000000000000000000000000000000000000000000000000000000000000000000000
310
00000000000000000000000000000000000000000000000000000000000000000000000000000000000000000000000000000000000000000000000000000000000000000000000000000000000000000000000000000000000000000000000000000000000000000000000000000700070000000700070000000000000000
310
00000000000000000000000000000000000000000000000000000000000000000000000000000000000000000000000000000000000000000000000000000000000000000000000000000000000000000000000000000000000000000000000000000000000000000000000000000000000000000000000000000000000000
310
00000000000000000000000000000000000000000000000000000000000000000000000700000700000007000700000000000000000000000000000000000000000000000000000000000000000000000000000000000000000000000000000000000000000000000000000000000000000000000000000000000000000000
310
00000000000000000000000000000000000000000000000000000000000000000000000000000000000000000000000000000000000000000000000000000000000000000000000000000000000000000000000000000000070007000000000700070000000000000000000000000000000000000000000000000000000000
310
00000000000000000000000000000000000000000000000000000000000000000000000000000000000000000000000000000000000000000000000000000000000000000000000000000000000000000000000000000000000000000000000000000000000000000000000000000000000000000000000000000000000000
310
00000000000000000000000000070000070000000007000700000000000000000000000000000000000000000000000000000000000000000000000000000000000000000000000000000000000000000000000000000000000000000000000000000000000000000000000000000000000000000000000000000000000000
310
00000000000000000000000000000000000000000000000000000000000000000000000000000000000000000000000000000000000000000000000000000000000007000700000000000700070000000000000000000000000000000000000000000000000000000000000000000000000000000000000000000000000000
310
00000000000000000000000000000000000000000000000000000000000000000000000000000000000000000000000000000000000000000000000000000000000000000000000000000000000000000000000000000000000000000000000000000000000000000000000000000000000000000000070700070000000000
310
07000700000000000000000000000000000000000000000000000000000000000000000000000000000000000000000000000000000000000000000000000000000000000000000000000000000000000000000000000000000000000000000000000000000000000000000000000000000000000000000000000000000000
310
00000000000000000000000000000000000000000000000000000000000000000000000000000000000000070707070000000000000700070000000000000000000000000000000000000000000000000000000000000000000000000000000000000000000000000000000000000000000000000000000000000000000000
310
00000000000000000000000000000000000000000000000000000000000000000000000000000000000000000000000000000000000000000000000000000000000000000000000000000000000000000000000000000000000000000000070707070700000000000000070007000000000000000000000000000000000000
310
00000000000000000000000000000000000000000000000000000000000000000000000000000000000000000000000000000000000000000000000000000000000000000000000000000000000000000000000000000000000000000000000000000000000000000000000000000000000000000000000000000000000000
310
00000000000000000000000000000000000000070707070007000000000000000700070000000000000000000000000000000000000000000000000000000000000000000000000000000000000000000000000000000000000000000000000000000000000000000000000000000000000000000000000000000000000000
310
00000000000000000000000000000000000000000000000000000000000000000000000000000000000000000000000000000000000000000000000000000000000000000000000007070000070000000000000000070007000000000000000000000000000000000000000000000000000000000000000000000000000000
310
00000000000000000000000000000000000000000000000000000000000000000000000000000000000000000000000000000000000000000000000000000000000000000000000000000000000000000000000000000000000000000000000000000000000000000000000000000000000000000000000000000000070700
310
07070000000000000000000700070000000000000000000000000000000000000000000000000000000000000000000000000000000000000000000000000000000000000000000000000000000000000000000000000000000000000000000000000000000000000000000000000000000000000000000000000000000000
310
00000000000000000000000000000000000000000000000000000000000000000000000000000000000000000000000000070700070000000000000000000000070007000000000000000000000000000000000000000000000000000000000000000000000000000000000000000000000000000000000000000000000000
310
00000000000000000000000000000000000000000000000000000000000000000000000000000000000000000000000000000000000000000000000000000000000000000000000000000000000000000000000000000000000000000000000000000000000007000700000000000000000000000007000700000000000000
310
00000000000000000000000000000000000000000000000000000000000000000000000000000000000000000000000000000000000000000000000000000000000000000000000000000000000000000000000000000000000000000000000000000000000000000000000000000000000000000000000000000000000000
310
00000000000000000000000000000000000000000000000000000000000700000000000000000000000000070007000000000000000000000000000000000000000000000000000000000000000000000000000000000000000000000000000000000000000000000000000000000000000000000000000000000000000000
310
00000000000000000000000000000000000000000000000000000000000000000000000000000000000000000000000000000000000000000000000000000000000000000000000000000000000000000000000000000000000000000000000007000700000000000000000000000000000000000000000000000000000000
310
00000000000000000000000000000000000000000000000000000000000000000000000000000000000000000000000000000000000000000000000000000000000000000000000000000000000000000000000000000000000000000000000000000000000000000000000000000000000000000000000000000000000000
310
00000000000000000000000000000000000000000000070007000000000000000000000000000000000000000000000000000000000000000000000000000000000000000000000000000000000000000000000000000000000000000000000000000000000000000000000000000000000000000000000000000000000000
310
00000000000000000000000000000000000000000000000000000000000000000000000000000000000000000000000000000000000000000000000000000000000000000000000000000007000700000000000000000000000000000000000000000000000000000000000000000000000000000000000000000000000000
310
00000000000000000000000000000000000000000000000000000000000000000000000000000000000000000000000000000000000000000000000000000000000000000000000000000000000000000000000000000000000000000000000000000000000000000000000000000000000000000000000000000000000000
310
00070007000000000000000000000000000000000000000000000000000000000000000000000000000000000000000000000000000000000000000000000000000000000000000000000000000000000000000000000000000000000000000000000000000000000000000000000000000000000000000000000000000000
310
00000000000000000000000000000000000000000000000000000000000000000000000000000000000000000000000000000000000007000700000000000000000000000000000000000000000000000000000000000000000000000000000000000000000000000000000000000000000000000000000000000000000000
310
00000000000000000000000000000000000000000000000000000000000000000000000000000000000000000000000000000000000000000000000000000000000000000000000000000000000000000000000000000000000000000000000000000000000000000000000700070000000000000000000000000000000000
310
00000000000000000000000000000000000000000000000000000000000000000000000000000000000000000000000000000000000000000000000000000000000000000000000000000000000000000000000000000000000000000000000000000000000000000000000000000000000000000000000000000000000000
310
00000000000000000000000000000000000000000000000000000000000000000007070707070700000000000000000000000000000000000000000000000000000000000000000000000000000000000000000000000000000000000000000000000000000000000000000000000000000000000000000000000000000000
310
00000000000000000000000000000000000000000000000000000000000000000000000000000000000000000000000000000000000000000000000000000000000000000000000000000000000000000000000000000700000000070000000000000000000000000000000000000000000000000000000000000000000000
310
00000000000000000000000000000000000000000000000000000000000000000000000000000000000000000000000000000000000000000000000000000000000000000000000000000000000000000000000000000000000000000000000000000000000000000000000000000000000000000000000000000000000000
310
00000000000000000000000007000000000700000000000000000000000000000000000000000000000000000000000000000000000000000000000000000000000000000000000000000000000000000000000000000000000000000000000000000000000000000000000000000000000000000000000000000000000000
310
00000000000000000000000000000000000000000000000000000000000000000000000000000000000000000000000000000000000000000000000000000000000700000000070000000000000000000000000000000000000000000000000000000000000000000000000000000000000000000000000000000000000000
310
00000000000000000000000000000000000000000000000000000000000000000000000000000000000000000000000000000000000000000000000000000000000000000000000000000000000000000000000000000000000000000000000000000000000000000000000000000000000000000000070707070707000000
310
00000000000000000000000000000000000000000000000000000000000000000000000000000000000000000000000000000000000000000000000000000000000000000000000000000000000000000000000000000000000000000000000000000000000000000000000000000000000000000000000000000000000000
310
00000000000000000000000000000000000000000000000000000000000000000000000000000000000000000700070000000000000000000000000000000000000000000000000000000000000000000000000000000000000000000000000000000000000000000000000000000000000000000000000000000000000000
310
00000000000000000000000000000000000000000000000000000000000000000000000000000000000000000000000000000000000000000000000000000000000000000000000000000000000000000000000000000000000000000000000000070707000000000000000000000000000000000000000000000000000000
310
00000000000000000000000000000000000000000000000000000000000000000000000000000000000000000000000000000000000000000000000000000000000000000000000000000000000000000000000000000000000000000000000000000000000000000000000000000000000000000000000000000000000000
310
000000000000000000000000000000000000000000000000000000000000000000000000000000000000000000000000000000000000000000000000000000000000000000000000000000000000000000000000000000000000000000000000000000000000000000000000
  0
ENDSEC
  0
EOF
