  0
SECTION
  2
HEADER
  9
$ACADVER
  1
AC1014
  9
$ACADMAINTVER
 70
     9
  9
$DWGCODEPAGE
  3
ANSI_1252
  9
$INSBASE
 10
0.0
 20
0.0
 30
0.0
  9
$EXTMIN
 10
0.0000000000000365
 20
-0.0000000000000448
 30
0.0
  9
$EXTMAX
 10
795.0
 20
870.0
 30
0.0
  9
$LIMMIN
 10
0.0
 20
0.0
  9
$LIMMAX
 10
12.0
 20
9.0
  9
$ORTHOMODE
 70
     0
  9
$REGENMODE
 70
     1
  9
$FILLMODE
 70
     1
  9
$QTEXTMODE
 70
     0
  9
$MIRRTEXT
 70
     1
  9
$DRAGMODE
 70
     2
  9
$LTSCALE
 40
1.0
  9
$OSMODE
 70
    37
  9
$ATTMODE
 70
     1
  9
$TEXTSIZE
 40
0.2
  9
$TRACEWID
 40
0.05
  9
$TEXTSTYLE
  7
STANDARD
  9
$CLAYER
  8
0
  9
$CELTYPE
  6
CONTINUOUS
  9
$CECOLOR
 62
   256
  9
$CELTSCALE
 40
1.0
  9
$DELOBJ
 70
     1
  9
$DISPSILH
 70
     0
  9
$DIMSCALE
 40
1.0
  9
$DIMASZ
 40
0.18
  9
$DIMEXO
 40
0.0625
  9
$DIMDLI
 40
0.38
  9
$DIMRND
 40
0.0
  9
$DIMDLE
 40
0.0
  9
$DIMEXE
 40
0.18
  9
$DIMTP
 40
0.0
  9
$DIMTM
 40
0.0
  9
$DIMTXT
 40
0.18
  9
$DIMCEN
 40
0.09
  9
$DIMTSZ
 40
0.0
  9
$DIMTOL
 70
     0
  9
$DIMLIM
 70
     0
  9
$DIMTIH
 70
     1
  9
$DIMTOH
 70
     1
  9
$DIMSE1
 70
     0
  9
$DIMSE2
 70
     0
  9
$DIMTAD
 70
     0
  9
$DIMZIN
 70
     0
  9
$DIMBLK
  1

  9
$DIMASO
 70
     1
  9
$DIMSHO
 70
     1
  9
$DIMPOST
  1

  9
$DIMAPOST
  1

  9
$DIMALT
 70
     0
  9
$DIMALTD
 70
     2
  9
$DIMALTF
 40
25.4
  9
$DIMLFAC
 40
1.0
  9
$DIMTOFL
 70
     0
  9
$DIMTVP
 40
0.0
  9
$DIMTIX
 70
     0
  9
$DIMSOXD
 70
     0
  9
$DIMSAH
 70
     0
  9
$DIMBLK1
  1

  9
$DIMBLK2
  1

  9
$DIMSTYLE
  2
STANDARD
  9
$DIMCLRD
 70
     0
  9
$DIMCLRE
 70
     0
  9
$DIMCLRT
 70
     0
  9
$DIMTFAC
 40
1.0
  9
$DIMGAP
 40
0.09
  9
$DIMJUST
 70
     0
  9
$DIMSD1
 70
     0
  9
$DIMSD2
 70
     0
  9
$DIMTOLJ
 70
     1
  9
$DIMTZIN
 70
     0
  9
$DIMALTZ
 70
     0
  9
$DIMALTTZ
 70
     0
  9
$DIMFIT
 70
     3
  9
$DIMUPT
 70
     0
  9
$DIMUNIT
 70
     2
  9
$DIMDEC
 70
     4
  9
$DIMTDEC
 70
     4
  9
$DIMALTU
 70
     2
  9
$DIMALTTD
 70
     2
  9
$DIMTXSTY
  7
STANDARD
  9
$DIMAUNIT
 70
     0
  9
$LUNITS
 70
     2
  9
$LUPREC
 70
     4
  9
$SKETCHINC
 40
0.1
  9
$FILLETRAD
 40
0.0
  9
$AUNITS
 70
     0
  9
$AUPREC
 70
     0
  9
$MENU
  1
.
  9
$ELEVATION
 40
0.0
  9
$PELEVATION
 40
0.0
  9
$THICKNESS
 40
0.0
  9
$LIMCHECK
 70
     0
  9
$BLIPMODE
 70
     0
  9
$CHAMFERA
 40
0.0
  9
$CHAMFERB
 40
0.0
  9
$CHAMFERC
 40
0.0
  9
$CHAMFERD
 40
0.0
  9
$SKPOLY
 70
     0
  9
$TDCREATE
 40
2455235.769643727
  9
$TDUPDATE
 40
2455235.770774919
  9
$TDINDWG
 40
0.0011313657
  9
$TDUSRTIMER
 40
0.0011313657
  9
$USRTIMER
 70
     1
  9
$ANGBASE
 50
0.0
  9
$ANGDIR
 70
     0
  9
$PDMODE
 70
     0
  9
$PDSIZE
 40
0.0
  9
$PLINEWID
 40
0.0
  9
$COORDS
 70
     1
  9
$SPLFRAME
 70
     0
  9
$SPLINETYPE
 70
     6
  9
$SPLINESEGS
 70
     8
  9
$ATTDIA
 70
     0
  9
$ATTREQ
 70
     1
  9
$HANDLING
 70
 22529
  9
$HANDSEED
  5
207
  9
$SURFTAB1
 70
     6
  9
$SURFTAB2
 70
     6
  9
$SURFTYPE
 70
     6
  9
$SURFU
 70
     6
  9
$SURFV
 70
     6
  9
$UCSNAME
  2

  9
$UCSORG
 10
0.0
 20
0.0
 30
0.0
  9
$UCSXDIR
 10
1.0
 20
0.0
 30
0.0
  9
$UCSYDIR
 10
0.0
 20
1.0
 30
0.0
  9
$PUCSNAME
  2

  9
$PUCSORG
 10
0.0
 20
0.0
 30
0.0
  9
$PUCSXDIR
 10
1.0
 20
0.0
 30
0.0
  9
$PUCSYDIR
 10
0.0
 20
1.0
 30
0.0
  9
$USERI1
 70
     0
  9
$USERI2
 70
     0
  9
$USERI3
 70
     0
  9
$USERI4
 70
     0
  9
$USERI5
 70
     0
  9
$USERR1
 40
0.0
  9
$USERR2
 40
0.0
  9
$USERR3
 40
0.0
  9
$USERR4
 40
0.0
  9
$USERR5
 40
0.0
  9
$WORLDVIEW
 70
     1
  9
$SHADEDGE
 70
     3
  9
$SHADEDIF
 70
    70
  9
$TILEMODE
 70
     1
  9
$MAXACTVP
 70
    64
  9
$PINSBASE
 10
0.0
 20
0.0
 30
0.0
  9
$PLIMCHECK
 70
     0
  9
$PEXTMIN
 10
1.000000000000000E+20
 20
1.000000000000000E+20
 30
1.000000000000000E+20
  9
$PEXTMAX
 10
-1.000000000000000E+20
 20
-1.000000000000000E+20
 30
-1.000000000000000E+20
  9
$PLIMMIN
 10
0.0
 20
0.0
  9
$PLIMMAX
 10
12.0
 20
9.0
  9
$UNITMODE
 70
     0
  9
$VISRETAIN
 70
     1
  9
$PLINEGEN
 70
     0
  9
$PSLTSCALE
 70
     1
  9
$TREEDEPTH
 70
  3020
  9
$PICKSTYLE
 70
     1
  9
$CMLSTYLE
  2
STANDARD
  9
$CMLJUST
 70
     0
  9
$CMLSCALE
 40
1.0
  9
$PROXYGRAPHICS
 70
     1
  9
$MEASUREMENT
 70
     0
  0
ENDSEC
  0
SECTION
  2
CLASSES
  0
CLASS
  1
ACDBDICTIONARYWDFLT
  2
AcDbDictionaryWithDefault
  3
AutoCAD 2000
 90
        0
280
     0
281
     0
  0
CLASS
  1
ACDBPLACEHOLDER
  2
AcDbPlaceHolder
  3
AutoCAD 2000
 90
        0
280
     0
281
     0
  0
CLASS
  1
LAYOUT
  2
AcDbLayout
  3
AutoCAD 2000
 90
        0
280
     0
281
     0
  0
CLASS
  1
DICTIONARYVAR
  2
AcDbDictionaryVar
  3
AutoCAD 2000
 90
        0
280
     0
281
     0
  0
CLASS
  1
LONG_TRANSACTION
  2
AcDbLongTransaction
  3
AutoCAD 2000
 90
        0
280
     0
281
     0
  0
CLASS
  1
LWPOLYLINE
  2
AcDbPolyline
  3
AutoCAD 2000
 90
        0
280
     0
281
     1
  0
CLASS
  1
HATCH
  2
AcDbHatch
  3
AutoCAD 2000
 90
        0
280
     0
281
     1
  0
CLASS
  1
XRECORD
  2
AcDbXrecord
  3
AutoCAD 2000
 90
        0
280
     0
281
     0
  0
ENDSEC
  0
SECTION
  2
TABLES
  0
TABLE
  2
VPORT
  5
8
330
0
100
AcDbSymbolTable
 70
     3
  0
VPORT
  5
1E2
330
8
100
AcDbSymbolTableRecord
100
AcDbViewportTableRecord
  2
*ACTIVE
 70
     0
 10
0.0
 20
0.0
 11
1.0
 21
1.0
 12
397.5
 22
434.9999999999999
 13
0.0
 23
0.0
 14
1.0
 24
1.0
 15
0.0
 25
0.0
 16
0.0
 26
0.0
 36
1.0
 17
0.0
 27
0.0
 37
0.0
 40
875.7111597374178
 41
2.041621029572836
 42
50.0
 43
0.0
 44
0.0
 50
0.0
 51
0.0
 71
     0
 72
   100
 73
     1
 74
     3
 75
     0
 76
     0
 77
     0
 78
     0
  0
ENDTAB
  0
TABLE
  2
LTYPE
  5
5
330
0
100
AcDbSymbolTable
 70
     1
  0
LTYPE
  5
13
330
5
100
AcDbSymbolTableRecord
100
AcDbLinetypeTableRecord
  2
BYBLOCK
 70
     0
  3

 72
    65
 73
     0
 40
0.0
  0
LTYPE
  5
14
330
5
100
AcDbSymbolTableRecord
100
AcDbLinetypeTableRecord
  2
BYLAYER
 70
     0
  3

 72
    65
 73
     0
 40
0.0
  0
LTYPE
  5
15
330
5
100
AcDbSymbolTableRecord
100
AcDbLinetypeTableRecord
  2
CONTINUOUS
 70
     0
  3
Solid line
 72
    65
 73
     0
 40
0.0
  0
ENDTAB
  0
TABLE
  2
LAYER
  5
2
330
0
100
AcDbSymbolTable
 70
     1
  0
LAYER
  5
10
330
2
100
AcDbSymbolTableRecord
100
AcDbLayerTableRecord
  2
0
 70
     0
 62
     7
  6
CONTINUOUS
  0
ENDTAB
  0
TABLE
  2
STYLE
  5
3
330
0
100
AcDbSymbolTable
 70
     1
  0
STYLE
  5
11
330
3
100
AcDbSymbolTableRecord
100
AcDbTextStyleTableRecord
  2
STANDARD
 70
     0
 40
0.0
 41
1.0
 50
0.0
 71
     0
 42
0.2
  3
txt
  4

  0
ENDTAB
  0
TABLE
  2
VIEW
  5
6
330
0
100
AcDbSymbolTable
 70
     0
  0
ENDTAB
  0
TABLE
  2
UCS
  5
7
330
0
100
AcDbSymbolTable
 70
     0
  0
ENDTAB
  0
TABLE
  2
APPID
  5
9
330
0
100
AcDbSymbolTable
 70
     1
  0
APPID
  5
12
330
9
100
AcDbSymbolTableRecord
100
AcDbRegAppTableRecord
  2
ACAD
 70
     0
  0
ENDTAB
  0
TABLE
  2
DIMSTYLE
  5
A
330
0
100
AcDbSymbolTable
 70
     1
  0
DIMSTYLE
105
1CF
330
A
100
AcDbSymbolTableRecord
100
AcDbDimStyleTableRecord
  2
STANDARD
 70
     0
  3

  4

  5

  6

  7

 40
1.0
 41
0.18
 42
0.0625
 43
0.38
 44
0.18
 45
0.0
 46
0.0
 47
0.0
 48
0.0
140
0.18
141
0.09
142
0.0
143
25.4
144
1.0
145
0.0
146
1.0
147
0.09
 71
     0
 72
     0
 73
     1
 74
     1
 75
     0
 76
     0
 77
     0
 78
     0
170
     0
171
     2
172
     0
173
     0
174
     0
175
     0
176
     0
177
     0
178
     0
270
     2
271
     4
272
     4
273
     2
274
     2
340
11
275
     0
280
     0
281
     0
282
     0
283
     1
284
     0
285
     0
286
     0
287
     3
288
     0
  0
ENDTAB
  0
TABLE
  2
BLOCK_RECORD
  5
1
330
0
100
AcDbSymbolTable
 70
     0
  0
BLOCK_RECORD
  5
1E
102
{ACAD_XDICTIONARY
360
205
102
}
330
1
100
AcDbSymbolTableRecord
100
AcDbBlockTableRecord
  2
*MODEL_SPACE
  0
BLOCK_RECORD
  5
1A
102
{ACAD_XDICTIONARY
360
203
102
}
330
1
100
AcDbSymbolTableRecord
100
AcDbBlockTableRecord
  2
*PAPER_SPACE
  0
ENDTAB
  0
ENDSEC
  0
SECTION
  2
BLOCKS
  0
BLOCK
  5
1F
330
1E
100
AcDbEntity
  8
0
100
AcDbBlockBegin
  2
*MODEL_SPACE
 70
     0
 10
0.0
 20
0.0
 30
0.0
  3
*MODEL_SPACE
  1

  0
ENDBLK
  5
20
330
1E
100
AcDbEntity
  8
0
100
AcDbBlockEnd
  0
BLOCK
  5
1B
330
1A
100
AcDbEntity
 67
     1
  8
0
100
AcDbBlockBegin
  2
*PAPER_SPACE
 70
     0
 10
0.0
 20
0.0
 30
0.0
  3
*PAPER_SPACE
  1

  0
ENDBLK
  5
1C
330
1A
100
AcDbEntity
 67
     1
  8
0
100
AcDbBlockEnd
  0
ENDSEC
  0
SECTION
  2
ENTITIES
  0
LINE
  5
22
330
1E
100
AcDbEntity
  8
0
100
AcDbLine
 10
328.413
 20
-0.0000000000000201
 30
0.0
 11
397.5
 21
-0.0000000000000243
 31
0.0
  0
LINE
  5
23
330
1E
100
AcDbEntity
  8
0
100
AcDbLine
 10
213.624
 20
-0.0000000000000131
 30
0.0
 11
235.278
 21
-0.0000000000000144
 31
0.0
  0
LINE
  5
24
330
1E
100
AcDbEntity
  8
0
100
AcDbLine
 10
169.587
 20
-0.0000000000000104
 30
0.0
 11
180.5349999999999
 21
-0.0000000000000111
 31
0.0
  0
LINE
  5
25
330
1E
100
AcDbEntity
  8
0
100
AcDbLine
 10
105.357
 20
-0.0000000000000065
 30
0.0
 11
114.8449999999999
 21
-0.000000000000007
 31
0.0
  0
LINE
  5
26
330
1E
100
AcDbEntity
  8
0
100
AcDbLine
 10
82.4867
 20
-0.0000000000000051
 30
0.0
 11
88.65
 21
-0.0000000000000054
 31
0.0
  0
LINE
  5
27
330
1E
100
AcDbEntity
  8
0
100
AcDbLine
 10
65.27840000000001
 20
-0.000000000000004
 30
0.0
 11
67.3407
 21
-0.0000000000000041
 31
0.0
  0
LINE
  5
2B
330
1E
100
AcDbEntity
  8
0
100
AcDbLine
 10
54.068
 20
340.173
 30
0.0
 11
58.073
 21
235.813
 31
0.0
  0
LINE
  5
2C
330
1E
100
AcDbEntity
  8
0
100
AcDbLine
 10
58.073
 20
235.813
 30
0.0
 11
61.0994
 21
110.3809999999999
 31
0.0
  0
LINE
  5
2D
330
1E
100
AcDbEntity
  8
0
100
AcDbLine
 10
5.006300000000039
 20
589.0309999999999
 30
0.0
 11
27.034
 21
510.761
 31
0.0
  0
LINE
  5
2E
330
1E
100
AcDbEntity
  8
0
100
AcDbLine
 10
5.006300000000039
 20
589.0309999999999
 30
0.0
 11
27.034
 21
510.761
 31
0.0
  0
LINE
  5
2F
330
1E
100
AcDbEntity
  8
0
100
AcDbLine
 10
27.034
 20
510.761
 30
0.0
 11
43.0542
 21
431.488
 31
0.0
  0
LINE
  5
30
330
1E
100
AcDbEntity
  8
0
100
AcDbLine
 10
43.0542
 20
431.488
 30
0.0
 11
54.068
 21
340.173
 31
0.0
  0
LINE
  5
31
330
1E
100
AcDbEntity
  8
0
100
AcDbLine
 10
0.0000000000000366
 20
598.9259999999999
 30
0.0
 11
5.006300000000039
 21
589.0309999999999
 31
0.0
  0
LINE
  5
32
330
1E
100
AcDbEntity
  8
0
100
AcDbLine
 10
0.0000000000000366
 20
598.9259999999999
 30
0.0
 11
0.4542370000000371
 21
599.1399999999999
 31
0.0
  0
LINE
  5
33
330
1E
100
AcDbEntity
  8
0
100
AcDbLine
 10
0.0000000000000367
 20
598.9259999999999
 30
0.0
 11
0.0000000000000367
 21
599.066
 31
0.0
  0
LINE
  5
34
330
1E
100
AcDbEntity
  8
0
100
AcDbLine
 10
0.0000000000000367
 20
598.9259999999999
 30
0.0
 11
0.4542370000000371
 21
599.1399999999999
 31
0.0
  0
LINE
  5
35
330
1E
100
AcDbEntity
  8
0
100
AcDbLine
 10
0.4542370000000371
 20
599.1399999999999
 30
0.0
 11
1.24411000000004
 21
599.361
 31
0.0
  0
LINE
  5
36
330
1E
100
AcDbEntity
  8
0
100
AcDbLine
 10
1.24411000000004
 20
599.361
 30
0.0
 11
2.231470000000039
 21
599.6369999999999
 31
0.0
  0
LINE
  5
37
330
1E
100
AcDbEntity
  8
0
100
AcDbLine
 10
2.231470000000039
 20
599.6369999999999
 30
0.0
 11
5.108890000000039
 21
600.41
 31
0.0
  0
LINE
  5
38
330
1E
100
AcDbEntity
  8
0
100
AcDbLine
 10
5.108890000000039
 20
600.41
 30
0.0
 11
7.73241000000004
 21
601.0169999999999
 31
0.0
  0
LINE
  5
39
330
1E
100
AcDbEntity
  8
0
100
AcDbLine
 10
7.73241000000004
 20
601.0169999999999
 30
0.0
 11
10.4405
 21
601.6259999999999
 31
0.0
  0
LINE
  5
3A
330
1E
100
AcDbEntity
  8
0
100
AcDbLine
 10
2.563578996177459
 20
599.7262189023659
 30
0.0
 11
3.92858000000004
 21
601.23
 31
0.0
  0
LINE
  5
3B
330
1E
100
AcDbEntity
  8
0
100
AcDbLine
 10
3.92858000000004
 20
601.23
 30
0.0
 11
7.79007000000004
 21
606.341
 31
0.0
  0
LINE
  5
3C
330
1E
100
AcDbEntity
  8
0
100
AcDbLine
 10
10.4405
 20
601.6259999999999
 30
0.0
 11
14.2799
 21
602.735
 31
0.0
  0
LINE
  5
3D
330
1E
100
AcDbEntity
  8
0
100
AcDbLine
 10
14.2799
 20
602.735
 30
0.0
 11
18.1383
 21
606.3969999999999
 31
0.0
  0
LINE
  5
3E
330
1E
100
AcDbEntity
  8
0
100
AcDbLine
 10
18.1383
 20
606.3969999999999
 30
0.0
 11
21.8723
 21
613.9619999999999
 31
0.0
  0
LINE
  5
3F
330
1E
100
AcDbEntity
  8
0
100
AcDbLine
 10
21.8723
 20
613.9619999999999
 30
0.0
 11
26.10419999999999
 21
624.446
 31
0.0
  0
LINE
  5
40
330
1E
100
AcDbEntity
  8
0
100
AcDbLine
 10
11.65159999999999
 20
611.254
 30
0.0
 11
17.2434
 21
623.105
 31
0.0
  0
LINE
  5
41
330
1E
100
AcDbEntity
  8
0
100
AcDbLine
 10
17.2434
 20
623.105
 30
0.0
 11
23.84099999999999
 21
634.983
 31
0.0
  0
LINE
  5
42
330
1E
100
AcDbEntity
  8
0
100
AcDbLine
 10
26.10419999999999
 20
624.446
 30
0.0
 11
28.5936
 21
633.4169999999999
 31
0.0
  0
LINE
  5
43
330
1E
100
AcDbEntity
  8
0
100
AcDbLine
 10
28.5936
 20
633.4169999999999
 30
0.0
 11
32.07869999999999
 21
647.1459999999999
 31
0.0
  0
LINE
  5
44
330
1E
100
AcDbEntity
  8
0
100
AcDbLine
 10
23.84099999999999
 20
634.983
 30
0.0
 11
28.46859999999999
 21
643.5579999999999
 31
0.0
  0
LINE
  5
45
330
1E
100
AcDbEntity
  8
0
100
AcDbLine
 10
32.07869999999999
 20
647.1459999999999
 30
0.0
 11
41.3452
 21
674.1139999999999
 31
0.0
  0
LINE
  5
46
330
1E
100
AcDbEntity
  8
0
100
AcDbLine
 10
41.3452
 20
674.1139999999999
 30
0.0
 11
50.5512
 21
685.9689999999999
 31
0.0
  0
LINE
  5
47
330
1E
100
AcDbEntity
  8
0
100
AcDbLine
 10
50.5512
 20
685.9689999999999
 30
0.0
 11
58.7518
 21
689.1869999999999
 31
0.0
  0
LINE
  5
48
330
1E
100
AcDbEntity
  8
0
100
AcDbLine
 10
52.7611100746284
 20
686.836191500641
 30
0.0
 11
56.3863
 21
692.6789999999999
 31
0.0
  0
LINE
  5
49
330
1E
100
AcDbEntity
  8
0
100
AcDbLine
 10
58.7518
 20
689.1869999999999
 30
0.0
 11
70.0021
 21
689.3769999999999
 31
0.0
  0
LINE
  5
4A
330
1E
100
AcDbEntity
  8
0
100
AcDbLine
 10
56.3863
 20
692.6789999999999
 30
0.0
 11
69.095
 21
712.7260000000001
 31
0.0
  0
LINE
  5
4B
330
1E
100
AcDbEntity
  8
0
100
AcDbLine
 10
28.46859999999999
 20
643.5579999999999
 30
0.0
 11
36.4037689722901
 21
659.733110564368
 31
0.0
  0
LINE
  5
4C
330
1E
100
AcDbEntity
  8
0
100
AcDbLine
 10
7.79007000000004
 20
606.341
 30
0.0
 11
11.65159999999999
 21
611.254
 31
0.0
  0
LINE
  5
4D
330
1E
100
AcDbEntity
  8
0
100
AcDbLine
 10
0.0000000000000367
 20
599.066
 30
0.0
 11
0.0565520826004716
 21
598.952642800293
 31
0.0
  0
LINE
  5
4E
330
1E
100
AcDbEntity
  8
0
100
AcDbLine
 10
0.0000000000000367
 20
599.066
 30
0.0
 11
0.2971643925233511
 21
599.066
 31
0.0
  0
LINE
  5
4F
330
1E
100
AcDbEntity
  8
0
100
AcDbLine
 10
0.0000000000000365
 20
599.066
 30
0.0
 11
0.0565520826004714
 21
598.952642800293
 31
0.0
  0
LINE
  5
50
330
1E
100
AcDbEntity
  8
0
100
AcDbLine
 10
0.0000000000000365
 20
599.066
 30
0.0
 11
0.2971643925233511
 21
599.066
 31
0.0
  0
LINE
  5
51
330
1E
100
AcDbEntity
  8
0
100
AcDbLine
 10
0.0000000000000366
 20
598.9259999999999
 30
0.0
 11
5.006300000000039
 21
589.0309999999999
 31
0.0
  0
LINE
  5
52
330
1E
100
AcDbEntity
  8
0
100
AcDbLine
 10
61.429
 20
110.3809999999999
 30
0.0
 11
62.2141
 21
110.3809999999999
 31
0.0
  0
LINE
  5
53
330
1E
100
AcDbEntity
  8
0
100
AcDbLine
 10
62.2141
 20
110.3809999999999
 30
0.0
 11
63.2037
 21
110.3809999999999
 31
0.0
  0
LINE
  5
55
330
1E
100
AcDbEntity
  8
0
100
AcDbLine
 10
61.0994
 20
110.3809999999999
 30
0.0
 11
61.429
 21
110.3809999999999
 31
0.0
  0
LINE
  5
56
330
1E
100
AcDbEntity
  8
0
100
AcDbLine
 10
61.0994
 20
110.3809999999999
 30
0.0
 11
61.1967
 21
110.3809999999999
 31
0.0
  0
LINE
  5
58
330
1E
100
AcDbEntity
  8
0
100
AcDbLine
 10
63.18699999999999
 20
-0.0000000000000039
 30
0.0
 11
63.5148
 21
-0.0000000000000039
 31
0.0
  0
LINE
  5
59
330
1E
100
AcDbEntity
  8
0
100
AcDbLine
 10
63.5148
 20
-0.0000000000000039
 30
0.0
 11
64.2949
 21
-0.0000000000000039
 31
0.0
  0
LINE
  5
5A
330
1E
100
AcDbEntity
  8
0
100
AcDbLine
 10
64.2949
 20
-0.0000000000000039
 30
0.0
 11
65.27840000000001
 21
-0.000000000000004
 31
0.0
  0
LINE
  5
5C
330
1E
100
AcDbEntity
  8
0
100
AcDbLine
 10
63.2037
 20
110.3809999999999
 30
0.0
 11
65.27889999999999
 21
110.3809999999999
 31
0.0
  0
LINE
  5
5D
330
1E
100
AcDbEntity
  8
0
100
AcDbLine
 10
65.27889999999999
 20
110.3809999999999
 30
0.0
 11
67.69989999999999
 21
110.3809999999999
 31
0.0
  0
LINE
  5
5F
330
1E
100
AcDbEntity
  8
0
100
AcDbLine
 10
63.0793
 20
-0.0000000000000039
 30
0.0
 11
64.2949
 21
-0.0000000000000039
 31
0.0
  0
LINE
  5
60
330
1E
100
AcDbEntity
  8
0
100
AcDbLine
 10
63.0793
 20
-0.0000000000000039
 30
0.0
 11
63.18699999999999
 21
-0.0000000000000039
 31
0.0
  0
LINE
  5
61
330
1E
100
AcDbEntity
  8
0
100
AcDbLine
 10
64.73189999999999
 20
-0.000000000000004
 30
0.0
 11
65.27840000000001
 21
-0.000000000000004
 31
0.0
  0
LINE
  5
62
330
1E
100
AcDbEntity
  8
0
100
AcDbLine
 10
69.6332
 20
-0.0000000000000043
 30
0.0
 11
72.8819
 21
-0.0000000000000045
 31
0.0
  0
LINE
  5
63
330
1E
100
AcDbEntity
  8
0
100
AcDbLine
 10
67.3407
 20
-0.0000000000000041
 30
0.0
 11
69.74639999999999
 21
-0.0000000000000043
 31
0.0
  0
LINE
  5
65
330
1E
100
AcDbEntity
  8
0
100
AcDbLine
 10
69.74639999999999
 20
-0.0000000000000043
 30
0.0
 11
72.4961
 21
-0.0000000000000044
 31
0.0
  0
LINE
  5
69
330
1E
100
AcDbEntity
  8
0
100
AcDbLine
 10
70.0021
 20
689.3769999999999
 30
0.0
 11
87.53899999999999
 21
689.3769999999999
 31
0.0
  0
LINE
  5
6A
330
1E
100
AcDbEntity
  8
0
100
AcDbLine
 10
69.095
 20
712.7260000000001
 30
0.0
 11
83.83720000000009
 21
732.526
 31
0.0
  0
LINE
  5
6B
330
1E
100
AcDbEntity
  8
0
100
AcDbLine
 10
67.69989999999999
 20
110.3809999999999
 30
0.0
 11
70.46649999999999
 21
110.3809999999999
 31
0.0
  0
LINE
  5
6C
330
1E
100
AcDbEntity
  8
0
100
AcDbLine
 10
70.46649999999999
 20
110.3809999999999
 30
0.0
 11
75.3947
 21
110.3809999999999
 31
0.0
  0
LINE
  5
71
330
1E
100
AcDbEntity
  8
0
100
AcDbLine
 10
66.3845
 20
-0.0000000000000041
 30
0.0
 11
69.6332
 21
-0.0000000000000043
 31
0.0
  0
LINE
  5
72
330
1E
100
AcDbEntity
  8
0
100
AcDbLine
 10
72.4961
 20
-0.0000000000000044
 30
0.0
 11
72.8819
 21
-0.0000000000000045
 31
0.0
  0
LINE
  5
73
330
1E
100
AcDbEntity
  8
0
100
AcDbLine
 10
72.4961
 20
-0.0000000000000044
 30
0.0
 11
77.3938
 21
-0.0000000000000047
 31
0.0
  0
LINE
  5
75
330
1E
100
AcDbEntity
  8
0
100
AcDbLine
 10
77.3938
 20
-0.0000000000000047
 30
0.0
 11
82.4867
 21
-0.0000000000000051
 31
0.0
  0
LINE
  5
77
330
1E
100
AcDbEntity
  8
0
100
AcDbLine
 10
76.64379747593159
 20
689.3769999999999
 30
0.0
 11
88.5194
 21
708.11
 31
0.0
  0
LINE
  5
78
330
1E
100
AcDbEntity
  8
0
100
AcDbLine
 10
75.3947
 20
110.3809999999999
 30
0.0
 11
80.5194
 21
110.3809999999999
 31
0.0
  0
LINE
  5
79
330
1E
100
AcDbEntity
  8
0
100
AcDbLine
 10
80.5194
 20
110.3809999999999
 30
0.0
 11
86.72130000000001
 21
110.3809999999999
 31
0.0
  0
LINE
  5
7D
330
1E
100
AcDbEntity
  8
0
100
AcDbLine
 10
72.8819
 20
-0.0000000000000045
 30
0.0
 11
77.58639999999999
 21
-0.0000000000000048
 31
0.0
  0
LINE
  5
7E
330
1E
100
AcDbEntity
  8
0
100
AcDbLine
 10
77.58639999999999
 20
-0.0000000000000048
 30
0.0
 11
83.14619999999999
 21
-0.0000000000000051
 31
0.0
  0
LINE
  5
7F
330
1E
100
AcDbEntity
  8
0
100
AcDbLine
 10
93.8382
 20
-0.0000000000000057
 30
0.0
 11
101.109
 21
-0.0000000000000062
 31
0.0
  0
LINE
  5
80
330
1E
100
AcDbEntity
  8
0
100
AcDbLine
 10
88.65
 20
-0.0000000000000054
 30
0.0
 11
97.0845
 21
-0.0000000000000059
 31
0.0
  0
LINE
  5
81
330
1E
100
AcDbEntity
  8
0
100
AcDbLine
 10
88.65
 20
-0.0000000000000054
 30
0.0
 11
93.8382
 21
-0.0000000000000057
 31
0.0
  0
LINE
  5
82
330
1E
100
AcDbEntity
  8
0
100
AcDbLine
 10
97.0845
 20
-0.0000000000000059
 30
0.0
 11
105.357
 21
-0.0000000000000065
 31
0.0
  0
LINE
  5
83
330
1E
100
AcDbEntity
  8
0
100
AcDbLine
 10
83.83720000000009
 20
732.526
 30
0.0
 11
98.071
 21
752.8189999999999
 31
0.0
  0
LINE
  5
84
330
1E
100
AcDbEntity
  8
0
100
AcDbLine
 10
88.5194
 20
708.11
 30
0.0
 11
103.262
 21
727.9099999999999
 31
0.0
  0
LINE
  5
85
330
1E
100
AcDbEntity
  8
0
100
AcDbLine
 10
87.53899999999999
 20
689.3769999999999
 30
0.0
 11
102.429
 21
689.3769999999999
 31
0.0
  0
LINE
  5
86
330
1E
100
AcDbEntity
  8
0
100
AcDbLine
 10
86.72130000000001
 20
110.3809999999999
 30
0.0
 11
95.2086
 21
110.3809999999999
 31
0.0
  0
LINE
  5
88
330
1E
100
AcDbEntity
  8
0
100
AcDbLine
 10
95.2086
 20
110.3809999999999
 30
0.0
 11
103.532
 21
110.3809999999999
 31
0.0
  0
LINE
  5
8C
330
1E
100
AcDbEntity
  8
0
100
AcDbLine
 10
103.262
 20
727.9099999999999
 30
0.0
 11
117.496
 21
748.2029999999999
 31
0.0
  0
LINE
  5
8D
330
1E
100
AcDbEntity
  8
0
100
AcDbLine
 10
102.429
 20
689.3769999999999
 30
0.0
 11
121.951
 21
689.3769999999999
 31
0.0
  0
LINE
  5
8E
330
1E
100
AcDbEntity
  8
0
100
AcDbLine
 10
98.071
 20
752.8189999999999
 30
0.0
 11
117.3889999999999
 21
775.618
 31
0.0
  0
LINE
  5
8F
330
1E
100
AcDbEntity
  8
0
100
AcDbLine
 10
103.532
 20
110.3809999999999
 30
0.0
 11
113.08
 21
110.3809999999999
 31
0.0
  0
LINE
  5
93
330
1E
100
AcDbEntity
  8
0
100
AcDbLine
 10
83.14619999999999
 20
-0.0000000000000051
 30
0.0
 11
87.85070000000001
 21
-0.0000000000000054
 31
0.0
  0
LINE
  5
94
330
1E
100
AcDbEntity
  8
0
100
AcDbLine
 10
101.109
 20
-0.0000000000000062
 30
0.0
 11
110.5179999999999
 21
-0.0000000000000068
 31
0.0
  0
LINE
  5
95
330
1E
100
AcDbEntity
  8
0
100
AcDbLine
 10
114.8449999999999
 20
-0.000000000000007
 30
0.0
 11
126.524
 21
-0.0000000000000077
 31
0.0
  0
LINE
  5
97
330
1E
100
AcDbEntity
  8
0
100
AcDbLine
 10
117.496
 20
748.2029999999999
 30
0.0
 11
136.8129999999999
 21
771.002
 31
0.0
  0
LINE
  5
98
330
1E
100
AcDbEntity
  8
0
100
AcDbLine
 10
121.951
 20
689.3769999999999
 30
0.0
 11
147.429
 21
689.3769999999999
 31
0.0
  0
LINE
  5
99
330
1E
100
AcDbEntity
  8
0
100
AcDbLine
 10
117.3889999999999
 20
775.618
 30
0.0
 11
138.1289999999999
 21
798.19
 31
0.0
  0
LINE
  5
9A
330
1E
100
AcDbEntity
  8
0
100
AcDbLine
 10
113.08
 20
110.3809999999999
 30
0.0
 11
124.831
 21
110.3809999999999
 31
0.0
  0
LINE
  5
9B
330
1E
100
AcDbEntity
  8
0
100
AcDbLine
 10
124.831
 20
110.3809999999999
 30
0.0
 11
136.092
 21
110.3809999999999
 31
0.0
  0
LINE
  5
9F
330
1E
100
AcDbEntity
  8
0
100
AcDbLine
 10
110.5179999999999
 20
-0.0000000000000068
 30
0.0
 11
121.209
 21
-0.0000000000000074
 31
0.0
  0
LINE
  5
A0
330
1E
100
AcDbEntity
  8
0
100
AcDbLine
 10
126.524
 20
-0.0000000000000077
 30
0.0
 11
133.6119999999999
 21
-0.0000000000000082
 31
0.0
  0
LINE
  5
A1
330
1E
100
AcDbEntity
  8
0
100
AcDbLine
 10
126.524
 20
-0.0000000000000077
 30
0.0
 11
137.715
 21
-0.0000000000000084
 31
0.0
  0
LINE
  5
A2
330
1E
100
AcDbEntity
  8
0
100
AcDbLine
 10
137.715
 20
-0.0000000000000084
 30
0.0
 11
148.421
 21
-0.0000000000000091
 31
0.0
  0
LINE
  5
A4
330
1E
100
AcDbEntity
  8
0
100
AcDbLine
 10
148.421
 20
-0.0000000000000091
 30
0.0
 11
156.692
 21
-0.0000000000000096
 31
0.0
  0
LINE
  5
A6
330
1E
100
AcDbEntity
  8
0
100
AcDbLine
 10
156.692
 20
-0.0000000000000096
 30
0.0
 11
169.587
 21
-0.0000000000000104
 31
0.0
  0
LINE
  5
AB
330
1E
100
AcDbEntity
  8
0
100
AcDbLine
 10
136.092
 20
110.3809999999999
 30
0.0
 11
146.865
 21
110.3809999999999
 31
0.0
  0
LINE
  5
AC
330
1E
100
AcDbEntity
  8
0
100
AcDbLine
 10
146.865
 20
110.3809999999999
 30
0.0
 11
155.1879999999999
 21
110.3809999999999
 31
0.0
  0
LINE
  5
AD
330
1E
100
AcDbEntity
  8
0
100
AcDbLine
 10
136.8129999999999
 20
771.002
 30
0.0
 11
157.553
 21
793.574
 31
0.0
  0
LINE
  5
AE
330
1E
100
AcDbEntity
  8
0
100
AcDbLine
 10
151.0089999999999
 20
620.7769999999999
 30
0.0
 11
151.0089999999999
 21
630.878
 31
0.0
  0
LINE
  5
AF
330
1E
100
AcDbEntity
  8
0
100
AcDbLine
 10
151.0089999999999
 20
620.7769999999999
 30
0.0
 11
153.987
 21
609.7059999999999
 31
0.0
  0
LINE
  5
B0
330
1E
100
AcDbEntity
  8
0
100
AcDbLine
 10
157.307
 20
602.266
 30
0.0
 11
163.748
 21
595.1349999999999
 31
0.0
  0
LINE
  5
B1
330
1E
100
AcDbEntity
  8
0
100
AcDbLine
 10
153.987
 20
609.7059999999999
 30
0.0
 11
157.307
 21
602.266
 31
0.0
  0
LINE
  5
B2
330
1E
100
AcDbEntity
  8
0
100
AcDbLine
 10
151.0089999999999
 20
630.878
 30
0.0
 11
153.5389999999999
 21
638.594
 31
0.0
  0
LINE
  5
B3
330
1E
100
AcDbEntity
  8
0
100
AcDbLine
 10
151.0089999999999
 20
630.878
 30
0.0
 11
151.0089999999999
 21
620.7769999999999
 31
0.0
  0
LINE
  5
B5
330
1E
100
AcDbEntity
  8
0
100
AcDbLine
 10
153.5389999999999
 20
638.594
 30
0.0
 11
158.406
 21
642.433
 31
0.0
  0
LINE
  5
B6
330
1E
100
AcDbEntity
  8
0
100
AcDbLine
 10
165.735526437332
 20
643.574313386679
 30
0.0
 11
203.122
 21
643.587
 31
0.0
  0
LINE
  5
B7
330
1E
100
AcDbEntity
  8
0
100
AcDbLine
 10
163.748
 20
595.1349999999999
 30
0.0
 11
173.0559999999999
 21
590.6369999999999
 31
0.0
  0
LINE
  5
B8
330
1E
100
AcDbEntity
  8
0
100
AcDbLine
 10
158.406
 20
642.433
 30
0.0
 11
165.817
 21
643.587
 31
0.0
  0
LINE
  5
B9
330
1E
100
AcDbEntity
  8
0
100
AcDbLine
 10
157.553
 20
793.574
 30
0.0
 11
183.269
 21
816.8519999999999
 31
0.0
  0
LINE
  5
BA
330
1E
100
AcDbEntity
  8
0
100
AcDbLine
 10
147.429
 20
689.3769999999999
 30
0.0
 11
176.877
 21
689.3769999999999
 31
0.0
  0
LINE
  5
BC
330
1E
100
AcDbEntity
  8
0
100
AcDbLine
 10
163.844
 20
821.4680000000001
 30
0.0
 11
186.93
 21
840.779
 31
0.0
  0
LINE
  5
BD
330
1E
100
AcDbEntity
  8
0
100
AcDbLine
 10
138.1289999999999
 20
798.19
 30
0.0
 11
163.844
 21
821.4680000000001
 31
0.0
  0
LINE
  5
BE
330
1E
100
AcDbEntity
  8
0
100
AcDbLine
 10
155.1879999999999
 20
110.3809999999999
 30
0.0
 11
168.164
 21
110.3809999999999
 31
0.0
  0
LINE
  5
BF
330
1E
100
AcDbEntity
  8
0
100
AcDbLine
 10
173.0559999999999
 20
590.6369999999999
 30
0.0
 11
181.7529999999999
 21
589.075
 31
0.0
  0
LINE
  5
C0
330
1E
100
AcDbEntity
  8
0
100
AcDbLine
 10
168.164
 20
110.3809999999999
 30
0.0
 11
179.18
 21
110.3809999999999
 31
0.0
  0
LINE
  5
C2
330
1E
100
AcDbEntity
  8
0
100
AcDbLine
 10
176.877
 20
689.3769999999999
 30
0.0
 11
233.129
 21
689.3769999999999
 31
0.0
  0
LINE
  5
C3
330
1E
100
AcDbEntity
  8
0
100
AcDbLine
 10
179.18
 20
110.3809999999999
 30
0.0
 11
193.6259999999999
 21
110.3809999999999
 31
0.0
  0
LINE
  5
C6
330
1E
100
AcDbEntity
  8
0
100
AcDbLine
 10
133.6119999999999
 20
-0.0000000000000082
 30
0.0
 11
145.587
 21
-0.0000000000000089
 31
0.0
  0
LINE
  5
C7
330
1E
100
AcDbEntity
  8
0
100
AcDbLine
 10
161.84
 20
-0.0000000000000099
 30
0.0
 11
179.289
 21
-0.000000000000011
 31
0.0
  0
LINE
  5
C8
330
1E
100
AcDbEntity
  8
0
100
AcDbLine
 10
161.84
 20
-0.0000000000000099
 30
0.0
 11
169.587
 21
-0.0000000000000104
 31
0.0
  0
LINE
  5
C9
330
1E
100
AcDbEntity
  8
0
100
AcDbLine
 10
180.5349999999999
 20
-0.0000000000000111
 30
0.0
 11
194.8909999999999
 21
-0.0000000000000119
 31
0.0
  0
LINE
  5
CA
330
1E
100
AcDbEntity
  8
0
100
AcDbLine
 10
194.8909999999999
 20
-0.0000000000000119
 30
0.0
 11
213.624
 21
-0.0000000000000131
 31
0.0
  0
LINE
  5
CD
330
1E
100
AcDbEntity
  8
0
100
AcDbLine
 10
183.269
 20
816.8519999999999
 30
0.0
 11
206.3549999999999
 21
836.1629999999999
 31
0.0
  0
LINE
  5
CE
330
1E
100
AcDbEntity
  8
0
100
AcDbLine
 10
206.3549999999999
 20
836.1629999999999
 30
0.0
 11
229.739
 21
851.285
 31
0.0
  0
LINE
  5
CF
330
1E
100
AcDbEntity
  8
0
100
AcDbLine
 10
203.122
 20
643.587
 30
0.0
 11
252.68
 21
643.587
 31
0.0
  0
LINE
  5
D0
330
1E
100
AcDbEntity
  8
0
100
AcDbLine
 10
193.101
 20
643.587
 30
0.0
 11
245.2159999999999
 21
643.587
 31
0.0
  0
LINE
  5
D1
330
1E
100
AcDbEntity
  8
0
100
AcDbLine
 10
181.7529999999999
 20
589.075
 30
0.0
 11
207.16
 21
589.075
 31
0.0
  0
LINE
  5
D2
330
1E
100
AcDbEntity
  8
0
100
AcDbLine
 10
207.16
 20
589.075
 30
0.0
 11
255.689
 21
589.075
 31
0.0
  0
LINE
  5
D3
330
1E
100
AcDbEntity
  8
0
100
AcDbLine
 10
186.93
 20
840.779
 30
0.0
 11
210.3149999999999
 21
855.901
 31
0.0
  0
LINE
  5
D4
330
1E
100
AcDbEntity
  8
0
100
AcDbLine
 10
210.3149999999999
 20
855.901
 30
0.0
 11
244.011
 21
864.3889999999998
 31
0.0
  0
LINE
  5
D5
330
1E
100
AcDbEntity
  8
0
100
AcDbLine
 10
193.6259999999999
 20
110.3809999999999
 30
0.0
 11
212.475
 21
110.3809999999999
 31
0.0
  0
LINE
  5
D6
330
1E
100
AcDbEntity
  8
0
100
AcDbLine
 10
212.475
 20
110.3809999999999
 30
0.0
 11
234.2649999999999
 21
110.3809999999999
 31
0.0
  0
LINE
  5
DA
330
1E
100
AcDbEntity
  8
0
100
AcDbLine
 10
179.289
 20
-0.000000000000011
 30
0.0
 11
202.3829999999999
 21
-0.0000000000000124
 31
0.0
  0
LINE
  5
DB
330
1E
100
AcDbEntity
  8
0
100
AcDbLine
 10
202.3829999999999
 20
-0.0000000000000124
 30
0.0
 11
213.624
 21
-0.0000000000000131
 31
0.0
  0
LINE
  5
DC
330
1E
100
AcDbEntity
  8
0
100
AcDbLine
 10
235.278
 20
-0.0000000000000144
 30
0.0
 11
276.639
 21
-0.0000000000000169
 31
0.0
  0
LINE
  5
DD
330
1E
100
AcDbEntity
  8
0
100
AcDbLine
 10
233.129
 20
689.3769999999999
 30
0.0
 11
303.54
 21
689.3769999999999
 31
0.0
  0
LINE
  5
DE
330
1E
100
AcDbEntity
  8
0
100
AcDbLine
 10
234.2649999999999
 20
110.3809999999999
 30
0.0
 11
275.8829999999999
 21
110.3809999999999
 31
0.0
  0
LINE
  5
DF
330
1E
100
AcDbEntity
  8
0
100
AcDbLine
 10
252.68
 20
643.587
 30
0.0
 11
314.718
 21
643.587
 31
0.0
  0
LINE
  5
E0
330
1E
100
AcDbEntity
  8
0
100
AcDbLine
 10
245.2159999999999
 20
643.587
 30
0.0
 11
310.449
 21
643.587
 31
0.0
  0
LINE
  5
E1
330
1E
100
AcDbEntity
  8
0
100
AcDbLine
 10
255.689
 20
589.075
 30
0.0
 11
316.4379999999999
 21
589.075
 31
0.0
  0
LINE
  5
E2
330
1E
100
AcDbEntity
  8
0
100
AcDbLine
 10
244.011
 20
864.3889999999998
 30
0.0
 11
267.885
 21
866.548
 31
0.0
  0
LINE
  5
E5
330
1E
100
AcDbEntity
  8
0
100
AcDbLine
 10
220.345
 20
-0.0000000000000135
 30
0.0
 11
240.019
 21
-0.0000000000000147
 31
0.0
  0
LINE
  5
E6
330
1E
100
AcDbEntity
  8
0
100
AcDbLine
 10
240.019
 20
-0.0000000000000147
 30
0.0
 11
265.679
 21
-0.0000000000000163
 31
0.0
  0
LINE
  5
E7
330
1E
100
AcDbEntity
  8
0
100
AcDbLine
 10
276.639
 20
-0.0000000000000169
 30
0.0
 11
328.413
 21
-0.0000000000000201
 31
0.0
  0
LINE
  5
E8
330
1E
100
AcDbEntity
  8
0
100
AcDbLine
 10
267.885
 20
866.548
 30
0.0
 11
314.653
 21
869.172
 31
0.0
  0
LINE
  5
E9
330
1E
100
AcDbEntity
  8
0
100
AcDbLine
 10
275.8829999999999
 20
110.3809999999999
 30
0.0
 11
328.0009999999999
 21
110.3809999999999
 31
0.0
  0
LINE
  5
EA
330
1E
100
AcDbEntity
  8
0
100
AcDbLine
 10
303.54
 20
689.3769999999999
 30
0.0
 11
397.5
 21
689.3769999999999
 31
0.0
  0
LINE
  5
EB
330
1E
100
AcDbEntity
  8
0
100
AcDbLine
 10
310.449
 20
643.587
 30
0.0
 11
397.5
 21
643.587
 31
0.0
  0
LINE
  5
EC
330
1E
100
AcDbEntity
  8
0
100
AcDbLine
 10
314.718
 20
643.587
 30
0.0
 11
397.5
 21
643.587
 31
0.0
  0
LINE
  5
ED
330
1E
100
AcDbEntity
  8
0
100
AcDbLine
 10
316.4379999999999
 20
589.075
 30
0.0
 11
397.5
 21
589.075
 31
0.0
  0
LINE
  5
EE
330
1E
100
AcDbEntity
  8
0
100
AcDbLine
 10
314.653
 20
869.172
 30
0.0
 11
350.441
 21
870.0
 31
0.0
  0
LINE
  5
EF
330
1E
100
AcDbEntity
  8
0
100
AcDbLine
 10
328.0009999999999
 20
110.3809999999999
 30
0.0
 11
397.5
 21
110.3809999999999
 31
0.0
  0
LINE
  5
F4
330
1E
100
AcDbEntity
  8
0
100
AcDbLine
 10
265.679
 20
-0.0000000000000163
 30
0.0
 11
288.454
 21
-0.0000000000000177
 31
0.0
  0
LINE
  5
F5
330
1E
100
AcDbEntity
  8
0
100
AcDbLine
 10
327.8
 20
-0.0000000000000201
 30
0.0
 11
357.908
 21
-0.0000000000000219
 31
0.0
  0
LINE
  5
F6
330
1E
100
AcDbEntity
  8
0
100
AcDbLine
 10
466.5869999999999
 20
-0.0000000000000286
 30
0.0
 11
518.3609999999999
 21
-0.0000000000000317
 31
0.0
  0
LINE
  5
F7
330
1E
100
AcDbEntity
  8
0
100
AcDbLine
 10
518.3609999999999
 20
-0.0000000000000317
 30
0.0
 11
559.722
 21
-0.0000000000000343
 31
0.0
  0
LINE
  5
F8
330
1E
100
AcDbEntity
  8
0
100
AcDbLine
 10
559.722
 20
-0.0000000000000343
 30
0.0
 11
581.376
 21
-0.0000000000000356
 31
0.0
  0
LINE
  5
F9
330
1E
100
AcDbEntity
  8
0
100
AcDbLine
 10
614.465
 20
-0.0000000000000376
 30
0.0
 11
625.4129999999999
 21
-0.0000000000000383
 31
0.0
  0
LINE
  5
FA
330
1E
100
AcDbEntity
  8
0
100
AcDbLine
 10
600.109
 20
-0.0000000000000367
 30
0.0
 11
614.465
 21
-0.0000000000000376
 31
0.0
  0
LINE
  5
FB
330
1E
100
AcDbEntity
  8
0
100
AcDbLine
 10
646.5790000000001
 20
-0.0000000000000396
 30
0.0
 11
657.2849999999999
 21
-0.0000000000000402
 31
0.0
  0
LINE
  5
FC
330
1E
100
AcDbEntity
  8
0
100
AcDbLine
 10
638.3079999999999
 20
-0.0000000000000391
 30
0.0
 11
646.5790000000001
 21
-0.0000000000000396
 31
0.0
  0
LINE
  5
FD
330
1E
100
AcDbEntity
  8
0
100
AcDbLine
 10
668.4760000000001
 20
-0.0000000000000409
 30
0.0
 11
680.1549999999999
 21
-0.0000000000000416
 31
0.0
  0
LINE
  5
FE
330
1E
100
AcDbEntity
  8
0
100
AcDbLine
 10
689.643
 20
-0.0000000000000422
 30
0.0
 11
697.9149999999999
 21
-0.0000000000000427
 31
0.0
  0
LINE
  5
FF
330
1E
100
AcDbEntity
  8
0
100
AcDbLine
 10
706.35
 20
-0.0000000000000433
 30
0.0
 11
712.513
 21
-0.0000000000000436
 31
0.0
  0
LINE
  5
100
330
1E
100
AcDbEntity
  8
0
100
AcDbLine
 10
717.6060000000001
 20
-0.0000000000000439
 30
0.0
 11
722.5039999999999
 21
-0.0000000000000442
 31
0.0
  0
LINE
  5
101
330
1E
100
AcDbEntity
  8
0
100
AcDbLine
 10
712.513
 20
-0.0000000000000436
 30
0.0
 11
717.6060000000001
 21
-0.0000000000000439
 31
0.0
  0
LINE
  5
102
330
1E
100
AcDbEntity
  8
0
100
AcDbLine
 10
727.6589999999999
 20
-0.0000000000000446
 30
0.0
 11
729.722
 21
-0.0000000000000447
 31
0.0
  0
LINE
  5
103
330
1E
100
AcDbEntity
  8
0
100
AcDbLine
 10
731.4849999999999
 20
-0.0000000000000448
 30
0.0
 11
731.813
 21
-0.0000000000000448
 31
0.0
  0
LINE
  5
104
330
1E
100
AcDbEntity
  8
0
100
AcDbLine
 10
730.705
 20
-0.0000000000000447
 30
0.0
 11
731.4849999999999
 21
-0.0000000000000448
 31
0.0
  0
LINE
  5
105
330
1E
100
AcDbEntity
  8
0
100
AcDbLine
 10
731.813
 20
-0.0000000000000448
 30
0.0
 11
731.921
 21
-0.0000000000000448
 31
0.0
  0
LINE
  5
106
330
1E
100
AcDbEntity
  8
0
100
AcDbLine
 10
729.722
 20
-0.0000000000000447
 30
0.0
 11
730.705
 21
-0.0000000000000447
 31
0.0
  0
LINE
  5
107
330
1E
100
AcDbEntity
  8
0
100
AcDbLine
 10
730.268
 20
-0.0000000000000447
 30
0.0
 11
731.921
 21
-0.0000000000000448
 31
0.0
  0
LINE
  5
108
330
1E
100
AcDbEntity
  8
0
100
AcDbLine
 10
728.615
 20
-0.0000000000000446
 30
0.0
 11
730.268
 21
-0.0000000000000447
 31
0.0
  0
LINE
  5
109
330
1E
100
AcDbEntity
  8
0
100
AcDbLine
 10
725.2539999999998
 20
-0.0000000000000444
 30
0.0
 11
727.6589999999999
 21
-0.0000000000000446
 31
0.0
  0
LINE
  5
10A
330
1E
100
AcDbEntity
  8
0
100
AcDbLine
 10
722.5039999999999
 20
-0.0000000000000442
 30
0.0
 11
725.2539999999998
 21
-0.0000000000000444
 31
0.0
  0
LINE
  5
10B
330
1E
100
AcDbEntity
  8
0
100
AcDbLine
 10
725.3669999999999
 20
-0.0000000000000444
 30
0.0
 11
728.615
 21
-0.0000000000000446
 31
0.0
  0
LINE
  5
10C
330
1E
100
AcDbEntity
  8
0
100
AcDbLine
 10
722.118
 20
-0.0000000000000442
 30
0.0
 11
725.3669999999999
 21
-0.0000000000000444
 31
0.0
  0
LINE
  5
10D
330
1E
100
AcDbEntity
  8
0
100
AcDbLine
 10
711.8539999999999
 20
-0.0000000000000436
 30
0.0
 11
712.513
 21
-0.0000000000000436
 31
0.0
  0
LINE
  5
10E
330
1E
100
AcDbEntity
  8
0
100
AcDbLine
 10
707.1489999999998
 20
-0.0000000000000433
 30
0.0
 11
711.8539999999999
 21
-0.0000000000000436
 31
0.0
  0
LINE
  5
10F
330
1E
100
AcDbEntity
  8
0
100
AcDbLine
 10
697.9149999999999
 20
-0.0000000000000427
 30
0.0
 11
706.35
 21
-0.0000000000000433
 31
0.0
  0
LINE
  5
110
330
1E
100
AcDbEntity
  8
0
100
AcDbLine
 10
701.1619999999999
 20
-0.0000000000000429
 30
0.0
 11
707.1489999999998
 21
-0.0000000000000433
 31
0.0
  0
LINE
  5
111
330
1E
100
AcDbEntity
  8
0
100
AcDbLine
 10
693.891
 20
-0.0000000000000425
 30
0.0
 11
701.1619999999999
 21
-0.0000000000000429
 31
0.0
  0
LINE
  5
112
330
1E
100
AcDbEntity
  8
0
100
AcDbLine
 10
680.1549999999999
 20
-0.0000000000000416
 30
0.0
 11
689.643
 21
-0.0000000000000422
 31
0.0
  0
LINE
  5
113
330
1E
100
AcDbEntity
  8
0
100
AcDbLine
 10
684.4819999999999
 20
-0.0000000000000419
 30
0.0
 11
693.891
 21
-0.0000000000000425
 31
0.0
  0
LINE
  5
114
330
1E
100
AcDbEntity
  8
0
100
AcDbLine
 10
673.791
 20
-0.0000000000000413
 30
0.0
 11
684.4819999999999
 21
-0.0000000000000419
 31
0.0
  0
LINE
  5
115
330
1E
100
AcDbEntity
  8
0
100
AcDbLine
 10
657.2849999999999
 20
-0.0000000000000402
 30
0.0
 11
668.4760000000001
 21
-0.0000000000000409
 31
0.0
  0
LINE
  5
116
330
1E
100
AcDbEntity
  8
0
100
AcDbLine
 10
661.388
 20
-0.0000000000000405
 30
0.0
 11
668.4760000000001
 21
-0.0000000000000409
 31
0.0
  0
LINE
  5
117
330
1E
100
AcDbEntity
  8
0
100
AcDbLine
 10
661.388
 20
-0.0000000000000405
 30
0.0
 11
673.791
 21
-0.0000000000000413
 31
0.0
  0
LINE
  5
118
330
1E
100
AcDbEntity
  8
0
100
AcDbLine
 10
649.413
 20
-0.0000000000000398
 30
0.0
 11
661.388
 21
-0.0000000000000405
 31
0.0
  0
LINE
  5
119
330
1E
100
AcDbEntity
  8
0
100
AcDbLine
 10
625.4129999999999
 20
-0.0000000000000383
 30
0.0
 11
638.3079999999999
 21
-0.0000000000000391
 31
0.0
  0
LINE
  5
11A
330
1E
100
AcDbEntity
  8
0
100
AcDbLine
 10
633.1599999999999
 20
-0.0000000000000388
 30
0.0
 11
649.413
 21
-0.0000000000000398
 31
0.0
  0
LINE
  5
11B
330
1E
100
AcDbEntity
  8
0
100
AcDbLine
 10
615.711
 20
-0.0000000000000377
 30
0.0
 11
633.1599999999999
 21
-0.0000000000000388
 31
0.0
  0
LINE
  5
11C
330
1E
100
AcDbEntity
  8
0
100
AcDbLine
 10
581.376
 20
-0.0000000000000356
 30
0.0
 11
600.109
 21
-0.0000000000000367
 31
0.0
  0
LINE
  5
11D
330
1E
100
AcDbEntity
  8
0
100
AcDbLine
 10
592.6169999999999
 20
-0.0000000000000363
 30
0.0
 11
615.711
 21
-0.0000000000000377
 31
0.0
  0
LINE
  5
11E
330
1E
100
AcDbEntity
  8
0
100
AcDbLine
 10
574.655
 20
-0.0000000000000352
 30
0.0
 11
592.6169999999999
 21
-0.0000000000000363
 31
0.0
  0
LINE
  5
11F
330
1E
100
AcDbEntity
  8
0
100
AcDbLine
 10
554.9809999999999
 20
-0.000000000000034
 30
0.0
 11
559.722
 21
-0.0000000000000343
 31
0.0
  0
LINE
  5
120
330
1E
100
AcDbEntity
  8
0
100
AcDbLine
 10
529.321
 20
-0.0000000000000324
 30
0.0
 11
554.9809999999999
 21
-0.000000000000034
 31
0.0
  0
LINE
  5
121
330
1E
100
AcDbEntity
  8
0
100
AcDbLine
 10
506.5459999999999
 20
-0.000000000000031
 30
0.0
 11
529.321
 21
-0.0000000000000324
 31
0.0
  0
LINE
  5
122
330
1E
100
AcDbEntity
  8
0
100
AcDbLine
 10
467.1999999999999
 20
-0.0000000000000286
 30
0.0
 11
506.5459999999999
 21
-0.000000000000031
 31
0.0
  0
LINE
  5
123
330
1E
100
AcDbEntity
  8
0
100
AcDbLine
 10
437.0919999999999
 20
-0.0000000000000268
 30
0.0
 11
466.5869999999999
 21
-0.0000000000000286
 31
0.0
  0
LINE
  5
124
330
1E
100
AcDbEntity
  8
0
100
AcDbLine
 10
397.5
 20
-0.0000000000000243
 30
0.0
 11
437.0919999999999
 21
-0.0000000000000268
 31
0.0
  0
LINE
  5
125
330
1E
100
AcDbEntity
  8
0
100
AcDbLine
 10
397.5
 20
-0.0000000000000243
 30
0.0
 11
466.5869999999999
 21
-0.0000000000000286
 31
0.0
  0
LINE
  5
132
330
1E
100
AcDbEntity
  8
0
100
AcDbLine
 10
397.5
 20
689.3769999999999
 30
0.0
 11
491.46
 21
689.3769999999999
 31
0.0
  0
LINE
  5
133
330
1E
100
AcDbEntity
  8
0
100
AcDbLine
 10
397.5
 20
643.587
 30
0.0
 11
484.5509999999999
 21
643.587
 31
0.0
  0
LINE
  5
134
330
1E
100
AcDbEntity
  8
0
100
AcDbLine
 10
397.5
 20
643.587
 30
0.0
 11
480.2819999999999
 21
643.587
 31
0.0
  0
LINE
  5
135
330
1E
100
AcDbEntity
  8
0
100
AcDbLine
 10
397.5
 20
589.075
 30
0.0
 11
478.5619999999999
 21
589.075
 31
0.0
  0
LINE
  5
136
330
1E
100
AcDbEntity
  8
0
100
AcDbLine
 10
397.5
 20
110.3809999999999
 30
0.0
 11
466.999
 21
110.3809999999999
 31
0.0
  0
LINE
  5
143
330
1E
100
AcDbEntity
  8
0
100
AcDbLine
 10
560.735
 20
110.3809999999999
 30
0.0
 11
582.5249999999999
 21
110.3809999999999
 31
0.0
  0
LINE
  5
144
330
1E
100
AcDbEntity
  8
0
100
AcDbLine
 10
519.1169999999999
 20
110.3809999999999
 30
0.0
 11
560.735
 21
110.3809999999999
 31
0.0
  0
LINE
  5
145
330
1E
100
AcDbEntity
  8
0
100
AcDbLine
 10
397.5
 20
870.0
 30
0.0
 11
439.553
 21
870.0
 31
0.0
  0
LINE
  5
146
330
1E
100
AcDbEntity
  8
0
100
AcDbLine
 10
480.2819999999999
 20
643.587
 30
0.0
 11
542.32
 21
643.587
 31
0.0
  0
LINE
  5
147
330
1E
100
AcDbEntity
  8
0
100
AcDbLine
 10
478.5619999999999
 20
589.075
 30
0.0
 11
539.311
 21
589.075
 31
0.0
  0
LINE
  5
148
330
1E
100
AcDbEntity
  8
0
100
AcDbLine
 10
542.32
 20
643.587
 30
0.0
 11
591.878
 21
643.587
 31
0.0
  0
LINE
  5
149
330
1E
100
AcDbEntity
  8
0
100
AcDbLine
 10
491.46
 20
689.3769999999999
 30
0.0
 11
561.871
 21
689.3769999999999
 31
0.0
  0
LINE
  5
14A
330
1E
100
AcDbEntity
  8
0
100
AcDbLine
 10
549.784
 20
643.587
 30
0.0
 11
629.183
 21
643.587
 31
0.0
  0
LINE
  5
14B
330
1E
100
AcDbEntity
  8
0
100
AcDbLine
 10
484.5509999999999
 20
643.587
 30
0.0
 11
549.784
 21
643.587
 31
0.0
  0
LINE
  5
14C
330
1E
100
AcDbEntity
  8
0
100
AcDbLine
 10
539.311
 20
589.075
 30
0.0
 11
587.84
 21
589.075
 31
0.0
  0
LINE
  5
14D
330
1E
100
AcDbEntity
  8
0
100
AcDbLine
 10
565.261
 20
851.285
 30
0.0
 11
588.6449999999999
 21
836.1629999999999
 31
0.0
  0
LINE
  5
14E
330
1E
100
AcDbEntity
  8
0
100
AcDbLine
 10
561.871
 20
689.3769999999999
 30
0.0
 11
618.1219999999999
 21
689.3769999999999
 31
0.0
  0
LINE
  5
14F
330
1E
100
AcDbEntity
  8
0
100
AcDbLine
 10
550.989
 20
864.3889999999998
 30
0.0
 11
584.6849999999999
 21
855.901
 31
0.0
  0
LINE
  5
150
330
1E
100
AcDbEntity
  8
0
100
AcDbLine
 10
527.115
 20
866.548
 30
0.0
 11
550.989
 21
864.3889999999998
 31
0.0
  0
LINE
  5
151
330
1E
100
AcDbEntity
  8
0
100
AcDbLine
 10
480.3469999999999
 20
869.172
 30
0.0
 11
527.115
 21
866.548
 31
0.0
  0
LINE
  5
152
330
1E
100
AcDbEntity
  8
0
100
AcDbLine
 10
444.559
 20
870.0
 30
0.0
 11
480.3469999999999
 21
869.172
 31
0.0
  0
LINE
  5
153
330
1E
100
AcDbEntity
  8
0
100
AcDbLine
 10
439.553
 20
870.0
 30
0.0
 11
444.559
 21
870.0
 31
0.0
  0
LINE
  5
154
330
1E
100
AcDbEntity
  8
0
100
AcDbLine
 10
466.999
 20
110.3809999999999
 30
0.0
 11
519.1169999999999
 21
110.3809999999999
 31
0.0
  0
LINE
  5
155
330
1E
100
AcDbEntity
  8
0
100
AcDbLine
 10
681.9199999999999
 20
110.3809999999999
 30
0.0
 11
691.468
 21
110.3809999999999
 31
0.0
  0
LINE
  5
156
330
1E
100
AcDbEntity
  8
0
100
AcDbLine
 10
670.169
 20
110.3809999999999
 30
0.0
 11
681.9199999999999
 21
110.3809999999999
 31
0.0
  0
LINE
  5
157
330
1E
100
AcDbEntity
  8
0
100
AcDbLine
 10
658.908
 20
110.3809999999999
 30
0.0
 11
670.169
 21
110.3809999999999
 31
0.0
  0
LINE
  5
158
330
1E
100
AcDbEntity
  8
0
100
AcDbLine
 10
648.1349999999999
 20
110.3809999999999
 30
0.0
 11
658.908
 21
110.3809999999999
 31
0.0
  0
LINE
  5
159
330
1E
100
AcDbEntity
  8
0
100
AcDbLine
 10
639.812
 20
110.3809999999999
 30
0.0
 11
648.1349999999999
 21
110.3809999999999
 31
0.0
  0
LINE
  5
15A
330
1E
100
AcDbEntity
  8
0
100
AcDbLine
 10
626.836
 20
110.3809999999999
 30
0.0
 11
639.812
 21
110.3809999999999
 31
0.0
  0
LINE
  5
15B
330
1E
100
AcDbEntity
  8
0
100
AcDbLine
 10
615.82
 20
110.3809999999999
 30
0.0
 11
626.836
 21
110.3809999999999
 31
0.0
  0
LINE
  5
15C
330
1E
100
AcDbEntity
  8
0
100
AcDbLine
 10
613.2469999999999
 20
589.075
 30
0.0
 11
621.9439999999999
 21
590.6369999999999
 31
0.0
  0
LINE
  5
15E
330
1E
100
AcDbEntity
  8
0
100
AcDbLine
 10
621.9439999999999
 20
590.6369999999999
 30
0.0
 11
631.2519999999999
 21
595.1349999999999
 31
0.0
  0
LINE
  5
161
330
1E
100
AcDbEntity
  8
0
100
AcDbLine
 10
631.2519999999999
 20
595.1349999999999
 30
0.0
 11
637.6929999999999
 21
602.266
 31
0.0
  0
LINE
  5
162
330
1E
100
AcDbEntity
  8
0
100
AcDbLine
 10
637.6929999999999
 20
602.266
 30
0.0
 11
641.013
 21
609.7059999999999
 31
0.0
  0
LINE
  5
163
330
1E
100
AcDbEntity
  8
0
100
AcDbLine
 10
643.991
 20
620.7769999999999
 30
0.0
 11
643.991
 21
630.878
 31
0.0
  0
LINE
  5
164
330
1E
100
AcDbEntity
  8
0
100
AcDbLine
 10
641.013
 20
609.7059999999999
 30
0.0
 11
643.991
 21
620.7769999999999
 31
0.0
  0
LINE
  5
165
330
1E
100
AcDbEntity
  8
0
100
AcDbLine
 10
643.991
 20
630.878
 30
0.0
 11
643.991
 21
620.7769999999999
 31
0.0
  0
LINE
  5
166
330
1E
100
AcDbEntity
  8
0
100
AcDbLine
 10
641.461
 20
638.594
 30
0.0
 11
643.991
 21
630.878
 31
0.0
  0
LINE
  5
167
330
1E
100
AcDbEntity
  8
0
100
AcDbLine
 10
636.5940000000001
 20
642.433
 30
0.0
 11
641.461
 21
638.594
 31
0.0
  0
LINE
  5
168
330
1E
100
AcDbEntity
  8
0
100
AcDbLine
 10
629.183
 20
643.587
 30
0.0
 11
636.5940000000001
 21
642.433
 31
0.0
  0
LINE
  5
169
330
1E
100
AcDbEntity
  8
0
100
AcDbLine
 10
647.571
 20
689.3769999999999
 30
0.0
 11
673.0489999999999
 21
689.3769999999999
 31
0.0
  0
LINE
  5
16A
330
1E
100
AcDbEntity
  8
0
100
AcDbLine
 10
637.447
 20
793.574
 30
0.0
 11
658.187
 21
771.002
 31
0.0
  0
LINE
  5
16B
330
1E
100
AcDbEntity
  8
0
100
AcDbLine
 10
611.7309999999999
 20
816.8519999999999
 30
0.0
 11
637.447
 21
793.574
 31
0.0
  0
LINE
  5
16C
330
1E
100
AcDbEntity
  8
0
100
AcDbLine
 10
618.1219999999999
 20
689.3769999999999
 30
0.0
 11
647.571
 21
689.3769999999999
 31
0.0
  0
LINE
  5
16E
330
1E
100
AcDbEntity
  8
0
100
AcDbLine
 10
587.84
 20
589.075
 30
0.0
 11
613.2469999999999
 21
589.075
 31
0.0
  0
LINE
  5
16F
330
1E
100
AcDbEntity
  8
0
100
AcDbLine
 10
658.187
 20
771.002
 30
0.0
 11
677.5039999999998
 21
748.2029999999999
 31
0.0
  0
LINE
  5
170
330
1E
100
AcDbEntity
  8
0
100
AcDbLine
 10
677.5039999999998
 20
748.2029999999999
 30
0.0
 11
691.738
 21
727.9099999999999
 31
0.0
  0
LINE
  5
171
330
1E
100
AcDbEntity
  8
0
100
AcDbLine
 10
673.0489999999999
 20
689.3769999999999
 30
0.0
 11
692.571
 21
689.3769999999999
 31
0.0
  0
LINE
  5
172
330
1E
100
AcDbEntity
  8
0
100
AcDbLine
 10
677.611
 20
775.618
 30
0.0
 11
696.9289999999999
 21
752.8189999999999
 31
0.0
  0
LINE
  5
173
330
1E
100
AcDbEntity
  8
0
100
AcDbLine
 10
656.8710000000001
 20
798.19
 30
0.0
 11
677.611
 21
775.618
 31
0.0
  0
LINE
  5
174
330
1E
100
AcDbEntity
  8
0
100
AcDbLine
 10
588.6449999999999
 20
836.1629999999999
 30
0.0
 11
611.7309999999999
 21
816.8519999999999
 31
0.0
  0
LINE
  5
175
330
1E
100
AcDbEntity
  8
0
100
AcDbLine
 10
608.07
 20
840.779
 30
0.0
 11
631.156
 21
821.4680000000001
 31
0.0
  0
LINE
  5
176
330
1E
100
AcDbEntity
  8
0
100
AcDbLine
 10
631.156
 20
821.4680000000001
 30
0.0
 11
656.8710000000001
 21
798.19
 31
0.0
  0
LINE
  5
177
330
1E
100
AcDbEntity
  8
0
100
AcDbLine
 10
584.6849999999999
 20
855.901
 30
0.0
 11
608.07
 21
840.779
 31
0.0
  0
LINE
  5
178
330
1E
100
AcDbEntity
  8
0
100
AcDbLine
 10
601.374
 20
110.3809999999999
 30
0.0
 11
615.82
 21
110.3809999999999
 31
0.0
  0
LINE
  5
179
330
1E
100
AcDbEntity
  8
0
100
AcDbLine
 10
582.5249999999999
 20
110.3809999999999
 30
0.0
 11
601.374
 21
110.3809999999999
 31
0.0
  0
LINE
  5
193
330
1E
100
AcDbEntity
  8
0
100
AcDbLine
 10
727.2999999999999
 20
110.3809999999999
 30
0.0
 11
729.7209999999999
 21
110.3809999999999
 31
0.0
  0
LINE
  5
194
330
1E
100
AcDbEntity
  8
0
100
AcDbLine
 10
724.533
 20
110.3809999999999
 30
0.0
 11
727.2999999999999
 21
110.3809999999999
 31
0.0
  0
LINE
  5
195
330
1E
100
AcDbEntity
  8
0
100
AcDbLine
 10
719.605
 20
110.3809999999999
 30
0.0
 11
724.533
 21
110.3809999999999
 31
0.0
  0
LINE
  5
196
330
1E
100
AcDbEntity
  8
0
100
AcDbLine
 10
714.4810000000001
 20
110.3809999999999
 30
0.0
 11
719.605
 21
110.3809999999999
 31
0.0
  0
LINE
  5
197
330
1E
100
AcDbEntity
  8
0
100
AcDbLine
 10
708.279
 20
110.3809999999999
 30
0.0
 11
714.4810000000001
 21
110.3809999999999
 31
0.0
  0
LINE
  5
198
330
1E
100
AcDbEntity
  8
0
100
AcDbLine
 10
699.791
 20
110.3809999999999
 30
0.0
 11
708.279
 21
110.3809999999999
 31
0.0
  0
LINE
  5
199
330
1E
100
AcDbEntity
  8
0
100
AcDbLine
 10
691.738
 20
727.9099999999999
 30
0.0
 11
706.4810000000001
 21
708.11
 31
0.0
  0
LINE
  5
19A
330
1E
100
AcDbEntity
  8
0
100
AcDbLine
 10
692.571
 20
689.3769999999999
 30
0.0
 11
707.4609999999999
 21
689.3769999999999
 31
0.0
  0
LINE
  5
19B
330
1E
100
AcDbEntity
  8
0
100
AcDbLine
 10
724.998
 20
689.3769999999999
 30
0.0
 11
736.248
 21
689.1869999999999
 31
0.0
  0
LINE
  5
19C
330
1E
100
AcDbEntity
  8
0
100
AcDbLine
 10
706.4810000000001
 20
708.11
 30
0.0
 11
718.356041851649
 21
689.3769999999999
 31
0.0
  0
LINE
  5
19D
330
1E
100
AcDbEntity
  8
0
100
AcDbLine
 10
707.4609999999999
 20
689.3769999999999
 30
0.0
 11
724.998
 21
689.3769999999999
 31
0.0
  0
LINE
  5
19E
330
1E
100
AcDbEntity
  8
0
100
AcDbLine
 10
725.905
 20
712.7260000000001
 30
0.0
 11
738.6139999999999
 21
692.6789999999999
 31
0.0
  0
LINE
  5
19F
330
1E
100
AcDbEntity
  8
0
100
AcDbLine
 10
711.1629999999999
 20
732.526
 30
0.0
 11
725.905
 21
712.7260000000001
 31
0.0
  0
LINE
  5
1A0
330
1E
100
AcDbEntity
  8
0
100
AcDbLine
 10
696.9289999999999
 20
752.8189999999999
 30
0.0
 11
711.1629999999999
 21
732.526
 31
0.0
  0
LINE
  5
1A1
330
1E
100
AcDbEntity
  8
0
100
AcDbLine
 10
691.468
 20
110.3809999999999
 30
0.0
 11
699.791
 21
110.3809999999999
 31
0.0
  0
LINE
  5
1A2
330
1E
100
AcDbEntity
  8
0
100
AcDbLine
 10
733.901
 20
110.3809999999999
 30
0.0
 11
734.0419999999999
 21
117.8379999999999
 31
0.0
  0
LINE
  5
1A3
330
1E
100
AcDbEntity
  8
0
100
AcDbLine
 10
733.8029999999999
 20
110.3809999999999
 30
0.0
 11
733.901
 21
110.3809999999999
 31
0.0
  0
LINE
  5
1A4
330
1E
100
AcDbEntity
  8
0
100
AcDbLine
 10
733.571
 20
110.3809999999999
 30
0.0
 11
733.901
 21
110.3809999999999
 31
0.0
  0
LINE
  5
1A5
330
1E
100
AcDbEntity
  8
0
100
AcDbLine
 10
732.7860000000001
 20
110.3809999999999
 30
0.0
 11
733.571
 21
110.3809999999999
 31
0.0
  0
LINE
  5
1A6
330
1E
100
AcDbEntity
  8
0
100
AcDbLine
 10
736.927
 20
235.813
 30
0.0
 11
740.932
 21
340.173
 31
0.0
  0
LINE
  5
1A7
330
1E
100
AcDbEntity
  8
0
100
AcDbLine
 10
767.966
 20
510.761
 30
0.0
 11
789.9939999999999
 21
589.0309999999999
 31
0.0
  0
LINE
  5
1A8
330
1E
100
AcDbEntity
  8
0
100
AcDbLine
 10
751.946
 20
431.488
 30
0.0
 11
767.966
 21
510.761
 31
0.0
  0
LINE
  5
1A9
330
1E
100
AcDbEntity
  8
0
100
AcDbLine
 10
740.932
 20
340.173
 30
0.0
 11
751.946
 21
431.488
 31
0.0
  0
LINE
  5
1AA
330
1E
100
AcDbEntity
  8
0
100
AcDbLine
 10
784.5589999999999
 20
601.6259999999999
 30
0.0
 11
787.268
 21
601.0169999999999
 31
0.0
  0
LINE
  5
1AB
330
1E
100
AcDbEntity
  8
0
100
AcDbLine
 10
780.72
 20
602.735
 30
0.0
 11
784.5589999999999
 21
601.6259999999999
 31
0.0
  0
LINE
  5
1AC
330
1E
100
AcDbEntity
  8
0
100
AcDbLine
 10
776.8619999999999
 20
606.3969999999999
 30
0.0
 11
780.72
 21
602.735
 31
0.0
  0
LINE
  5
1AD
330
1E
100
AcDbEntity
  8
0
100
AcDbLine
 10
793.7560000000001
 20
599.361
 30
0.0
 11
794.546
 21
599.1399999999999
 31
0.0
  0
LINE
  5
1AE
330
1E
100
AcDbEntity
  8
0
100
AcDbLine
 10
792.7689999999999
 20
599.6369999999999
 30
0.0
 11
793.7560000000001
 21
599.361
 31
0.0
  0
LINE
  5
1AF
330
1E
100
AcDbEntity
  8
0
100
AcDbLine
 10
789.891
 20
600.41
 30
0.0
 11
792.7689999999999
 21
599.6369999999999
 31
0.0
  0
LINE
  5
1B0
330
1E
100
AcDbEntity
  8
0
100
AcDbLine
 10
787.268
 20
601.0169999999999
 30
0.0
 11
789.891
 21
600.41
 31
0.0
  0
LINE
  5
1B1
330
1E
100
AcDbEntity
  8
0
100
AcDbLine
 10
791.071
 20
601.23
 30
0.0
 11
792.4363880498539
 21
599.726336010237
 31
0.0
  0
LINE
  5
1B2
330
1E
100
AcDbEntity
  8
0
100
AcDbLine
 10
787.21
 20
606.341
 30
0.0
 11
791.071
 21
601.23
 31
0.0
  0
LINE
  5
1B3
330
1E
100
AcDbEntity
  8
0
100
AcDbLine
 10
753.655
 20
674.1139999999999
 30
0.0
 11
762.921
 21
647.1459999999999
 31
0.0
  0
LINE
  5
1B4
330
1E
100
AcDbEntity
  8
0
100
AcDbLine
 10
744.449
 20
685.9689999999999
 30
0.0
 11
753.655
 21
674.1139999999999
 31
0.0
  0
LINE
  5
1B5
330
1E
100
AcDbEntity
  8
0
100
AcDbLine
 10
736.248
 20
689.1869999999999
 30
0.0
 11
744.449
 21
685.9689999999999
 31
0.0
  0
LINE
  5
1B6
330
1E
100
AcDbEntity
  8
0
100
AcDbLine
 10
738.6139999999999
 20
692.6789999999999
 30
0.0
 11
742.2389915661629
 21
686.83618779906
 31
0.0
  0
LINE
  5
1B7
330
1E
100
AcDbEntity
  8
0
100
AcDbLine
 10
768.896
 20
624.446
 30
0.0
 11
773.128
 21
613.9619999999999
 31
0.0
  0
LINE
  5
1B8
330
1E
100
AcDbEntity
  8
0
100
AcDbLine
 10
766.406
 20
633.4169999999999
 30
0.0
 11
768.896
 21
624.446
 31
0.0
  0
LINE
  5
1B9
330
1E
100
AcDbEntity
  8
0
100
AcDbLine
 10
773.128
 20
613.9619999999999
 30
0.0
 11
776.8619999999999
 21
606.3969999999999
 31
0.0
  0
LINE
  5
1BA
330
1E
100
AcDbEntity
  8
0
100
AcDbLine
 10
777.7569999999999
 20
623.105
 30
0.0
 11
783.348
 21
611.254
 31
0.0
  0
LINE
  5
1BB
330
1E
100
AcDbEntity
  8
0
100
AcDbLine
 10
771.159
 20
634.983
 30
0.0
 11
777.7569999999999
 21
623.105
 31
0.0
  0
LINE
  5
1BC
330
1E
100
AcDbEntity
  8
0
100
AcDbLine
 10
762.921
 20
647.1459999999999
 30
0.0
 11
766.406
 21
633.4169999999999
 31
0.0
  0
LINE
  5
1BD
330
1E
100
AcDbEntity
  8
0
100
AcDbLine
 10
766.531
 20
643.5579999999999
 30
0.0
 11
771.159
 21
634.983
 31
0.0
  0
LINE
  5
1BE
330
1E
100
AcDbEntity
  8
0
100
AcDbLine
 10
758.5967144781469
 20
659.731509599971
 30
0.0
 11
766.531
 21
643.5579999999999
 31
0.0
  0
LINE
  5
1BF
330
1E
100
AcDbEntity
  8
0
100
AcDbLine
 10
783.348
 20
611.254
 30
0.0
 11
787.21
 21
606.341
 31
0.0
  0
LINE
  5
1C0
330
1E
100
AcDbEntity
  8
0
100
AcDbLine
 10
794.7029906542058
 20
599.066
 30
0.0
 11
795.0
 21
599.066
 31
0.0
  0
LINE
  5
1C1
330
1E
100
AcDbEntity
  8
0
100
AcDbLine
 10
794.546
 20
599.1399999999999
 30
0.0
 11
795.0
 21
598.9259999999999
 31
0.0
  0
LINE
  5
1C2
330
1E
100
AcDbEntity
  8
0
100
AcDbLine
 10
789.9939999999999
 20
589.0309999999999
 30
0.0
 11
793.873455359025
 21
596.807734823775
 31
0.0
  0
LINE
  5
1C3
330
1E
100
AcDbEntity
  8
0
100
AcDbLine
 10
789.9939999999999
 20
589.0309999999999
 30
0.0
 11
793.873455359025
 21
596.807734823775
 31
0.0
  0
LINE
  5
1C4
330
1E
100
AcDbEntity
  8
0
100
AcDbLine
 10
795.0
 20
598.9259999999999
 30
0.0
 11
795.0
 21
599.066
 31
0.0
  0
LINE
  5
1C5
330
1E
100
AcDbEntity
  8
0
100
AcDbLine
 10
795.0
 20
599.066
 30
0.0
 11
795.0
 21
598.9259999999999
 31
0.0
  0
LINE
  5
1C6
330
1E
100
AcDbEntity
  8
0
100
AcDbLine
 10
794.9434562784089
 20
598.952652767446
 30
0.0
 11
795.0
 21
599.066
 31
0.0
  0
LINE
  5
1C7
330
1E
100
AcDbEntity
  8
0
100
AcDbLine
 10
731.796
 20
110.3809999999999
 30
0.0
 11
732.7860000000001
 21
110.3809999999999
 31
0.0
  0
LINE
  5
1C8
330
1E
100
AcDbEntity
  8
0
100
AcDbLine
 10
729.7209999999999
 20
110.3809999999999
 30
0.0
 11
731.796
 21
110.3809999999999
 31
0.0
  0
LINE
  5
1CC
330
1E
100
AcDbEntity
  8
0
100
AcDbLine
 10
355.4469999999999
 20
870.0
 30
0.0
 11
397.5
 21
870.0
 31
0.0
  0
LINE
  5
1CD
330
1E
100
AcDbEntity
  8
0
100
AcDbLine
 10
350.441
 20
870.0
 30
0.0
 11
355.4469999999999
 21
870.0
 31
0.0
  0
LINE
  5
1CE
330
1E
100
AcDbEntity
  8
0
100
AcDbLine
 10
357.908
 20
-0.0000000000000219
 30
0.0
 11
397.5
 21
-0.0000000000000243
 31
0.0
  0
LINE
  5
1D3
330
1E
100
AcDbEntity
  8
0
100
AcDbLine
 10
736.927
 20
235.813
 30
0.0
 11
734.0419999999999
 21
117.8379999999999
 31
0.0
  0
LINE
  5
1D4
330
1E
100
AcDbEntity
  8
0
100
AcDbLine
 10
63.5148
 20
-0.0000000000000039
 30
0.0
 11
61.0994
 21
110.3809999999999
 31
0.0
  0
LINE
  5
1D5
330
1E
100
AcDbEntity
  8
0
100
AcDbLine
 10
731.921
 20
-0.0000000000000448
 30
0.0
 11
733.901
 21
110.3809999999999
 31
0.0
  0
LINE
  5
1D6
330
1E
100
AcDbEntity
  8
0
100
AcDbLine
 10
229.739
 20
851.285
 30
0.0
 11
248.3954188811135
 21
856.1758953428034
 31
0.0
  0
LINE
  5
1D7
330
1E
100
AcDbEntity
  8
0
100
AcDbLine
 10
248.3954188811135
 20
856.1758953428034
 30
0.0
 11
269.7155580800595
 21
858.9013677796614
 31
0.0
  0
LINE
  5
1D8
330
1E
100
AcDbEntity
  8
0
100
AcDbLine
 10
269.7155580800595
 20
858.9013677796614
 30
0.0
 11
311.3642040327499
 21
861.3790681414197
 31
0.0
  0
LINE
  5
1D9
330
1E
100
AcDbEntity
  8
0
100
AcDbLine
 10
311.3642040327499
 20
861.3790681414197
 30
0.0
 11
368.1352718323882
 21
862.8656903973988
 31
0.0
  0
LINE
  5
1DA
330
1E
100
AcDbEntity
  8
0
100
AcDbLine
 10
368.1352718323882
 20
862.8656903973988
 30
0.0
 11
448.2097478840874
 21
862.8656903973988
 31
0.0
  0
LINE
  5
1DB
330
1E
100
AcDbEntity
  8
0
100
AcDbLine
 10
448.2097478840874
 20
862.8656903973988
 30
0.0
 11
508.4515375673531
 21
860.8835280690682
 31
0.0
  0
LINE
  5
1DC
330
1E
100
AcDbEntity
  8
0
100
AcDbLine
 10
508.4515375673531
 20
860.8835280690682
 30
0.0
 11
529.3826548681477
 21
858.9013677796614
 31
0.0
  0
LINE
  5
1DD
330
1E
100
AcDbEntity
  8
0
100
AcDbLine
 10
529.3826548681477
 20
858.9013677796614
 30
0.0
 11
554.4214219806668
 21
855.1848131591759
 31
0.0
  0
LINE
  5
1DE
330
1E
100
AcDbEntity
  8
0
100
AcDbLine
 10
554.4214219806668
 20
855.1848131591759
 30
0.0
 11
565.261
 21
851.285
 31
0.0
  0
ENDSEC
  0
SECTION
  2
OBJECTS
  0
DICTIONARY
  5
C
330
0
100
AcDbDictionary
  3
ACAD_GROUP
350
D
  3
ACAD_LAYOUT
350
19
  3
ACAD_MLINESTYLE
350
16
  3
ACAD_PLOTSETTINGS
350
18
  3
ACAD_PLOTSTYLENAME
350
E
  3
ACDBHEADERROUNDTRIPXREC
350
1E3
  3
ACDBVARIABLEDICTIONARY
350
1E0
  0
DICTIONARY
  5
205
330
1E
100
AcDbDictionary
280
     1
  3
ACAD_LAYOUTSELFREF
360
206
  0
DICTIONARY
  5
203
330
1A
100
AcDbDictionary
280
     1
  3
ACAD_LAYOUTSELFREF
360
204
  0
DICTIONARY
  5
D
102
{ACAD_REACTORS
330
C
102
}
330
C
100
AcDbDictionary
  0
DICTIONARY
  5
19
102
{ACAD_REACTORS
330
C
102
}
330
C
100
AcDbDictionary
  0
DICTIONARY
  5
16
102
{ACAD_REACTORS
330
C
102
}
330
C
100
AcDbDictionary
  3
STANDARD
350
17
  0
DICTIONARY
  5
18
102
{ACAD_REACTORS
330
C
102
}
330
C
100
AcDbDictionary
  0
ACDBDICTIONARYWDFLT
  5
E
102
{ACAD_REACTORS
330
C
102
}
330
C
100
AcDbDictionary
281
     1
  3
Normal
350
F
100
AcDbDictionaryWithDefault
340
F
  0
DICTIONARY
  5
1E3
102
{ACAD_REACTORS
330
C
102
}
330
C
100
AcDbDictionary
  3
CEPSNTYPE
350
1ED
  3
FINGERPRINTGUID
350
1EE
  3
HYPERLINKBASE
350
1E6
  3
INSUNITS
350
1EC
  3
LAYOUTDICT
350
1E8
  3
LWETCUNION
350
1EB
  3
PLOTSETDICT
350
1E9
  3
PLOTSTYLNAMDICT
350
1EA
  3
PSVPSCALE
350
1F0
  3
PUCSBASE
350
1F3
  3
PUCSORGBACK
350
1F9
  3
PUCSORGBOTTOM
350
1F5
  3
PUCSORGFRONT
350
1F8
  3
PUCSORGLEFT
350
1F6
  3
PUCSORGRIGHT
350
1F7
  3
PUCSORGTOP
350
1F4
  3
PUCSORTHOREF
350
1F1
  3
PUCSORTHOVIEW
350
1F2
  3
STYLESHEET
350
1E7
  3
TSTACKALIGN
350
1E4
  3
TSTACKSIZE
350
1E5
  3
UCSBASE
350
1FC
  3
UCSORGBACK
350
202
  3
UCSORGBOTTOM
350
1FE
  3
UCSORGFRONT
350
201
  3
UCSORGLEFT
350
1FF
  3
UCSORGRIGHT
350
200
  3
UCSORGTOP
350
1FD
  3
UCSORTHOREF
350
1FA
  3
UCSORTHOVIEW
350
1FB
  3
VERSIONGUID
350
1EF
  0
DICTIONARY
  5
1E0
102
{ACAD_REACTORS
330
C
102
}
330
C
100
AcDbDictionary
  3
DIMASSOC
350
1E1
  0
XRECORD
  5
206
102
{ACAD_REACTORS
330
205
102
}
330
205
100
AcDbXrecord
340
1E
  0
XRECORD
  5
204
102
{ACAD_REACTORS
330
203
102
}
330
203
100
AcDbXrecord
340
1A
  0
MLINESTYLE
  5
17
102
{ACAD_REACTORS
330
16
102
}
330
16
100
AcDbMlineStyle
  2
STANDARD
 70
     0
  3

 62
   256
 51
90.0
 52
90.0
 71
     2
 49
0.5
 62
   256
  6
BYLAYER
 49
-0.5
 62
   256
  6
BYLAYER
  0
ACDBPLACEHOLDER
  5
F
102
{ACAD_REACTORS
330
E
102
}
330
E
100
AcDbPlaceHolder
280
     0
  0
XRECORD
  5
1ED
102
{ACAD_REACTORS
330
1E3
102
}
330
1E3
100
AcDbXrecord
 90
        0
  0
XRECORD
  5
1EE
102
{ACAD_REACTORS
330
1E3
102
}
330
1E3
100
AcDbXrecord
  1
{D04F4BCE-714F-473F-82BF-B388BF3A3C0B}
  0
XRECORD
  5
1E6
102
{ACAD_REACTORS
330
1E3
102
}
330
1E3
100
AcDbXrecord
  1

  0
XRECORD
  5
1EC
102
{ACAD_REACTORS
330
1E3
102
}
330
1E3
100
AcDbXrecord
 90
        0
  0
XRECORD
  5
1E8
102
{ACAD_REACTORS
330
1E3
102
}
330
1E3
100
AcDbXrecord
340
19
  0
XRECORD
  5
1EB
102
{ACAD_REACTORS
330
1E3
102
}
330
1E3
100
AcDbXrecord
 90
    10781
  0
XRECORD
  5
1E9
102
{ACAD_REACTORS
330
1E3
102
}
330
1E3
100
AcDbXrecord
340
18
  0
XRECORD
  5
1EA
102
{ACAD_REACTORS
330
1E3
102
}
330
1E3
100
AcDbXrecord
340
E
  0
XRECORD
  5
1F0
102
{ACAD_REACTORS
330
1E3
102
}
330
1E3
100
AcDbXrecord
 40
0.0
  0
XRECORD
  5
1F3
102
{ACAD_REACTORS
330
1E3
102
}
330
1E3
100
AcDbXrecord
340
0
  0
XRECORD
  5
1F9
102
{ACAD_REACTORS
330
1E3
102
}
330
1E3
100
AcDbXrecord
 10
0.0
 20
0.0
 30
0.0
  0
XRECORD
  5
1F5
102
{ACAD_REACTORS
330
1E3
102
}
330
1E3
100
AcDbXrecord
 10
0.0
 20
0.0
 30
0.0
  0
XRECORD
  5
1F8
102
{ACAD_REACTORS
330
1E3
102
}
330
1E3
100
AcDbXrecord
 10
0.0
 20
0.0
 30
0.0
  0
XRECORD
  5
1F6
102
{ACAD_REACTORS
330
1E3
102
}
330
1E3
100
AcDbXrecord
 10
0.0
 20
0.0
 30
0.0
  0
XRECORD
  5
1F7
102
{ACAD_REACTORS
330
1E3
102
}
330
1E3
100
AcDbXrecord
 10
0.0
 20
0.0
 30
0.0
  0
XRECORD
  5
1F4
102
{ACAD_REACTORS
330
1E3
102
}
330
1E3
100
AcDbXrecord
 10
0.0
 20
0.0
 30
0.0
  0
XRECORD
  5
1F1
102
{ACAD_REACTORS
330
1E3
102
}
330
1E3
100
AcDbXrecord
340
0
  0
XRECORD
  5
1F2
102
{ACAD_REACTORS
330
1E3
102
}
330
1E3
100
AcDbXrecord
 70
     0
  0
XRECORD
  5
1E7
102
{ACAD_REACTORS
330
1E3
102
}
330
1E3
100
AcDbXrecord
  1

  0
XRECORD
  5
1E4
102
{ACAD_REACTORS
330
1E3
102
}
330
1E3
100
AcDbXrecord
 90
        1
  0
XRECORD
  5
1E5
102
{ACAD_REACTORS
330
1E3
102
}
330
1E3
100
AcDbXrecord
 90
       70
  0
XRECORD
  5
1FC
102
{ACAD_REACTORS
330
1E3
102
}
330
1E3
100
AcDbXrecord
340
0
  0
XRECORD
  5
202
102
{ACAD_REACTORS
330
1E3
102
}
330
1E3
100
AcDbXrecord
 10
0.0
 20
0.0
 30
0.0
  0
XRECORD
  5
1FE
102
{ACAD_REACTORS
330
1E3
102
}
330
1E3
100
AcDbXrecord
 10
0.0
 20
0.0
 30
0.0
  0
XRECORD
  5
201
102
{ACAD_REACTORS
330
1E3
102
}
330
1E3
100
AcDbXrecord
 10
0.0
 20
0.0
 30
0.0
  0
XRECORD
  5
1FF
102
{ACAD_REACTORS
330
1E3
102
}
330
1E3
100
AcDbXrecord
 10
0.0
 20
0.0
 30
0.0
  0
XRECORD
  5
200
102
{ACAD_REACTORS
330
1E3
102
}
330
1E3
100
AcDbXrecord
 10
0.0
 20
0.0
 30
0.0
  0
XRECORD
  5
1FD
102
{ACAD_REACTORS
330
1E3
102
}
330
1E3
100
AcDbXrecord
 10
0.0
 20
0.0
 30
0.0
  0
XRECORD
  5
1FA
102
{ACAD_REACTORS
330
1E3
102
}
330
1E3
100
AcDbXrecord
340
0
  0
XRECORD
  5
1FB
102
{ACAD_REACTORS
330
1E3
102
}
330
1E3
100
AcDbXrecord
 70
     1
  0
XRECORD
  5
1EF
102
{ACAD_REACTORS
330
1E3
102
}
330
1E3
100
AcDbXrecord
  1
{49C14E81-8387-46FE-92BB-C9C466D28B3E}
  0
DICTIONARYVAR
  5
1E1
102
{ACAD_REACTORS
330
1E0
102
}
330
1E0
100
DictionaryVariables
280
     0
  1
1
  0
ENDSEC
  0
EOF
