  0
SECTION
  2
HEADER
  9
$ACADVER
  1
AC1015
  9
$ACADMAINTVER
 70
     6
  9
$DWGCODEPAGE
  3
ANSI_1252
  9
$INSBASE
 10
0.0
 20
0.0
 30
0.0
  9
$EXTMIN
 10
0.0
 20
-5.5703
 30
0.0
  9
$EXTMAX
 10
414.187
 20
244.0
 30
0.0
  9
$LIMMIN
 10
0.0
 20
0.0
  9
$LIMMAX
 10
12.0
 20
9.0
  9
$ORTHOMODE
 70
     0
  9
$REGENMODE
 70
     1
  9
$FILLMODE
 70
     1
  9
$QTEXTMODE
 70
     0
  9
$MIRRTEXT
 70
     1
  9
$LTSCALE
 40
1.0
  9
$ATTMODE
 70
     1
  9
$TEXTSIZE
 40
0.2
  9
$TRACEWID
 40
0.05
  9
$TEXTSTYLE
  7
STANDARD
  9
$CLAYER
  8
0
  9
$CELTYPE
  6
CONTINUOUS
  9
$CECOLOR
 62
   256
  9
$CELTSCALE
 40
1.0
  9
$DISPSILH
 70
     0
  9
$DIMSCALE
 40
1.0
  9
$DIMASZ
 40
0.18
  9
$DIMEXO
 40
0.0625
  9
$DIMDLI
 40
0.38
  9
$DIMRND
 40
0.0
  9
$DIMDLE
 40
0.0
  9
$DIMEXE
 40
0.18
  9
$DIMTP
 40
0.0
  9
$DIMTM
 40
0.0
  9
$DIMTXT
 40
0.18
  9
$DIMCEN
 40
0.09
  9
$DIMTSZ
 40
0.0
  9
$DIMTOL
 70
     0
  9
$DIMLIM
 70
     0
  9
$DIMTIH
 70
     1
  9
$DIMTOH
 70
     1
  9
$DIMSE1
 70
     0
  9
$DIMSE2
 70
     0
  9
$DIMTAD
 70
     0
  9
$DIMZIN
 70
     0
  9
$DIMBLK
  1

  9
$DIMASO
 70
     1
  9
$DIMSHO
 70
     1
  9
$DIMPOST
  1

  9
$DIMAPOST
  1

  9
$DIMALT
 70
     0
  9
$DIMALTD
 70
     2
  9
$DIMALTF
 40
25.4
  9
$DIMLFAC
 40
1.0
  9
$DIMTOFL
 70
     0
  9
$DIMTVP
 40
0.0
  9
$DIMTIX
 70
     0
  9
$DIMSOXD
 70
     0
  9
$DIMSAH
 70
     0
  9
$DIMBLK1
  1

  9
$DIMBLK2
  1

  9
$DIMSTYLE
  2
STANDARD
  9
$DIMCLRD
 70
     0
  9
$DIMCLRE
 70
     0
  9
$DIMCLRT
 70
     0
  9
$DIMTFAC
 40
1.0
  9
$DIMGAP
 40
0.09
  9
$DIMJUST
 70
     0
  9
$DIMSD1
 70
     0
  9
$DIMSD2
 70
     0
  9
$DIMTOLJ
 70
     1
  9
$DIMTZIN
 70
     0
  9
$DIMALTZ
 70
     0
  9
$DIMALTTZ
 70
     0
  9
$DIMUPT
 70
     0
  9
$DIMDEC
 70
     4
  9
$DIMTDEC
 70
     4
  9
$DIMALTU
 70
     2
  9
$DIMALTTD
 70
     2
  9
$DIMTXSTY
  7
STANDARD
  9
$DIMAUNIT
 70
     0
  9
$DIMADEC
 70
     0
  9
$DIMALTRND
 40
0.0
  9
$DIMAZIN
 70
     0
  9
$DIMDSEP
 70
    46
  9
$DIMATFIT
 70
     3
  9
$DIMFRAC
 70
     0
  9
$DIMLDRBLK
  1

  9
$DIMLUNIT
 70
     2
  9
$DIMLWD
 70
    -2
  9
$DIMLWE
 70
    -2
  9
$DIMTMOVE
 70
     2
  9
$LUNITS
 70
     2
  9
$LUPREC
 70
     4
  9
$SKETCHINC
 40
0.1
  9
$FILLETRAD
 40
0.0
  9
$AUNITS
 70
     0
  9
$AUPREC
 70
     0
  9
$MENU
  1
.
  9
$ELEVATION
 40
0.0
  9
$PELEVATION
 40
0.0
  9
$THICKNESS
 40
0.0
  9
$LIMCHECK
 70
     0
  9
$CHAMFERA
 40
0.0
  9
$CHAMFERB
 40
0.0
  9
$CHAMFERC
 40
0.0
  9
$CHAMFERD
 40
0.0
  9
$SKPOLY
 70
     0
  9
$TDCREATE
 40
2454687.56207338
  9
$TDUCREATE
 40
2454687.478740046
  9
$TDUPDATE
 40
2456210.423983646
  9
$TDUUPDATE
 40
2456210.340650313
  9
$TDINDWG
 40
0.0162984722
  9
$TDUSRTIMER
 40
0.0162984722
  9
$USRTIMER
 70
     1
  9
$ANGBASE
 50
0.0
  9
$ANGDIR
 70
     0
  9
$PDMODE
 70
     0
  9
$PDSIZE
 40
0.0
  9
$PLINEWID
 40
0.0
  9
$SPLFRAME
 70
     0
  9
$SPLINETYPE
 70
     6
  9
$SPLINESEGS
 70
     8
  9
$HANDSEED
  5
741
  9
$SURFTAB1
 70
     6
  9
$SURFTAB2
 70
     6
  9
$SURFTYPE
 70
     6
  9
$SURFU
 70
     6
  9
$SURFV
 70
     6
  9
$UCSBASE
  2

  9
$UCSNAME
  2

  9
$UCSORG
 10
0.0
 20
0.0
 30
0.0
  9
$UCSXDIR
 10
1.0
 20
0.0
 30
0.0
  9
$UCSYDIR
 10
0.0
 20
1.0
 30
0.0
  9
$UCSORTHOREF
  2

  9
$UCSORTHOVIEW
 70
     0
  9
$UCSORGTOP
 10
0.0
 20
0.0
 30
0.0
  9
$UCSORGBOTTOM
 10
0.0
 20
0.0
 30
0.0
  9
$UCSORGLEFT
 10
0.0
 20
0.0
 30
0.0
  9
$UCSORGRIGHT
 10
0.0
 20
0.0
 30
0.0
  9
$UCSORGFRONT
 10
0.0
 20
0.0
 30
0.0
  9
$UCSORGBACK
 10
0.0
 20
0.0
 30
0.0
  9
$PUCSBASE
  2

  9
$PUCSNAME
  2

  9
$PUCSORG
 10
0.0
 20
0.0
 30
0.0
  9
$PUCSXDIR
 10
1.0
 20
0.0
 30
0.0
  9
$PUCSYDIR
 10
0.0
 20
1.0
 30
0.0
  9
$PUCSORTHOREF
  2

  9
$PUCSORTHOVIEW
 70
     0
  9
$PUCSORGTOP
 10
0.0
 20
0.0
 30
0.0
  9
$PUCSORGBOTTOM
 10
0.0
 20
0.0
 30
0.0
  9
$PUCSORGLEFT
 10
0.0
 20
0.0
 30
0.0
  9
$PUCSORGRIGHT
 10
0.0
 20
0.0
 30
0.0
  9
$PUCSORGFRONT
 10
0.0
 20
0.0
 30
0.0
  9
$PUCSORGBACK
 10
0.0
 20
0.0
 30
0.0
  9
$USERI1
 70
     0
  9
$USERI2
 70
     0
  9
$USERI3
 70
     0
  9
$USERI4
 70
     0
  9
$USERI5
 70
     0
  9
$USERR1
 40
0.0
  9
$USERR2
 40
0.0
  9
$USERR3
 40
0.0
  9
$USERR4
 40
0.0
  9
$USERR5
 40
0.0
  9
$WORLDVIEW
 70
     1
  9
$SHADEDGE
 70
     3
  9
$SHADEDIF
 70
    70
  9
$TILEMODE
 70
     1
  9
$MAXACTVP
 70
    64
  9
$PINSBASE
 10
0.0
 20
0.0
 30
0.0
  9
$PLIMCHECK
 70
     0
  9
$PEXTMIN
 10
1.000000000000E+20
 20
1.000000000000E+20
 30
1.000000000000E+20
  9
$PEXTMAX
 10
-1.000000000000E+20
 20
-1.000000000000E+20
 30
-1.000000000000E+20
  9
$PLIMMIN
 10
0.0
 20
0.0
  9
$PLIMMAX
 10
12.0
 20
9.0
  9
$UNITMODE
 70
     0
  9
$VISRETAIN
 70
     1
  9
$PLINEGEN
 70
     0
  9
$PSLTSCALE
 70
     1
  9
$TREEDEPTH
 70
  3020
  9
$CMLSTYLE
  2
STANDARD
  9
$CMLJUST
 70
     0
  9
$CMLSCALE
 40
1.0
  9
$PROXYGRAPHICS
 70
     1
  9
$MEASUREMENT
 70
     0
  9
$CELWEIGHT
370
    -1
  9
$ENDCAPS
280
     0
  9
$JOINSTYLE
280
     0
  9
$LWDISPLAY
290
     0
  9
$INSUNITS
 70
     0
  9
$HYPERLINKBASE
  1

  9
$STYLESHEET
  1

  9
$XEDIT
290
     1
  9
$CEPSNTYPE
380
     0
  9
$PSTYLEMODE
290
     1
  9
$FINGERPRINTGUID
  2
{F66295AD-08F3-4325-827A-1560EAC4E521}
  9
$VERSIONGUID
  2
{BFA3E8C7-3413-415B-B9BB-293FCCB3AAA4}
  9
$EXTNAMES
290
     1
  9
$PSVPSCALE
 40
0.0
  9
$OLESTARTUP
290
     0
  0
ENDSEC
  0
SECTION
  2
CLASSES
  0
CLASS
  1
ACDBDICTIONARYWDFLT
  2
AcDbDictionaryWithDefault
  3
ObjectDBX Classes
 90
        0
280
     0
281
     0
  0
CLASS
  1
ACDBPLACEHOLDER
  2
AcDbPlaceHolder
  3
ObjectDBX Classes
 90
        0
280
     0
281
     0
  0
CLASS
  1
LAYOUT
  2
AcDbLayout
  3
ObjectDBX Classes
 90
        0
280
     0
281
     0
  0
CLASS
  1
DICTIONARYVAR
  2
AcDbDictionaryVar
  3
ObjectDBX Classes
 90
        0
280
     0
281
     0
  0
CLASS
  1
DUMMY
  2
AcDbLongTransaction
  3
DUMMY
 90
        0
280
     0
281
     0
  0
CLASS
  1
LWPOLYLINE
  2
AcDbPolyline
  3
AutoCAD 2000
 90
        0
280
     0
281
     1
  0
CLASS
  1
HATCH
  2
AcDbHatch
  3
AutoCAD 2000
 90
        0
280
     0
281
     1
  0
CLASS
  1
XRECORD
  2
AcDbXrecord
  3
AutoCAD 2000
 90
        0
280
     0
281
     0
  0
CLASS
  1
SCALE
  2
AcDbScale
  3
ObjectDBX Classes
 90
     1153
280
     0
281
     0
  0
ENDSEC
  0
SECTION
  2
TABLES
  0
TABLE
  2
VPORT
  5
8
330
0
100
AcDbSymbolTable
 70
     1
  0
VPORT
  5
395
330
8
100
AcDbSymbolTableRecord
100
AcDbViewportTableRecord
  2
*ACTIVE
 70
     0
 10
0.0
 20
0.0
 11
1.0
 21
1.0
 12
207.0935
 22
119.21485
 13
0.0
 23
0.0
 14
1.0
 24
1.0
 15
0.0
 25
0.0
 16
0.0
 26
0.0
 36
1.0
 17
0.0
 27
0.0
 37
0.0
 40
254.561706
 41
2.271724137931
 42
50.0
 43
0.0
 44
0.0
 50
0.0
 51
0.0
 71
    16
 72
   100
 73
     1
 74
     3
 75
     0
 76
     0
 77
     0
 78
     0
281
     0
 65
     1
110
0.0
120
0.0
130
0.0
111
1.0
121
0.0
131
0.0
112
0.0
122
1.0
132
0.0
 79
     0
146
0.0
  0
ENDTAB
  0
TABLE
  2
LTYPE
  5
5
330
0
100
AcDbSymbolTable
 70
     1
  0
LTYPE
  5
13
330
5
100
AcDbSymbolTableRecord
100
AcDbLinetypeTableRecord
  2
BYBLOCK
 70
     0
  3

 72
    65
 73
     0
 40
0.0
  0
LTYPE
  5
14
330
5
100
AcDbSymbolTableRecord
100
AcDbLinetypeTableRecord
  2
BYLAYER
 70
     0
  3

 72
    65
 73
     0
 40
0.0
  0
LTYPE
  5
15
330
5
100
AcDbSymbolTableRecord
100
AcDbLinetypeTableRecord
  2
CONTINUOUS
 70
     0
  3
Solid line
 72
    65
 73
     0
 40
0.0
  0
ENDTAB
  0
TABLE
  2
LAYER
  5
2
330
0
100
AcDbSymbolTable
 70
     1
  0
LAYER
  5
10
330
2
100
AcDbSymbolTableRecord
100
AcDbLayerTableRecord
  2
0
 70
     0
 62
     7
  6
CONTINUOUS
370
    -3
390
F
  0
ENDTAB
  0
TABLE
  2
STYLE
  5
3
330
0
100
AcDbSymbolTable
 70
     1
  0
STYLE
  5
11
330
3
100
AcDbSymbolTableRecord
100
AcDbTextStyleTableRecord
  2
STANDARD
 70
     0
 40
0.0
 41
1.0
 50
0.0
 71
     0
 42
0.2
  3
txt
  4

  0
ENDTAB
  0
TABLE
  2
VIEW
  5
6
330
0
100
AcDbSymbolTable
 70
     0
  0
ENDTAB
  0
TABLE
  2
UCS
  5
7
330
0
100
AcDbSymbolTable
 70
     0
  0
ENDTAB
  0
TABLE
  2
APPID
  5
9
330
0
100
AcDbSymbolTable
 70
     1
  0
APPID
  5
12
330
9
100
AcDbSymbolTableRecord
100
AcDbRegAppTableRecord
  2
ACAD
 70
     0
  0
ENDTAB
  0
TABLE
  2
DIMSTYLE
  5
A
330
0
100
AcDbSymbolTable
 70
     1
100
AcDbDimStyleTable
  0
DIMSTYLE
105
38F
330
A
100
AcDbSymbolTableRecord
100
AcDbDimStyleTableRecord
  2
STANDARD
 70
     0
340
11
  0
ENDTAB
  0
TABLE
  2
BLOCK_RECORD
  5
1
330
0
100
AcDbSymbolTable
 70
     1
  0
BLOCK_RECORD
  5
1E
330
1
100
AcDbSymbolTableRecord
100
AcDbBlockTableRecord
  2
*MODEL_SPACE
340
3BA
  0
BLOCK_RECORD
  5
1A
330
1
100
AcDbSymbolTableRecord
100
AcDbBlockTableRecord
  2
*PAPER_SPACE
340
3BB
  0
ENDTAB
  0
ENDSEC
  0
SECTION
  2
BLOCKS
  0
BLOCK
  5
1F
330
1E
100
AcDbEntity
  8
0
100
AcDbBlockBegin
  2
*MODEL_SPACE
 70
     0
 10
0.0
 20
0.0
 30
0.0
  3
*MODEL_SPACE
  1
*MODEL_SPACE
  0
ENDBLK
  5
20
330
1E
100
AcDbEntity
  8
0
100
AcDbBlockEnd
  0
BLOCK
  5
1B
330
1A
100
AcDbEntity
 67
     1
  8
0
100
AcDbBlockBegin
  2
*PAPER_SPACE
 70
     0
 10
0.0
 20
0.0
 30
0.0
  3
*PAPER_SPACE
  1
*PAPER_SPACE
  0
ENDBLK
  5
1C
330
1A
100
AcDbEntity
 67
     1
  8
0
100
AcDbBlockEnd
  0
ENDSEC
  0
SECTION
  2
ENTITIES
  0
LINE
  5
22
330
1E
100
AcDbEntity
  8
0
100
AcDbLine
 10
131.0
 20
0.5
 30
0.0
 11
131.0
 21
2.2
 31
0.0
  0
LINE
  5
23
330
1E
100
AcDbEntity
  8
0
100
AcDbLine
 10
131.0
 20
2.2
 30
0.0
 11
131.0
 21
6.6
 31
0.0
  0
LINE
  5
24
330
1E
100
AcDbEntity
  8
0
100
AcDbLine
 10
131.0
 20
2.2
 30
0.0
 11
131.0
 21
0.5
 31
0.0
  0
LINE
  5
25
330
1E
100
AcDbEntity
  8
0
100
AcDbLine
 10
131.0
 20
6.6
 30
0.0
 11
131.0
 21
13.9
 31
0.0
  0
LINE
  5
26
330
1E
100
AcDbEntity
  8
0
100
AcDbLine
 10
131.0
 20
6.6
 30
0.0
 11
131.0
 21
2.2
 31
0.0
  0
LINE
  5
27
330
1E
100
AcDbEntity
  8
0
100
AcDbLine
 10
131.0
 20
13.9
 30
0.0
 11
131.0
 21
23.4
 31
0.0
  0
LINE
  5
28
330
1E
100
AcDbEntity
  8
0
100
AcDbLine
 10
131.0
 20
13.9
 30
0.0
 11
131.0
 21
6.6
 31
0.0
  0
LINE
  5
29
330
1E
100
AcDbEntity
  8
0
100
AcDbLine
 10
145.0
 20
0.0
 30
0.0
 11
158.5
 21
0.0
 31
0.0
  0
LINE
  5
2A
330
1E
100
AcDbEntity
  8
0
100
AcDbLine
 10
131.5
 20
0.0
 30
0.0
 11
131.5
 21
1.7
 31
0.0
  0
LINE
  5
2B
330
1E
100
AcDbEntity
  8
0
100
AcDbLine
 10
131.5
 20
1.7
 30
0.0
 11
131.5
 21
6.2
 31
0.0
  0
LINE
  5
2C
330
1E
100
AcDbEntity
  8
0
100
AcDbLine
 10
131.5
 20
1.7
 30
0.0
 11
131.5
 21
0.0
 31
0.0
  0
LINE
  5
2D
330
1E
100
AcDbEntity
  8
0
100
AcDbLine
 10
131.5
 20
6.2
 30
0.0
 11
131.5
 21
13.6
 31
0.0
  0
LINE
  5
2E
330
1E
100
AcDbEntity
  8
0
100
AcDbLine
 10
131.5
 20
6.2
 30
0.0
 11
131.5
 21
1.7
 31
0.0
  0
LINE
  5
2F
330
1E
100
AcDbEntity
  8
0
100
AcDbLine
 10
131.5
 20
13.6
 30
0.0
 11
131.5
 21
23.1
 31
0.0
  0
LINE
  5
30
330
1E
100
AcDbEntity
  8
0
100
AcDbLine
 10
131.5
 20
13.6
 30
0.0
 11
131.5
 21
6.2
 31
0.0
  0
LINE
  5
31
330
1E
100
AcDbEntity
  8
0
100
AcDbLine
 10
158.5
 20
0.0
 30
0.0
 11
158.5
 21
1.7
 31
0.0
  0
LINE
  5
32
330
1E
100
AcDbEntity
  8
0
100
AcDbLine
 10
158.5
 20
1.7
 30
0.0
 11
158.5
 21
0.0
 31
0.0
  0
LINE
  5
33
330
1E
100
AcDbEntity
  8
0
100
AcDbLine
 10
158.5
 20
1.7
 30
0.0
 11
158.5
 21
6.2
 31
0.0
  0
LINE
  5
34
330
1E
100
AcDbEntity
  8
0
100
AcDbLine
 10
159.0
 20
0.5
 30
0.0
 11
159.0
 21
2.2
 31
0.0
  0
LINE
  5
35
330
1E
100
AcDbEntity
  8
0
100
AcDbLine
 10
159.0
 20
2.2
 30
0.0
 11
159.0
 21
0.5
 31
0.0
  0
LINE
  5
36
330
1E
100
AcDbEntity
  8
0
100
AcDbLine
 10
159.0
 20
2.2
 30
0.0
 11
159.0
 21
6.6
 31
0.0
  0
LINE
  5
37
330
1E
100
AcDbEntity
  8
0
100
AcDbLine
 10
159.0
 20
6.6
 30
0.0
 11
159.0
 21
2.2
 31
0.0
  0
LINE
  5
38
330
1E
100
AcDbEntity
  8
0
100
AcDbLine
 10
159.0
 20
6.6
 30
0.0
 11
159.0
 21
13.9
 31
0.0
  0
LINE
  5
39
330
1E
100
AcDbEntity
  8
0
100
AcDbLine
 10
158.5
 20
6.2
 30
0.0
 11
158.5
 21
1.7
 31
0.0
  0
LINE
  5
3A
330
1E
100
AcDbEntity
  8
0
100
AcDbLine
 10
158.5
 20
6.2
 30
0.0
 11
158.5
 21
13.6
 31
0.0
  0
LINE
  5
3B
330
1E
100
AcDbEntity
  8
0
100
AcDbLine
 10
159.0
 20
13.9
 30
0.0
 11
159.0
 21
6.6
 31
0.0
  0
LINE
  5
3C
330
1E
100
AcDbEntity
  8
0
100
AcDbLine
 10
159.0
 20
13.9
 30
0.0
 11
159.0
 21
23.4
 31
0.0
  0
LINE
  5
3D
330
1E
100
AcDbEntity
  8
0
100
AcDbLine
 10
158.5
 20
13.6
 30
0.0
 11
158.5
 21
6.2
 31
0.0
  0
LINE
  5
3E
330
1E
100
AcDbEntity
  8
0
100
AcDbLine
 10
158.5
 20
13.6
 30
0.0
 11
158.5
 21
23.1
 31
0.0
  0
LINE
  5
3F
330
1E
100
AcDbEntity
  8
0
100
AcDbLine
 10
131.5
 20
0.0
 30
0.0
 11
145.0
 21
0.0
 31
0.0
  0
LINE
  5
40
330
1E
100
AcDbEntity
  8
0
100
AcDbLine
 10
131.0
 20
0.5
 30
0.0
 11
131.0
 21
27.5
 31
0.0
  0
LINE
  5
41
330
1E
100
AcDbEntity
  8
0
100
AcDbLine
 10
158.5
 20
23.1
 30
0.0
 11
158.5
 21
13.6
 31
0.0
  0
LINE
  5
42
330
1E
100
AcDbEntity
  8
0
100
AcDbLine
 10
158.5
 20
23.1
 30
0.0
 11
158.5
 21
34.2
 31
0.0
  0
LINE
  5
43
330
1E
100
AcDbEntity
  8
0
100
AcDbLine
 10
159.0
 20
23.4
 30
0.0
 11
159.0
 21
13.9
 31
0.0
  0
LINE
  5
44
330
1E
100
AcDbEntity
  8
0
100
AcDbLine
 10
159.0
 20
23.4
 30
0.0
 11
159.0
 21
34.3
 31
0.0
  0
LINE
  5
45
330
1E
100
AcDbEntity
  8
0
100
AcDbLine
 10
131.0
 20
23.4
 30
0.0
 11
131.0
 21
34.3
 31
0.0
  0
LINE
  5
46
330
1E
100
AcDbEntity
  8
0
100
AcDbLine
 10
131.0
 20
23.4
 30
0.0
 11
131.0
 21
13.9
 31
0.0
  0
LINE
  5
47
330
1E
100
AcDbEntity
  8
0
100
AcDbLine
 10
131.5
 20
23.1
 30
0.0
 11
131.5
 21
34.2
 31
0.0
  0
LINE
  5
48
330
1E
100
AcDbEntity
  8
0
100
AcDbLine
 10
131.5
 20
23.1
 30
0.0
 11
131.5
 21
13.6
 31
0.0
  0
LINE
  5
4E
330
1E
100
AcDbEntity
  8
0
100
AcDbLine
 10
131.0
 20
28.1
 30
0.0
 11
131.0
 21
30.0
 31
0.0
  0
LINE
  5
4F
330
1E
100
AcDbEntity
  8
0
100
AcDbLine
 10
131.0
 20
28.1
 30
0.0
 11
131.0
 21
27.5
 31
0.0
  0
LINE
  5
50
330
1E
100
AcDbEntity
  8
0
100
AcDbLine
 10
131.0
 20
30.0
 30
0.0
 11
131.0
 21
32.9
 31
0.0
  0
LINE
  5
51
330
1E
100
AcDbEntity
  8
0
100
AcDbLine
 10
131.0
 20
30.0
 30
0.0
 11
131.0
 21
28.1
 31
0.0
  0
LINE
  5
52
330
1E
100
AcDbEntity
  8
0
100
AcDbLine
 10
131.0
 20
32.9
 30
0.0
 11
131.0
 21
36.8
 31
0.0
  0
LINE
  5
53
330
1E
100
AcDbEntity
  8
0
100
AcDbLine
 10
131.0
 20
32.9
 30
0.0
 11
131.0
 21
30.0
 31
0.0
  0
LINE
  5
54
330
1E
100
AcDbEntity
  8
0
100
AcDbLine
 10
131.0
 20
36.8
 30
0.0
 11
131.0
 21
41.2
 31
0.0
  0
LINE
  5
55
330
1E
100
AcDbEntity
  8
0
100
AcDbLine
 10
131.0
 20
36.8
 30
0.0
 11
131.0
 21
32.9
 31
0.0
  0
LINE
  5
56
330
1E
100
AcDbEntity
  8
0
100
AcDbLine
 10
131.0
 20
41.2
 30
0.0
 11
131.0
 21
46.0
 31
0.0
  0
LINE
  5
57
330
1E
100
AcDbEntity
  8
0
100
AcDbLine
 10
131.0
 20
41.2
 30
0.0
 11
131.0
 21
36.8
 31
0.0
  0
LINE
  5
58
330
1E
100
AcDbEntity
  8
0
100
AcDbLine
 10
131.0
 20
46.0
 30
0.0
 11
131.0
 21
170.0
 31
0.0
  0
LINE
  5
59
330
1E
100
AcDbEntity
  8
0
100
AcDbLine
 10
131.0
 20
46.0
 30
0.0
 11
131.0
 21
41.2
 31
0.0
  0
LINE
  5
5A
330
1E
100
AcDbEntity
  8
0
100
AcDbLine
 10
131.0
 20
34.3
 30
0.0
 11
131.0
 21
46.0
 31
0.0
  0
LINE
  5
5B
330
1E
100
AcDbEntity
  8
0
100
AcDbLine
 10
131.0
 20
34.3
 30
0.0
 11
131.0
 21
23.4
 31
0.0
  0
LINE
  5
5C
330
1E
100
AcDbEntity
  8
0
100
AcDbLine
 10
131.0
 20
46.0
 30
0.0
 11
131.0
 21
170.0
 31
0.0
  0
LINE
  5
5D
330
1E
100
AcDbEntity
  8
0
100
AcDbLine
 10
131.0
 20
46.0
 30
0.0
 11
131.0
 21
34.3
 31
0.0
  0
LINE
  5
5E
330
1E
100
AcDbEntity
  8
0
100
AcDbLine
 10
131.5
 20
34.2
 30
0.0
 11
131.5
 21
46.0
 31
0.0
  0
LINE
  5
5F
330
1E
100
AcDbEntity
  8
0
100
AcDbLine
 10
131.5
 20
34.2
 30
0.0
 11
131.5
 21
23.1
 31
0.0
  0
LINE
  5
60
330
1E
100
AcDbEntity
  8
0
100
AcDbLine
 10
159.0
 20
34.3
 30
0.0
 11
159.0
 21
23.4
 31
0.0
  0
LINE
  5
61
330
1E
100
AcDbEntity
  8
0
100
AcDbLine
 10
159.0
 20
34.3
 30
0.0
 11
159.0
 21
46.0
 31
0.0
  0
LINE
  5
62
330
1E
100
AcDbEntity
  8
0
100
AcDbLine
 10
159.0
 20
46.0
 30
0.0
 11
159.0
 21
34.3
 31
0.0
  0
LINE
  5
63
330
1E
100
AcDbEntity
  8
0
100
AcDbLine
 10
159.0
 20
46.0
 30
0.0
 11
159.0
 21
170.0
 31
0.0
  0
LINE
  5
64
330
1E
100
AcDbEntity
  8
0
100
AcDbLine
 10
158.5
 20
34.2
 30
0.0
 11
158.5
 21
23.1
 31
0.0
  0
LINE
  5
65
330
1E
100
AcDbEntity
  8
0
100
AcDbLine
 10
158.5
 20
34.2
 30
0.0
 11
158.5
 21
46.0
 31
0.0
  0
LINE
  5
66
330
1E
100
AcDbEntity
  8
0
100
AcDbLine
 10
158.5
 20
46.0
 30
0.0
 11
158.5
 21
34.2
 31
0.0
  0
LINE
  5
67
330
1E
100
AcDbEntity
  8
0
100
AcDbLine
 10
158.5
 20
46.0
 30
0.0
 11
158.5
 21
170.0
 31
0.0
  0
LINE
  5
68
330
1E
100
AcDbEntity
  8
0
100
AcDbLine
 10
131.5
 20
46.0
 30
0.0
 11
131.5
 21
170.0
 31
0.0
  0
LINE
  5
69
330
1E
100
AcDbEntity
  8
0
100
AcDbLine
 10
131.5
 20
46.0
 30
0.0
 11
131.5
 21
34.2
 31
0.0
  0
LINE
  5
6A
330
1E
100
AcDbEntity
  8
0
100
AcDbLine
 10
131.0
 20
27.5
 30
0.0
 11
131.0
 21
0.5
 31
0.0
  0
LINE
  5
6B
330
1E
100
AcDbEntity
  8
0
100
AcDbLine
 10
131.0
 20
27.5
 30
0.0
 11
131.0
 21
28.1
 31
0.0
  0
LINE
  5
B8
330
1E
100
AcDbEntity
  8
0
100
AcDbLine
 10
26.0
 20
175.3
 30
0.0
 11
31.0
 21
174.577777777778
 31
0.0
  0
LINE
  5
B9
330
1E
100
AcDbEntity
  8
0
100
AcDbLine
 10
26.1
 20
175.7
 30
0.0
 11
31.0
 21
175.039325842697
 31
0.0
  0
LINE
  5
BA
330
1E
100
AcDbEntity
  8
0
100
AcDbLine
 10
35.0
 20
174.5
 30
0.0
 11
38.5
 21
174.5
 31
0.0
  0
LINE
  5
BB
330
1E
100
AcDbEntity
  8
0
100
AcDbLine
 10
131.0
 20
170.0
 30
0.0
 11
131.0
 21
177.0
 31
0.0
  0
LINE
  5
BC
330
1E
100
AcDbEntity
  8
0
100
AcDbLine
 10
131.0
 20
170.0
 30
0.0
 11
131.0
 21
46.0
 31
0.0
  0
LINE
  5
BD
330
1E
100
AcDbEntity
  8
0
100
AcDbLine
 10
131.0
 20
170.0
 30
0.0
 11
131.0
 21
177.0
 31
0.0
  0
LINE
  5
BE
330
1E
100
AcDbEntity
  8
0
100
AcDbLine
 10
131.0
 20
170.0
 30
0.0
 11
131.0
 21
46.0
 31
0.0
  0
LINE
  5
BF
330
1E
100
AcDbEntity
  8
0
100
AcDbLine
 10
159.0
 20
170.0
 30
0.0
 11
159.0
 21
177.0
 31
0.0
  0
LINE
  5
C0
330
1E
100
AcDbEntity
  8
0
100
AcDbLine
 10
159.0
 20
170.0
 30
0.0
 11
159.0
 21
46.0
 31
0.0
  0
LINE
  5
C1
330
1E
100
AcDbEntity
  8
0
100
AcDbLine
 10
158.5
 20
170.0
 30
0.0
 11
158.5
 21
177.0
 31
0.0
  0
LINE
  5
C2
330
1E
100
AcDbEntity
  8
0
100
AcDbLine
 10
158.5
 20
170.0
 30
0.0
 11
158.5
 21
46.0
 31
0.0
  0
LINE
  5
C3
330
1E
100
AcDbEntity
  8
0
100
AcDbLine
 10
251.0
 20
174.0
 30
0.0
 11
255.0
 21
174.0
 31
0.0
  0
LINE
  5
C4
330
1E
100
AcDbEntity
  8
0
100
AcDbLine
 10
251.0
 20
174.0
 30
0.0
 11
251.0
 21
204.6
 31
0.0
  0
LINE
  5
C5
330
1E
100
AcDbEntity
  8
0
100
AcDbLine
 10
251.0
 20
174.0
 30
0.0
 11
251.5
 21
174.5
 31
0.0
  0
LINE
  5
C6
330
1E
100
AcDbEntity
  8
0
100
AcDbLine
 10
259.0
 20
174.0
 30
0.0
 11
259.0
 21
204.6
 31
0.0
  0
LINE
  5
C7
330
1E
100
AcDbEntity
  8
0
100
AcDbLine
 10
255.0
 20
174.0
 30
0.0
 11
259.0
 21
174.0
 31
0.0
  0
LINE
  5
C8
330
1E
100
AcDbEntity
  8
0
100
AcDbLine
 10
131.5
 20
170.0
 30
0.0
 11
131.5
 21
177.0
 31
0.0
  0
LINE
  5
C9
330
1E
100
AcDbEntity
  8
0
100
AcDbLine
 10
131.5
 20
170.0
 30
0.0
 11
131.5
 21
46.0
 31
0.0
  0
LINE
  5
CA
330
1E
100
AcDbEntity
  8
0
100
AcDbLine
 10
251.5
 20
174.5
 30
0.0
 11
255.0
 21
174.5
 31
0.0
  0
LINE
  5
CB
330
1E
100
AcDbEntity
  8
0
100
AcDbLine
 10
251.5
 20
174.5
 30
0.0
 11
251.5
 21
205.2
 31
0.0
  0
LINE
  5
CC
330
1E
100
AcDbEntity
  8
0
100
AcDbLine
 10
258.5
 20
174.5
 30
0.0
 11
259.0
 21
174.0
 31
0.0
  0
LINE
  5
CD
330
1E
100
AcDbEntity
  8
0
100
AcDbLine
 10
258.5
 20
174.5
 30
0.0
 11
258.5
 21
205.2
 31
0.0
  0
LINE
  5
CE
330
1E
100
AcDbEntity
  8
0
100
AcDbLine
 10
255.0
 20
174.5
 30
0.0
 11
258.5
 21
174.5
 31
0.0
  0
LINE
  5
CF
330
1E
100
AcDbEntity
  8
0
100
AcDbLine
 10
38.5
 20
174.5
 30
0.0
 11
39.0
 21
174.0
 31
0.0
  0
LINE
  5
D0
330
1E
100
AcDbEntity
  8
0
100
AcDbLine
 10
38.5
 20
174.5
 30
0.0
 11
38.5
 21
205.2
 31
0.0
  0
LINE
  5
D1
330
1E
100
AcDbEntity
  8
0
100
AcDbLine
 10
39.0
 20
174.0
 30
0.0
 11
39.0
 21
204.6
 31
0.0
  0
LINE
  5
D2
330
1E
100
AcDbEntity
  8
0
100
AcDbLine
 10
35.0
 20
174.0
 30
0.0
 11
39.0
 21
174.0
 31
0.0
  0
LINE
  5
D3
330
1E
100
AcDbEntity
  8
0
100
AcDbLine
 10
39.0
 20
174.577777777778
 30
0.0
 11
44.0
 21
175.3
 31
0.0
  0
LINE
  5
D4
330
1E
100
AcDbEntity
  8
0
100
AcDbLine
 10
39.0
 20
175.039325842697
 30
0.0
 11
43.9
 21
175.7
 31
0.0
  0
LINE
  5
D5
330
1E
100
AcDbEntity
  8
0
100
AcDbLine
 10
246.0
 20
175.3
 30
0.0
 11
251.0
 21
174.577777777778
 31
0.0
  0
LINE
  5
D6
330
1E
100
AcDbEntity
  8
0
100
AcDbLine
 10
259.0
 20
174.577777777778
 30
0.0
 11
264.0
 21
175.3
 31
0.0
  0
LINE
  5
D7
330
1E
100
AcDbEntity
  8
0
100
AcDbLine
 10
264.0
 20
175.3
 30
0.0
 11
272.4
 21
178.7
 31
0.0
  0
LINE
  5
D8
330
1E
100
AcDbEntity
  8
0
100
AcDbLine
 10
259.0
 20
175.039325842697
 30
0.0
 11
263.9
 21
175.7
 31
0.0
  0
LINE
  5
D9
330
1E
100
AcDbEntity
  8
0
100
AcDbLine
 10
246.1
 20
175.7
 30
0.0
 11
251.0
 21
175.039325842697
 31
0.0
  0
LINE
  5
DA
330
1E
100
AcDbEntity
  8
0
100
AcDbLine
 10
263.9
 20
175.7
 30
0.0
 11
272.1
 21
179.1
 31
0.0
  0
LINE
  5
DB
330
1E
100
AcDbEntity
  8
0
100
AcDbLine
 10
44.0
 20
175.3
 30
0.0
 11
52.4
 21
178.7
 31
0.0
  0
LINE
  5
DC
330
1E
100
AcDbEntity
  8
0
100
AcDbLine
 10
43.9
 20
175.7
 30
0.0
 11
52.1
 21
179.1
 31
0.0
  0
LINE
  5
DD
330
1E
100
AcDbEntity
  8
0
100
AcDbLine
 10
31.5
 20
174.5
 30
0.0
 11
35.0
 21
174.5
 31
0.0
  0
LINE
  5
DE
330
1E
100
AcDbEntity
  8
0
100
AcDbLine
 10
31.5
 20
174.5
 30
0.0
 11
31.5
 21
205.2
 31
0.0
  0
LINE
  5
DF
330
1E
100
AcDbEntity
  8
0
100
AcDbLine
 10
31.0
 20
174.0
 30
0.0
 11
35.0
 21
174.0
 31
0.0
  0
LINE
  5
E0
330
1E
100
AcDbEntity
  8
0
100
AcDbLine
 10
31.0
 20
174.0
 30
0.0
 11
31.0
 21
204.6
 31
0.0
  0
LINE
  5
E1
330
1E
100
AcDbEntity
  8
0
100
AcDbLine
 10
31.0
 20
174.0
 30
0.0
 11
31.5
 21
174.5
 31
0.0
  0
LINE
  5
102
330
1E
100
AcDbEntity
  8
0
100
AcDbLine
 10
131.0
 20
177.0
 30
0.0
 11
131.0
 21
188.8
 31
0.0
  0
LINE
  5
103
330
1E
100
AcDbEntity
  8
0
100
AcDbLine
 10
131.0
 20
177.0
 30
0.0
 11
131.0
 21
181.8
 31
0.0
  0
LINE
  5
104
330
1E
100
AcDbEntity
  8
0
100
AcDbLine
 10
131.0
 20
177.0
 30
0.0
 11
131.0
 21
170.0
 31
0.0
  0
LINE
  5
105
330
1E
100
AcDbEntity
  8
0
100
AcDbLine
 10
131.0
 20
177.0
 30
0.0
 11
131.0
 21
170.0
 31
0.0
  0
LINE
  5
106
330
1E
100
AcDbEntity
  8
0
100
AcDbLine
 10
159.0
 20
177.0
 30
0.0
 11
159.0
 21
170.0
 31
0.0
  0
LINE
  5
107
330
1E
100
AcDbEntity
  8
0
100
AcDbLine
 10
159.0
 20
177.0
 30
0.0
 11
159.0
 21
188.8
 31
0.0
  0
LINE
  5
108
330
1E
100
AcDbEntity
  8
0
100
AcDbLine
 10
158.5
 20
177.0
 30
0.0
 11
158.5
 21
170.0
 31
0.0
  0
LINE
  5
109
330
1E
100
AcDbEntity
  8
0
100
AcDbLine
 10
158.5
 20
177.0
 30
0.0
 11
158.5
 21
188.9
 31
0.0
  0
LINE
  5
10A
330
1E
100
AcDbEntity
  8
0
100
AcDbLine
 10
159.0
 20
177.814634146341
 30
0.0
 11
162.1
 21
179.1
 31
0.0
  0
LINE
  5
10B
330
1E
100
AcDbEntity
  8
0
100
AcDbLine
 10
159.0
 20
177.32380952381
 30
0.0
 11
162.4
 21
178.7
 31
0.0
  0
LINE
  5
10C
330
1E
100
AcDbEntity
  8
0
100
AcDbLine
 10
131.5
 20
177.0
 30
0.0
 11
131.5
 21
188.9
 31
0.0
  0
LINE
  5
10D
330
1E
100
AcDbEntity
  8
0
100
AcDbLine
 10
131.5
 20
177.0
 30
0.0
 11
131.5
 21
170.0
 31
0.0
  0
LINE
  5
10E
330
1E
100
AcDbEntity
  8
0
100
AcDbLine
 10
162.4
 20
178.7
 30
0.0
 11
169.7
 21
184.3
 31
0.0
  0
LINE
  5
10F
330
1E
100
AcDbEntity
  8
0
100
AcDbLine
 10
127.6
 20
178.7
 30
0.0
 11
131.0
 21
177.32380952381
 31
0.0
  0
LINE
  5
110
330
1E
100
AcDbEntity
  8
0
100
AcDbLine
 10
162.1
 20
179.1
 30
0.0
 11
169.4
 21
184.6
 31
0.0
  0
LINE
  5
111
330
1E
100
AcDbEntity
  8
0
100
AcDbLine
 10
127.9
 20
179.1
 30
0.0
 11
131.0
 21
177.814634146341
 31
0.0
  0
LINE
  5
112
330
1E
100
AcDbEntity
  8
0
100
AcDbLine
 10
237.9
 20
179.1
 30
0.0
 11
246.1
 21
175.7
 31
0.0
  0
LINE
  5
113
330
1E
100
AcDbEntity
  8
0
100
AcDbLine
 10
237.6
 20
178.7
 30
0.0
 11
246.0
 21
175.3
 31
0.0
  0
LINE
  5
114
330
1E
100
AcDbEntity
  8
0
100
AcDbLine
 10
272.4
 20
178.7
 30
0.0
 11
279.7
 21
184.3
 31
0.0
  0
LINE
  5
115
330
1E
100
AcDbEntity
  8
0
100
AcDbLine
 10
272.1
 20
179.1
 30
0.0
 11
279.4
 21
184.6
 31
0.0
  0
LINE
  5
116
330
1E
100
AcDbEntity
  8
0
100
AcDbLine
 10
52.4
 20
178.7
 30
0.0
 11
59.7
 21
184.3
 31
0.0
  0
LINE
  5
117
330
1E
100
AcDbEntity
  8
0
100
AcDbLine
 10
52.1
 20
179.1
 30
0.0
 11
59.4
 21
184.6
 31
0.0
  0
LINE
  5
118
330
1E
100
AcDbEntity
  8
0
100
AcDbLine
 10
17.6
 20
178.7
 30
0.0
 11
26.0
 21
175.3
 31
0.0
  0
LINE
  5
119
330
1E
100
AcDbEntity
  8
0
100
AcDbLine
 10
120.3
 20
184.3
 30
0.0
 11
127.6
 21
178.7
 31
0.0
  0
LINE
  5
11A
330
1E
100
AcDbEntity
  8
0
100
AcDbLine
 10
59.7
 20
184.3
 30
0.0
 11
65.3
 21
191.6
 31
0.0
  0
LINE
  5
11B
330
1E
100
AcDbEntity
  8
0
100
AcDbLine
 10
10.3
 20
184.3
 30
0.0
 11
17.6
 21
178.7
 31
0.0
  0
LINE
  5
11C
330
1E
100
AcDbEntity
  8
0
100
AcDbLine
 10
169.7
 20
184.3
 30
0.0
 11
175.3
 21
191.6
 31
0.0
  0
LINE
  5
11D
330
1E
100
AcDbEntity
  8
0
100
AcDbLine
 10
230.3
 20
184.3
 30
0.0
 11
237.6
 21
178.7
 31
0.0
  0
LINE
  5
11E
330
1E
100
AcDbEntity
  8
0
100
AcDbLine
 10
279.7
 20
184.3
 30
0.0
 11
285.3
 21
191.6
 31
0.0
  0
LINE
  5
11F
330
1E
100
AcDbEntity
  8
0
100
AcDbLine
 10
131.0
 20
181.8
 30
0.0
 11
131.0
 21
186.2
 31
0.0
  0
LINE
  5
120
330
1E
100
AcDbEntity
  8
0
100
AcDbLine
 10
131.0
 20
181.8
 30
0.0
 11
131.0
 21
177.0
 31
0.0
  0
LINE
  5
121
330
1E
100
AcDbEntity
  8
0
100
AcDbLine
 10
17.9
 20
179.1
 30
0.0
 11
26.1
 21
175.7
 31
0.0
  0
LINE
  5
140
330
1E
100
AcDbEntity
  8
0
100
AcDbLine
 10
169.4
 20
184.6
 30
0.0
 11
174.9
 21
191.9
 31
0.0
  0
LINE
  5
141
330
1E
100
AcDbEntity
  8
0
100
AcDbLine
 10
120.6
 20
184.6
 30
0.0
 11
127.9
 21
179.1
 31
0.0
  0
LINE
  5
142
330
1E
100
AcDbEntity
  8
0
100
AcDbLine
 10
230.6
 20
184.6
 30
0.0
 11
237.9
 21
179.1
 31
0.0
  0
LINE
  5
143
330
1E
100
AcDbEntity
  8
0
100
AcDbLine
 10
279.4
 20
184.6
 30
0.0
 11
284.9
 21
191.9
 31
0.0
  0
LINE
  5
144
330
1E
100
AcDbEntity
  8
0
100
AcDbLine
 10
59.4
 20
184.6
 30
0.0
 11
64.9
 21
191.9
 31
0.0
  0
LINE
  5
145
330
1E
100
AcDbEntity
  8
0
100
AcDbLine
 10
10.6
 20
184.6
 30
0.0
 11
17.9
 21
179.1
 31
0.0
  0
LINE
  5
14D
330
1E
100
AcDbEntity
  8
0
100
AcDbLine
 10
4.7
 20
191.6
 30
0.0
 11
10.3
 21
184.3
 31
0.0
  0
LINE
  5
14E
330
1E
100
AcDbEntity
  8
0
100
AcDbLine
 10
1.7
 20
200.1
 30
0.0
 11
5.1
 21
191.9
 31
0.0
  0
LINE
  5
14F
330
1E
100
AcDbEntity
  8
0
100
AcDbLine
 10
1.3
 20
200.0
 30
0.0
 11
4.7
 21
191.6
 31
0.0
  0
LINE
  5
150
330
1E
100
AcDbEntity
  8
0
100
AcDbLine
 10
5.1
 20
191.9
 30
0.0
 11
10.6
 21
184.6
 31
0.0
  0
LINE
  5
151
330
1E
100
AcDbEntity
  8
0
100
AcDbLine
 10
0.577777777778
 20
205.0
 30
0.0
 11
1.3
 21
200.0
 31
0.0
  0
LINE
  5
152
330
1E
100
AcDbEntity
  8
0
100
AcDbLine
 10
1.7
 20
200.1
 30
0.0
 11
5.1
 21
191.9
 31
0.0
  0
LINE
  5
153
330
1E
100
AcDbEntity
  8
0
100
AcDbLine
 10
30.5
 20
192.1
 30
0.0
 11
31.0
 21
192.033333333333
 31
0.0
  0
LINE
  5
154
330
1E
100
AcDbEntity
  8
0
100
AcDbLine
 10
30.4
 20
191.7
 30
0.0
 11
31.0
 21
191.608695652174
 31
0.0
  0
LINE
  5
155
330
1E
100
AcDbEntity
  8
0
100
AcDbLine
 10
26.3
 20
193.8
 30
0.0
 11
30.5
 21
192.1
 31
0.0
  0
LINE
  5
156
330
1E
100
AcDbEntity
  8
0
100
AcDbLine
 10
22.6
 20
196.6
 30
0.0
 11
26.3
 21
193.8
 31
0.0
  0
LINE
  5
157
330
1E
100
AcDbEntity
  8
0
100
AcDbLine
 10
26.1
 20
193.4
 30
0.0
 11
30.4
 21
191.7
 31
0.0
  0
LINE
  5
158
330
1E
100
AcDbEntity
  8
0
100
AcDbLine
 10
22.3
 20
196.3
 30
0.0
 11
26.1
 21
193.4
 31
0.0
  0
LINE
  5
159
330
1E
100
AcDbEntity
  8
0
100
AcDbLine
 10
19.8
 20
200.3
 30
0.0
 11
22.6
 21
196.6
 31
0.0
  0
LINE
  5
15A
330
1E
100
AcDbEntity
  8
0
100
AcDbLine
 10
18.1
 20
204.5
 30
0.0
 11
19.8
 21
200.3
 31
0.0
  0
LINE
  5
15B
330
1E
100
AcDbEntity
  8
0
100
AcDbLine
 10
18.033333333333
 20
205.0
 30
0.0
 11
18.1
 21
204.5
 31
0.0
  0
LINE
  5
15C
330
1E
100
AcDbEntity
  8
0
100
AcDbLine
 10
17.7
 20
204.4
 30
0.0
 11
19.4
 21
200.1
 31
0.0
  0
LINE
  5
15D
330
1E
100
AcDbEntity
  8
0
100
AcDbLine
 10
19.4
 20
200.1
 30
0.0
 11
22.3
 21
196.3
 31
0.0
  0
LINE
  5
15E
330
1E
100
AcDbEntity
  8
0
100
AcDbLine
 10
17.608695652174
 20
205.0
 30
0.0
 11
17.7
 21
204.4
 31
0.0
  0
LINE
  5
15F
330
1E
100
AcDbEntity
  8
0
100
AcDbLine
 10
1.039325842697
 20
205.0
 30
0.0
 11
1.7
 21
200.1
 31
0.0
  0
LINE
  5
160
330
1E
100
AcDbEntity
  8
0
100
AcDbLine
 10
39.0
 20
192.033333333333
 30
0.0
 11
39.5
 21
192.1
 31
0.0
  0
LINE
  5
161
330
1E
100
AcDbEntity
  8
0
100
AcDbLine
 10
39.0
 20
191.608695652174
 30
0.0
 11
39.6
 21
191.7
 31
0.0
  0
LINE
  5
162
330
1E
100
AcDbEntity
  8
0
100
AcDbLine
 10
39.5
 20
192.1
 30
0.0
 11
43.7
 21
193.8
 31
0.0
  0
LINE
  5
163
330
1E
100
AcDbEntity
  8
0
100
AcDbLine
 10
39.6
 20
191.7
 30
0.0
 11
43.9
 21
193.4
 31
0.0
  0
LINE
  5
164
330
1E
100
AcDbEntity
  8
0
100
AcDbLine
 10
127.4
 20
191.4
 30
0.0
 11
131.0
 21
188.8
 31
0.0
  0
LINE
  5
166
330
1E
100
AcDbEntity
  8
0
100
AcDbLine
 10
114.7
 20
191.6
 30
0.0
 11
120.3
 21
184.3
 31
0.0
  0
LINE
  5
167
330
1E
100
AcDbEntity
  8
0
100
AcDbLine
 10
127.7
 20
191.7
 30
0.0
 11
131.0
 21
189.176470588235
 31
0.0
  0
LINE
  5
168
330
1E
100
AcDbEntity
  8
0
100
AcDbLine
 10
115.1
 20
191.9
 30
0.0
 11
120.6
 21
184.6
 31
0.0
  0
LINE
  5
169
330
1E
100
AcDbEntity
  8
0
100
AcDbLine
 10
65.3
 20
191.6
 30
0.0
 11
68.7
 21
200.0
 31
0.0
  0
LINE
  5
16A
330
1E
100
AcDbEntity
  8
0
100
AcDbLine
 10
64.9
 20
191.9
 30
0.0
 11
68.3
 21
200.1
 31
0.0
  0
LINE
  5
16B
330
1E
100
AcDbEntity
  8
0
100
AcDbLine
 10
131.0
 20
186.2
 30
0.0
 11
131.0
 21
190.1
 31
0.0
  0
LINE
  5
16C
330
1E
100
AcDbEntity
  8
0
100
AcDbLine
 10
131.0
 20
186.2
 30
0.0
 11
131.0
 21
181.8
 31
0.0
  0
LINE
  5
16D
330
1E
100
AcDbEntity
  8
0
100
AcDbLine
 10
131.0
 20
190.1
 30
0.0
 11
131.0
 21
193.1
 31
0.0
  0
LINE
  5
16E
330
1E
100
AcDbEntity
  8
0
100
AcDbLine
 10
131.0
 20
190.1
 30
0.0
 11
131.0
 21
186.2
 31
0.0
  0
LINE
  5
16F
330
1E
100
AcDbEntity
  8
0
100
AcDbLine
 10
43.7
 20
193.8
 30
0.0
 11
47.4
 21
196.6
 31
0.0
  0
LINE
  5
170
330
1E
100
AcDbEntity
  8
0
100
AcDbLine
 10
43.9
 20
193.4
 30
0.0
 11
47.7
 21
196.3
 31
0.0
  0
LINE
  5
171
330
1E
100
AcDbEntity
  8
0
100
AcDbLine
 10
131.0
 20
193.1
 30
0.0
 11
131.0
 21
194.9
 31
0.0
  0
LINE
  5
172
330
1E
100
AcDbEntity
  8
0
100
AcDbLine
 10
131.0
 20
193.1
 30
0.0
 11
131.0
 21
190.1
 31
0.0
  0
LINE
  5
173
330
1E
100
AcDbEntity
  8
0
100
AcDbLine
 10
131.0
 20
194.9
 30
0.0
 11
131.0
 21
195.5
 31
0.0
  0
LINE
  5
174
330
1E
100
AcDbEntity
  8
0
100
AcDbLine
 10
131.0
 20
194.9
 30
0.0
 11
131.0
 21
193.1
 31
0.0
  0
LINE
  5
175
330
1E
100
AcDbEntity
  8
0
100
AcDbLine
 10
47.4
 20
196.6
 30
0.0
 11
50.2
 21
200.3
 31
0.0
  0
LINE
  5
176
330
1E
100
AcDbEntity
  8
0
100
AcDbLine
 10
123.8
 20
196.8
 30
0.0
 11
127.7
 21
191.7
 31
0.0
  0
LINE
  5
177
330
1E
100
AcDbEntity
  8
0
100
AcDbLine
 10
123.3
 20
196.6
 30
0.0
 11
127.4
 21
191.4
 31
0.0
  0
LINE
  5
178
330
1E
100
AcDbEntity
  8
0
100
AcDbLine
 10
123.3
 20
196.6
 30
0.0
 11
127.4
 21
191.4
 31
0.0
  0
LINE
  5
179
330
1E
100
AcDbEntity
  8
0
100
AcDbLine
 10
47.7
 20
196.3
 30
0.0
 11
50.6
 21
200.1
 31
0.0
  0
LINE
  5
17A
330
1E
100
AcDbEntity
  8
0
100
AcDbLine
 10
131.0
 20
195.5
 30
0.0
 11
131.0
 21
222.5
 31
0.0
  0
LINE
  5
17B
330
1E
100
AcDbEntity
  8
0
100
AcDbLine
 10
131.0
 20
195.5
 30
0.0
 11
131.0
 21
194.9
 31
0.0
  0
LINE
  5
17C
330
1E
100
AcDbEntity
  8
0
100
AcDbLine
 10
131.0
 20
188.8
 30
0.0
 11
131.0
 21
199.7
 31
0.0
  0
LINE
  5
17D
330
1E
100
AcDbEntity
  8
0
100
AcDbLine
 10
131.0
 20
188.8
 30
0.0
 11
131.0
 21
177.0
 31
0.0
  0
LINE
  5
17E
330
1E
100
AcDbEntity
  8
0
100
AcDbLine
 10
131.0
 20
199.7
 30
0.0
 11
131.0
 21
209.1
 31
0.0
  0
LINE
  5
17F
330
1E
100
AcDbEntity
  8
0
100
AcDbLine
 10
131.0
 20
199.7
 30
0.0
 11
131.0
 21
188.8
 31
0.0
  0
LINE
  5
180
330
1E
100
AcDbEntity
  8
0
100
AcDbLine
 10
159.0
 20
188.8
 30
0.0
 11
159.0
 21
177.0
 31
0.0
  0
LINE
  5
181
330
1E
100
AcDbEntity
  8
0
100
AcDbLine
 10
159.0
 20
188.8
 30
0.0
 11
159.0
 21
199.7
 31
0.0
  0
LINE
  5
182
330
1E
100
AcDbEntity
  8
0
100
AcDbLine
 10
158.5
 20
188.9
 30
0.0
 11
158.5
 21
177.0
 31
0.0
  0
LINE
  5
183
330
1E
100
AcDbEntity
  8
0
100
AcDbLine
 10
158.5
 20
188.9
 30
0.0
 11
158.5
 21
199.9
 31
0.0
  0
LINE
  5
184
330
1E
100
AcDbEntity
  8
0
100
AcDbLine
 10
159.0
 20
189.176470588235
 30
0.0
 11
162.3
 21
191.7
 31
0.0
  0
LINE
  5
185
330
1E
100
AcDbEntity
  8
0
100
AcDbLine
 10
159.0
 20
188.8
 30
0.0
 11
162.6
 21
191.4
 31
0.0
  0
LINE
  5
186
330
1E
100
AcDbEntity
  8
0
100
AcDbLine
 10
175.3
 20
191.6
 30
0.0
 11
178.7
 21
200.0
 31
0.0
  0
LINE
  5
187
330
1E
100
AcDbEntity
  8
0
100
AcDbLine
 10
162.6
 20
191.4
 30
0.0
 11
166.7
 21
196.6
 31
0.0
  0
LINE
  5
188
330
1E
100
AcDbEntity
  8
0
100
AcDbLine
 10
162.6
 20
191.4
 30
0.0
 11
166.7
 21
196.6
 31
0.0
  0
LINE
  5
189
330
1E
100
AcDbEntity
  8
0
100
AcDbLine
 10
174.9
 20
191.9
 30
0.0
 11
178.3
 21
200.1
 31
0.0
  0
LINE
  5
18B
330
1E
100
AcDbEntity
  8
0
100
AcDbLine
 10
162.3
 20
191.7
 30
0.0
 11
166.2
 21
196.8
 31
0.0
  0
LINE
  5
18C
330
1E
100
AcDbEntity
  8
0
100
AcDbLine
 10
259.0
 20
191.608695652174
 30
0.0
 11
259.6
 21
191.7
 31
0.0
  0
LINE
  5
18D
330
1E
100
AcDbEntity
  8
0
100
AcDbLine
 10
259.6
 20
191.7
 30
0.0
 11
263.9
 21
193.4
 31
0.0
  0
LINE
  5
18E
330
1E
100
AcDbEntity
  8
0
100
AcDbLine
 10
250.4
 20
191.7
 30
0.0
 11
251.0
 21
191.608695652174
 31
0.0
  0
LINE
  5
18F
330
1E
100
AcDbEntity
  8
0
100
AcDbLine
 10
225.1
 20
191.9
 30
0.0
 11
230.6
 21
184.6
 31
0.0
  0
LINE
  5
190
330
1E
100
AcDbEntity
  8
0
100
AcDbLine
 10
224.7
 20
191.6
 30
0.0
 11
230.3
 21
184.3
 31
0.0
  0
LINE
  5
191
330
1E
100
AcDbEntity
  8
0
100
AcDbLine
 10
285.3
 20
191.6
 30
0.0
 11
288.7
 21
200.0
 31
0.0
  0
LINE
  5
192
330
1E
100
AcDbEntity
  8
0
100
AcDbLine
 10
259.0
 20
192.033333333333
 30
0.0
 11
259.5
 21
192.1
 31
0.0
  0
LINE
  5
193
330
1E
100
AcDbEntity
  8
0
100
AcDbLine
 10
259.5
 20
192.1
 30
0.0
 11
263.7
 21
193.8
 31
0.0
  0
LINE
  5
194
330
1E
100
AcDbEntity
  8
0
100
AcDbLine
 10
263.7
 20
193.8
 30
0.0
 11
267.4
 21
196.6
 31
0.0
  0
LINE
  5
195
330
1E
100
AcDbEntity
  8
0
100
AcDbLine
 10
250.5
 20
192.1
 30
0.0
 11
251.0
 21
192.033333333333
 31
0.0
  0
LINE
  5
196
330
1E
100
AcDbEntity
  8
0
100
AcDbLine
 10
246.3
 20
193.8
 30
0.0
 11
250.5
 21
192.1
 31
0.0
  0
LINE
  5
197
330
1E
100
AcDbEntity
  8
0
100
AcDbLine
 10
246.1
 20
193.4
 30
0.0
 11
250.4
 21
191.7
 31
0.0
  0
LINE
  5
198
330
1E
100
AcDbEntity
  8
0
100
AcDbLine
 10
159.0
 20
199.7
 30
0.0
 11
159.0
 21
188.8
 31
0.0
  0
LINE
  5
199
330
1E
100
AcDbEntity
  8
0
100
AcDbLine
 10
159.0
 20
199.7
 30
0.0
 11
159.0
 21
209.1
 31
0.0
  0
LINE
  5
19A
330
1E
100
AcDbEntity
  8
0
100
AcDbLine
 10
158.5
 20
199.9
 30
0.0
 11
158.5
 21
188.9
 31
0.0
  0
LINE
  5
19B
330
1E
100
AcDbEntity
  8
0
100
AcDbLine
 10
158.5
 20
199.9
 30
0.0
 11
158.5
 21
209.5
 31
0.0
  0
LINE
  5
19C
330
1E
100
AcDbEntity
  8
0
100
AcDbLine
 10
166.2
 20
196.8
 30
0.0
 11
168.6
 21
202.7
 31
0.0
  0
LINE
  5
19D
330
1E
100
AcDbEntity
  8
0
100
AcDbLine
 10
166.7
 20
196.6
 30
0.0
 11
169.1
 21
202.6
 31
0.0
  0
LINE
  5
19E
330
1E
100
AcDbEntity
  8
0
100
AcDbLine
 10
242.6
 20
196.6
 30
0.0
 11
246.3
 21
193.8
 31
0.0
  0
LINE
  5
19F
330
1E
100
AcDbEntity
  8
0
100
AcDbLine
 10
242.3
 20
196.3
 30
0.0
 11
246.1
 21
193.4
 31
0.0
  0
LINE
  5
1A0
330
1E
100
AcDbEntity
  8
0
100
AcDbLine
 10
267.4
 20
196.6
 30
0.0
 11
270.2
 21
200.3
 31
0.0
  0
LINE
  5
1A1
330
1E
100
AcDbEntity
  8
0
100
AcDbLine
 10
267.7
 20
196.3
 30
0.0
 11
270.6
 21
200.1
 31
0.0
  0
LINE
  5
1A2
330
1E
100
AcDbEntity
  8
0
100
AcDbLine
 10
263.9
 20
193.4
 30
0.0
 11
267.7
 21
196.3
 31
0.0
  0
LINE
  5
1A3
330
1E
100
AcDbEntity
  8
0
100
AcDbLine
 10
284.9
 20
191.9
 30
0.0
 11
288.3
 21
200.1
 31
0.0
  0
LINE
  5
1A4
330
1E
100
AcDbEntity
  8
0
100
AcDbLine
 10
131.5
 20
188.9
 30
0.0
 11
131.5
 21
199.9
 31
0.0
  0
LINE
  5
1A5
330
1E
100
AcDbEntity
  8
0
100
AcDbLine
 10
131.5
 20
188.9
 30
0.0
 11
131.5
 21
177.0
 31
0.0
  0
LINE
  5
1A6
330
1E
100
AcDbEntity
  8
0
100
AcDbLine
 10
50.2
 20
200.3
 30
0.0
 11
51.9
 21
204.5
 31
0.0
  0
LINE
  5
1A7
330
1E
100
AcDbEntity
  8
0
100
AcDbLine
 10
50.6
 20
200.1
 30
0.0
 11
52.3
 21
204.4
 31
0.0
  0
LINE
  5
1A8
330
1E
100
AcDbEntity
  8
0
100
AcDbLine
 10
51.9
 20
204.5
 30
0.0
 11
51.966666666667
 21
205.0
 31
0.0
  0
LINE
  5
1A9
330
1E
100
AcDbEntity
  8
0
100
AcDbLine
 10
52.3
 20
204.4
 30
0.0
 11
52.391304347826
 21
205.0
 31
0.0
  0
LINE
  5
1AA
330
1E
100
AcDbEntity
  8
0
100
AcDbLine
 10
178.7
 20
200.0
 30
0.0
 11
180.0
 21
209.0
 31
0.0
  0
LINE
  5
1AB
330
1E
100
AcDbEntity
  8
0
100
AcDbLine
 10
111.3
 20
200.0
 30
0.0
 11
114.7
 21
191.6
 31
0.0
  0
LINE
  5
1AC
330
1E
100
AcDbEntity
  8
0
100
AcDbLine
 10
221.3
 20
200.0
 30
0.0
 11
224.7
 21
191.6
 31
0.0
  0
LINE
  5
1AD
330
1E
100
AcDbEntity
  8
0
100
AcDbLine
 10
288.7
 20
200.0
 30
0.0
 11
289.422222222222
 21
205.0
 31
0.0
  0
LINE
  5
1AE
330
1E
100
AcDbEntity
  8
0
100
AcDbLine
 10
178.3
 20
200.1
 30
0.0
 11
179.5
 21
209.0
 31
0.0
  0
LINE
  5
1AF
330
1E
100
AcDbEntity
  8
0
100
AcDbLine
 10
111.7
 20
200.1
 30
0.0
 11
115.1
 21
191.9
 31
0.0
  0
LINE
  5
1B0
330
1E
100
AcDbEntity
  8
0
100
AcDbLine
 10
270.6
 20
200.1
 30
0.0
 11
272.3
 21
204.4
 31
0.0
  0
LINE
  5
1B1
330
1E
100
AcDbEntity
  8
0
100
AcDbLine
 10
239.4
 20
200.1
 30
0.0
 11
242.3
 21
196.3
 31
0.0
  0
LINE
  5
1B2
330
1E
100
AcDbEntity
  8
0
100
AcDbLine
 10
169.1
 20
202.6
 30
0.0
 11
170.0
 21
209.0
 31
0.0
  0
LINE
  5
1B3
330
1E
100
AcDbEntity
  8
0
100
AcDbLine
 10
168.6
 20
202.7
 30
0.0
 11
169.5
 21
209.0
 31
0.0
  0
LINE
  5
1B4
330
1E
100
AcDbEntity
  8
0
100
AcDbLine
 10
121.4
 20
202.7
 30
0.0
 11
123.8
 21
196.8
 31
0.0
  0
LINE
  5
1B5
330
1E
100
AcDbEntity
  8
0
100
AcDbLine
 10
120.9
 20
202.6
 30
0.0
 11
123.3
 21
196.6
 31
0.0
  0
LINE
  5
1B6
330
1E
100
AcDbEntity
  8
0
100
AcDbLine
 10
270.2
 20
200.3
 30
0.0
 11
271.9
 21
204.5
 31
0.0
  0
LINE
  5
1B7
330
1E
100
AcDbEntity
  8
0
100
AcDbLine
 10
271.9
 20
204.5
 30
0.0
 11
271.966666666667
 21
205.0
 31
0.0
  0
LINE
  5
1B8
330
1E
100
AcDbEntity
  8
0
100
AcDbLine
 10
239.8
 20
200.3
 30
0.0
 11
242.6
 21
196.6
 31
0.0
  0
LINE
  5
1B9
330
1E
100
AcDbEntity
  8
0
100
AcDbLine
 10
251.0
 20
204.6
 30
0.0
 11
251.0
 21
174.0
 31
0.0
  0
LINE
  5
1BA
330
1E
100
AcDbEntity
  8
0
100
AcDbLine
 10
251.0
 20
204.6
 30
0.0
 11
251.5
 21
205.2
 31
0.0
  0
LINE
  5
1BB
330
1E
100
AcDbEntity
  8
0
100
AcDbLine
 10
259.0
 20
204.6
 30
0.0
 11
259.2
 21
204.8
 31
0.0
  0
LINE
  5
1BC
330
1E
100
AcDbEntity
  8
0
100
AcDbLine
 10
259.0
 20
204.6
 30
0.0
 11
259.0
 21
174.0
 31
0.0
  0
LINE
  5
1BD
330
1E
100
AcDbEntity
  8
0
100
AcDbLine
 10
238.1
 20
204.5
 30
0.0
 11
239.8
 21
200.3
 31
0.0
  0
LINE
  5
1BE
330
1E
100
AcDbEntity
  8
0
100
AcDbLine
 10
237.7
 20
204.4
 30
0.0
 11
239.4
 21
200.1
 31
0.0
  0
LINE
  5
1BF
330
1E
100
AcDbEntity
  8
0
100
AcDbLine
 10
221.7
 20
200.1
 30
0.0
 11
225.1
 21
191.9
 31
0.0
  0
LINE
  5
1C0
330
1E
100
AcDbEntity
  8
0
100
AcDbLine
 10
288.3
 20
200.1
 30
0.0
 11
288.960674157303
 21
205.0
 31
0.0
  0
LINE
  5
1C1
330
1E
100
AcDbEntity
  8
0
100
AcDbLine
 10
272.3
 20
204.4
 30
0.0
 11
272.391304347826
 21
205.0
 31
0.0
  0
LINE
  5
1C2
330
1E
100
AcDbEntity
  8
0
100
AcDbLine
 10
68.7
 20
200.0
 30
0.0
 11
69.422222222222
 21
205.0
 31
0.0
  0
LINE
  5
1C3
330
1E
100
AcDbEntity
  8
0
100
AcDbLine
 10
68.3
 20
200.1
 30
0.0
 11
68.960674157303
 21
205.0
 31
0.0
  0
LINE
  5
1C4
330
1E
100
AcDbEntity
  8
0
100
AcDbLine
 10
131.5
 20
199.9
 30
0.0
 11
131.5
 21
209.5
 31
0.0
  0
LINE
  5
1C5
330
1E
100
AcDbEntity
  8
0
100
AcDbLine
 10
131.5
 20
199.9
 30
0.0
 11
131.5
 21
188.9
 31
0.0
  0
LINE
  5
1C6
330
1E
100
AcDbEntity
  8
0
100
AcDbLine
 10
39.0
 20
204.6
 30
0.0
 11
39.2
 21
204.8
 31
0.0
  0
LINE
  5
1C7
330
1E
100
AcDbEntity
  8
0
100
AcDbLine
 10
39.0
 20
204.6
 30
0.0
 11
39.0
 21
174.0
 31
0.0
  0
LINE
  5
1C8
330
1E
100
AcDbEntity
  8
0
100
AcDbLine
 10
39.2
 20
204.8
 30
0.0
 11
39.4
 21
205.0
 31
0.0
  0
LINE
  5
1C9
330
1E
100
AcDbEntity
  8
0
100
AcDbLine
 10
39.2
 20
204.8
 30
0.0
 11
39.4
 21
205.0
 31
0.0
  0
LINE
  5
1CA
330
1E
100
AcDbEntity
  8
0
100
AcDbLine
 10
220.0
 20
205.0
 30
0.0
 11
220.0
 21
209.0
 31
0.0
  0
LINE
  5
1CB
330
1E
100
AcDbEntity
  8
0
100
AcDbLine
 10
220.0
 20
205.0
 30
0.0
 11
250.6
 21
205.0
 31
0.0
  0
LINE
  5
1CC
330
1E
100
AcDbEntity
  8
0
100
AcDbLine
 10
250.8
 20
204.8
 30
0.0
 11
251.0
 21
204.6
 31
0.0
  0
LINE
  5
1CD
330
1E
100
AcDbEntity
  8
0
100
AcDbLine
 10
250.6
 20
205.0
 30
0.0
 11
250.8
 21
204.8
 31
0.0
  0
LINE
  5
1CE
330
1E
100
AcDbEntity
  8
0
100
AcDbLine
 10
259.2
 20
204.8
 30
0.0
 11
259.4
 21
205.0
 31
0.0
  0
LINE
  5
1CF
330
1E
100
AcDbEntity
  8
0
100
AcDbLine
 10
259.2
 20
204.8
 30
0.0
 11
259.4
 21
205.0
 31
0.0
  0
LINE
  5
1D0
330
1E
100
AcDbEntity
  8
0
100
AcDbLine
 10
259.4
 20
205.0
 30
0.0
 11
290.0
 21
205.0
 31
0.0
  0
LINE
  5
1D1
330
1E
100
AcDbEntity
  8
0
100
AcDbLine
 10
238.033333333333
 20
205.0
 30
0.0
 11
238.1
 21
204.5
 31
0.0
  0
LINE
  5
1D2
330
1E
100
AcDbEntity
  8
0
100
AcDbLine
 10
237.608695652174
 20
205.0
 30
0.0
 11
237.7
 21
204.4
 31
0.0
  0
LINE
  5
1D3
330
1E
100
AcDbEntity
  8
0
100
AcDbLine
 10
221.039325842697
 20
205.0
 30
0.0
 11
221.7
 21
200.1
 31
0.0
  0
LINE
  5
1D4
330
1E
100
AcDbEntity
  8
0
100
AcDbLine
 10
220.577777777778
 20
205.0
 30
0.0
 11
221.3
 21
200.0
 31
0.0
  0
LINE
  5
1D5
330
1E
100
AcDbEntity
  8
0
100
AcDbLine
 10
39.4
 20
205.0
 30
0.0
 11
70.0
 21
205.0
 31
0.0
  0
LINE
  5
1D6
330
1E
100
AcDbEntity
  8
0
100
AcDbLine
 10
31.0
 20
204.6
 30
0.0
 11
31.0
 21
174.0
 31
0.0
  0
LINE
  5
1D7
330
1E
100
AcDbEntity
  8
0
100
AcDbLine
 10
31.0
 20
204.6
 30
0.0
 11
31.5
 21
205.2
 31
0.0
  0
LINE
  5
1D8
330
1E
100
AcDbEntity
  8
0
100
AcDbLine
 10
30.8
 20
204.8
 30
0.0
 11
31.0
 21
204.6
 31
0.0
  0
LINE
  5
1D9
330
1E
100
AcDbEntity
  8
0
100
AcDbLine
 10
30.6
 20
205.0
 30
0.0
 11
30.8
 21
204.8
 31
0.0
  0
LINE
  5
1DA
330
1E
100
AcDbEntity
  8
0
100
AcDbLine
 10
0.0
 20
205.0
 30
0.0
 11
30.6
 21
205.0
 31
0.0
  0
LINE
  5
1DB
330
1E
100
AcDbEntity
  8
0
100
AcDbLine
 10
0.0
 20
205.0
 30
0.0
 11
30.6
 21
205.0
 31
0.0
  0
LINE
  5
1DC
330
1E
100
AcDbEntity
  8
0
100
AcDbLine
 10
0.0
 20
213.0
 30
0.0
 11
30.6
 21
213.0
 31
0.0
  0
LINE
  5
1DD
330
1E
100
AcDbEntity
  8
0
100
AcDbLine
 10
0.0
 20
213.0
 30
0.0
 11
0.0
 21
209.0
 31
0.0
  0
LINE
  5
1DE
330
1E
100
AcDbEntity
  8
0
100
AcDbLine
 10
0.0
 20
213.0
 30
0.0
 11
30.6
 21
213.0
 31
0.0
  0
LINE
  5
1DF
330
1E
100
AcDbEntity
  8
0
100
AcDbLine
 10
0.0
 20
213.0
 30
0.0
 11
0.5
 21
212.5
 31
0.0
  0
LINE
  5
1E0
330
1E
100
AcDbEntity
  8
0
100
AcDbLine
 10
0.0
 20
205.0
 30
0.0
 11
0.0
 21
209.0
 31
0.0
  0
LINE
  5
1E1
330
1E
100
AcDbEntity
  8
0
100
AcDbLine
 10
0.0
 20
205.0
 30
0.0
 11
0.5
 21
205.5
 31
0.0
  0
LINE
  5
1E2
330
1E
100
AcDbEntity
  8
0
100
AcDbLine
 10
0.0
 20
205.0
 30
0.0
 11
30.6
 21
205.0
 31
0.0
  0
LINE
  5
1E3
330
1E
100
AcDbEntity
  8
0
100
AcDbLine
 10
39.4
 20
205.0
 30
0.0
 11
70.0
 21
205.0
 31
0.0
  0
LINE
  5
1E4
330
1E
100
AcDbEntity
  8
0
100
AcDbLine
 10
250.6
 20
205.0
 30
0.0
 11
250.8
 21
204.8
 31
0.0
  0
LINE
  5
1E5
330
1E
100
AcDbEntity
  8
0
100
AcDbLine
 10
250.6
 20
205.0
 30
0.0
 11
251.2
 21
205.5
 31
0.0
  0
LINE
  5
1E6
330
1E
100
AcDbEntity
  8
0
100
AcDbLine
 10
220.0
 20
205.0
 30
0.0
 11
220.0
 21
209.0
 31
0.0
  0
LINE
  5
1E7
330
1E
100
AcDbEntity
  8
0
100
AcDbLine
 10
220.0
 20
205.0
 30
0.0
 11
250.6
 21
205.0
 31
0.0
  0
LINE
  5
1E8
330
1E
100
AcDbEntity
  8
0
100
AcDbLine
 10
220.0
 20
205.0
 30
0.0
 11
220.5
 21
205.5
 31
0.0
  0
LINE
  5
1E9
330
1E
100
AcDbEntity
  8
0
100
AcDbLine
 10
259.4
 20
205.0
 30
0.0
 11
290.0
 21
205.0
 31
0.0
  0
LINE
  5
1EA
330
1E
100
AcDbEntity
  8
0
100
AcDbLine
 10
290.0
 20
205.0
 30
0.0
 11
290.0
 21
209.0
 31
0.0
  0
LINE
  5
1EB
330
1E
100
AcDbEntity
  8
0
100
AcDbLine
 10
70.0
 20
205.0
 30
0.0
 11
70.0
 21
209.0
 31
0.0
  0
LINE
  5
1EC
330
1E
100
AcDbEntity
  8
0
100
AcDbLine
 10
0.5
 20
212.5
 30
0.0
 11
31.2
 21
212.5
 31
0.0
  0
LINE
  5
1ED
330
1E
100
AcDbEntity
  8
0
100
AcDbLine
 10
0.5
 20
212.5
 30
0.0
 11
31.2
 21
212.5
 31
0.0
  0
LINE
  5
1EE
330
1E
100
AcDbEntity
  8
0
100
AcDbLine
 10
0.5
 20
212.5
 30
0.0
 11
0.5
 21
209.0
 31
0.0
  0
LINE
  5
1EF
330
1E
100
AcDbEntity
  8
0
100
AcDbLine
 10
0.5
 20
209.0
 30
0.0
 11
0.5
 21
205.5
 31
0.0
  0
LINE
  5
1F0
330
1E
100
AcDbEntity
  8
0
100
AcDbLine
 10
0.5
 20
209.0
 30
0.0
 11
0.5
 21
212.5
 31
0.0
  0
LINE
  5
1F1
330
1E
100
AcDbEntity
  8
0
100
AcDbLine
 10
0.5
 20
205.5
 30
0.0
 11
31.2
 21
205.5
 31
0.0
  0
LINE
  5
1F2
330
1E
100
AcDbEntity
  8
0
100
AcDbLine
 10
251.5
 20
205.2
 30
0.0
 11
251.5
 21
174.5
 31
0.0
  0
LINE
  5
1F3
330
1E
100
AcDbEntity
  8
0
100
AcDbLine
 10
258.5
 20
205.2
 30
0.0
 11
258.5
 21
174.5
 31
0.0
  0
LINE
  5
1F4
330
1E
100
AcDbEntity
  8
0
100
AcDbLine
 10
258.5
 20
205.2
 30
0.0
 11
259.0
 21
204.6
 31
0.0
  0
LINE
  5
1F5
330
1E
100
AcDbEntity
  8
0
100
AcDbLine
 10
38.5
 20
205.2
 30
0.0
 11
38.5
 21
174.5
 31
0.0
  0
LINE
  5
1F6
330
1E
100
AcDbEntity
  8
0
100
AcDbLine
 10
38.5
 20
205.2
 30
0.0
 11
39.0
 21
204.6
 31
0.0
  0
LINE
  5
1F7
330
1E
100
AcDbEntity
  8
0
100
AcDbLine
 10
38.8
 20
205.5
 30
0.0
 11
39.4
 21
205.0
 31
0.0
  0
LINE
  5
1F8
330
1E
100
AcDbEntity
  8
0
100
AcDbLine
 10
38.8
 20
205.5
 30
0.0
 11
69.5
 21
205.5
 31
0.0
  0
LINE
  5
1F9
330
1E
100
AcDbEntity
  8
0
100
AcDbLine
 10
0.577777777778
 20
213.0
 30
0.0
 11
1.3
 21
218.0
 31
0.0
  0
LINE
  5
1FA
330
1E
100
AcDbEntity
  8
0
100
AcDbLine
 10
18.033333333333
 20
213.0
 30
0.0
 11
18.1
 21
213.5
 31
0.0
  0
LINE
  5
1FB
330
1E
100
AcDbEntity
  8
0
100
AcDbLine
 10
17.608695652174
 20
213.0
 30
0.0
 11
17.7
 21
213.6
 31
0.0
  0
LINE
  5
1FC
330
1E
100
AcDbEntity
  8
0
100
AcDbLine
 10
1.039325842697
 20
213.0
 30
0.0
 11
1.7
 21
217.9
 31
0.0
  0
LINE
  5
1FD
330
1E
100
AcDbEntity
  8
0
100
AcDbLine
 10
30.6
 20
213.0
 30
0.0
 11
30.8
 21
213.2
 31
0.0
  0
LINE
  5
1FE
330
1E
100
AcDbEntity
  8
0
100
AcDbLine
 10
30.6
 20
213.0
 30
0.0
 11
31.2
 21
212.5
 31
0.0
  0
LINE
  5
1FF
330
1E
100
AcDbEntity
  8
0
100
AcDbLine
 10
31.5
 20
212.8
 30
0.0
 11
31.5
 21
243.5
 31
0.0
  0
LINE
  5
200
330
1E
100
AcDbEntity
  8
0
100
AcDbLine
 10
38.5
 20
212.8
 30
0.0
 11
39.0
 21
213.4
 31
0.0
  0
LINE
  5
201
330
1E
100
AcDbEntity
  8
0
100
AcDbLine
 10
38.5
 20
212.8
 30
0.0
 11
38.5
 21
243.5
 31
0.0
  0
LINE
  5
202
330
1E
100
AcDbEntity
  8
0
100
AcDbLine
 10
38.8
 20
212.5
 30
0.0
 11
69.5
 21
212.5
 31
0.0
  0
LINE
  5
203
330
1E
100
AcDbEntity
  8
0
100
AcDbLine
 10
38.8
 20
212.5
 30
0.0
 11
39.4
 21
213.0
 31
0.0
  0
LINE
  5
204
330
1E
100
AcDbEntity
  8
0
100
AcDbLine
 10
69.5
 20
212.5
 30
0.0
 11
69.5
 21
209.0
 31
0.0
  0
LINE
  5
205
330
1E
100
AcDbEntity
  8
0
100
AcDbLine
 10
69.5
 20
212.5
 30
0.0
 11
70.0
 21
213.0
 31
0.0
  0
LINE
  5
206
330
1E
100
AcDbEntity
  8
0
100
AcDbLine
 10
30.8
 20
213.2
 30
0.0
 11
31.0
 21
213.4
 31
0.0
  0
LINE
  5
207
330
1E
100
AcDbEntity
  8
0
100
AcDbLine
 10
31.0
 20
213.4
 30
0.0
 11
31.0
 21
244.0
 31
0.0
  0
LINE
  5
208
330
1E
100
AcDbEntity
  8
0
100
AcDbLine
 10
31.0
 20
213.4
 30
0.0
 11
31.5
 21
212.8
 31
0.0
  0
LINE
  5
209
330
1E
100
AcDbEntity
  8
0
100
AcDbLine
 10
1.3
 20
218.0
 30
0.0
 11
4.7
 21
226.4
 31
0.0
  0
LINE
  5
20A
330
1E
100
AcDbEntity
  8
0
100
AcDbLine
 10
18.1
 20
213.5
 30
0.0
 11
19.8
 21
217.7
 31
0.0
  0
LINE
  5
20B
330
1E
100
AcDbEntity
  8
0
100
AcDbLine
 10
19.8
 20
217.7
 30
0.0
 11
22.6
 21
221.4
 31
0.0
  0
LINE
  5
20C
330
1E
100
AcDbEntity
  8
0
100
AcDbLine
 10
17.7
 20
213.6
 30
0.0
 11
19.4
 21
217.9
 31
0.0
  0
LINE
  5
20D
330
1E
100
AcDbEntity
  8
0
100
AcDbLine
 10
1.7
 20
217.9
 30
0.0
 11
5.1
 21
226.1
 31
0.0
  0
LINE
  5
20E
330
1E
100
AcDbEntity
  8
0
100
AcDbLine
 10
26.3
 20
224.2
 30
0.0
 11
30.5
 21
225.9
 31
0.0
  0
LINE
  5
20F
330
1E
100
AcDbEntity
  8
0
100
AcDbLine
 10
22.6
 20
221.4
 30
0.0
 11
26.3
 21
224.2
 31
0.0
  0
LINE
  5
210
330
1E
100
AcDbEntity
  8
0
100
AcDbLine
 10
26.1
 20
224.6
 30
0.0
 11
30.4
 21
226.3
 31
0.0
  0
LINE
  5
211
330
1E
100
AcDbEntity
  8
0
100
AcDbLine
 10
22.3
 20
221.7
 30
0.0
 11
26.1
 21
224.6
 31
0.0
  0
LINE
  5
212
330
1E
100
AcDbEntity
  8
0
100
AcDbLine
 10
19.4
 20
217.9
 30
0.0
 11
22.3
 21
221.7
 31
0.0
  0
LINE
  5
213
330
1E
100
AcDbEntity
  8
0
100
AcDbLine
 10
1.7
 20
217.9
 30
0.0
 11
5.1
 21
226.1
 31
0.0
  0
LINE
  5
214
330
1E
100
AcDbEntity
  8
0
100
AcDbLine
 10
39.0
 20
213.4
 30
0.0
 11
39.2
 21
213.2
 31
0.0
  0
LINE
  5
215
330
1E
100
AcDbEntity
  8
0
100
AcDbLine
 10
39.0
 20
213.4
 30
0.0
 11
39.0
 21
244.0
 31
0.0
  0
LINE
  5
216
330
1E
100
AcDbEntity
  8
0
100
AcDbLine
 10
51.9
 20
213.5
 30
0.0
 11
51.966666666667
 21
213.0
 31
0.0
  0
LINE
  5
217
330
1E
100
AcDbEntity
  8
0
100
AcDbLine
 10
50.2
 20
217.7
 30
0.0
 11
51.9
 21
213.5
 31
0.0
  0
LINE
  5
218
330
1E
100
AcDbEntity
  8
0
100
AcDbLine
 10
50.6
 20
217.9
 30
0.0
 11
52.3
 21
213.6
 31
0.0
  0
LINE
  5
219
330
1E
100
AcDbEntity
  8
0
100
AcDbLine
 10
52.3
 20
213.6
 30
0.0
 11
52.391304347826
 21
213.0
 31
0.0
  0
LINE
  5
21A
330
1E
100
AcDbEntity
  8
0
100
AcDbLine
 10
68.3
 20
217.9
 30
0.0
 11
68.960674157303
 21
213.0
 31
0.0
  0
LINE
  5
21B
330
1E
100
AcDbEntity
  8
0
100
AcDbLine
 10
43.7
 20
224.2
 30
0.0
 11
47.4
 21
221.4
 31
0.0
  0
LINE
  5
21C
330
1E
100
AcDbEntity
  8
0
100
AcDbLine
 10
47.4
 20
221.4
 30
0.0
 11
50.2
 21
217.7
 31
0.0
  0
LINE
  5
21D
330
1E
100
AcDbEntity
  8
0
100
AcDbLine
 10
43.9
 20
224.6
 30
0.0
 11
47.7
 21
221.7
 31
0.0
  0
LINE
  5
21E
330
1E
100
AcDbEntity
  8
0
100
AcDbLine
 10
47.7
 20
221.7
 30
0.0
 11
50.6
 21
217.9
 31
0.0
  0
LINE
  5
21F
330
1E
100
AcDbEntity
  8
0
100
AcDbLine
 10
68.7
 20
218.0
 30
0.0
 11
69.422222222222
 21
213.0
 31
0.0
  0
LINE
  5
220
330
1E
100
AcDbEntity
  8
0
100
AcDbLine
 10
39.2
 20
213.2
 30
0.0
 11
39.4
 21
213.0
 31
0.0
  0
LINE
  5
221
330
1E
100
AcDbEntity
  8
0
100
AcDbLine
 10
39.4
 20
213.0
 30
0.0
 11
70.0
 21
213.0
 31
0.0
  0
LINE
  5
222
330
1E
100
AcDbEntity
  8
0
100
AcDbLine
 10
70.0
 20
213.0
 30
0.0
 11
70.0
 21
209.0
 31
0.0
  0
LINE
  5
223
330
1E
100
AcDbEntity
  8
0
100
AcDbLine
 10
69.5
 20
209.0
 30
0.0
 11
69.5
 21
205.5
 31
0.0
  0
LINE
  5
224
330
1E
100
AcDbEntity
  8
0
100
AcDbLine
 10
69.5
 20
209.0
 30
0.0
 11
69.5
 21
212.5
 31
0.0
  0
LINE
  5
225
330
1E
100
AcDbEntity
  8
0
100
AcDbLine
 10
69.5
 20
205.5
 30
0.0
 11
70.0
 21
205.0
 31
0.0
  0
LINE
  5
226
330
1E
100
AcDbEntity
  8
0
100
AcDbLine
 10
69.5
 20
205.5
 30
0.0
 11
69.5
 21
209.0
 31
0.0
  0
LINE
  5
227
330
1E
100
AcDbEntity
  8
0
100
AcDbLine
 10
120.5
 20
209.0
 30
0.0
 11
121.4
 21
202.7
 31
0.0
  0
LINE
  5
228
330
1E
100
AcDbEntity
  8
0
100
AcDbLine
 10
120.5
 20
209.0
 30
0.0
 11
121.4
 21
215.3
 31
0.0
  0
LINE
  5
229
330
1E
100
AcDbEntity
  8
0
100
AcDbLine
 10
120.0
 20
209.0
 30
0.0
 11
120.9
 21
202.6
 31
0.0
  0
LINE
  5
22A
330
1E
100
AcDbEntity
  8
0
100
AcDbLine
 10
120.0
 20
209.0
 30
0.0
 11
120.9
 21
215.4
 31
0.0
  0
LINE
  5
22B
330
1E
100
AcDbEntity
  8
0
100
AcDbLine
 10
110.5
 20
209.0
 30
0.0
 11
111.7
 21
200.1
 31
0.0
  0
LINE
  5
22C
330
1E
100
AcDbEntity
  8
0
100
AcDbLine
 10
110.5
 20
209.0
 30
0.0
 11
111.7
 21
217.9
 31
0.0
  0
LINE
  5
22D
330
1E
100
AcDbEntity
  8
0
100
AcDbLine
 10
121.4
 20
215.3
 30
0.0
 11
123.8
 21
221.2
 31
0.0
  0
LINE
  5
22E
330
1E
100
AcDbEntity
  8
0
100
AcDbLine
 10
120.9
 20
215.4
 30
0.0
 11
123.3
 21
221.4
 31
0.0
  0
LINE
  5
22F
330
1E
100
AcDbEntity
  8
0
100
AcDbLine
 10
110.0
 20
209.0
 30
0.0
 11
111.3
 21
200.0
 31
0.0
  0
LINE
  5
230
330
1E
100
AcDbEntity
  8
0
100
AcDbLine
 10
110.0
 20
209.0
 30
0.0
 11
111.3
 21
218.0
 31
0.0
  0
LINE
  5
231
330
1E
100
AcDbEntity
  8
0
100
AcDbLine
 10
131.0
 20
209.1
 30
0.0
 11
131.0
 21
216.4
 31
0.0
  0
LINE
  5
232
330
1E
100
AcDbEntity
  8
0
100
AcDbLine
 10
131.0
 20
209.1
 30
0.0
 11
131.0
 21
199.7
 31
0.0
  0
LINE
  5
233
330
1E
100
AcDbEntity
  8
0
100
AcDbLine
 10
131.0
 20
216.4
 30
0.0
 11
131.0
 21
220.9
 31
0.0
  0
LINE
  5
234
330
1E
100
AcDbEntity
  8
0
100
AcDbLine
 10
131.0
 20
216.4
 30
0.0
 11
131.0
 21
209.1
 31
0.0
  0
LINE
  5
235
330
1E
100
AcDbEntity
  8
0
100
AcDbLine
 10
131.5
 20
209.5
 30
0.0
 11
131.5
 21
216.8
 31
0.0
  0
LINE
  5
236
330
1E
100
AcDbEntity
  8
0
100
AcDbLine
 10
131.5
 20
209.5
 30
0.0
 11
131.5
 21
199.9
 31
0.0
  0
LINE
  5
237
330
1E
100
AcDbEntity
  8
0
100
AcDbLine
 10
111.7
 20
217.9
 30
0.0
 11
115.1
 21
226.1
 31
0.0
  0
LINE
  5
238
330
1E
100
AcDbEntity
  8
0
100
AcDbLine
 10
111.3
 20
218.0
 30
0.0
 11
114.7
 21
226.4
 31
0.0
  0
LINE
  5
239
330
1E
100
AcDbEntity
  8
0
100
AcDbLine
 10
123.8
 20
221.2
 30
0.0
 11
127.7
 21
226.3
 31
0.0
  0
LINE
  5
23A
330
1E
100
AcDbEntity
  8
0
100
AcDbLine
 10
123.3
 20
221.4
 30
0.0
 11
127.4
 21
226.6
 31
0.0
  0
LINE
  5
23B
330
1E
100
AcDbEntity
  8
0
100
AcDbLine
 10
131.0
 20
220.9
 30
0.0
 11
131.0
 21
222.5
 31
0.0
  0
LINE
  5
23C
330
1E
100
AcDbEntity
  8
0
100
AcDbLine
 10
131.0
 20
220.9
 30
0.0
 11
131.0
 21
216.4
 31
0.0
  0
LINE
  5
23D
330
1E
100
AcDbEntity
  8
0
100
AcDbLine
 10
131.0
 20
222.5
 30
0.0
 11
131.5
 21
223.0
 31
0.0
  0
LINE
  5
23E
330
1E
100
AcDbEntity
  8
0
100
AcDbLine
 10
131.0
 20
222.5
 30
0.0
 11
131.0
 21
220.9
 31
0.0
  0
LINE
  5
23F
330
1E
100
AcDbEntity
  8
0
100
AcDbLine
 10
131.5
 20
216.8
 30
0.0
 11
131.5
 21
221.3
 31
0.0
  0
LINE
  5
240
330
1E
100
AcDbEntity
  8
0
100
AcDbLine
 10
131.5
 20
216.8
 30
0.0
 11
131.5
 21
209.5
 31
0.0
  0
LINE
  5
241
330
1E
100
AcDbEntity
  8
0
100
AcDbLine
 10
159.0
 20
209.1
 30
0.0
 11
159.0
 21
199.7
 31
0.0
  0
LINE
  5
242
330
1E
100
AcDbEntity
  8
0
100
AcDbLine
 10
159.0
 20
209.1
 30
0.0
 11
159.0
 21
216.4
 31
0.0
  0
LINE
  5
243
330
1E
100
AcDbEntity
  8
0
100
AcDbLine
 10
158.5
 20
209.5
 30
0.0
 11
158.5
 21
199.9
 31
0.0
  0
LINE
  5
244
330
1E
100
AcDbEntity
  8
0
100
AcDbLine
 10
158.5
 20
209.5
 30
0.0
 11
158.5
 21
216.8
 31
0.0
  0
LINE
  5
245
330
1E
100
AcDbEntity
  8
0
100
AcDbLine
 10
220.0
 20
213.0
 30
0.0
 11
220.0
 21
209.0
 31
0.0
  0
LINE
  5
246
330
1E
100
AcDbEntity
  8
0
100
AcDbLine
 10
220.0
 20
213.0
 30
0.0
 11
250.6
 21
213.0
 31
0.0
  0
LINE
  5
247
330
1E
100
AcDbEntity
  8
0
100
AcDbLine
 10
220.0
 20
213.0
 30
0.0
 11
220.5
 21
212.5
 31
0.0
  0
LINE
  5
248
330
1E
100
AcDbEntity
  8
0
100
AcDbLine
 10
220.5
 20
212.5
 30
0.0
 11
251.2
 21
212.5
 31
0.0
  0
LINE
  5
249
330
1E
100
AcDbEntity
  8
0
100
AcDbLine
 10
220.5
 20
212.5
 30
0.0
 11
220.5
 21
209.0
 31
0.0
  0
LINE
  5
24A
330
1E
100
AcDbEntity
  8
0
100
AcDbLine
 10
220.5
 20
209.0
 30
0.0
 11
220.5
 21
205.5
 31
0.0
  0
LINE
  5
24B
330
1E
100
AcDbEntity
  8
0
100
AcDbLine
 10
220.5
 20
209.0
 30
0.0
 11
220.5
 21
212.5
 31
0.0
  0
LINE
  5
24C
330
1E
100
AcDbEntity
  8
0
100
AcDbLine
 10
220.5
 20
205.5
 30
0.0
 11
220.5
 21
209.0
 31
0.0
  0
LINE
  5
24D
330
1E
100
AcDbEntity
  8
0
100
AcDbLine
 10
220.5
 20
205.5
 30
0.0
 11
251.2
 21
205.5
 31
0.0
  0
LINE
  5
24E
330
1E
100
AcDbEntity
  8
0
100
AcDbLine
 10
220.0
 20
209.0
 30
0.0
 11
220.0
 21
205.0
 31
0.0
  0
LINE
  5
24F
330
1E
100
AcDbEntity
  8
0
100
AcDbLine
 10
220.0
 20
209.0
 30
0.0
 11
220.0
 21
205.0
 31
0.0
  0
LINE
  5
250
330
1E
100
AcDbEntity
  8
0
100
AcDbLine
 10
220.0
 20
209.0
 30
0.0
 11
220.0
 21
213.0
 31
0.0
  0
LINE
  5
251
330
1E
100
AcDbEntity
  8
0
100
AcDbLine
 10
220.577777777778
 20
213.0
 30
0.0
 11
221.3
 21
218.0
 31
0.0
  0
LINE
  5
252
330
1E
100
AcDbEntity
  8
0
100
AcDbLine
 10
250.6
 20
213.0
 30
0.0
 11
250.8
 21
213.2
 31
0.0
  0
LINE
  5
253
330
1E
100
AcDbEntity
  8
0
100
AcDbLine
 10
250.6
 20
213.0
 30
0.0
 11
251.2
 21
212.5
 31
0.0
  0
LINE
  5
254
330
1E
100
AcDbEntity
  8
0
100
AcDbLine
 10
258.8
 20
212.5
 30
0.0
 11
289.5
 21
212.5
 31
0.0
  0
LINE
  5
255
330
1E
100
AcDbEntity
  8
0
100
AcDbLine
 10
258.8
 20
212.5
 30
0.0
 11
259.4
 21
213.0
 31
0.0
  0
LINE
  5
256
330
1E
100
AcDbEntity
  8
0
100
AcDbLine
 10
258.8
 20
205.5
 30
0.0
 11
259.4
 21
205.0
 31
0.0
  0
LINE
  5
257
330
1E
100
AcDbEntity
  8
0
100
AcDbLine
 10
258.8
 20
205.5
 30
0.0
 11
289.5
 21
205.5
 31
0.0
  0
LINE
  5
258
330
1E
100
AcDbEntity
  8
0
100
AcDbLine
 10
259.4
 20
213.0
 30
0.0
 11
290.0
 21
213.0
 31
0.0
  0
LINE
  5
259
330
1E
100
AcDbEntity
  8
0
100
AcDbLine
 10
258.5
 20
212.8
 30
0.0
 11
259.0
 21
213.4
 31
0.0
  0
LINE
  5
25A
330
1E
100
AcDbEntity
  8
0
100
AcDbLine
 10
258.5
 20
212.8
 30
0.0
 11
258.5
 21
243.5
 31
0.0
  0
LINE
  5
25B
330
1E
100
AcDbEntity
  8
0
100
AcDbLine
 10
251.5
 20
212.8
 30
0.0
 11
251.5
 21
243.5
 31
0.0
  0
LINE
  5
25C
330
1E
100
AcDbEntity
  8
0
100
AcDbLine
 10
238.033333333333
 20
213.0
 30
0.0
 11
238.1
 21
213.5
 31
0.0
  0
LINE
  5
25D
330
1E
100
AcDbEntity
  8
0
100
AcDbLine
 10
237.608695652174
 20
213.0
 30
0.0
 11
237.7
 21
213.6
 31
0.0
  0
LINE
  5
25E
330
1E
100
AcDbEntity
  8
0
100
AcDbLine
 10
250.8
 20
213.2
 30
0.0
 11
251.0
 21
213.4
 31
0.0
  0
LINE
  5
25F
330
1E
100
AcDbEntity
  8
0
100
AcDbLine
 10
259.2
 20
213.2
 30
0.0
 11
259.4
 21
213.0
 31
0.0
  0
LINE
  5
260
330
1E
100
AcDbEntity
  8
0
100
AcDbLine
 10
259.0
 20
213.4
 30
0.0
 11
259.2
 21
213.2
 31
0.0
  0
LINE
  5
261
330
1E
100
AcDbEntity
  8
0
100
AcDbLine
 10
259.0
 20
213.4
 30
0.0
 11
259.0
 21
244.0
 31
0.0
  0
LINE
  5
262
330
1E
100
AcDbEntity
  8
0
100
AcDbLine
 10
251.0
 20
213.4
 30
0.0
 11
251.0
 21
244.0
 31
0.0
  0
LINE
  5
263
330
1E
100
AcDbEntity
  8
0
100
AcDbLine
 10
251.0
 20
213.4
 30
0.0
 11
251.5
 21
212.8
 31
0.0
  0
LINE
  5
264
330
1E
100
AcDbEntity
  8
0
100
AcDbLine
 10
238.1
 20
213.5
 30
0.0
 11
239.8
 21
217.7
 31
0.0
  0
LINE
  5
265
330
1E
100
AcDbEntity
  8
0
100
AcDbLine
 10
237.7
 20
213.6
 30
0.0
 11
239.4
 21
217.9
 31
0.0
  0
LINE
  5
266
330
1E
100
AcDbEntity
  8
0
100
AcDbLine
 10
221.039325842697
 20
213.0
 30
0.0
 11
221.7
 21
217.9
 31
0.0
  0
LINE
  5
267
330
1E
100
AcDbEntity
  8
0
100
AcDbLine
 10
289.5
 20
209.0
 30
0.0
 11
289.5
 21
205.5
 31
0.0
  0
LINE
  5
268
330
1E
100
AcDbEntity
  8
0
100
AcDbLine
 10
289.5
 20
209.0
 30
0.0
 11
289.5
 21
212.5
 31
0.0
  0
LINE
  5
269
330
1E
100
AcDbEntity
  8
0
100
AcDbLine
 10
289.5
 20
205.5
 30
0.0
 11
290.0
 21
205.0
 31
0.0
  0
LINE
  5
26A
330
1E
100
AcDbEntity
  8
0
100
AcDbLine
 10
289.5
 20
205.5
 30
0.0
 11
289.5
 21
209.0
 31
0.0
  0
LINE
  5
26B
330
1E
100
AcDbEntity
  8
0
100
AcDbLine
 10
289.5
 20
212.5
 30
0.0
 11
289.5
 21
209.0
 31
0.0
  0
LINE
  5
26C
330
1E
100
AcDbEntity
  8
0
100
AcDbLine
 10
289.5
 20
212.5
 30
0.0
 11
290.0
 21
213.0
 31
0.0
  0
LINE
  5
26D
330
1E
100
AcDbEntity
  8
0
100
AcDbLine
 10
290.0
 20
213.0
 30
0.0
 11
290.0
 21
209.0
 31
0.0
  0
LINE
  5
26E
330
1E
100
AcDbEntity
  8
0
100
AcDbLine
 10
290.0
 20
209.0
 30
0.0
 11
290.0
 21
205.0
 31
0.0
  0
LINE
  5
26F
330
1E
100
AcDbEntity
  8
0
100
AcDbLine
 10
290.0
 20
209.0
 30
0.0
 11
290.0
 21
213.0
 31
0.0
  0
LINE
  5
270
330
1E
100
AcDbEntity
  8
0
100
AcDbLine
 10
271.9
 20
213.5
 30
0.0
 11
271.966666666667
 21
213.0
 31
0.0
  0
LINE
  5
271
330
1E
100
AcDbEntity
  8
0
100
AcDbLine
 10
159.0
 20
216.4
 30
0.0
 11
159.0
 21
209.1
 31
0.0
  0
LINE
  5
272
330
1E
100
AcDbEntity
  8
0
100
AcDbLine
 10
159.0
 20
216.4
 30
0.0
 11
159.0
 21
220.9
 31
0.0
  0
LINE
  5
273
330
1E
100
AcDbEntity
  8
0
100
AcDbLine
 10
158.5
 20
216.8
 30
0.0
 11
158.5
 21
209.5
 31
0.0
  0
LINE
  5
274
330
1E
100
AcDbEntity
  8
0
100
AcDbLine
 10
158.5
 20
216.8
 30
0.0
 11
158.5
 21
221.3
 31
0.0
  0
LINE
  5
275
330
1E
100
AcDbEntity
  8
0
100
AcDbLine
 10
168.6
 20
215.3
 30
0.0
 11
169.5
 21
209.0
 31
0.0
  0
LINE
  5
276
330
1E
100
AcDbEntity
  8
0
100
AcDbLine
 10
178.3
 20
217.9
 30
0.0
 11
179.5
 21
209.0
 31
0.0
  0
LINE
  5
277
330
1E
100
AcDbEntity
  8
0
100
AcDbLine
 10
178.7
 20
218.0
 30
0.0
 11
180.0
 21
209.0
 31
0.0
  0
LINE
  5
278
330
1E
100
AcDbEntity
  8
0
100
AcDbLine
 10
169.1
 20
215.4
 30
0.0
 11
170.0
 21
209.0
 31
0.0
  0
LINE
  5
279
330
1E
100
AcDbEntity
  8
0
100
AcDbLine
 10
159.0
 20
220.9
 30
0.0
 11
159.0
 21
216.4
 31
0.0
  0
LINE
  5
27A
330
1E
100
AcDbEntity
  8
0
100
AcDbLine
 10
159.0
 20
220.9
 30
0.0
 11
159.0
 21
222.5
 31
0.0
  0
LINE
  5
27B
330
1E
100
AcDbEntity
  8
0
100
AcDbLine
 10
158.5
 20
221.3
 30
0.0
 11
158.5
 21
216.8
 31
0.0
  0
LINE
  5
27C
330
1E
100
AcDbEntity
  8
0
100
AcDbLine
 10
158.5
 20
221.3
 30
0.0
 11
158.5
 21
223.0
 31
0.0
  0
LINE
  5
27D
330
1E
100
AcDbEntity
  8
0
100
AcDbLine
 10
166.2
 20
221.2
 30
0.0
 11
168.6
 21
215.3
 31
0.0
  0
LINE
  5
27E
330
1E
100
AcDbEntity
  8
0
100
AcDbLine
 10
166.7
 20
221.4
 30
0.0
 11
169.1
 21
215.4
 31
0.0
  0
LINE
  5
27F
330
1E
100
AcDbEntity
  8
0
100
AcDbLine
 10
221.3
 20
218.0
 30
0.0
 11
224.7
 21
226.4
 31
0.0
  0
LINE
  5
280
330
1E
100
AcDbEntity
  8
0
100
AcDbLine
 10
239.8
 20
217.7
 30
0.0
 11
242.6
 21
221.4
 31
0.0
  0
LINE
  5
281
330
1E
100
AcDbEntity
  8
0
100
AcDbLine
 10
242.6
 20
221.4
 30
0.0
 11
246.3
 21
224.2
 31
0.0
  0
LINE
  5
282
330
1E
100
AcDbEntity
  8
0
100
AcDbLine
 10
239.4
 20
217.9
 30
0.0
 11
242.3
 21
221.7
 31
0.0
  0
LINE
  5
283
330
1E
100
AcDbEntity
  8
0
100
AcDbLine
 10
221.7
 20
217.9
 30
0.0
 11
225.1
 21
226.1
 31
0.0
  0
LINE
  5
284
330
1E
100
AcDbEntity
  8
0
100
AcDbLine
 10
242.3
 20
221.7
 30
0.0
 11
246.1
 21
224.6
 31
0.0
  0
LINE
  5
285
330
1E
100
AcDbEntity
  8
0
100
AcDbLine
 10
267.4
 20
221.4
 30
0.0
 11
270.2
 21
217.7
 31
0.0
  0
LINE
  5
286
330
1E
100
AcDbEntity
  8
0
100
AcDbLine
 10
270.2
 20
217.7
 30
0.0
 11
271.9
 21
213.5
 31
0.0
  0
LINE
  5
287
330
1E
100
AcDbEntity
  8
0
100
AcDbLine
 10
159.0
 20
222.5
 30
0.0
 11
159.0
 21
220.9
 31
0.0
  0
LINE
  5
288
330
1E
100
AcDbEntity
  8
0
100
AcDbLine
 10
158.5
 20
223.0
 30
0.0
 11
158.5
 21
221.3
 31
0.0
  0
LINE
  5
289
330
1E
100
AcDbEntity
  8
0
100
AcDbLine
 10
158.5
 20
223.0
 30
0.0
 11
159.0
 21
222.5
 31
0.0
  0
LINE
  5
28A
330
1E
100
AcDbEntity
  8
0
100
AcDbLine
 10
145.0
 20
223.0
 30
0.0
 11
158.5
 21
223.0
 31
0.0
  0
LINE
  5
28B
330
1E
100
AcDbEntity
  8
0
100
AcDbLine
 10
267.7
 20
221.7
 30
0.0
 11
270.6
 21
217.9
 31
0.0
  0
LINE
  5
28C
330
1E
100
AcDbEntity
  8
0
100
AcDbLine
 10
288.3
 20
217.9
 30
0.0
 11
288.960674157303
 21
213.0
 31
0.0
  0
LINE
  5
28D
330
1E
100
AcDbEntity
  8
0
100
AcDbLine
 10
288.7
 20
218.0
 30
0.0
 11
289.422222222222
 21
213.0
 31
0.0
  0
LINE
  5
28E
330
1E
100
AcDbEntity
  8
0
100
AcDbLine
 10
270.6
 20
217.9
 30
0.0
 11
272.3
 21
213.6
 31
0.0
  0
LINE
  5
28F
330
1E
100
AcDbEntity
  8
0
100
AcDbLine
 10
272.3
 20
213.6
 30
0.0
 11
272.391304347826
 21
213.0
 31
0.0
  0
LINE
  5
290
330
1E
100
AcDbEntity
  8
0
100
AcDbLine
 10
131.5
 20
221.3
 30
0.0
 11
131.5
 21
223.0
 31
0.0
  0
LINE
  5
291
330
1E
100
AcDbEntity
  8
0
100
AcDbLine
 10
131.5
 20
221.3
 30
0.0
 11
131.5
 21
216.8
 31
0.0
  0
LINE
  5
292
330
1E
100
AcDbEntity
  8
0
100
AcDbLine
 10
142.0
 20
224.0
 30
0.0
 11
148.0
 21
224.0
 31
0.0
  0
LINE
  5
293
330
1E
100
AcDbEntity
  8
0
100
AcDbLine
 10
142.0
 20
224.0
 30
0.0
 11
142.0
 21
236.0
 31
0.0
  0
LINE
  5
294
330
1E
100
AcDbEntity
  8
0
100
AcDbLine
 10
142.0
 20
224.0
 30
0.0
 11
142.0
 21
227.0
 31
0.0
  0
LINE
  5
295
330
1E
100
AcDbEntity
  8
0
100
AcDbLine
 10
148.0
 20
224.0
 30
0.0
 11
148.0
 21
236.0
 31
0.0
  0
LINE
  5
296
330
1E
100
AcDbEntity
  8
0
100
AcDbLine
 10
246.3
 20
224.2
 30
0.0
 11
250.5
 21
225.9
 31
0.0
  0
LINE
  5
297
330
1E
100
AcDbEntity
  8
0
100
AcDbLine
 10
246.1
 20
224.6
 30
0.0
 11
250.4
 21
226.3
 31
0.0
  0
LINE
  5
298
330
1E
100
AcDbEntity
  8
0
100
AcDbLine
 10
263.7
 20
224.2
 30
0.0
 11
267.4
 21
221.4
 31
0.0
  0
LINE
  5
299
330
1E
100
AcDbEntity
  8
0
100
AcDbLine
 10
263.9
 20
224.6
 30
0.0
 11
267.7
 21
221.7
 31
0.0
  0
LINE
  5
29A
330
1E
100
AcDbEntity
  8
0
100
AcDbLine
 10
131.5
 20
223.0
 30
0.0
 11
145.0
 21
223.0
 31
0.0
  0
LINE
  5
29B
330
1E
100
AcDbEntity
  8
0
100
AcDbLine
 10
131.5
 20
223.0
 30
0.0
 11
131.5
 21
221.3
 31
0.0
  0
LINE
  5
29C
330
1E
100
AcDbEntity
  8
0
100
AcDbLine
 10
70.0
 20
209.0
 30
0.0
 11
70.0
 21
205.0
 31
0.0
  0
LINE
  5
29D
330
1E
100
AcDbEntity
  8
0
100
AcDbLine
 10
70.0
 20
209.0
 30
0.0
 11
70.0
 21
213.0
 31
0.0
  0
LINE
  5
29E
330
1E
100
AcDbEntity
  8
0
100
AcDbLine
 10
31.5
 20
205.2
 30
0.0
 11
31.5
 21
174.5
 31
0.0
  0
LINE
  5
29F
330
1E
100
AcDbEntity
  8
0
100
AcDbLine
 10
0.5
 20
205.5
 30
0.0
 11
0.5
 21
209.0
 31
0.0
  0
LINE
  5
2A0
330
1E
100
AcDbEntity
  8
0
100
AcDbLine
 10
0.5
 20
205.5
 30
0.0
 11
31.2
 21
205.5
 31
0.0
  0
LINE
  5
2A1
330
1E
100
AcDbEntity
  8
0
100
AcDbLine
 10
30.6
 20
205.0
 30
0.0
 11
30.8
 21
204.8
 31
0.0
  0
LINE
  5
2A2
330
1E
100
AcDbEntity
  8
0
100
AcDbLine
 10
30.6
 20
205.0
 30
0.0
 11
31.2
 21
205.5
 31
0.0
  0
LINE
  5
2A3
330
1E
100
AcDbEntity
  8
0
100
AcDbLine
 10
0.0
 20
209.0
 30
0.0
 11
0.0
 21
205.0
 31
0.0
  0
LINE
  5
2A4
330
1E
100
AcDbEntity
  8
0
100
AcDbLine
 10
0.0
 20
209.0
 30
0.0
 11
0.0
 21
205.0
 31
0.0
  0
LINE
  5
2A5
330
1E
100
AcDbEntity
  8
0
100
AcDbLine
 10
0.0
 20
209.0
 30
0.0
 11
0.0
 21
213.0
 31
0.0
  0
LINE
  5
2A6
330
1E
100
AcDbEntity
  8
0
100
AcDbLine
 10
0.0
 20
205.0
 30
0.0
 11
0.0
 21
209.0
 31
0.0
  0
LINE
  5
2A7
330
1E
100
AcDbEntity
  8
0
100
AcDbLine
 10
0.0
 20
205.0
 30
0.0
 11
30.6
 21
205.0
 31
0.0
  0
LINE
  5
2EB
330
1E
100
AcDbEntity
  8
0
100
AcDbLine
 10
30.5
 20
225.9
 30
0.0
 11
31.0
 21
225.966666666667
 31
0.0
  0
LINE
  5
2EC
330
1E
100
AcDbEntity
  8
0
100
AcDbLine
 10
39.0
 20
225.966666666667
 30
0.0
 11
39.5
 21
225.9
 31
0.0
  0
LINE
  5
2ED
330
1E
100
AcDbEntity
  8
0
100
AcDbLine
 10
39.5
 20
225.9
 30
0.0
 11
43.7
 21
224.2
 31
0.0
  0
LINE
  5
2EE
330
1E
100
AcDbEntity
  8
0
100
AcDbLine
 10
250.5
 20
225.9
 30
0.0
 11
251.0
 21
225.966666666667
 31
0.0
  0
LINE
  5
2EF
330
1E
100
AcDbEntity
  8
0
100
AcDbLine
 10
115.1
 20
226.1
 30
0.0
 11
120.6
 21
233.4
 31
0.0
  0
LINE
  5
2F0
330
1E
100
AcDbEntity
  8
0
100
AcDbLine
 10
174.9
 20
226.1
 30
0.0
 11
178.3
 21
217.9
 31
0.0
  0
LINE
  5
2F1
330
1E
100
AcDbEntity
  8
0
100
AcDbLine
 10
225.1
 20
226.1
 30
0.0
 11
230.6
 21
233.4
 31
0.0
  0
LINE
  5
2F2
330
1E
100
AcDbEntity
  8
0
100
AcDbLine
 10
284.9
 20
226.1
 30
0.0
 11
288.3
 21
217.9
 31
0.0
  0
LINE
  5
2F3
330
1E
100
AcDbEntity
  8
0
100
AcDbLine
 10
259.0
 20
225.966666666667
 30
0.0
 11
259.5
 21
225.9
 31
0.0
  0
LINE
  5
2F4
330
1E
100
AcDbEntity
  8
0
100
AcDbLine
 10
259.5
 20
225.9
 30
0.0
 11
263.7
 21
224.2
 31
0.0
  0
LINE
  5
2F5
330
1E
100
AcDbEntity
  8
0
100
AcDbLine
 10
64.9
 20
226.1
 30
0.0
 11
68.3
 21
217.9
 31
0.0
  0
LINE
  5
2F6
330
1E
100
AcDbEntity
  8
0
100
AcDbLine
 10
30.4
 20
226.3
 30
0.0
 11
31.0
 21
226.391304347826
 31
0.0
  0
LINE
  5
2F7
330
1E
100
AcDbEntity
  8
0
100
AcDbLine
 10
39.0
 20
226.391304347826
 30
0.0
 11
39.6
 21
226.3
 31
0.0
  0
LINE
  5
2F8
330
1E
100
AcDbEntity
  8
0
100
AcDbLine
 10
127.7
 20
226.3
 30
0.0
 11
132.8
 21
230.2
 31
0.0
  0
LINE
  5
2F9
330
1E
100
AcDbEntity
  8
0
100
AcDbLine
 10
162.3
 20
226.3
 30
0.0
 11
166.2
 21
221.2
 31
0.0
  0
LINE
  5
2FA
330
1E
100
AcDbEntity
  8
0
100
AcDbLine
 10
157.507075043986
 20
230.566969798263
 30
0.0
 11
162.6
 21
226.6
 31
0.0
  0
LINE
  5
2FB
330
1E
100
AcDbEntity
  8
0
100
AcDbLine
 10
250.4
 20
226.3
 30
0.0
 11
251.0
 21
226.391304347826
 31
0.0
  0
LINE
  5
2FC
330
1E
100
AcDbEntity
  8
0
100
AcDbLine
 10
114.7
 20
226.4
 30
0.0
 11
120.3
 21
233.7
 31
0.0
  0
LINE
  5
2FD
330
1E
100
AcDbEntity
  8
0
100
AcDbLine
 10
175.3
 20
226.4
 30
0.0
 11
178.7
 21
218.0
 31
0.0
  0
LINE
  5
2FE
330
1E
100
AcDbEntity
  8
0
100
AcDbLine
 10
224.7
 20
226.4
 30
0.0
 11
230.3
 21
233.7
 31
0.0
  0
LINE
  5
2FF
330
1E
100
AcDbEntity
  8
0
100
AcDbLine
 10
285.3
 20
226.4
 30
0.0
 11
288.7
 21
218.0
 31
0.0
  0
LINE
  5
300
330
1E
100
AcDbEntity
  8
0
100
AcDbLine
 10
259.0
 20
226.391304347826
 30
0.0
 11
259.6
 21
226.3
 31
0.0
  0
LINE
  5
301
330
1E
100
AcDbEntity
  8
0
100
AcDbLine
 10
259.6
 20
226.3
 30
0.0
 11
263.9
 21
224.6
 31
0.0
  0
LINE
  5
302
330
1E
100
AcDbEntity
  8
0
100
AcDbLine
 10
39.6
 20
226.3
 30
0.0
 11
43.9
 21
224.6
 31
0.0
  0
LINE
  5
303
330
1E
100
AcDbEntity
  8
0
100
AcDbLine
 10
65.3
 20
226.4
 30
0.0
 11
68.7
 21
218.0
 31
0.0
  0
LINE
  5
304
330
1E
100
AcDbEntity
  8
0
100
AcDbLine
 10
4.7
 20
226.4
 30
0.0
 11
10.3
 21
233.7
 31
0.0
  0
LINE
  5
305
330
1E
100
AcDbEntity
  8
0
100
AcDbLine
 10
5.1
 20
226.1
 30
0.0
 11
10.6
 21
233.4
 31
0.0
  0
LINE
  5
30A
330
1E
100
AcDbEntity
  8
0
100
AcDbLine
 10
127.4
 20
226.6
 30
0.0
 11
132.630976321066
 21
230.676124112949
 31
0.0
  0
LINE
  5
30B
330
1E
100
AcDbEntity
  8
0
100
AcDbLine
 10
142.0
 20
227.0
 30
0.0
 11
142.0
 21
224.0
 31
0.0
  0
LINE
  5
30C
330
1E
100
AcDbEntity
  8
0
100
AcDbLine
 10
138.7
 20
232.6
 30
0.0
 11
142.0
 21
233.071428571429
 31
0.0
  0
LINE
  5
30D
330
1E
100
AcDbEntity
  8
0
100
AcDbLine
 10
132.8
 20
230.2
 30
0.0
 11
138.7
 21
232.6
 31
0.0
  0
LINE
  5
30E
330
1E
100
AcDbEntity
  8
0
100
AcDbLine
 10
120.6
 20
233.4
 30
0.0
 11
127.9
 21
238.9
 31
0.0
  0
LINE
  5
30F
330
1E
100
AcDbEntity
  8
0
100
AcDbLine
 10
138.6
 20
233.1
 30
0.0
 11
142.0
 21
233.578125
 31
0.0
  0
LINE
  5
310
330
1E
100
AcDbEntity
  8
0
100
AcDbLine
 10
138.6
 20
233.1
 30
0.0
 11
132.630976321066
 21
230.676124112949
 31
0.0
  0
LINE
  5
311
330
1E
100
AcDbEntity
  8
0
100
AcDbLine
 10
148.0
 20
233.071428571429
 30
0.0
 11
151.3
 21
232.6
 31
0.0
  0
LINE
  5
312
330
1E
100
AcDbEntity
  8
0
100
AcDbLine
 10
151.3
 20
232.6
 30
0.0
 11
157.2
 21
230.2
 31
0.0
  0
LINE
  5
314
330
1E
100
AcDbEntity
  8
0
100
AcDbLine
 10
169.4
 20
233.4
 30
0.0
 11
174.9
 21
226.1
 31
0.0
  0
LINE
  5
315
330
1E
100
AcDbEntity
  8
0
100
AcDbLine
 10
157.2
 20
230.2
 30
0.0
 11
162.3
 21
226.3
 31
0.0
  0
LINE
  5
316
330
1E
100
AcDbEntity
  8
0
100
AcDbLine
 10
151.4
 20
233.1
 30
0.0
 11
157.507075043986
 21
230.566969798263
 31
0.0
  0
LINE
  5
317
330
1E
100
AcDbEntity
  8
0
100
AcDbLine
 10
162.6
 20
226.6
 30
0.0
 11
166.7
 21
221.4
 31
0.0
  0
LINE
  5
318
330
1E
100
AcDbEntity
  8
0
100
AcDbLine
 10
279.4
 20
233.4
 30
0.0
 11
284.9
 21
226.1
 31
0.0
  0
LINE
  5
319
330
1E
100
AcDbEntity
  8
0
100
AcDbLine
 10
230.6
 20
233.4
 30
0.0
 11
237.9
 21
238.9
 31
0.0
  0
LINE
  5
31A
330
1E
100
AcDbEntity
  8
0
100
AcDbLine
 10
59.4
 20
233.4
 30
0.0
 11
64.9
 21
226.1
 31
0.0
  0
LINE
  5
31B
330
1E
100
AcDbEntity
  8
0
100
AcDbLine
 10
120.3
 20
233.7
 30
0.0
 11
127.6
 21
239.3
 31
0.0
  0
LINE
  5
31C
330
1E
100
AcDbEntity
  8
0
100
AcDbLine
 10
169.7
 20
233.7
 30
0.0
 11
175.3
 21
226.4
 31
0.0
  0
LINE
  5
31D
330
1E
100
AcDbEntity
  8
0
100
AcDbLine
 10
148.0
 20
233.578125
 30
0.0
 11
151.4
 21
233.1
 31
0.0
  0
LINE
  5
31E
330
1E
100
AcDbEntity
  8
0
100
AcDbLine
 10
279.7
 20
233.7
 30
0.0
 11
285.3
 21
226.4
 31
0.0
  0
LINE
  5
31F
330
1E
100
AcDbEntity
  8
0
100
AcDbLine
 10
230.3
 20
233.7
 30
0.0
 11
237.6
 21
239.3
 31
0.0
  0
LINE
  5
320
330
1E
100
AcDbEntity
  8
0
100
AcDbLine
 10
148.0
 20
236.0
 30
0.0
 11
148.0
 21
224.0
 31
0.0
  0
LINE
  5
321
330
1E
100
AcDbEntity
  8
0
100
AcDbLine
 10
142.0
 20
236.0
 30
0.0
 11
142.0
 21
224.0
 31
0.0
  0
LINE
  5
322
330
1E
100
AcDbEntity
  8
0
100
AcDbLine
 10
142.0
 20
236.0
 30
0.0
 11
148.0
 21
236.0
 31
0.0
  0
LINE
  5
323
330
1E
100
AcDbEntity
  8
0
100
AcDbLine
 10
59.7
 20
233.7
 30
0.0
 11
65.3
 21
226.4
 31
0.0
  0
LINE
  5
324
330
1E
100
AcDbEntity
  8
0
100
AcDbLine
 10
10.3
 20
233.7
 30
0.0
 11
17.6
 21
239.3
 31
0.0
  0
LINE
  5
325
330
1E
100
AcDbEntity
  8
0
100
AcDbLine
 10
10.6
 20
233.4
 30
0.0
 11
17.9
 21
238.9
 31
0.0
  0
LINE
  5
330
330
1E
100
AcDbEntity
  8
0
100
AcDbLine
 10
127.9
 20
238.9
 30
0.0
 11
136.1
 21
242.3
 31
0.0
  0
LINE
  5
331
330
1E
100
AcDbEntity
  8
0
100
AcDbLine
 10
162.1
 20
238.9
 30
0.0
 11
169.4
 21
233.4
 31
0.0
  0
LINE
  5
332
330
1E
100
AcDbEntity
  8
0
100
AcDbLine
 10
272.1
 20
238.9
 30
0.0
 11
279.4
 21
233.4
 31
0.0
  0
LINE
  5
333
330
1E
100
AcDbEntity
  8
0
100
AcDbLine
 10
237.9
 20
238.9
 30
0.0
 11
246.1
 21
242.3
 31
0.0
  0
LINE
  5
334
330
1E
100
AcDbEntity
  8
0
100
AcDbLine
 10
52.1
 20
238.9
 30
0.0
 11
59.4
 21
233.4
 31
0.0
  0
LINE
  5
335
330
1E
100
AcDbEntity
  8
0
100
AcDbLine
 10
127.6
 20
239.3
 30
0.0
 11
136.0
 21
242.7
 31
0.0
  0
LINE
  5
336
330
1E
100
AcDbEntity
  8
0
100
AcDbLine
 10
162.4
 20
239.3
 30
0.0
 11
169.7
 21
233.7
 31
0.0
  0
LINE
  5
337
330
1E
100
AcDbEntity
  8
0
100
AcDbLine
 10
272.4
 20
239.3
 30
0.0
 11
279.7
 21
233.7
 31
0.0
  0
LINE
  5
338
330
1E
100
AcDbEntity
  8
0
100
AcDbLine
 10
237.6
 20
239.3
 30
0.0
 11
246.0
 21
242.7
 31
0.0
  0
LINE
  5
339
330
1E
100
AcDbEntity
  8
0
100
AcDbLine
 10
52.4
 20
239.3
 30
0.0
 11
59.7
 21
233.7
 31
0.0
  0
LINE
  5
33A
330
1E
100
AcDbEntity
  8
0
100
AcDbLine
 10
17.6
 20
239.3
 30
0.0
 11
26.0
 21
242.7
 31
0.0
  0
LINE
  5
33B
330
1E
100
AcDbEntity
  8
0
100
AcDbLine
 10
17.9
 20
238.9
 30
0.0
 11
26.1
 21
242.3
 31
0.0
  0
LINE
  5
340
330
1E
100
AcDbEntity
  8
0
100
AcDbLine
 10
26.0
 20
242.7
 30
0.0
 11
31.0
 21
243.422222222222
 31
0.0
  0
LINE
  5
341
330
1E
100
AcDbEntity
  8
0
100
AcDbLine
 10
26.1
 20
242.3
 30
0.0
 11
31.0
 21
242.960674157303
 31
0.0
  0
LINE
  5
342
330
1E
100
AcDbEntity
  8
0
100
AcDbLine
 10
31.5
 20
243.5
 30
0.0
 11
35.0
 21
243.5
 31
0.0
  0
LINE
  5
343
330
1E
100
AcDbEntity
  8
0
100
AcDbLine
 10
31.5
 20
243.5
 30
0.0
 11
31.5
 21
212.8
 31
0.0
  0
LINE
  5
344
330
1E
100
AcDbEntity
  8
0
100
AcDbLine
 10
39.0
 20
242.960674157303
 30
0.0
 11
43.9
 21
242.3
 31
0.0
  0
LINE
  5
345
330
1E
100
AcDbEntity
  8
0
100
AcDbLine
 10
39.0
 20
243.422222222222
 30
0.0
 11
44.0
 21
242.7
 31
0.0
  0
LINE
  5
346
330
1E
100
AcDbEntity
  8
0
100
AcDbLine
 10
35.0
 20
243.5
 30
0.0
 11
38.5
 21
243.5
 31
0.0
  0
LINE
  5
347
330
1E
100
AcDbEntity
  8
0
100
AcDbLine
 10
31.0
 20
244.0
 30
0.0
 11
35.0
 21
244.0
 31
0.0
  0
LINE
  5
348
330
1E
100
AcDbEntity
  8
0
100
AcDbLine
 10
31.0
 20
244.0
 30
0.0
 11
31.0
 21
213.4
 31
0.0
  0
LINE
  5
349
330
1E
100
AcDbEntity
  8
0
100
AcDbLine
 10
31.0
 20
244.0
 30
0.0
 11
31.5
 21
243.5
 31
0.0
  0
LINE
  5
34A
330
1E
100
AcDbEntity
  8
0
100
AcDbLine
 10
38.5
 20
243.5
 30
0.0
 11
39.0
 21
244.0
 31
0.0
  0
LINE
  5
34B
330
1E
100
AcDbEntity
  8
0
100
AcDbLine
 10
38.5
 20
243.5
 30
0.0
 11
38.5
 21
212.8
 31
0.0
  0
LINE
  5
34C
330
1E
100
AcDbEntity
  8
0
100
AcDbLine
 10
136.1
 20
242.3
 30
0.0
 11
145.0
 21
243.5
 31
0.0
  0
LINE
  5
34D
330
1E
100
AcDbEntity
  8
0
100
AcDbLine
 10
153.9
 20
242.3
 30
0.0
 11
162.1
 21
238.9
 31
0.0
  0
LINE
  5
34E
330
1E
100
AcDbEntity
  8
0
100
AcDbLine
 10
263.9
 20
242.3
 30
0.0
 11
272.1
 21
238.9
 31
0.0
  0
LINE
  5
34F
330
1E
100
AcDbEntity
  8
0
100
AcDbLine
 10
136.0
 20
242.7
 30
0.0
 11
145.0
 21
244.0
 31
0.0
  0
LINE
  5
350
330
1E
100
AcDbEntity
  8
0
100
AcDbLine
 10
154.0
 20
242.7
 30
0.0
 11
162.4
 21
239.3
 31
0.0
  0
LINE
  5
351
330
1E
100
AcDbEntity
  8
0
100
AcDbLine
 10
264.0
 20
242.7
 30
0.0
 11
272.4
 21
239.3
 31
0.0
  0
LINE
  5
352
330
1E
100
AcDbEntity
  8
0
100
AcDbLine
 10
246.0
 20
242.7
 30
0.0
 11
251.0
 21
243.422222222222
 31
0.0
  0
LINE
  5
353
330
1E
100
AcDbEntity
  8
0
100
AcDbLine
 10
246.1
 20
242.3
 30
0.0
 11
251.0
 21
242.960674157303
 31
0.0
  0
LINE
  5
354
330
1E
100
AcDbEntity
  8
0
100
AcDbLine
 10
43.9
 20
242.3
 30
0.0
 11
52.1
 21
238.9
 31
0.0
  0
LINE
  5
355
330
1E
100
AcDbEntity
  8
0
100
AcDbLine
 10
145.0
 20
243.5
 30
0.0
 11
153.9
 21
242.3
 31
0.0
  0
LINE
  5
356
330
1E
100
AcDbEntity
  8
0
100
AcDbLine
 10
145.0
 20
244.0
 30
0.0
 11
154.0
 21
242.7
 31
0.0
  0
LINE
  5
357
330
1E
100
AcDbEntity
  8
0
100
AcDbLine
 10
255.0
 20
243.5
 30
0.0
 11
258.5
 21
243.5
 31
0.0
  0
LINE
  5
358
330
1E
100
AcDbEntity
  8
0
100
AcDbLine
 10
258.5
 20
243.5
 30
0.0
 11
259.0
 21
244.0
 31
0.0
  0
LINE
  5
359
330
1E
100
AcDbEntity
  8
0
100
AcDbLine
 10
258.5
 20
243.5
 30
0.0
 11
258.5
 21
212.8
 31
0.0
  0
LINE
  5
35A
330
1E
100
AcDbEntity
  8
0
100
AcDbLine
 10
259.0
 20
244.0
 30
0.0
 11
259.0
 21
213.4
 31
0.0
  0
LINE
  5
35B
330
1E
100
AcDbEntity
  8
0
100
AcDbLine
 10
255.0
 20
244.0
 30
0.0
 11
259.0
 21
244.0
 31
0.0
  0
LINE
  5
35C
330
1E
100
AcDbEntity
  8
0
100
AcDbLine
 10
251.5
 20
243.5
 30
0.0
 11
255.0
 21
243.5
 31
0.0
  0
LINE
  5
35D
330
1E
100
AcDbEntity
  8
0
100
AcDbLine
 10
251.5
 20
243.5
 30
0.0
 11
251.5
 21
212.8
 31
0.0
  0
LINE
  5
35E
330
1E
100
AcDbEntity
  8
0
100
AcDbLine
 10
251.0
 20
244.0
 30
0.0
 11
255.0
 21
244.0
 31
0.0
  0
LINE
  5
35F
330
1E
100
AcDbEntity
  8
0
100
AcDbLine
 10
251.0
 20
244.0
 30
0.0
 11
251.0
 21
213.4
 31
0.0
  0
LINE
  5
360
330
1E
100
AcDbEntity
  8
0
100
AcDbLine
 10
251.0
 20
244.0
 30
0.0
 11
251.5
 21
243.5
 31
0.0
  0
LINE
  5
361
330
1E
100
AcDbEntity
  8
0
100
AcDbLine
 10
259.0
 20
242.960674157303
 30
0.0
 11
263.9
 21
242.3
 31
0.0
  0
LINE
  5
362
330
1E
100
AcDbEntity
  8
0
100
AcDbLine
 10
259.0
 20
243.422222222222
 30
0.0
 11
264.0
 21
242.7
 31
0.0
  0
LINE
  5
363
330
1E
100
AcDbEntity
  8
0
100
AcDbLine
 10
44.0
 20
242.7
 30
0.0
 11
52.4
 21
239.3
 31
0.0
  0
LINE
  5
364
330
1E
100
AcDbEntity
  8
0
100
AcDbLine
 10
39.0
 20
244.0
 30
0.0
 11
39.0
 21
213.4
 31
0.0
  0
LINE
  5
365
330
1E
100
AcDbEntity
  8
0
100
AcDbLine
 10
35.0
 20
244.0
 30
0.0
 11
39.0
 21
244.0
 31
0.0
  0
LINE
  5
58E
330
1E
100
AcDbEntity
  8
0
100
AcDbLine
 10
333.822
 20
3.82332
 30
0.0
 11
339.296
 21
0.51528
 31
0.0
  0
LINE
  5
58F
330
1E
100
AcDbEntity
  8
0
100
AcDbLine
 10
339.296
 20
0.51528
 30
0.0
 11
345.063
 21
-2.0644
 31
0.0
  0
LINE
  5
590
330
1E
100
AcDbEntity
  8
0
100
AcDbLine
 10
345.063
 20
-2.0644
 30
0.0
 11
351.267
 21
-3.9167
 31
0.0
  0
LINE
  5
591
330
1E
100
AcDbEntity
  8
0
100
AcDbLine
 10
351.267
 20
-3.9167
 30
0.0
 11
357.764
 21
-5.1076
 31
0.0
  0
LINE
  5
592
330
1E
100
AcDbEntity
  8
0
100
AcDbLine
 10
357.764
 20
-5.1076
 30
0.0
 11
364.187
 21
-5.5703
 31
0.0
  0
LINE
  5
593
330
1E
100
AcDbEntity
  8
0
100
AcDbLine
 10
357.764
 20
3.76732
 30
0.0
 11
364.187
 21
3.30477
 31
0.0
  0
LINE
  5
594
330
1E
100
AcDbEntity
  8
0
100
AcDbLine
 10
364.187
 20
-5.5703
 30
0.0
 11
370.61
 21
-5.1076
 31
0.0
  0
LINE
  5
595
330
1E
100
AcDbEntity
  8
0
100
AcDbLine
 10
389.078
 20
0.51528
 30
0.0
 11
394.552
 21
3.82332
 31
0.0
  0
LINE
  5
596
330
1E
100
AcDbEntity
  8
0
100
AcDbLine
 10
383.311
 20
-2.0644
 30
0.0
 11
389.078
 21
0.51528
 31
0.0
  0
LINE
  5
597
330
1E
100
AcDbEntity
  8
0
100
AcDbLine
 10
377.107
 20
-3.9167
 30
0.0
 11
383.311
 21
-2.0644
 31
0.0
  0
LINE
  5
598
330
1E
100
AcDbEntity
  8
0
100
AcDbLine
 10
370.61
 20
-5.1076
 30
0.0
 11
377.107
 21
-3.9167
 31
0.0
  0
LINE
  5
599
330
1E
100
AcDbEntity
  8
0
100
AcDbLine
 10
394.552
 20
3.82332
 30
0.0
 11
399.515
 21
7.72677
 31
0.0
  0
LINE
  5
59A
330
1E
100
AcDbEntity
  8
0
100
AcDbLine
 10
370.61
 20
3.76732
 30
0.0
 11
377.107
 21
4.95825
 31
0.0
  0
LINE
  5
59B
330
1E
100
AcDbEntity
  8
0
100
AcDbLine
 10
364.187
 20
3.30477
 30
0.0
 11
370.61
 21
3.76732
 31
0.0
  0
LINE
  5
59C
330
1E
100
AcDbEntity
  8
0
100
AcDbLine
 10
314.698
 20
33.9232
 30
0.0
 11
316.012
 21
28.0355
 31
0.0
  0
LINE
  5
59D
330
1E
100
AcDbEntity
  8
0
100
AcDbLine
 10
314.698
 20
42.7981
 30
0.0
 11
316.012
 21
36.9104
 31
0.0
  0
LINE
  5
59E
330
1E
100
AcDbEntity
  8
0
100
AcDbLine
 10
314.187
 20
39.7449
 30
0.0
 11
314.187
 21
48.6199
 31
0.0
  0
LINE
  5
59F
330
1E
100
AcDbEntity
  8
0
100
AcDbLine
 10
314.187
 20
39.7449
 30
0.0
 11
314.698
 21
33.9232
 31
0.0
  0
LINE
  5
5A0
330
1E
100
AcDbEntity
  8
0
100
AcDbLine
 10
314.698
 20
54.4414
 30
0.0
 11
316.012
 21
60.329
 31
0.0
  0
LINE
  5
5A1
330
1E
100
AcDbEntity
  8
0
100
AcDbLine
 10
314.187
 20
48.6199
 30
0.0
 11
314.698
 21
54.4414
 31
0.0
  0
LINE
  5
5A2
330
1E
100
AcDbEntity
  8
0
100
AcDbLine
 10
314.187
 20
48.6199
 30
0.0
 11
314.698
 21
42.7981
 31
0.0
  0
LINE
  5
5A3
330
1E
100
AcDbEntity
  8
0
100
AcDbLine
 10
314.187
 20
48.6199
 30
0.0
 11
314.187
 21
39.7449
 31
0.0
  0
LINE
  5
5A4
330
1E
100
AcDbEntity
  8
0
100
AcDbLine
 10
318.056
 20
22.4125
 30
0.0
 11
320.902
 21
17.1862
 31
0.0
  0
LINE
  5
5A5
330
1E
100
AcDbEntity
  8
0
100
AcDbLine
 10
316.012
 20
28.0355
 30
0.0
 11
318.056
 21
22.4125
 31
0.0
  0
LINE
  5
5A6
330
1E
100
AcDbEntity
  8
0
100
AcDbLine
 10
318.056
 20
31.2875
 30
0.0
 11
320.902
 21
26.0613
 31
0.0
  0
LINE
  5
5A7
330
1E
100
AcDbEntity
  8
0
100
AcDbLine
 10
316.012
 20
36.9104
 30
0.0
 11
318.056
 21
31.2875
 31
0.0
  0
LINE
  5
5A8
330
1E
100
AcDbEntity
  8
0
100
AcDbLine
 10
324.552
 20
12.2247
 30
0.0
 11
328.859
 21
7.72677
 31
0.0
  0
LINE
  5
5A9
330
1E
100
AcDbEntity
  8
0
100
AcDbLine
 10
320.902
 20
17.1862
 30
0.0
 11
324.552
 21
12.2247
 31
0.0
  0
LINE
  5
5AA
330
1E
100
AcDbEntity
  8
0
100
AcDbLine
 10
324.552
 20
21.0997
 30
0.0
 11
328.859
 21
16.6018
 31
0.0
  0
LINE
  5
5AB
330
1E
100
AcDbEntity
  8
0
100
AcDbLine
 10
320.902
 20
26.0613
 30
0.0
 11
324.552
 21
21.0997
 31
0.0
  0
LINE
  5
5AC
330
1E
100
AcDbEntity
  8
0
100
AcDbLine
 10
328.859
 20
7.72677
 30
0.0
 11
333.822
 21
3.82332
 31
0.0
  0
LINE
  5
5AD
330
1E
100
AcDbEntity
  8
0
100
AcDbLine
 10
328.859
 20
16.6018
 30
0.0
 11
333.822
 21
12.6983
 31
0.0
  0
LINE
  5
5AE
330
1E
100
AcDbEntity
  8
0
100
AcDbLine
 10
329.369
 20
17.487
 30
0.0
 11
334.26
 21
13.6504
 31
0.0
  0
LINE
  5
5AF
330
1E
100
AcDbEntity
  8
0
100
AcDbLine
 10
325.136
 20
21.9189
 30
0.0
 11
329.369
 21
17.487
 31
0.0
  0
LINE
  5
5B0
330
1E
100
AcDbEntity
  8
0
100
AcDbLine
 10
321.486
 20
26.8145
 30
0.0
 11
325.136
 21
21.9189
 31
0.0
  0
LINE
  5
5B1
330
1E
100
AcDbEntity
  8
0
100
AcDbLine
 10
318.786
 20
31.9749
 30
0.0
 11
321.486
 21
26.8145
 31
0.0
  0
LINE
  5
5B2
330
1E
100
AcDbEntity
  8
0
100
AcDbLine
 10
316.669
 20
37.7966
 30
0.0
 11
318.786
 21
31.9749
 31
0.0
  0
LINE
  5
5B3
330
1E
100
AcDbEntity
  8
0
100
AcDbLine
 10
315.428
 20
43.2867
 30
0.0
 11
316.669
 21
37.7966
 31
0.0
  0
LINE
  5
5B4
330
1E
100
AcDbEntity
  8
0
100
AcDbLine
 10
316.012
 20
60.329
 30
0.0
 11
318.056
 21
65.9522
 31
0.0
  0
LINE
  5
5B5
330
1E
100
AcDbEntity
  8
0
100
AcDbLine
 10
318.056
 20
65.9522
 30
0.0
 11
320.902
 21
71.1782
 31
0.0
  0
LINE
  5
5B6
330
1E
100
AcDbEntity
  8
0
100
AcDbLine
 10
320.902
 20
71.1782
 30
0.0
 11
324.552
 21
76.1398
 31
0.0
  0
LINE
  5
5B7
330
1E
100
AcDbEntity
  8
0
100
AcDbLine
 10
324.552
 20
76.1398
 30
0.0
 11
328.859
 21
80.6383
 31
0.0
  0
LINE
  5
5B8
330
1E
100
AcDbEntity
  8
0
100
AcDbLine
 10
325.136
 20
76.1654
 30
0.0
 11
329.369
 21
80.5978
 31
0.0
  0
LINE
  5
5B9
330
1E
100
AcDbEntity
  8
0
100
AcDbLine
 10
321.486
 20
71.2701
 30
0.0
 11
325.136
 21
76.1654
 31
0.0
  0
LINE
  5
5BA
330
1E
100
AcDbEntity
  8
0
100
AcDbLine
 10
318.786
 20
66.1101
 30
0.0
 11
321.486
 21
71.2701
 31
0.0
  0
LINE
  5
5BB
330
1E
100
AcDbEntity
  8
0
100
AcDbLine
 10
316.669
 20
60.2885
 30
0.0
 11
318.786
 21
66.1101
 31
0.0
  0
LINE
  5
5BC
330
1E
100
AcDbEntity
  8
0
100
AcDbLine
 10
315.428
 20
54.7978
 30
0.0
 11
316.669
 21
60.2885
 31
0.0
  0
LINE
  5
5BD
330
1E
100
AcDbEntity
  8
0
100
AcDbLine
 10
314.917
 20
49.0425
 30
0.0
 11
315.428
 21
54.7978
 31
0.0
  0
LINE
  5
5BE
330
1E
100
AcDbEntity
  8
0
100
AcDbLine
 10
314.917
 20
49.0425
 30
0.0
 11
315.428
 21
43.2867
 31
0.0
  0
LINE
  5
5BF
330
1E
100
AcDbEntity
  8
0
100
AcDbLine
 10
328.859
 20
80.6383
 30
0.0
 11
333.822
 21
84.5412
 31
0.0
  0
LINE
  5
5C0
330
1E
100
AcDbEntity
  8
0
100
AcDbLine
 10
333.822
 20
12.6983
 30
0.0
 11
339.296
 21
9.39023
 31
0.0
  0
LINE
  5
5C1
330
1E
100
AcDbEntity
  8
0
100
AcDbLine
 10
339.296
 20
9.39023
 30
0.0
 11
345.063
 21
6.81059
 31
0.0
  0
LINE
  5
5C2
330
1E
100
AcDbEntity
  8
0
100
AcDbLine
 10
334.26
 20
13.6504
 30
0.0
 11
339.661
 21
10.3424
 31
0.0
  0
LINE
  5
5C3
330
1E
100
AcDbEntity
  8
0
100
AcDbLine
 10
339.661
 20
10.3424
 30
0.0
 11
345.355
 21
7.89461
 31
0.0
  0
LINE
  5
5C4
330
1E
100
AcDbEntity
  8
0
100
AcDbLine
 10
329.369
 20
80.5978
 30
0.0
 11
334.26
 21
84.4346
 31
0.0
  0
LINE
  5
5C5
330
1E
100
AcDbEntity
  8
0
100
AcDbLine
 10
333.822
 20
84.5412
 30
0.0
 11
339.296
 21
87.849
 31
0.0
  0
LINE
  5
5C6
330
1E
100
AcDbEntity
  8
0
100
AcDbLine
 10
339.296
 20
87.849
 30
0.0
 11
345.063
 21
90.429
 31
0.0
  0
LINE
  5
5C7
330
1E
100
AcDbEntity
  8
0
100
AcDbLine
 10
334.26
 20
84.4346
 30
0.0
 11
339.661
 21
87.7424
 31
0.0
  0
LINE
  5
5C8
330
1E
100
AcDbEntity
  8
0
100
AcDbLine
 10
345.063
 20
6.81059
 30
0.0
 11
351.267
 21
4.95825
 31
0.0
  0
LINE
  5
5C9
330
1E
100
AcDbEntity
  8
0
100
AcDbLine
 10
351.267
 20
4.95825
 30
0.0
 11
357.764
 21
3.76732
 31
0.0
  0
LINE
  5
5CA
330
1E
100
AcDbEntity
  8
0
100
AcDbLine
 10
345.355
 20
7.89461
 30
0.0
 11
351.778
 21
5.97638
 31
0.0
  0
LINE
  5
5CB
330
1E
100
AcDbEntity
  8
0
100
AcDbLine
 10
351.778
 20
5.97638
 30
0.0
 11
357.837
 21
4.85134
 31
0.0
  0
LINE
  5
5CC
330
1E
100
AcDbEntity
  8
0
100
AcDbLine
 10
339.661
 20
87.7424
 30
0.0
 11
345.355
 21
90.1901
 31
0.0
  0
LINE
  5
5CD
330
1E
100
AcDbEntity
  8
0
100
AcDbLine
 10
345.063
 20
90.429
 30
0.0
 11
351.267
 21
92.2813
 31
0.0
  0
LINE
  5
5CE
330
1E
100
AcDbEntity
  8
0
100
AcDbLine
 10
351.267
 20
92.2813
 30
0.0
 11
357.764
 21
93.4721
 31
0.0
  0
LINE
  5
5CF
330
1E
100
AcDbEntity
  8
0
100
AcDbLine
 10
345.355
 20
90.1901
 30
0.0
 11
351.778
 21
92.1086
 31
0.0
  0
LINE
  5
5D0
330
1E
100
AcDbEntity
  8
0
100
AcDbLine
 10
355.547
 20
93.065758057565
 30
0.0
 11
355.547
 21
102.575
 31
0.0
  0
LINE
  5
5D1
330
1E
100
AcDbEntity
  8
0
100
AcDbLine
 10
357.837
 20
4.85134
 30
0.0
 11
364.187
 21
4.3888
 31
0.0
  0
LINE
  5
5D2
330
1E
100
AcDbEntity
  8
0
100
AcDbLine
 10
351.778
 20
92.1086
 30
0.0
 11
357.837
 21
93.2331
 31
0.0
  0
LINE
  5
5D3
330
1E
100
AcDbEntity
  8
0
100
AcDbLine
 10
357.764
 20
93.4721
 30
0.0
 11
364.187
 21
93.9352
 31
0.0
  0
LINE
  5
5D4
330
1E
100
AcDbEntity
  8
0
100
AcDbLine
 10
357.837
 20
93.2331
 30
0.0
 11
364.187
 21
93.6962
 31
0.0
  0
LINE
  5
5D5
330
1E
100
AcDbEntity
  8
0
100
AcDbLine
 10
370.537
 20
93.2331
 30
0.0
 11
376.596
 21
92.1086
 31
0.0
  0
LINE
  5
5D6
330
1E
100
AcDbEntity
  8
0
100
AcDbLine
 10
352.571
 20
101.195
 30
0.0
 11
353.819
 21
99.893
 31
0.0
  0
LINE
  5
5D7
330
1E
100
AcDbEntity
  8
0
100
AcDbLine
 10
352.187
 20
102.575
 30
0.0
 11
352.571
 21
103.995
 31
0.0
  0
LINE
  5
5D8
330
1E
100
AcDbEntity
  8
0
100
AcDbLine
 10
352.187
 20
102.575
 30
0.0
 11
352.571
 21
101.195
 31
0.0
  0
LINE
  5
5D9
330
1E
100
AcDbEntity
  8
0
100
AcDbLine
 10
352.187
 20
102.575
 30
0.0
 11
352.187
 21
163.056
 31
0.0
  0
LINE
  5
5DA
330
1E
100
AcDbEntity
  8
0
100
AcDbLine
 10
353.819
 20
99.893
 30
0.0
 11
355.547
 21
98.86376
 31
0.0
  0
LINE
  5
5DB
330
1E
100
AcDbEntity
  8
0
100
AcDbLine
 10
352.571
 20
103.995
 30
0.0
 11
353.819
 21
105.297
 31
0.0
  0
LINE
  5
5DC
330
1E
100
AcDbEntity
  8
0
100
AcDbLine
 10
353.819
 20
105.297
 30
0.0
 11
355.739
 21
106.44
 31
0.0
  0
LINE
  5
5DD
330
1E
100
AcDbEntity
  8
0
100
AcDbLine
 10
355.739
 20
106.44
 30
0.0
 11
358.235
 21
107.308
 31
0.0
  0
LINE
  5
5DE
330
1E
100
AcDbEntity
  8
0
100
AcDbLine
 10
361.979
 20
106.361
 30
0.0
 11
364.187
 21
106.519
 31
0.0
  0
LINE
  5
5DF
330
1E
100
AcDbEntity
  8
0
100
AcDbLine
 10
359.867
 20
105.966
 30
0.0
 11
361.979
 21
106.361
 31
0.0
  0
LINE
  5
5E0
330
1E
100
AcDbEntity
  8
0
100
AcDbLine
 10
358.043
 20
105.336
 30
0.0
 11
359.867
 21
105.966
 31
0.0
  0
LINE
  5
5E1
330
1E
100
AcDbEntity
  8
0
100
AcDbLine
 10
356.699
 20
104.547
 30
0.0
 11
358.043
 21
105.336
 31
0.0
  0
LINE
  5
5E2
330
1E
100
AcDbEntity
  8
0
100
AcDbLine
 10
355.835
 20
103.6
 30
0.0
 11
356.699
 21
104.547
 31
0.0
  0
LINE
  5
5E3
330
1E
100
AcDbEntity
  8
0
100
AcDbLine
 10
355.547
 20
102.575
 30
0.0
 11
355.547
 21
93.065758057565
 31
0.0
  0
LINE
  5
5E4
330
1E
100
AcDbEntity
  8
0
100
AcDbLine
 10
355.547
 20
102.575
 30
0.0
 11
355.835
 21
103.6
 31
0.0
  0
LINE
  5
5E5
330
1E
100
AcDbEntity
  8
0
100
AcDbLine
 10
348.79
 20
162.091
 30
0.0
 11
350.252
 21
159.236
 31
0.0
  0
LINE
  5
5E6
330
1E
100
AcDbEntity
  8
0
100
AcDbLine
 10
351.836
 20
157.462
 30
0.0
 11
352.187
 21
157.187241803279
 31
0.0
  0
LINE
  5
5E7
330
1E
100
AcDbEntity
  8
0
100
AcDbLine
 10
350.252
 20
159.236
 30
0.0
 11
350.709
 21
159.031
 31
0.0
  0
LINE
  5
5E8
330
1E
100
AcDbEntity
  8
0
100
AcDbLine
 10
350.361049608484
 20
159.187082779564
 30
0.0
 11
351.836
 21
157.462
 31
0.0
  0
LINE
  5
5E9
330
1E
100
AcDbEntity
  8
0
100
AcDbLine
 10
350.709
 20
159.031
 30
0.0
 11
352.187
 21
157.451358841779
 31
0.0
  0
LINE
  5
5EA
330
1E
100
AcDbEntity
  8
0
100
AcDbLine
 10
349.127
 20
161.415
 30
0.0
 11
349.186767041061
 21
161.316191585343
 31
0.0
  0
LINE
  5
5EB
330
1E
100
AcDbEntity
  8
0
100
AcDbLine
 10
348.154
 20
166.142
 30
0.0
 11
348.677
 21
168.814
 31
0.0
  0
LINE
  5
5EC
330
1E
100
AcDbEntity
  8
0
100
AcDbLine
 10
348.154
 20
166.142
 30
0.0
 11
348.337
 21
163.74
 31
0.0
  0
LINE
  5
5ED
330
1E
100
AcDbEntity
  8
0
100
AcDbLine
 10
348.337
 20
163.74
 30
0.0
 11
348.79
 21
162.091
 31
0.0
  0
LINE
  5
5EE
330
1E
100
AcDbEntity
  8
0
100
AcDbLine
 10
352.187
 20
163.056
 30
0.0
 11
352.187
 21
102.575
 31
0.0
  0
LINE
  5
5EF
330
1E
100
AcDbEntity
  8
0
100
AcDbLine
 10
352.187
 20
163.056
 30
0.0
 11
352.571
 21
165.45
 31
0.0
  0
LINE
  5
5F0
330
1E
100
AcDbEntity
  8
0
100
AcDbLine
 10
352.571
 20
165.45
 30
0.0
 11
353.819
 21
167.676
 31
0.0
  0
LINE
  5
5F1
330
1E
100
AcDbEntity
  8
0
100
AcDbLine
 10
348.677
 20
168.814
 30
0.0
 11
349.982
 21
171.33
 31
0.0
  0
LINE
  5
5F2
330
1E
100
AcDbEntity
  8
0
100
AcDbLine
 10
353.819
 20
167.676
 30
0.0
 11
355.739
 21
169.606
 31
0.0
  0
LINE
  5
5F3
330
1E
100
AcDbEntity
  8
0
100
AcDbLine
 10
355.739
 20
169.606
 30
0.0
 11
358.235
 21
171.03
 31
0.0
  0
LINE
  5
5F4
330
1E
100
AcDbEntity
  8
0
100
AcDbLine
 10
349.982
 20
171.33
 30
0.0
 11
351.916
 21
173.596
 31
0.0
  0
LINE
  5
5F5
330
1E
100
AcDbEntity
  8
0
100
AcDbLine
 10
358.235
 20
171.03
 30
0.0
 11
361.115
 21
171.91
 31
0.0
  0
LINE
  5
5F6
330
1E
100
AcDbEntity
  8
0
100
AcDbLine
 10
358.235
 20
107.308
 30
0.0
 11
361.115
 21
107.82
 31
0.0
  0
LINE
  5
5F7
330
1E
100
AcDbEntity
  8
0
100
AcDbLine
 10
361.115
 20
171.91
 30
0.0
 11
364.187
 21
172.247
 31
0.0
  0
LINE
  5
5F8
330
1E
100
AcDbEntity
  8
0
100
AcDbLine
 10
361.115
 20
107.82
 30
0.0
 11
364.187
 21
108.017
 31
0.0
  0
LINE
  5
5F9
330
1E
100
AcDbEntity
  8
0
100
AcDbLine
 10
351.916
 20
173.596
 30
0.0
 11
354.801
 21
175.633
 31
0.0
  0
LINE
  5
5FA
330
1E
100
AcDbEntity
  8
0
100
AcDbLine
 10
354.801
 20
175.633
 30
0.0
 11
358.615
 21
177.186
 31
0.0
  0
LINE
  5
5FB
330
1E
100
AcDbEntity
  8
0
100
AcDbLine
 10
364.187
 20
172.247
 30
0.0
 11
367.259
 21
171.91
 31
0.0
  0
LINE
  5
5FC
330
1E
100
AcDbEntity
  8
0
100
AcDbLine
 10
364.187
 20
108.017
 30
0.0
 11
367.259
 21
107.82
 31
0.0
  0
LINE
  5
5FD
330
1E
100
AcDbEntity
  8
0
100
AcDbLine
 10
364.187
 20
106.519
 30
0.0
 11
366.395
 21
106.361
 31
0.0
  0
LINE
  5
5FE
330
1E
100
AcDbEntity
  8
0
100
AcDbLine
 10
370.331
 20
105.336
 30
0.0
 11
371.675
 21
104.547
 31
0.0
  0
LINE
  5
5FF
330
1E
100
AcDbEntity
  8
0
100
AcDbLine
 10
368.507
 20
105.966
 30
0.0
 11
370.331
 21
105.336
 31
0.0
  0
LINE
  5
600
330
1E
100
AcDbEntity
  8
0
100
AcDbLine
 10
367.259
 20
171.91
 30
0.0
 11
370.139
 21
171.03
 31
0.0
  0
LINE
  5
601
330
1E
100
AcDbEntity
  8
0
100
AcDbLine
 10
370.139
 20
171.03
 30
0.0
 11
372.635
 21
169.606
 31
0.0
  0
LINE
  5
602
330
1E
100
AcDbEntity
  8
0
100
AcDbLine
 10
370.139
 20
107.308
 30
0.0
 11
372.635
 21
106.44
 31
0.0
  0
LINE
  5
603
330
1E
100
AcDbEntity
  8
0
100
AcDbLine
 10
367.259
 20
107.82
 30
0.0
 11
370.139
 21
107.308
 31
0.0
  0
LINE
  5
604
330
1E
100
AcDbEntity
  8
0
100
AcDbLine
 10
366.395
 20
106.361
 30
0.0
 11
368.507
 21
105.966
 31
0.0
  0
LINE
  5
605
330
1E
100
AcDbEntity
  8
0
100
AcDbLine
 10
364.187
 20
93.9352
 30
0.0
 11
370.61
 21
93.4721
 31
0.0
  0
LINE
  5
606
330
1E
100
AcDbEntity
  8
0
100
AcDbLine
 10
364.187
 20
93.6962
 30
0.0
 11
370.537
 21
93.2331
 31
0.0
  0
LINE
  5
607
330
1E
100
AcDbEntity
  8
0
100
AcDbLine
 10
377.107
 20
4.95825
 30
0.0
 11
383.311
 21
6.81059
 31
0.0
  0
LINE
  5
608
330
1E
100
AcDbEntity
  8
0
100
AcDbLine
 10
383.019
 20
90.1901
 30
0.0
 11
388.713
 21
87.7424
 31
0.0
  0
LINE
  5
609
330
1E
100
AcDbEntity
  8
0
100
AcDbLine
 10
372.827
 20
98.86376
 30
0.0
 11
374.555
 21
99.893
 31
0.0
  0
LINE
  5
60A
330
1E
100
AcDbEntity
  8
0
100
AcDbLine
 10
374.555
 20
99.893
 30
0.0
 11
375.803
 21
101.195
 31
0.0
  0
LINE
  5
60B
330
1E
100
AcDbEntity
  8
0
100
AcDbLine
 10
376.187
 20
102.575
 30
0.0
 11
376.187
 21
163.056
 31
0.0
  0
LINE
  5
60C
330
1E
100
AcDbEntity
  8
0
100
AcDbLine
 10
375.803
 20
101.195
 30
0.0
 11
376.187
 21
102.575
 31
0.0
  0
LINE
  5
60D
330
1E
100
AcDbEntity
  8
0
100
AcDbLine
 10
372.635
 20
169.606
 30
0.0
 11
374.555
 21
167.676
 31
0.0
  0
LINE
  5
60E
330
1E
100
AcDbEntity
  8
0
100
AcDbLine
 10
375.803
 20
103.995
 30
0.0
 11
376.187
 21
102.575
 31
0.0
  0
LINE
  5
60F
330
1E
100
AcDbEntity
  8
0
100
AcDbLine
 10
376.187
 20
157.234563492063
 30
0.0
 11
376.908
 21
157.976
 31
0.0
  0
LINE
  5
610
330
1E
100
AcDbEntity
  8
0
100
AcDbLine
 10
376.187
 20
157.922329273793
 30
0.0
 11
376.411
 21
158.124
 31
0.0
  0
LINE
  5
611
330
1E
100
AcDbEntity
  8
0
100
AcDbLine
 10
376.908
 20
157.976
 30
0.0
 11
378.798
 21
160.389
 31
0.0
  0
LINE
  5
612
330
1E
100
AcDbEntity
  8
0
100
AcDbLine
 10
379.786
 20
162.768
 30
0.0
 11
380.174
 21
164.858
 31
0.0
  0
LINE
  5
613
330
1E
100
AcDbEntity
  8
0
100
AcDbLine
 10
378.798
 20
160.389
 30
0.0
 11
379.786
 21
162.768
 31
0.0
  0
LINE
  5
614
330
1E
100
AcDbEntity
  8
0
100
AcDbLine
 10
376.187
 20
163.056
 30
0.0
 11
376.187
 21
102.575
 31
0.0
  0
LINE
  5
615
330
1E
100
AcDbEntity
  8
0
100
AcDbLine
 10
375.118
 20
174.631
 30
0.0
 11
376.973
 21
173.068
 31
0.0
  0
LINE
  5
616
330
1E
100
AcDbEntity
  8
0
100
AcDbLine
 10
376.973
 20
173.068
 30
0.0
 11
378.202
 21
171.528
 31
0.0
  0
LINE
  5
617
330
1E
100
AcDbEntity
  8
0
100
AcDbLine
 10
379.945
 20
167.86
 30
0.0
 11
380.174
 21
164.858
 31
0.0
  0
LINE
  5
618
330
1E
100
AcDbEntity
  8
0
100
AcDbLine
 10
379.195
 20
169.888
 30
0.0
 11
379.254989660265
 21
169.711296279193
 31
0.0
  0
LINE
  5
619
330
1E
100
AcDbEntity
  8
0
100
AcDbLine
 10
379.368
 20
169.617
 30
0.0
 11
379.945
 21
167.86
 31
0.0
  0
LINE
  5
61A
330
1E
100
AcDbEntity
  8
0
100
AcDbLine
 10
378.202
 20
171.528
 30
0.0
 11
379.195
 21
169.888
 31
0.0
  0
LINE
  5
61B
330
1E
100
AcDbEntity
  8
0
100
AcDbLine
 10
375.803
 20
165.45
 30
0.0
 11
376.187
 21
163.056
 31
0.0
  0
LINE
  5
61C
330
1E
100
AcDbEntity
  8
0
100
AcDbLine
 10
374.555
 20
167.676
 30
0.0
 11
375.803
 21
165.45
 31
0.0
  0
LINE
  5
61D
330
1E
100
AcDbEntity
  8
0
100
AcDbLine
 10
374.555
 20
105.297
 30
0.0
 11
375.803
 21
103.995
 31
0.0
  0
LINE
  5
61E
330
1E
100
AcDbEntity
  8
0
100
AcDbLine
 10
372.635
 20
106.44
 30
0.0
 11
374.555
 21
105.297
 31
0.0
  0
LINE
  5
61F
330
1E
100
AcDbEntity
  8
0
100
AcDbLine
 10
372.827
 20
102.575
 30
0.0
 11
372.827
 21
93.065758057565
 31
0.0
  0
LINE
  5
620
330
1E
100
AcDbEntity
  8
0
100
AcDbLine
 10
372.539
 20
103.6
 30
0.0
 11
372.827
 21
102.575
 31
0.0
  0
LINE
  5
621
330
1E
100
AcDbEntity
  8
0
100
AcDbLine
 10
372.827
 20
93.065758057565
 30
0.0
 11
372.827
 21
102.575
 31
0.0
  0
LINE
  5
622
330
1E
100
AcDbEntity
  8
0
100
AcDbLine
 10
371.675
 20
104.547
 30
0.0
 11
372.539
 21
103.6
 31
0.0
  0
LINE
  5
623
330
1E
100
AcDbEntity
  8
0
100
AcDbLine
 10
377.107
 20
92.2813
 30
0.0
 11
383.311
 21
90.429
 31
0.0
  0
LINE
  5
624
330
1E
100
AcDbEntity
  8
0
100
AcDbLine
 10
370.61
 20
93.4721
 30
0.0
 11
377.107
 21
92.2813
 31
0.0
  0
LINE
  5
625
330
1E
100
AcDbEntity
  8
0
100
AcDbLine
 10
376.596
 20
92.1086
 30
0.0
 11
383.019
 21
90.1901
 31
0.0
  0
LINE
  5
626
330
1E
100
AcDbEntity
  8
0
100
AcDbLine
 10
399.515
 20
7.72677
 30
0.0
 11
403.822
 21
12.2247
 31
0.0
  0
LINE
  5
627
330
1E
100
AcDbEntity
  8
0
100
AcDbLine
 10
389.078
 20
9.39023
 30
0.0
 11
394.552
 21
12.6983
 31
0.0
  0
LINE
  5
628
330
1E
100
AcDbEntity
  8
0
100
AcDbLine
 10
383.311
 20
6.81059
 30
0.0
 11
389.078
 21
9.39023
 31
0.0
  0
LINE
  5
629
330
1E
100
AcDbEntity
  8
0
100
AcDbLine
 10
394.114
 20
84.4346
 30
0.0
 11
399.005
 21
80.5978
 31
0.0
  0
LINE
  5
62A
330
1E
100
AcDbEntity
  8
0
100
AcDbLine
 10
389.078
 20
87.849
 30
0.0
 11
394.552
 21
84.5412
 31
0.0
  0
LINE
  5
62B
330
1E
100
AcDbEntity
  8
0
100
AcDbLine
 10
383.311
 20
90.429
 30
0.0
 11
389.078
 21
87.849
 31
0.0
  0
LINE
  5
62C
330
1E
100
AcDbEntity
  8
0
100
AcDbLine
 10
388.713
 20
87.7424
 30
0.0
 11
394.114
 21
84.4346
 31
0.0
  0
LINE
  5
62D
330
1E
100
AcDbEntity
  8
0
100
AcDbLine
 10
403.822
 20
12.2247
 30
0.0
 11
407.472
 21
17.1862
 31
0.0
  0
LINE
  5
62E
330
1E
100
AcDbEntity
  8
0
100
AcDbLine
 10
399.515
 20
16.6018
 30
0.0
 11
403.822
 21
21.0997
 31
0.0
  0
LINE
  5
62F
330
1E
100
AcDbEntity
  8
0
100
AcDbLine
 10
399.005
 20
17.487
 30
0.0
 11
403.238
 21
21.9189
 31
0.0
  0
LINE
  5
630
330
1E
100
AcDbEntity
  8
0
100
AcDbLine
 10
407.472
 20
17.1862
 30
0.0
 11
410.318
 21
22.4125
 31
0.0
  0
LINE
  5
631
330
1E
100
AcDbEntity
  8
0
100
AcDbLine
 10
403.822
 20
21.0997
 30
0.0
 11
407.472
 21
26.0613
 31
0.0
  0
LINE
  5
632
330
1E
100
AcDbEntity
  8
0
100
AcDbLine
 10
407.472
 20
26.0613
 30
0.0
 11
410.318
 21
31.2875
 31
0.0
  0
LINE
  5
633
330
1E
100
AcDbEntity
  8
0
100
AcDbLine
 10
403.238
 20
21.9189
 30
0.0
 11
406.888
 21
26.8145
 31
0.0
  0
LINE
  5
634
330
1E
100
AcDbEntity
  8
0
100
AcDbLine
 10
406.888
 20
26.8145
 30
0.0
 11
409.588
 21
31.9749
 31
0.0
  0
LINE
  5
635
330
1E
100
AcDbEntity
  8
0
100
AcDbLine
 10
410.318
 20
22.4125
 30
0.0
 11
412.362
 21
28.0355
 31
0.0
  0
LINE
  5
636
330
1E
100
AcDbEntity
  8
0
100
AcDbLine
 10
412.362
 20
28.0355
 30
0.0
 11
413.676
 21
33.9232
 31
0.0
  0
LINE
  5
637
330
1E
100
AcDbEntity
  8
0
100
AcDbLine
 10
410.318
 20
31.2875
 30
0.0
 11
412.362
 21
36.9104
 31
0.0
  0
LINE
  5
638
330
1E
100
AcDbEntity
  8
0
100
AcDbLine
 10
412.362
 20
36.9104
 30
0.0
 11
413.676
 21
42.7981
 31
0.0
  0
LINE
  5
639
330
1E
100
AcDbEntity
  8
0
100
AcDbLine
 10
409.588
 20
31.9749
 30
0.0
 11
411.705
 21
37.7966
 31
0.0
  0
LINE
  5
63A
330
1E
100
AcDbEntity
  8
0
100
AcDbLine
 10
407.472
 20
71.1782
 30
0.0
 11
410.318
 21
65.9522
 31
0.0
  0
LINE
  5
63B
330
1E
100
AcDbEntity
  8
0
100
AcDbLine
 10
394.552
 20
84.5412
 30
0.0
 11
399.515
 21
80.6383
 31
0.0
  0
LINE
  5
63C
330
1E
100
AcDbEntity
  8
0
100
AcDbLine
 10
399.515
 20
80.6383
 30
0.0
 11
403.822
 21
76.1398
 31
0.0
  0
LINE
  5
63D
330
1E
100
AcDbEntity
  8
0
100
AcDbLine
 10
399.005
 20
80.5978
 30
0.0
 11
403.238
 21
76.1654
 31
0.0
  0
LINE
  5
63E
330
1E
100
AcDbEntity
  8
0
100
AcDbLine
 10
403.822
 20
76.1398
 30
0.0
 11
407.472
 21
71.1782
 31
0.0
  0
LINE
  5
63F
330
1E
100
AcDbEntity
  8
0
100
AcDbLine
 10
403.238
 20
76.1654
 30
0.0
 11
406.888
 21
71.2701
 31
0.0
  0
LINE
  5
640
330
1E
100
AcDbEntity
  8
0
100
AcDbLine
 10
406.888
 20
71.2701
 30
0.0
 11
409.588
 21
66.1101
 31
0.0
  0
LINE
  5
641
330
1E
100
AcDbEntity
  8
0
100
AcDbLine
 10
410.318
 20
65.9522
 30
0.0
 11
412.362
 21
60.329
 31
0.0
  0
LINE
  5
642
330
1E
100
AcDbEntity
  8
0
100
AcDbLine
 10
412.362
 20
60.329
 30
0.0
 11
413.676
 21
54.4414
 31
0.0
  0
LINE
  5
643
330
1E
100
AcDbEntity
  8
0
100
AcDbLine
 10
409.588
 20
66.1101
 30
0.0
 11
411.705
 21
60.2885
 31
0.0
  0
LINE
  5
644
330
1E
100
AcDbEntity
  8
0
100
AcDbLine
 10
411.705
 20
60.2885
 30
0.0
 11
412.946
 21
54.7978
 31
0.0
  0
LINE
  5
645
330
1E
100
AcDbEntity
  8
0
100
AcDbLine
 10
412.946
 20
54.7978
 30
0.0
 11
413.457
 21
49.0425
 31
0.0
  0
LINE
  5
646
330
1E
100
AcDbEntity
  8
0
100
AcDbLine
 10
411.705
 20
37.7966
 30
0.0
 11
412.946
 21
43.2867
 31
0.0
  0
LINE
  5
647
330
1E
100
AcDbEntity
  8
0
100
AcDbLine
 10
414.187
 20
39.7449
 30
0.0
 11
414.187
 21
48.6199
 31
0.0
  0
LINE
  5
648
330
1E
100
AcDbEntity
  8
0
100
AcDbLine
 10
413.676
 20
33.9232
 30
0.0
 11
414.187
 21
39.7449
 31
0.0
  0
LINE
  5
649
330
1E
100
AcDbEntity
  8
0
100
AcDbLine
 10
414.187
 20
48.6199
 30
0.0
 11
414.187
 21
39.7449
 31
0.0
  0
LINE
  5
64A
330
1E
100
AcDbEntity
  8
0
100
AcDbLine
 10
413.676
 20
54.4414
 30
0.0
 11
414.187
 21
48.6199
 31
0.0
  0
LINE
  5
64B
330
1E
100
AcDbEntity
  8
0
100
AcDbLine
 10
413.676
 20
42.7981
 30
0.0
 11
414.187
 21
48.6199
 31
0.0
  0
LINE
  5
64C
330
1E
100
AcDbEntity
  8
0
100
AcDbLine
 10
412.946
 20
43.2867
 30
0.0
 11
413.457
 21
49.0425
 31
0.0
  0
LINE
  5
64D
330
1E
100
AcDbEntity
  8
0
100
AcDbLine
 10
394.552
 20
12.6983
 30
0.0
 11
399.515
 21
16.6018
 31
0.0
  0
LINE
  5
64E
330
1E
100
AcDbEntity
  8
0
100
AcDbLine
 10
394.114
 20
13.6504
 30
0.0
 11
399.005
 21
17.487
 31
0.0
  0
LINE
  5
64F
330
1E
100
AcDbEntity
  8
0
100
AcDbLine
 10
388.713
 20
10.3424
 30
0.0
 11
394.114
 21
13.6504
 31
0.0
  0
LINE
  5
650
330
1E
100
AcDbEntity
  8
0
100
AcDbLine
 10
383.019
 20
7.89461
 30
0.0
 11
388.713
 21
10.3424
 31
0.0
  0
LINE
  5
651
330
1E
100
AcDbEntity
  8
0
100
AcDbLine
 10
376.596
 20
5.97638
 30
0.0
 11
383.019
 21
7.89461
 31
0.0
  0
LINE
  5
652
330
1E
100
AcDbEntity
  8
0
100
AcDbLine
 10
370.537
 20
4.85134
 30
0.0
 11
376.596
 21
5.97638
 31
0.0
  0
LINE
  5
653
330
1E
100
AcDbEntity
  8
0
100
AcDbLine
 10
364.187
 20
4.3888
 30
0.0
 11
370.537
 21
4.85134
 31
0.0
  0
LINE
  5
654
330
1E
100
AcDbEntity
  8
0
100
AcDbLine
 10
341.842
 20
182.018
 30
0.0
 11
344.561
 21
180.041
 31
0.0
  0
LINE
  5
655
330
1E
100
AcDbEntity
  8
0
100
AcDbLine
 10
344.561
 20
180.041
 30
0.0
 11
347.408
 21
178.371
 31
0.0
  0
LINE
  5
656
330
1E
100
AcDbEntity
  8
0
100
AcDbLine
 10
339.401
 20
184.29
 30
0.0
 11
340.435810987608
 21
183.326833034066
 31
0.0
  0
LINE
  5
657
330
1E
100
AcDbEntity
  8
0
100
AcDbLine
 10
340.435810987608
 20
183.326833034066
 30
0.0
 11
341.842
 21
182.018
 31
0.0
  0
LINE
  5
658
330
1E
100
AcDbEntity
  8
0
100
AcDbLine
 10
348.169
 20
176.957
 30
0.0
 11
348.196707367469
 21
166.360191368792
 31
0.0
  0
LINE
  5
659
330
1E
100
AcDbEntity
  8
0
100
AcDbLine
 10
348.169
 20
176.957
 30
0.0
 11
348.391
 21
179.962
 31
0.0
  0
LINE
  5
65A
330
1E
100
AcDbEntity
  8
0
100
AcDbLine
 10
348.410618492412
 20
180.007643349202
 30
0.0
 11
348.554
 21
181.054
 31
0.0
  0
LINE
  5
65B
330
1E
100
AcDbEntity
  8
0
100
AcDbLine
 10
348.391
 20
179.962
 30
0.0
 11
349.619
 21
182.819
 31
0.0
  0
LINE
  5
65C
330
1E
100
AcDbEntity
  8
0
100
AcDbLine
 10
358.615
 20
177.186
 30
0.0
 11
362.44
 21
177.88
 31
0.0
  0
LINE
  5
65D
330
1E
100
AcDbEntity
  8
0
100
AcDbLine
 10
371.611
 20
176.576
 30
0.0
 11
375.118
 21
174.631
 31
0.0
  0
LINE
  5
65E
330
1E
100
AcDbEntity
  8
0
100
AcDbLine
 10
362.44
 20
177.88
 30
0.0
 11
367.533
 21
177.678
 31
0.0
  0
LINE
  5
65F
330
1E
100
AcDbEntity
  8
0
100
AcDbLine
 10
367.533
 20
177.678
 30
0.0
 11
371.611
 21
176.576
 31
0.0
  0
LINE
  5
660
330
1E
100
AcDbEntity
  8
0
100
AcDbLine
 10
380.140107158879
 20
177.982692505437
 30
0.0
 11
383.79
 21
180.062
 31
0.0
  0
LINE
  5
661
330
1E
100
AcDbEntity
  8
0
100
AcDbLine
 10
379.964
 20
180.103
 30
0.0
 11
380.161
 21
178.186
 31
0.0
  0
LINE
  5
662
330
1E
100
AcDbEntity
  8
0
100
AcDbLine
 10
379.874
 20
180.181
 30
0.0
 11
380.148
 21
176.58
 31
0.0
  0
LINE
  5
663
330
1E
100
AcDbEntity
  8
0
100
AcDbLine
 10
380.161
 20
177.994594948335
 30
0.0
 11
380.161
 21
204.005
 31
0.0
  0
LINE
  5
664
330
1E
100
AcDbEntity
  8
0
100
AcDbLine
 10
380.148
 20
176.58
 30
0.0
 11
380.167
 21
165.161
 31
0.0
  0
LINE
  5
665
330
1E
100
AcDbEntity
  8
0
100
AcDbLine
 10
348.554
 20
181.054
 30
0.0
 11
349.904
 21
183.751
 31
0.0
  0
LINE
  5
666
330
1E
100
AcDbEntity
  8
0
100
AcDbLine
 10
349.619
 20
182.819
 30
0.0
 11
351.66
 21
185.384
 31
0.0
  0
LINE
  5
667
330
1E
100
AcDbEntity
  8
0
100
AcDbLine
 10
379.209
 20
181.919
 30
0.0
 11
379.874
 21
180.181
 31
0.0
  0
LINE
  5
668
330
1E
100
AcDbEntity
  8
0
100
AcDbLine
 10
383.79
 20
180.062
 30
0.0
 11
387.688
 21
183.149
 31
0.0
  0
LINE
  5
669
330
1E
100
AcDbEntity
  8
0
100
AcDbLine
 10
378.986
 20
182.894
 30
0.0
 11
379.964
 21
180.103
 31
0.0
  0
LINE
  5
66A
330
1E
100
AcDbEntity
  8
0
100
AcDbLine
 10
349.904
 20
183.75
 30
0.0
 11
351.216
 21
185.39
 31
0.0
  0
LINE
  5
66B
330
1E
100
AcDbEntity
  8
0
100
AcDbLine
 10
387.688
 20
183.149
 30
0.0
 11
390.042
 21
185.503
 31
0.0
  0
LINE
  5
66C
330
1E
100
AcDbEntity
  8
0
100
AcDbLine
 10
378.245
 20
183.568
 30
0.0
 11
379.209
 21
181.919
 31
0.0
  0
LINE
  5
66D
330
1E
100
AcDbEntity
  8
0
100
AcDbLine
 10
347.406
 20
178.373
 30
0.0
 11
348.180088335217
 21
177.995402246379
 31
0.0
  0
LINE
  5
66E
330
1E
100
AcDbEntity
  8
0
100
AcDbLine
 10
345.746
 20
187.352
 30
0.0
 11
348.05
 21
185.591
 31
0.0
  0
LINE
  5
66F
330
1E
100
AcDbEntity
  8
0
100
AcDbLine
 10
337.131
 20
186.732
 30
0.0
 11
339.401
 21
184.29
 31
0.0
  0
LINE
  5
670
330
1E
100
AcDbEntity
  8
0
100
AcDbLine
 10
351.66
 20
185.384
 30
0.0
 11
355.122
 21
187.833
 31
0.0
  0
LINE
  5
671
330
1E
100
AcDbEntity
  8
0
100
AcDbLine
 10
380.161
 20
185.523379603399
 30
0.0
 11
380.271
 21
185.591
 31
0.0
  0
LINE
  5
672
330
1E
100
AcDbEntity
  8
0
100
AcDbLine
 10
380.271
 20
185.591
 30
0.0
 11
382.575
 21
187.353
 31
0.0
  0
LINE
  5
673
330
1E
100
AcDbEntity
  8
0
100
AcDbLine
 10
351.216
 20
185.39
 30
0.0
 11
352.847
 21
186.853
 31
0.0
  0
LINE
  5
674
330
1E
100
AcDbEntity
  8
0
100
AcDbLine
 10
390.042
 20
185.503
 30
0.0
 11
391.163
 21
186.737
 31
0.0
  0
LINE
  5
675
330
1E
100
AcDbEntity
  8
0
100
AcDbLine
 10
352.847
 20
186.853
 30
0.0
 11
354.756
 21
188.102
 31
0.0
  0
LINE
  5
676
330
1E
100
AcDbEntity
  8
0
100
AcDbLine
 10
376.363
 20
186.171
 30
0.0
 11
378.986
 21
182.894
 31
0.0
  0
LINE
  5
677
330
1E
100
AcDbEntity
  8
0
100
AcDbLine
 10
373.586
 20
187.594
 30
0.0
 11
375.933
 21
185.994
 31
0.0
  0
LINE
  5
678
330
1E
100
AcDbEntity
  8
0
100
AcDbLine
 10
382.575
 20
187.353
 30
0.0
 11
384.687
 21
189.34
 31
0.0
  0
LINE
  5
679
330
1E
100
AcDbEntity
  8
0
100
AcDbLine
 10
391.163
 20
186.737
 30
0.0
 11
394.896
 21
192.248
 31
0.0
  0
LINE
  5
67A
330
1E
100
AcDbEntity
  8
0
100
AcDbLine
 10
375.933
 20
185.994
 30
0.0
 11
378.245
 21
183.568
 31
0.0
  0
LINE
  5
67B
330
1E
100
AcDbEntity
  8
0
100
AcDbLine
 10
348.05
 20
185.591
 30
0.0
 11
348.161
 21
185.522764872521
 31
0.0
  0
LINE
  5
67C
330
1E
100
AcDbEntity
  8
0
100
AcDbLine
 10
355.122
 20
187.833
 30
0.0
 11
358.626
 21
189.187
 31
0.0
  0
LINE
  5
67D
330
1E
100
AcDbEntity
  8
0
100
AcDbLine
 10
356.634
 20
188.419
 30
0.0
 11
356.745777742498
 21
188.460452929036
 31
0.0
  0
LINE
  5
67E
330
1E
100
AcDbEntity
  8
0
100
AcDbLine
 10
354.756
 20
188.102
 30
0.0
 11
356.897
 21
189.107
 31
0.0
  0
LINE
  5
67F
330
1E
100
AcDbEntity
  8
0
100
AcDbLine
 10
370.877
 20
188.813
 30
0.0
 11
373.586
 21
187.594
 31
0.0
  0
LINE
  5
680
330
1E
100
AcDbEntity
  8
0
100
AcDbLine
 10
358.626
 20
189.187
 30
0.0
 11
361.665
 21
189.793
 31
0.0
  0
LINE
  5
681
330
1E
100
AcDbEntity
  8
0
100
AcDbLine
 10
356.897
 20
189.107
 30
0.0
 11
359.217
 21
189.843
 31
0.0
  0
LINE
  5
682
330
1E
100
AcDbEntity
  8
0
100
AcDbLine
 10
372.548
 20
188.667
 30
0.0
 11
376.363
 21
186.171
 31
0.0
  0
LINE
  5
683
330
1E
100
AcDbEntity
  8
0
100
AcDbLine
 10
343.634
 20
189.34
 30
0.0
 11
345.746
 21
187.352
 31
0.0
  0
LINE
  5
684
330
1E
100
AcDbEntity
  8
0
100
AcDbLine
 10
384.687
 20
189.34
 30
0.0
 11
386.586
 21
191.532
 31
0.0
  0
LINE
  5
685
330
1E
100
AcDbEntity
  8
0
100
AcDbLine
 10
335.164
 20
189.387
 30
0.0
 11
337.131
 21
186.732
 31
0.0
  0
LINE
  5
686
330
1E
100
AcDbEntity
  8
0
100
AcDbLine
 10
367.91
 20
189.602
 30
0.0
 11
370.877
 21
188.813
 31
0.0
  0
LINE
  5
687
330
1E
100
AcDbEntity
  8
0
100
AcDbLine
 10
361.665
 20
189.793
 30
0.0
 11
364.799
 21
189.933
 31
0.0
  0
LINE
  5
688
330
1E
100
AcDbEntity
  8
0
100
AcDbLine
 10
359.217
 20
189.843
 30
0.0
 11
361.658
 21
190.292
 31
0.0
  0
LINE
  5
689
330
1E
100
AcDbEntity
  8
0
100
AcDbLine
 10
364.799
 20
189.933
 30
0.0
 11
367.91
 21
189.602
 31
0.0
  0
LINE
  5
68A
330
1E
100
AcDbEntity
  8
0
100
AcDbLine
 10
366.663
 20
190.292
 30
0.0
 11
369.105
 21
189.843
 31
0.0
  0
LINE
  5
68B
330
1E
100
AcDbEntity
  8
0
100
AcDbLine
 10
369.105
 20
189.843
 30
0.0
 11
372.548
 21
188.667
 31
0.0
  0
LINE
  5
68C
330
1E
100
AcDbEntity
  8
0
100
AcDbLine
 10
364.161
 20
190.443
 30
0.0
 11
366.663
 21
190.292
 31
0.0
  0
LINE
  5
68D
330
1E
100
AcDbEntity
  8
0
100
AcDbLine
 10
380.161
 20
190.574329842932
 30
0.0
 11
381.028
 21
191.75
 31
0.0
  0
LINE
  5
68E
330
1E
100
AcDbEntity
  8
0
100
AcDbLine
 10
361.658
 20
190.292
 30
0.0
 11
364.161
 21
190.443
 31
0.0
  0
LINE
  5
68F
330
1E
100
AcDbEntity
  8
0
100
AcDbLine
 10
347.501
 20
191.458
 30
0.0
 11
348.161
 21
190.524007326007
 31
0.0
  0
LINE
  5
690
330
1E
100
AcDbEntity
  8
0
100
AcDbLine
 10
341.735
 20
191.531
 30
0.0
 11
343.634
 21
189.34
 31
0.0
  0
LINE
  5
691
330
1E
100
AcDbEntity
  8
0
100
AcDbLine
 10
386.586
 20
191.532
 30
0.0
 11
388.252
 21
193.906
 31
0.0
  0
LINE
  5
692
330
1E
100
AcDbEntity
  8
0
100
AcDbLine
 10
381.028
 20
191.75
 30
0.0
 11
382.479
 21
194.325
 31
0.0
  0
LINE
  5
693
330
1E
100
AcDbEntity
  8
0
100
AcDbLine
 10
333.483
 20
192.296
 30
0.0
 11
335.164
 21
189.387
 31
0.0
  0
LINE
  5
694
330
1E
100
AcDbEntity
  8
0
100
AcDbLine
 10
394.896
 20
192.248
 30
0.0
 11
397.516
 21
198.273
 31
0.0
  0
LINE
  5
695
330
1E
100
AcDbEntity
  8
0
100
AcDbLine
 10
340.07
 20
193.906
 30
0.0
 11
341.735
 21
191.531
 31
0.0
  0
LINE
  5
696
330
1E
100
AcDbEntity
  8
0
100
AcDbLine
 10
346.091
 20
193.841
 30
0.0
 11
347.501
 21
191.458
 31
0.0
  0
LINE
  5
697
330
1E
100
AcDbEntity
  8
0
100
AcDbLine
 10
388.252
 20
193.906
 30
0.0
 11
389.667
 21
196.437
 31
0.0
  0
LINE
  5
698
330
1E
100
AcDbEntity
  8
0
100
AcDbLine
 10
382.479
 20
194.325
 30
0.0
 11
383.485
 21
196.545
 31
0.0
  0
LINE
  5
699
330
1E
100
AcDbEntity
  8
0
100
AcDbLine
 10
338.654
 20
196.436
 30
0.0
 11
340.07
 21
193.906
 31
0.0
  0
LINE
  5
69A
330
1E
100
AcDbEntity
  8
0
100
AcDbLine
 10
344.916
 20
196.378
 30
0.0
 11
346.091
 21
193.841
 31
0.0
  0
LINE
  5
69B
330
1E
100
AcDbEntity
  8
0
100
AcDbLine
 10
389.667
 20
196.437
 30
0.0
 11
390.817
 21
199.099
 31
0.0
  0
LINE
  5
69C
330
1E
100
AcDbEntity
  8
0
100
AcDbLine
 10
383.485
 20
196.545
 30
0.0
 11
384.88
 21
200.91
 31
0.0
  0
LINE
  5
69D
330
1E
100
AcDbEntity
  8
0
100
AcDbLine
 10
332.031
 20
195.288
 30
0.0
 11
333.483
 21
192.296
 31
0.0
  0
LINE
  5
69E
330
1E
100
AcDbEntity
  8
0
100
AcDbLine
 10
330.848
 20
198.399
 30
0.0
 11
332.031
 21
195.288
 31
0.0
  0
LINE
  5
69F
330
1E
100
AcDbEntity
  8
0
100
AcDbLine
 10
397.516
 20
198.273
 30
0.0
 11
398.625
 21
203.236
 31
0.0
  0
LINE
  5
6A0
330
1E
100
AcDbEntity
  8
0
100
AcDbLine
 10
344.082
 20
198.718
 30
0.0
 11
344.916
 21
196.378
 31
0.0
  0
LINE
  5
6A1
330
1E
100
AcDbEntity
  8
0
100
AcDbLine
 10
337.504
 20
199.099
 30
0.0
 11
338.654
 21
196.436
 31
0.0
  0
LINE
  5
6A2
330
1E
100
AcDbEntity
  8
0
100
AcDbLine
 10
390.817
 20
199.099
 30
0.0
 11
391.691
 21
201.865
 31
0.0
  0
LINE
  5
6A3
330
1E
100
AcDbEntity
  8
0
100
AcDbLine
 10
384.88
 20
200.91
 30
0.0
 11
385.464
 21
204.618
 31
0.0
  0
LINE
  5
6A4
330
1E
100
AcDbEntity
  8
0
100
AcDbLine
 10
343.442
 20
201.118
 30
0.0
 11
344.082
 21
198.718
 31
0.0
  0
LINE
  5
6A5
330
1E
100
AcDbEntity
  8
0
100
AcDbLine
 10
330.008
 20
201.616
 30
0.0
 11
330.848
 21
198.399
 31
0.0
  0
LINE
  5
6A6
330
1E
100
AcDbEntity
  8
0
100
AcDbLine
 10
336.63
 20
201.864
 30
0.0
 11
337.504
 21
199.099
 31
0.0
  0
LINE
  5
6A7
330
1E
100
AcDbEntity
  8
0
100
AcDbLine
 10
391.691
 20
201.865
 30
0.0
 11
392.278
 21
204.705
 31
0.0
  0
LINE
  5
6A8
330
1E
100
AcDbEntity
  8
0
100
AcDbLine
 10
342.993
 20
203.55
 30
0.0
 11
343.442
 21
201.115
 31
0.0
  0
LINE
  5
6A9
330
1E
100
AcDbEntity
  8
0
100
AcDbLine
 10
342.994
 20
203.551
 30
0.0
 11
343.442
 21
201.118
 31
0.0
  0
LINE
  5
6AA
330
1E
100
AcDbEntity
  8
0
100
AcDbLine
 10
398.625
 20
203.236
 30
0.0
 11
399.042
 21
206.538
 31
0.0
  0
LINE
  5
6AB
330
1E
100
AcDbEntity
  8
0
100
AcDbLine
 10
336.043
 20
204.705
 30
0.0
 11
336.63
 21
201.864
 31
0.0
  0
LINE
  5
6AC
330
1E
100
AcDbEntity
  8
0
100
AcDbLine
 10
385.464
 20
204.618
 30
0.0
 11
385.611
 21
206.406
 31
0.0
  0
LINE
  5
6AD
330
1E
100
AcDbEntity
  8
0
100
AcDbLine
 10
392.278
 20
204.705
 30
0.0
 11
392.574
 21
207.589
 31
0.0
  0
LINE
  5
6AE
330
1E
100
AcDbEntity
  8
0
100
AcDbLine
 10
348.161
 20
204.005
 30
0.0
 11
348.17
 21
204.744
 31
0.0
  0
LINE
  5
6AF
330
1E
100
AcDbEntity
  8
0
100
AcDbLine
 10
348.161
 20
204.005
 30
0.0
 11
348.180088335217
 21
177.995402246379
 31
0.0
  0
LINE
  5
6B0
330
1E
100
AcDbEntity
  8
0
100
AcDbLine
 10
342.782
 20
205.393
 30
0.0
 11
342.994
 21
203.551
 31
0.0
  0
LINE
  5
6B1
330
1E
100
AcDbEntity
  8
0
100
AcDbLine
 10
342.782
 20
205.393
 30
0.0
 11
342.993
 21
203.55
 31
0.0
  0
LINE
  5
6B2
330
1E
100
AcDbEntity
  8
0
100
AcDbLine
 10
348.252
 20
206.227
 30
0.0
 11
348.945
 21
210.768
 31
0.0
  0
LINE
  5
6B3
330
1E
100
AcDbEntity
  8
0
100
AcDbLine
 10
385.611
 20
206.406
 30
0.0
 11
385.661
 21
208.201
 31
0.0
  0
LINE
  5
6B4
330
1E
100
AcDbEntity
  8
0
100
AcDbLine
 10
399.042
 20
206.538
 30
0.0
 11
399.1
 21
209.865
 31
0.0
  0
LINE
  5
6B5
330
1E
100
AcDbEntity
  8
0
100
AcDbLine
 10
348.17
 20
204.744
 30
0.0
 11
348.252
 21
206.227
 31
0.0
  0
LINE
  5
6B6
330
1E
100
AcDbEntity
  8
0
100
AcDbLine
 10
342.674
 20
207.243
 30
0.0
 11
342.782
 21
205.393
 31
0.0
  0
LINE
  5
6B7
330
1E
100
AcDbEntity
  8
0
100
AcDbLine
 10
342.675
 20
207.243
 30
0.0
 11
342.782
 21
205.393
 31
0.0
  0
LINE
  5
6B8
330
1E
100
AcDbEntity
  8
0
100
AcDbLine
 10
335.747
 20
207.59
 30
0.0
 11
336.043
 21
204.705
 31
0.0
  0
LINE
  5
6B9
330
1E
100
AcDbEntity
  8
0
100
AcDbLine
 10
335.747
 20
207.59
 30
0.0
 11
335.747
 21
210.49
 31
0.0
  0
LINE
  5
6BA
330
1E
100
AcDbEntity
  8
0
100
AcDbLine
 10
392.574
 20
207.589
 30
0.0
 11
392.574
 21
210.489
 31
0.0
  0
LINE
  5
6BB
330
1E
100
AcDbEntity
  8
0
100
AcDbLine
 10
379.86
 20
208.208
 30
0.0
 11
380.161
 21
204.005
 31
0.0
  0
LINE
  5
6BC
330
1E
100
AcDbEntity
  8
0
100
AcDbLine
 10
342.661
 20
208.201
 30
0.0
 11
342.703
 21
209.856
 31
0.0
  0
LINE
  5
6BD
330
1E
100
AcDbEntity
  8
0
100
AcDbLine
 10
342.661
 20
208.201
 30
0.0
 11
342.675
 21
207.243
 31
0.0
  0
LINE
  5
6BE
330
1E
100
AcDbEntity
  8
0
100
AcDbLine
 10
342.661
 20
208.201
 30
0.0
 11
342.674
 21
207.243
 31
0.0
  0
LINE
  5
6BF
330
1E
100
AcDbEntity
  8
0
100
AcDbLine
 10
342.661
 20
208.201
 30
0.0
 11
342.702
 21
209.856
 31
0.0
  0
LINE
  5
6C0
330
1E
100
AcDbEntity
  8
0
100
AcDbLine
 10
329.239
 20
206.55
 30
0.0
 11
329.399
 21
213.2
 31
0.0
  0
LINE
  5
6C1
330
1E
100
AcDbEntity
  8
0
100
AcDbLine
 10
329.239
 20
206.55
 30
0.0
 11
330.008
 21
201.616
 31
0.0
  0
LINE
  5
6C2
330
1E
100
AcDbEntity
  8
0
100
AcDbLine
 10
329.399
 20
213.2
 30
0.0
 11
330.749
 21
219.391
 31
0.0
  0
LINE
  5
6C3
330
1E
100
AcDbEntity
  8
0
100
AcDbLine
 10
342.702
 20
209.856
 30
0.0
 11
342.828
 21
211.508
 31
0.0
  0
LINE
  5
6C4
330
1E
100
AcDbEntity
  8
0
100
AcDbLine
 10
335.747
 20
210.49
 30
0.0
 11
336.043
 21
213.374
 31
0.0
  0
LINE
  5
6C5
330
1E
100
AcDbEntity
  8
0
100
AcDbLine
 10
342.828
 20
211.508
 30
0.0
 11
343.034
 21
213.124
 31
0.0
  0
LINE
  5
6C6
330
1E
100
AcDbEntity
  8
0
100
AcDbLine
 10
385.647
 20
209.158
 30
0.0
 11
385.661
 21
208.201
 31
0.0
  0
LINE
  5
6C7
330
1E
100
AcDbEntity
  8
0
100
AcDbLine
 10
348.945
 20
210.768
 30
0.0
 11
350.469
 21
214.814
 31
0.0
  0
LINE
  5
6C8
330
1E
100
AcDbEntity
  8
0
100
AcDbLine
 10
343.034
 20
213.124
 30
0.0
 11
343.322
 21
214.729
 31
0.0
  0
LINE
  5
6C9
330
1E
100
AcDbEntity
  8
0
100
AcDbLine
 10
343.322
 20
214.729
 30
0.0
 11
344.603
 21
219.348
 31
0.0
  0
LINE
  5
6CA
330
1E
100
AcDbEntity
  8
0
100
AcDbLine
 10
336.043
 20
213.374
 30
0.0
 11
336.63
 21
216.214
 31
0.0
  0
LINE
  5
6CB
330
1E
100
AcDbEntity
  8
0
100
AcDbLine
 10
385.328
 20
212.85
 30
0.0
 11
385.54
 21
211.008
 31
0.0
  0
LINE
  5
6CC
330
1E
100
AcDbEntity
  8
0
100
AcDbLine
 10
392.278
 20
213.374
 30
0.0
 11
392.574
 21
210.489
 31
0.0
  0
LINE
  5
6CD
330
1E
100
AcDbEntity
  8
0
100
AcDbLine
 10
385.267520079663
 20
213.144039997313
 30
0.0
 11
385.337
 21
212.76
 31
0.0
  0
LINE
  5
6CE
330
1E
100
AcDbEntity
  8
0
100
AcDbLine
 10
377.903
 20
214.764
 30
0.0
 11
379.052
 21
211.643
 31
0.0
  0
LINE
  5
6CF
330
1E
100
AcDbEntity
  8
0
100
AcDbLine
 10
379.052
 20
211.644
 30
0.0
 11
379.86
 21
208.208
 31
0.0
  0
LINE
  5
6D0
330
1E
100
AcDbEntity
  8
0
100
AcDbLine
 10
398.683
 20
214.773
 30
0.0
 11
399.1
 21
209.865
 31
0.0
  0
LINE
  5
6D1
330
1E
100
AcDbEntity
  8
0
100
AcDbLine
 10
336.63
 20
216.214
 30
0.0
 11
337.504
 21
218.98
 31
0.0
  0
LINE
  5
6D2
330
1E
100
AcDbEntity
  8
0
100
AcDbLine
 10
350.469
 20
214.814
 30
0.0
 11
351.503
 21
216.781
 31
0.0
  0
LINE
  5
6D3
330
1E
100
AcDbEntity
  8
0
100
AcDbLine
 10
391.691
 20
216.215
 30
0.0
 11
392.278
 21
213.374
 31
0.0
  0
LINE
  5
6D4
330
1E
100
AcDbEntity
  8
0
100
AcDbLine
 10
330.749
 20
219.391
 30
0.0
 11
332.0
 21
222.848
 31
0.0
  0
LINE
  5
6D5
330
1E
100
AcDbEntity
  8
0
100
AcDbLine
 10
337.504
 20
218.98
 30
0.0
 11
338.654
 21
221.642
 31
0.0
  0
LINE
  5
6D6
330
1E
100
AcDbEntity
  8
0
100
AcDbLine
 10
332.0
 20
222.848
 30
0.0
 11
334.292
 21
227.253
 31
0.0
  0
LINE
  5
6D7
330
1E
100
AcDbEntity
  8
0
100
AcDbLine
 10
344.603
 20
219.348
 30
0.0
 11
346.493
 21
223.35
 31
0.0
  0
LINE
  5
6D8
330
1E
100
AcDbEntity
  8
0
100
AcDbLine
 10
351.503
 20
216.781
 30
0.0
 11
352.603
 21
218.448
 31
0.0
  0
LINE
  5
6D9
330
1E
100
AcDbEntity
  8
0
100
AcDbLine
 10
375.161
 20
219.172
 30
0.0
 11
376.055
 21
217.974
 31
0.0
  0
LINE
  5
6DA
330
1E
100
AcDbEntity
  8
0
100
AcDbLine
 10
376.471
 20
217.353
 30
0.0
 11
377.903
 21
214.764
 31
0.0
  0
LINE
  5
6DB
330
1E
100
AcDbEntity
  8
0
100
AcDbLine
 10
384.24
 20
217.682
 30
0.0
 11
384.88
 21
215.286
 31
0.0
  0
LINE
  5
6DC
330
1E
100
AcDbEntity
  8
0
100
AcDbLine
 10
376.055623970016
 20
217.909571044129
 30
0.0
 11
376.471
 21
217.353
 31
0.0
  0
LINE
  5
6DD
330
1E
100
AcDbEntity
  8
0
100
AcDbLine
 10
353.865
 20
219.992
 30
0.0
 11
355.288
 21
221.386
 31
0.0
  0
LINE
  5
6DE
330
1E
100
AcDbEntity
  8
0
100
AcDbLine
 10
353.864
 20
219.992
 30
0.0
 11
355.288
 21
221.386
 31
0.0
  0
LINE
  5
6DF
330
1E
100
AcDbEntity
  8
0
100
AcDbLine
 10
352.603
 20
218.448
 30
0.0
 11
353.865
 21
219.992
 31
0.0
  0
LINE
  5
6E0
330
1E
100
AcDbEntity
  8
0
100
AcDbLine
 10
352.603
 20
218.448
 30
0.0
 11
353.864
 21
219.992
 31
0.0
  0
LINE
  5
6E1
330
1E
100
AcDbEntity
  8
0
100
AcDbLine
 10
338.654
 20
221.642
 30
0.0
 11
340.07
 21
224.173
 31
0.0
  0
LINE
  5
6E2
330
1E
100
AcDbEntity
  8
0
100
AcDbLine
 10
372.322
 20
221.971
 30
0.0
 11
373.18
 21
221.257
 31
0.0
  0
LINE
  5
6E3
330
1E
100
AcDbEntity
  8
0
100
AcDbLine
 10
356.829
 20
222.57
 30
0.0
 11
357.731759554752
 21
223.094357346173
 31
0.0
  0
LINE
  5
6E4
330
1E
100
AcDbEntity
  8
0
100
AcDbLine
 10
355.288
 20
221.386
 30
0.0
 11
356.829
 21
222.57
 31
0.0
  0
LINE
  5
6E5
330
1E
100
AcDbEntity
  8
0
100
AcDbLine
 10
382.233
 20
222.558
 30
0.0
 11
383.405
 21
220.022
 31
0.0
  0
LINE
  5
6E6
330
1E
100
AcDbEntity
  8
0
100
AcDbLine
 10
373.18
 20
221.257
 30
0.0
 11
374.212
 21
220.255
 31
0.0
  0
LINE
  5
6E7
330
1E
100
AcDbEntity
  8
0
100
AcDbLine
 10
382.232
 20
222.558
 30
0.0
 11
383.405
 21
220.022
 31
0.0
  0
LINE
  5
6E8
330
1E
100
AcDbEntity
  8
0
100
AcDbLine
 10
374.212
 20
220.255
 30
0.0
 11
375.161
 21
219.172
 31
0.0
  0
LINE
  5
6E9
330
1E
100
AcDbEntity
  8
0
100
AcDbLine
 10
390.817
 20
218.98
 30
0.0
 11
391.691
 21
216.215
 31
0.0
  0
LINE
  5
6EA
330
1E
100
AcDbEntity
  8
0
100
AcDbLine
 10
389.667
 20
221.643
 30
0.0
 11
390.817
 21
218.98
 31
0.0
  0
LINE
  5
6EB
330
1E
100
AcDbEntity
  8
0
100
AcDbLine
 10
397.453
 20
219.673
 30
0.0
 11
398.683
 21
214.773
 31
0.0
  0
LINE
  5
6EC
330
1E
100
AcDbEntity
  8
0
100
AcDbLine
 10
346.493
 20
223.35
 30
0.0
 11
348.244
 21
226.001
 31
0.0
  0
LINE
  5
6ED
330
1E
100
AcDbEntity
  8
0
100
AcDbLine
 10
340.07
 20
224.173
 30
0.0
 11
341.735
 21
226.547
 31
0.0
  0
LINE
  5
6EE
330
1E
100
AcDbEntity
  8
0
100
AcDbLine
 10
368.678
 20
224.041
 30
0.0
 11
369.624
 21
223.636
 31
0.0
  0
LINE
  5
6EF
330
1E
100
AcDbEntity
  8
0
100
AcDbLine
 10
367.705
 20
224.372
 30
0.0
 11
368.678
 21
224.041
 31
0.0
  0
LINE
  5
6F0
330
1E
100
AcDbEntity
  8
0
100
AcDbLine
 10
369.624
 20
223.636
 30
0.0
 11
370.537
 21
223.161
 31
0.0
  0
LINE
  5
6F1
330
1E
100
AcDbEntity
  8
0
100
AcDbLine
 10
360.288
 20
224.27
 30
0.0
 11
361.883
 21
224.679
 31
0.0
  0
LINE
  5
6F2
330
1E
100
AcDbEntity
  8
0
100
AcDbLine
 10
358.499
 20
223.54
 30
0.0
 11
360.288
 21
224.27
 31
0.0
  0
LINE
  5
6F3
330
1E
100
AcDbEntity
  8
0
100
AcDbLine
 10
357.741595267995
 20
223.100070305362
 30
0.0
 11
358.499
 21
223.54
 31
0.0
  0
LINE
  5
6F4
330
1E
100
AcDbEntity
  8
0
100
AcDbLine
 10
371.415
 20
222.621
 30
0.0
 11
372.322
 21
221.971
 31
0.0
  0
LINE
  5
6F5
330
1E
100
AcDbEntity
  8
0
100
AcDbLine
 10
370.537
 20
223.161
 30
0.0
 11
371.415
 21
222.621
 31
0.0
  0
LINE
  5
6F6
330
1E
100
AcDbEntity
  8
0
100
AcDbLine
 10
348.244
 20
226.001
 30
0.0
 11
349.895
 21
227.996
 31
0.0
  0
LINE
  5
6F7
330
1E
100
AcDbEntity
  8
0
100
AcDbLine
 10
348.245
 20
226.001
 30
0.0
 11
349.895
 21
227.997
 31
0.0
  0
LINE
  5
6F8
330
1E
100
AcDbEntity
  8
0
100
AcDbLine
 10
365.695
 20
224.795
 30
0.0
 11
366.709
 21
224.625
 31
0.0
  0
LINE
  5
6F9
330
1E
100
AcDbEntity
  8
0
100
AcDbLine
 10
363.786
 20
224.886
 30
0.0
 11
365.695
 21
224.795
 31
0.0
  0
LINE
  5
6FA
330
1E
100
AcDbEntity
  8
0
100
AcDbLine
 10
361.883
 20
224.679
 30
0.0
 11
363.786
 21
224.886
 31
0.0
  0
LINE
  5
6FB
330
1E
100
AcDbEntity
  8
0
100
AcDbLine
 10
380.809
 20
224.96
 30
0.0
 11
382.232
 21
222.558
 31
0.0
  0
LINE
  5
6FC
330
1E
100
AcDbEntity
  8
0
100
AcDbLine
 10
380.004
 20
226.099
 30
0.0
 11
380.809
 21
224.96
 31
0.0
  0
LINE
  5
6FD
330
1E
100
AcDbEntity
  8
0
100
AcDbLine
 10
366.709
 20
224.625
 30
0.0
 11
367.705
 21
224.372
 31
0.0
  0
LINE
  5
6FE
330
1E
100
AcDbEntity
  8
0
100
AcDbLine
 10
388.252
 20
224.173
 30
0.0
 11
389.667
 21
221.643
 31
0.0
  0
LINE
  5
6FF
330
1E
100
AcDbEntity
  8
0
100
AcDbLine
 10
396.291
 20
222.791
 30
0.0
 11
397.453
 21
219.673
 31
0.0
  0
LINE
  5
700
330
1E
100
AcDbEntity
  8
0
100
AcDbLine
 10
334.292
 20
227.253
 30
0.0
 11
337.157
 21
231.342
 31
0.0
  0
LINE
  5
701
330
1E
100
AcDbEntity
  8
0
100
AcDbLine
 10
341.735
 20
226.547
 30
0.0
 11
343.634
 21
228.739
 31
0.0
  0
LINE
  5
702
330
1E
100
AcDbEntity
  8
0
100
AcDbLine
 10
349.895
 20
227.997
 30
0.0
 11
351.753
 21
229.796
 31
0.0
  0
LINE
  5
703
330
1E
100
AcDbEntity
  8
0
100
AcDbLine
 10
378.209
 20
228.229
 30
0.0
 11
379.137
 21
227.191
 31
0.0
  0
LINE
  5
704
330
1E
100
AcDbEntity
  8
0
100
AcDbLine
 10
386.586
 20
226.548
 30
0.0
 11
388.252
 21
224.173
 31
0.0
  0
LINE
  5
705
330
1E
100
AcDbEntity
  8
0
100
AcDbLine
 10
394.057
 20
227.258
 30
0.0
 11
396.291
 21
222.791
 31
0.0
  0
LINE
  5
706
330
1E
100
AcDbEntity
  8
0
100
AcDbLine
 10
379.137
 20
227.191
 30
0.0
 11
380.004
 21
226.099
 31
0.0
  0
LINE
  5
707
330
1E
100
AcDbEntity
  8
0
100
AcDbLine
 10
343.634
 20
228.739
 30
0.0
 11
345.746
 21
230.726
 31
0.0
  0
LINE
  5
708
330
1E
100
AcDbEntity
  8
0
100
AcDbLine
 10
384.687
 20
228.74
 30
0.0
 11
386.586
 21
226.548
 31
0.0
  0
LINE
  5
709
330
1E
100
AcDbEntity
  8
0
100
AcDbLine
 10
337.157
 20
231.342
 30
0.0
 11
341.539
 21
235.772
 31
0.0
  0
LINE
  5
70A
330
1E
100
AcDbEntity
  8
0
100
AcDbLine
 10
348.05
 20
232.488
 30
0.0
 11
350.521
 21
234.007
 31
0.0
  0
LINE
  5
70B
330
1E
100
AcDbEntity
  8
0
100
AcDbLine
 10
345.746
 20
230.726
 30
0.0
 11
348.05
 21
232.488
 31
0.0
  0
LINE
  5
70C
330
1E
100
AcDbEntity
  8
0
100
AcDbLine
 10
354.037
 20
231.512
 30
0.0
 11
355.858
 21
232.568
 31
0.0
  0
LINE
  5
70D
330
1E
100
AcDbEntity
  8
0
100
AcDbLine
 10
352.866
 20
230.693
 30
0.0
 11
354.037
 21
231.512
 31
0.0
  0
LINE
  5
70E
330
1E
100
AcDbEntity
  8
0
100
AcDbLine
 10
351.753
 20
229.796
 30
0.0
 11
352.866
 21
230.693
 31
0.0
  0
LINE
  5
70F
330
1E
100
AcDbEntity
  8
0
100
AcDbLine
 10
350.521
 20
234.007
 30
0.0
 11
353.082
 21
235.244
 31
0.0
  0
LINE
  5
710
330
1E
100
AcDbEntity
  8
0
100
AcDbLine
 10
355.858
 20
232.568
 30
0.0
 11
357.857
 21
233.442
 31
0.0
  0
LINE
  5
711
330
1E
100
AcDbEntity
  8
0
100
AcDbLine
 10
369.408
 20
233.799
 30
0.0
 11
370.657
 21
233.369
 31
0.0
  0
LINE
  5
712
330
1E
100
AcDbEntity
  8
0
100
AcDbLine
 10
360.264
 20
234.156
 30
0.0
 11
361.566
 21
234.397
 31
0.0
  0
LINE
  5
713
330
1E
100
AcDbEntity
  8
0
100
AcDbLine
 10
362.881
 20
234.541
 30
0.0
 11
364.203
 21
234.587
 31
0.0
  0
LINE
  5
714
330
1E
100
AcDbEntity
  8
0
100
AcDbLine
 10
361.566
 20
234.397
 30
0.0
 11
362.881
 21
234.541
 31
0.0
  0
LINE
  5
715
330
1E
100
AcDbEntity
  8
0
100
AcDbLine
 10
368.132
 20
234.139
 30
0.0
 11
369.408
 21
233.799
 31
0.0
  0
LINE
  5
716
330
1E
100
AcDbEntity
  8
0
100
AcDbLine
 10
366.876317971249
 20
234.353779524006
 30
0.0
 11
368.132
 21
234.139
 31
0.0
  0
LINE
  5
717
330
1E
100
AcDbEntity
  8
0
100
AcDbLine
 10
359.214
 20
233.889
 30
0.0
 11
360.264
 21
234.156
 31
0.0
  0
LINE
  5
718
330
1E
100
AcDbEntity
  8
0
100
AcDbLine
 10
357.857
 20
233.442
 30
0.0
 11
359.214
 21
233.889
 31
0.0
  0
LINE
  5
719
330
1E
100
AcDbEntity
  8
0
100
AcDbLine
 10
370.657
 20
233.369
 30
0.0
 11
371.874
 21
232.852
 31
0.0
  0
LINE
  5
71A
330
1E
100
AcDbEntity
  8
0
100
AcDbLine
 10
371.874
 20
232.852
 30
0.0
 11
372.9342062358
 21
232.293736121021
 31
0.0
  0
LINE
  5
71B
330
1E
100
AcDbEntity
  8
0
100
AcDbLine
 10
372.9342062358
 20
232.293736121021
 30
0.0
 11
375.281
 21
230.823
 31
0.0
  0
LINE
  5
71C
330
1E
100
AcDbEntity
  8
0
100
AcDbLine
 10
377.222
 20
229.209
 30
0.0
 11
378.209
 21
228.229
 31
0.0
  0
LINE
  5
71D
330
1E
100
AcDbEntity
  8
0
100
AcDbLine
 10
375.281
 20
230.823
 30
0.0
 11
377.222
 21
229.209
 31
0.0
  0
LINE
  5
71E
330
1E
100
AcDbEntity
  8
0
100
AcDbLine
 10
364.203
 20
234.587
 30
0.0
 11
366.876317971249
 21
234.353779524006
 31
0.0
  0
LINE
  5
71F
330
1E
100
AcDbEntity
  8
0
100
AcDbLine
 10
353.082
 20
235.244
 30
0.0
 11
355.753
 21
236.218
 31
0.0
  0
LINE
  5
720
330
1E
100
AcDbEntity
  8
0
100
AcDbLine
 10
341.539
 20
235.772
 30
0.0
 11
345.91
 21
238.939
 31
0.0
  0
LINE
  5
721
330
1E
100
AcDbEntity
  8
0
100
AcDbLine
 10
355.753
 20
236.218
 30
0.0
 11
358.508
 21
236.923
 31
0.0
  0
LINE
  5
722
330
1E
100
AcDbEntity
  8
0
100
AcDbLine
 10
361.321
 20
237.348
 30
0.0
 11
364.16
 21
237.489
 31
0.0
  0
LINE
  5
723
330
1E
100
AcDbEntity
  8
0
100
AcDbLine
 10
358.508
 20
236.923
 30
0.0
 11
361.321
 21
237.348
 31
0.0
  0
LINE
  5
724
330
1E
100
AcDbEntity
  8
0
100
AcDbLine
 10
372.568
 20
236.218
 30
0.0
 11
375.239
 21
235.244
 31
0.0
  0
LINE
  5
725
330
1E
100
AcDbEntity
  8
0
100
AcDbLine
 10
369.813
 20
236.923
 30
0.0
 11
372.568
 21
236.218
 31
0.0
  0
LINE
  5
726
330
1E
100
AcDbEntity
  8
0
100
AcDbLine
 10
364.16
 20
237.489
 30
0.0
 11
367.0
 21
237.348
 31
0.0
  0
LINE
  5
727
330
1E
100
AcDbEntity
  8
0
100
AcDbLine
 10
345.91
 20
238.939
 30
0.0
 11
348.896
 21
240.479
 31
0.0
  0
LINE
  5
728
330
1E
100
AcDbEntity
  8
0
100
AcDbLine
 10
367.0
 20
237.348
 30
0.0
 11
369.813
 21
236.923
 31
0.0
  0
LINE
  5
729
330
1E
100
AcDbEntity
  8
0
100
AcDbLine
 10
375.239
 20
235.244
 30
0.0
 11
377.8
 21
234.007
 31
0.0
  0
LINE
  5
72A
330
1E
100
AcDbEntity
  8
0
100
AcDbLine
 10
382.575
 20
230.727
 30
0.0
 11
384.687
 21
228.74
 31
0.0
  0
LINE
  5
72B
330
1E
100
AcDbEntity
  8
0
100
AcDbLine
 10
387.692
 20
234.948
 30
0.0
 11
391.117
 21
231.283
 31
0.0
  0
LINE
  5
72C
330
1E
100
AcDbEntity
  8
0
100
AcDbLine
 10
380.271
 20
232.488
 30
0.0
 11
382.575
 21
230.727
 31
0.0
  0
LINE
  5
72D
330
1E
100
AcDbEntity
  8
0
100
AcDbLine
 10
391.117
 20
231.283
 30
0.0
 11
394.057
 21
227.258
 31
0.0
  0
LINE
  5
72E
330
1E
100
AcDbEntity
  8
0
100
AcDbLine
 10
383.828
 20
238.027
 30
0.0
 11
387.692
 21
234.948
 31
0.0
  0
LINE
  5
72F
330
1E
100
AcDbEntity
  8
0
100
AcDbLine
 10
377.8
 20
234.007
 30
0.0
 11
380.271
 21
232.488
 31
0.0
  0
LINE
  5
730
330
1E
100
AcDbEntity
  8
0
100
AcDbLine
 10
380.914521434841
 20
239.707122630543
 30
0.0
 11
383.828
 21
238.027
 31
0.0
  0
LINE
  5
731
330
1E
100
AcDbEntity
  8
0
100
AcDbLine
 10
348.896
 20
240.479
 30
0.0
 11
351.957
 21
241.874
 31
0.0
  0
LINE
  5
732
330
1E
100
AcDbEntity
  8
0
100
AcDbLine
 10
376.411
 20
241.85
 30
0.0
 11
380.914521434841
 21
239.707122630543
 31
0.0
  0
LINE
  5
733
330
1E
100
AcDbEntity
  8
0
100
AcDbLine
 10
351.957
 20
241.874
 30
0.0
 11
356.725
 21
243.264
 31
0.0
  0
LINE
  5
734
330
1E
100
AcDbEntity
  8
0
100
AcDbLine
 10
356.725
 20
243.264
 30
0.0
 11
359.131
 21
243.705
 31
0.0
  0
LINE
  5
735
330
1E
100
AcDbEntity
  8
0
100
AcDbLine
 10
359.131
 20
243.705
 30
0.0
 11
365.0
 21
244.0
 31
0.0
  0
LINE
  5
736
330
1E
100
AcDbEntity
  8
0
100
AcDbLine
 10
370.099
 20
243.568
 30
0.0
 11
376.411
 21
241.85
 31
0.0
  0
LINE
  5
737
330
1E
100
AcDbEntity
  8
0
100
AcDbLine
 10
365.0
 20
244.0
 30
0.0
 11
370.099
 21
243.568
 31
0.0
  0
LINE
  5
738
330
1E
100
AcDbEntity
  8
0
100
AcDbLine
 10
383.405
 20
220.022
 30
0.0
 11
384.24
 21
217.682
 31
0.0
  0
LINE
  5
739
330
1E
100
AcDbEntity
  8
0
100
AcDbLine
 10
384.88
 20
215.286
 30
0.0
 11
385.267520079663
 21
213.144039997313
 31
0.0
  0
LINE
  5
73A
330
1E
100
AcDbEntity
  8
0
100
AcDbLine
 10
385.54
 20
211.008
 30
0.0
 11
385.647
 21
209.158
 31
0.0
  0
ENDSEC
  0
SECTION
  2
OBJECTS
  0
DICTIONARY
  5
C
330
0
100
AcDbDictionary
281
     1
  3
ACAD_GROUP
350
D
  3
ACAD_LAYOUT
350
19
  3
ACAD_MLEADERSTYLE
350
73D
  3
ACAD_MLINESTYLE
350
16
  3
ACAD_PLOTSETTINGS
350
18
  3
ACAD_PLOTSTYLENAME
350
E
  3
ACAD_SCALELIST
350
3BC
  3
ACDBVARIABLEDICTIONARY
350
393
  3
DWGPROPS
350
740
  0
DICTIONARY
  5
D
102
{ACAD_REACTORS
330
C
102
}
330
C
100
AcDbDictionary
281
     1
  0
DICTIONARY
  5
19
102
{ACAD_REACTORS
330
C
102
}
330
C
100
AcDbDictionary
281
     1
  3
Layout1
350
3BB
  3
Model
350
3BA
  0
DICTIONARY
  5
73D
102
{ACAD_REACTORS
330
C
102
}
330
C
100
AcDbDictionary
281
     1
  0
DICTIONARY
  5
16
102
{ACAD_REACTORS
330
C
102
}
330
C
100
AcDbDictionary
281
     1
  3
STANDARD
350
17
  0
DICTIONARY
  5
18
102
{ACAD_REACTORS
330
C
102
}
330
C
100
AcDbDictionary
281
     1
  0
ACDBDICTIONARYWDFLT
  5
E
102
{ACAD_REACTORS
330
C
102
}
330
C
100
AcDbDictionary
281
     1
  3
Normal
350
F
100
AcDbDictionaryWithDefault
340
F
  0
DICTIONARY
  5
3BC
102
{ACAD_REACTORS
330
C
102
}
330
C
100
AcDbDictionary
281
     1
  3
A0
350
3BD
  3
A1
350
3BE
  3
A2
350
3BF
  3
A3
350
3C0
  3
A4
350
3C1
  3
A5
350
3C2
  3
A6
350
3C3
  3
A7
350
3C4
  3
A8
350
3C5
  3
A9
350
3C6
  3
B0
350
3C7
  3
B1
350
3C8
  3
B2
350
3C9
  3
B3
350
3CA
  3
B4
350
3CB
  3
B5
350
3CC
  3
B6
350
3CD
  3
B7
350
3CE
  3
B8
350
3CF
  3
B9
350
3D0
  3
C0
350
3D1
  3
C1
350
3D2
  3
C2
350
3D3
  3
C3
350
3D4
  3
C4
350
3D5
  3
C5
350
3D6
  3
C6
350
3D7
  3
C7
350
3D8
  3
C8
350
3D9
  3
C9
350
3DA
  3
D0
350
3DB
  3
D1
350
3DC
  3
D2
350
3DD
  0
DICTIONARY
  5
393
102
{ACAD_REACTORS
330
C
102
}
330
C
100
AcDbDictionary
281
     1
  3
CANNOSCALE
350
73E
  3
DIMASSOC
350
394
  0
XRECORD
  5
740
102
{ACAD_REACTORS
330
C
102
}
330
C
100
AcDbXrecord
280
     1
  1
DWGPROPS COOKIE
  2

  3

  4

  6

  7

  8
MARTIN
  9

300
=
301
=
302
=
303
=
304
=
305
=
306
=
307
=
308
=
309
=
 40
0.0
 41
2454687.478740046
 42
2456210.340650313
  1

 90
        0
  0
LAYOUT
  5
3BB
102
{ACAD_REACTORS
330
19
102
}
330
19
100
AcDbPlotSettings
  1

  2
none_device
  4

  6

 40
0.0
 41
0.0
 42
0.0
 43
0.0
 44
0.0
 45
0.0
 46
0.0
 47
0.0
 48
0.0
 49
0.0
140
0.0
141
0.0
142
1.0
143
1.0
 70
   688
 72
     0
 73
     0
 74
     5
  7

 75
    16
147
1.0
148
0.0
149
0.0
100
AcDbLayout
  1
Layout1
 70
     1
 71
     1
 10
0.0
 20
0.0
 11
0.0
 21
0.0
 12
0.0
 22
0.0
 32
0.0
 14
0.0
 24
0.0
 34
0.0
 15
0.0
 25
0.0
 35
0.0
146
0.0
 13
0.0
 23
0.0
 33
0.0
 16
1.0
 26
0.0
 36
0.0
 17
0.0
 27
1.0
 37
0.0
 76
     0
330
1A
  0
LAYOUT
  5
3BA
102
{ACAD_REACTORS
330
19
102
}
330
19
100
AcDbPlotSettings
  1

  2
none_device
  4

  6

 40
0.0
 41
0.0
 42
0.0
 43
0.0
 44
0.0
 45
0.0
 46
0.0
 47
0.0
 48
0.0
 49
0.0
140
0.0
141
0.0
142
1.0
143
1.0
 70
   688
 72
     0
 73
     0
 74
     5
  7

 75
    16
147
1.0
148
0.0
149
0.0
100
AcDbLayout
  1
Model
 70
     1
 71
     0
 10
0.0
 20
0.0
 11
0.0
 21
0.0
 12
0.0
 22
0.0
 32
0.0
 14
0.0
 24
-5.5703
 34
0.0
 15
414.187
 25
244.0
 35
0.0
146
0.0
 13
0.0
 23
0.0
 33
0.0
 16
1.0
 26
0.0
 36
0.0
 17
0.0
 27
1.0
 37
0.0
 76
     0
330
1E
331
395
  0
MLINESTYLE
  5
17
102
{ACAD_REACTORS
330
16
102
}
330
16
100
AcDbMlineStyle
  2
STANDARD
 70
     0
  3

 62
   256
 51
90.0
 52
90.0
 71
     2
 49
0.5
 62
   256
  6
BYLAYER
 49
-0.5
 62
   256
  6
BYLAYER
  0
ACDBPLACEHOLDER
  5
F
102
{ACAD_REACTORS
330
E
102
}
330
E
  0
SCALE
  5
3BD
102
{ACAD_REACTORS
330
3BC
102
}
330
3BC
100
AcDbScale
 70
     0
300
1:1
140
1.0
141
1.0
290
     1
  0
SCALE
  5
3BE
102
{ACAD_REACTORS
330
3BC
102
}
330
3BC
100
AcDbScale
 70
     0
300
1:2
140
1.0
141
2.0
290
     0
  0
SCALE
  5
3BF
102
{ACAD_REACTORS
330
3BC
102
}
330
3BC
100
AcDbScale
 70
     0
300
1:4
140
1.0
141
4.0
290
     0
  0
SCALE
  5
3C0
102
{ACAD_REACTORS
330
3BC
102
}
330
3BC
100
AcDbScale
 70
     0
300
1:5
140
1.0
141
5.0
290
     0
  0
SCALE
  5
3C1
102
{ACAD_REACTORS
330
3BC
102
}
330
3BC
100
AcDbScale
 70
     0
300
1:8
140
1.0
141
8.0
290
     0
  0
SCALE
  5
3C2
102
{ACAD_REACTORS
330
3BC
102
}
330
3BC
100
AcDbScale
 70
     0
300
1:10
140
1.0
141
10.0
290
     0
  0
SCALE
  5
3C3
102
{ACAD_REACTORS
330
3BC
102
}
330
3BC
100
AcDbScale
 70
     0
300
1:16
140
1.0
141
16.0
290
     0
  0
SCALE
  5
3C4
102
{ACAD_REACTORS
330
3BC
102
}
330
3BC
100
AcDbScale
 70
     0
300
1:20
140
1.0
141
20.0
290
     0
  0
SCALE
  5
3C5
102
{ACAD_REACTORS
330
3BC
102
}
330
3BC
100
AcDbScale
 70
     0
300
1:30
140
1.0
141
30.0
290
     0
  0
SCALE
  5
3C6
102
{ACAD_REACTORS
330
3BC
102
}
330
3BC
100
AcDbScale
 70
     0
300
1:40
140
1.0
141
40.0
290
     0
  0
SCALE
  5
3C7
102
{ACAD_REACTORS
330
3BC
102
}
330
3BC
100
AcDbScale
 70
     0
300
1:50
140
1.0
141
50.0
290
     0
  0
SCALE
  5
3C8
102
{ACAD_REACTORS
330
3BC
102
}
330
3BC
100
AcDbScale
 70
     0
300
1:100
140
1.0
141
100.0
290
     0
  0
SCALE
  5
3C9
102
{ACAD_REACTORS
330
3BC
102
}
330
3BC
100
AcDbScale
 70
     0
300
2:1
140
2.0
141
1.0
290
     0
  0
SCALE
  5
3CA
102
{ACAD_REACTORS
330
3BC
102
}
330
3BC
100
AcDbScale
 70
     0
300
4:1
140
4.0
141
1.0
290
     0
  0
SCALE
  5
3CB
102
{ACAD_REACTORS
330
3BC
102
}
330
3BC
100
AcDbScale
 70
     0
300
8:1
140
8.0
141
1.0
290
     0
  0
SCALE
  5
3CC
102
{ACAD_REACTORS
330
3BC
102
}
330
3BC
100
AcDbScale
 70
     0
300
10:1
140
10.0
141
1.0
290
     0
  0
SCALE
  5
3CD
102
{ACAD_REACTORS
330
3BC
102
}
330
3BC
100
AcDbScale
 70
     0
300
100:1
140
100.0
141
1.0
290
     0
  0
SCALE
  5
3CE
102
{ACAD_REACTORS
330
3BC
102
}
330
3BC
100
AcDbScale
 70
     0
300
1/128" = 1'-0"
140
0.0078125
141
12.0
290
     0
  0
SCALE
  5
3CF
102
{ACAD_REACTORS
330
3BC
102
}
330
3BC
100
AcDbScale
 70
     0
300
1/64" = 1'-0"
140
0.015625
141
12.0
290
     0
  0
SCALE
  5
3D0
102
{ACAD_REACTORS
330
3BC
102
}
330
3BC
100
AcDbScale
 70
     0
300
1/32" = 1'-0"
140
0.03125
141
12.0
290
     0
  0
SCALE
  5
3D1
102
{ACAD_REACTORS
330
3BC
102
}
330
3BC
100
AcDbScale
 70
     0
300
1/16" = 1'-0"
140
0.0625
141
12.0
290
     0
  0
SCALE
  5
3D2
102
{ACAD_REACTORS
330
3BC
102
}
330
3BC
100
AcDbScale
 70
     0
300
3/32" = 1'-0"
140
0.09375
141
12.0
290
     0
  0
SCALE
  5
3D3
102
{ACAD_REACTORS
330
3BC
102
}
330
3BC
100
AcDbScale
 70
     0
300
1/8" = 1'-0"
140
0.125
141
12.0
290
     0
  0
SCALE
  5
3D4
102
{ACAD_REACTORS
330
3BC
102
}
330
3BC
100
AcDbScale
 70
     0
300
3/16" = 1'-0"
140
0.1875
141
12.0
290
     0
  0
SCALE
  5
3D5
102
{ACAD_REACTORS
330
3BC
102
}
330
3BC
100
AcDbScale
 70
     0
300
1/4" = 1'-0"
140
0.25
141
12.0
290
     0
  0
SCALE
  5
3D6
102
{ACAD_REACTORS
330
3BC
102
}
330
3BC
100
AcDbScale
 70
     0
300
3/8" = 1'-0"
140
0.375
141
12.0
290
     0
  0
SCALE
  5
3D7
102
{ACAD_REACTORS
330
3BC
102
}
330
3BC
100
AcDbScale
 70
     0
300
1/2" = 1'-0"
140
0.5
141
12.0
290
     0
  0
SCALE
  5
3D8
102
{ACAD_REACTORS
330
3BC
102
}
330
3BC
100
AcDbScale
 70
     0
300
3/4" = 1'-0"
140
0.75
141
12.0
290
     0
  0
SCALE
  5
3D9
102
{ACAD_REACTORS
330
3BC
102
}
330
3BC
100
AcDbScale
 70
     0
300
1" = 1'-0"
140
1.0
141
12.0
290
     0
  0
SCALE
  5
3DA
102
{ACAD_REACTORS
330
3BC
102
}
330
3BC
100
AcDbScale
 70
     0
300
1-1/2" = 1'-0"
140
1.5
141
12.0
290
     0
  0
SCALE
  5
3DB
102
{ACAD_REACTORS
330
3BC
102
}
330
3BC
100
AcDbScale
 70
     0
300
3" = 1'-0"
140
3.0
141
12.0
290
     0
  0
SCALE
  5
3DC
102
{ACAD_REACTORS
330
3BC
102
}
330
3BC
100
AcDbScale
 70
     0
300
6" = 1'-0"
140
6.0
141
12.0
290
     0
  0
SCALE
  5
3DD
102
{ACAD_REACTORS
330
3BC
102
}
330
3BC
100
AcDbScale
 70
     0
300
1'-0" = 1'-0"
140
12.0
141
12.0
290
     0
  0
DICTIONARYVAR
  5
73E
102
{ACAD_REACTORS
330
393
102
}
330
393
100
DictionaryVariables
280
     0
  1
1:1
  0
DICTIONARYVAR
  5
394
102
{ACAD_REACTORS
330
393
102
}
330
393
100
DictionaryVariables
280
     0
  1
1
  0
ENDSEC
  0
SECTION
  2
THUMBNAILIMAGE
 90
    16364
310
28000000B40000005500000001000800000000000000000000000000000000000000000000000000FFFFFF000000FF0000FFFF0000FF0000FFFF0000FF000000FF00FF000000000080808000C0C0C0000000FF007F7FFF000000A5005252A50000007F003F3F7F0000004C0026264C000000260013132600003FFF007F9FFF
310
000029A5005267A500001F7F003F4F7F0000134C00262F4C000009260013172600007FFF007FBFFF000052A500527CA500003F7F003F5F7F0000264C0026394C0000132600131C260000BFFF007FDFFF00007CA5005291A500005F7F003F6F7F0000394C0026424C00001C26001321260000FFFF007FFFFF0000A5A50052A5
310
A500007F7F003F7F7F00004C4C00264C4C00002626001326260000FFBF007FFFDF0000A57C0052A59100007F5F003F7F6F00004C3900264C420000261C001326210000FF7F007FFFBF0000A5520052A57C00007F3F003F7F5F00004C2600264C39000026130013261C0000FF3F007FFF9F0000A5290052A56700007F1F003F
310
7F4F00004C1300264C2F00002609001326170000FF00007FFF7F0000A5000052A55200007F00003F7F3F00004C0000264C260000260000132613003FFF00009FFF7F0029A5000067A552001F7F00004F7F3F00134C00002F4C260009260000172613007FFF0000BFFF7F0052A500007CA552003F7F00005F7F3F00264C0000
310
394C2600132600001C261300BFFF0000DFFF7F007CA5000091A552005F7F00006F7F3F00394C0000424C26001C26000021261300FFFF0000FFFF7F00A5A50000A5A552007F7F00007F7F3F004C4C00004C4C26002626000026261300FFBF0000FFDF7F00A57C0000A59152007F5F00007F6F3F004C3900004C422600261C00
310
0026211300FF7F0000FFBF7F00A5520000A57C52007F3F00007F5F3F004C2600004C39260026130000261C1300FF3F0000FF9F7F00A5290000A56752007F1F00007F4F3F004C1300004C2F26002609000026171300FF000000FF7F7F00A5000000A55252007F0000007F3F3F004C0000004C2626002600000026131300FF00
310
3F00FF7F9F00A5002900A55267007F001F007F3F4F004C0013004C262F002600090026131700FF007F00FF7FBF00A5005200A5527C007F003F007F3F5F004C0026004C2639002600130026131C00FF00BF00FF7FDF00A5007C00A55291007F005F007F3F6F004C0039004C26420026001C0026132100FF00FF00FF7FFF00A5
310
00A500A552A5007F007F007F3F7F004C004C004C264C002600260026132600BF00FF00DF7FFF007C00A5009152A5005F007F006F3F7F0039004C0042264C001C002600211326007F00FF00BF7FFF005200A5007C52A5003F007F005F3F7F0026004C0039264C00130026001C1326003F00FF009F7FFF002900A5006752A500
310
1F007F004F3F7F0013004C002F264C000900260017132600000000002D2D2D005B5B5B0089898900B7B7B700B3B3B30000000000000000000000000000000000000000000000000000000000000000000000000000000000000000000000000000000000000000000000000000000000000000000000000000000000000000
310
00000000000000000000000000000000000000000000000000000000000000000000000000000000000000000000000000000000000000000000000000000000000000000000000000000000000000000000000000000000000000000000000000000000000000000000000000000000000000000000000000000000000000
310
00000000000000000000000000000000000000000000000000000000000000000000000000000000000000000000000000000000000000000000000000000000000000000000000000000000000000000000000000000000000000000000000000000000000000000000000000000000000000000000000000000000000000
310
00000000000000000000000000000000000000000000000000000000000000000000000000000000000000000000000000000000000000000000000000000000000000000000000000000000000000000000000000000000000000000000000000000000000000000000000000000000000000000000000000000000000000
310
00000000000000000000000000000000000000000000000000000000000000000000000000000000000000000000000000000000000000000000000000000000000000000000000000000000000000000000000000000000000000000000000000000000000000000000000000000000000000000000000000000000000000
310
00000000000000000000000000000000000000000000000000000000000000000000000000000000000000000000000000000000000000000000000000000000000000000000000000000000000000000000000000000000070707070707070707000000000000000000000000000000000000000000000000000000000000
310
00000000000000000000000000000000000000000000000000000000000000000000000000000000000000000000000000000000000000000000000000000000000000000000000007070707070707070707000000000000000000000000000000000000000000000000000000000000000000000000000000000000000000
310
00000000000000000000000007070000000000000000000707000000000000000000000000000000000000000000000000000000000000000000000000000000000000000000000000000000000000000000000000000000000000000000000000000000000000000000000000000000000000000000000000000000000700
310
00000000000000070000000000000000000000000000000000000000000000000000000000000000000000000000000000000000000000000000000000000007070000000000000700000000000007070000000000000000000000000000000000000000000000000000000000000000000000000000000000000000000000
310
00000000000000000000000000000000000000000000000000000000000000000000000000000000000000000000000000000007000000000000000007000000000000000000000000000000000000000000000000000000000000000000000000000000000000000000000000000000000007070000000007070707070707
310
07070000000007000000000000000000000000000000000000000000000000000000000000000000000000000000000000000000000000000000000000000000000000000000000000000000000000000000000000000000000000000000000000000000000000000700000000000000000700000000000000000000000000
310
00000000000000000000000000000000000000000000000000000000000000000000000000000007000007070707000000000000000000070707070007070000000000000000000000000000000000000000000000000000000000000000000000000000000000000000000000000000000000000000000000000000000000
310
00000000000000000000000000000000000000000000000000000000000007000000000000000007000000000000000000000000000000000000000000000000000000000000000000000000000000000000000000000000000000070007070707000000000000000000000000000707070000070000000000000000000000
310
00000000000000000000000000000000000000000000000000000000000000000000000000000000000000000000000000000000000000000000000000000000000000000000000000000000000000000000000700000000000000000700000000000000000000000000000000000000000000000000000000000000000000
310
00000000000000000000000000000000070007000700000000000000000000000000000000000707000700000000000000000000000000000000000000000000000000000000000000000000000000000000000000000000000000000000000000000000000000000000000000000000000000000000000000000000000000
310
00000000000000000007000000000000000007000000000000000000000000000000000000000000000000000000000000000000000000000000000000000000000000000700000707000000000000000000000000000000000000000707000700000000000000000000000000000000000000000000000000000000000000
310
00000000000000000000000000000000000000000000000000000000000000000000000000000000000000000000000000000000000000000000000000000700000000000000000700000000000000000000000000000000000000000000000000000000000000000000000000000000000000000000000000070007000000
310
00000000000000000000000000000000000000000700070000000000000000000000000000000000000000000000000000000000000000000000000000000000000000000000000000000000000000000000000000000000000000000000000000000000000000000000000000000000000000070000000000000000070000
310
00000000000000000000000000000000000000000000000000000000000000000000000000000000000000000000070007000000000000000000000000000000000000000000000000070007000000000000000000000000000000000000000000000000000000000000000000000000000000000000000000000000000000
310
00000000000000000000000000000000000000000000000000000000000000000000000000000000000700000000000000000700000000000000000000000000000000000000000000000000000000000000000000000000000000000000000000000007070700000000000000000000000000000000000000000000000000
310
07000700000000000000000000000000000000000000000000000000000000000000000000000000000000000000000000000000000000000000000000000000000000000000000000000000000000000000000000000000000000000000070000000000000000070000000000000000000000000000000000000000000000
310
00000000000000000000000000000000000000000000000007000700000000000000000000000000000000000000000000000000000007070000000000000000000000000000000000000000000000000000000000000000000000000000000000000000000000000000000000000000000000000000000000000000000000
310
00000000000000000000000000000000000000000700000000000000000700000000000000000000000000000000000000000000000000000000000000000000000000000000000000000000000707000000000000000000000000000000000000000000000000000000000707000000000000000000000000000000000000
310
00000000000000000000000000000000000000000000000000000000000000000000000000000000000000000000000000000000000000000000000000000000000000000000000000070000000000000000070000000000000000000000000000000000000000000000000000000000000000000000000000000000000000
310
00000007070000000000000000000000000000000000000000000000000000000000070000000000000000000000000000000000000000000000000000000000000000000000000000000000000000000000000000000000000000000000000000000000000000000000000000000000000000000000000000000000000007
310
00000000000000000700000000000000000000000000000000000000000000000000000000000000000000000000000000000000000000000707000000000000000000000000000000000000000000000000000000000007000000000000000000000000000000000000000000000000000000000000000000000000000000
310
00000000000000000000000000000000000000000000000000000000000000000000000000000000000000000000000000000000070000000000000000070000000000000000000000000000000000000000000000000000000000000000000000000000000000000000000000070700000000000000000000000000000000
310
00000000000000000000000000070000000000000000000000000000000000000000000000000000000000000000000000000000000000000000000000000000000000000000000000000000000000000000000000000000000000000000000000000000000000000007000000000000000007000000000000000000000000
310
00000000000000000000000000000000000000000000000000000000000000000000000707000000000000000000000000000000000000000000000000000000000007000000000000000000000000000000000000000000000000000000000000000000000000000000000000000000000000000000000000000000000000
310
00000000000000000000000000000000000000000000000000000000000000070000000000000000070000000000000000000000000000000000000000000000000000000000000000000000000000000000000000000000070700000000000000000000000000000000000000000000000000000000000700000000000000
310
00000000000000000000000000000000000000000000000000000000000000000000000000000000000000000000000000000000000000000000000000000000000000000000000000000000000000000000000007000000000000000007000000000000000000000000000000000000000000000000000000000000000000
310
00000000000000000000000000000707000000000000000000000000000000000000000000000000000000000007000000000000000000000000000000000000000000000000000000000000000000000000000000000000000000000000000000000000000000000000000000000000000000000000000000000000000000
310
00000000000000000000070000000000000000070000000000000000000000000000000000000000000000000000000000000000000000000000000000000000000000070700000000000000000000000000000000000000000000000000000000000700000000000000000000000000000000000000000000000000000000
310
00000000000000000000000000000000000000000000000000000000000000000000000000000000000000000000000000000000000000000000000000000007000000000000000007000000000000000000000000000000000000000000000000000000000000000000000000000000000000000000000000070000000000
310
00000000000000000000000000000000000000000000000007000000000000000000000000000000000000000000000000000000000000000000000000000000000000000000000000000000000000000000000000000000000000000000000000000000000000000000000000000000000000000700000000000000000700
310
00000000000000000000000000000000000000000000000000000000000000000000000000000000000000000000000700000000000000000000000000000000000000000000000000000000070000000000000000000000000000000000000000000000000000000000000000000000000000000000000000000000000000
310
00000000000000000000000000000000000000000000000000000000000000000000000000000000000007000000000000000007000000000000000000000000000000000000000000000000000000000000000000000000000000000000000000000000000700000000000000000000000000000000000000000000000000
310
00000700000000000000000000000000000000000000000000000000000000000000000000000000000000000000000000000000000000000000000000000000000000000000000000000000000000000000000000000000000000000000000700000000000000000700000000000000000000000000000000000000000000
310
00000000000000000000000000000000000000000000000000000007000000000000000000000000000000000000000000000000000007000000000000000000000000000000000000000000000000000000000000000000000000000000000000000000000000000000000000000000000000000000000000000000000000
310
00000000000000000000000000000000000000000007000000000000000007000000000000000000000000000000000000000000000000000000000000000000000000000000000000000000000000000707000000000000000000000000000000000000000000000000000700000000000000000000000000000000000000
310
00000000000000000000000000000000000000000000000000000000000000000000000000000000000000000000000000000000000000000000000000000000000000000000000000000700000000000000000700000000000000000000000000000000000000000000000000000000000000000000000000000000000000
310
00000000000000070700000000000000000000000000000000000000000000000700000000000000000000000000000000000000000000000000000000000000000000000000000000000000000000000000000000000000000000000000000000000000000000000000000000000000000000000000000000000000000000
310
07000000000000000007000000000000000000000000000000000000000000000000000000000000000000000000000000000000000000000000000000000700000000000000000000000000000000000000000007000000000000000000000000000000000000000000000000000000000000000000000000000000000000
310
00000000000000000000000000000000000000000000000000000000000000000000000000000000000000000000000000000000000700000000000000000700000000000000000000000000000000000000000000000000000000000000000000000000000000000000000000000000000000070700000000000000000000
310
00000000000000000007000000000000000000000000000000000000000000000000000000000000000000000000000000000000000000000000000000000000000000000000000000000000000000000000000000000000000000000000000000000000000000000000070000000000000000070000000000000000000000
310
00000000000000000000000000000000000000000000000000000000000000000000000000000000000007070000000000000000000000000000000000070000000000000000000000000000000000000000000000000000000000000000000000000000000000000000000000000000000000000000000000000000000000
310
00000000000000000000000000000000000000000000000000000000000000000700000000000000000700000000000000000000000000000000000000000000000000000000000000000000000000000000000000000000000000000000000007070707000000000000000000000007070700000000000000000000000000
310
00000000000000000000000000000000000000000000000000000000000000000000000000000000000000000000000000000000000000000000000000000000000000000000000000000000000000000000000000070000000000000000070000000000000000000000000000000000000000000000000000000000000000
310
00000000000000000000000000000000000000000000000007070707070700000007070707070700000000000000000000000000000000000000000000000000000000000000000000000000000000000000000000000000000000000000000000000000000000000000000000000000000000000000000000000000000000
310
00000000000000000000000700000000000000000700000000000000000000000000000000000000000000000000000000000000000000000000000000000000000000000000000000000000000000000007000707070007000000000000000000000000000000000000000000000000000000000000000000000000000000
310
00000000000000000000000000000000000000000000000000000000000000000000000000000000000000000000000000000000000000000000000000000000070000000000000000070000000000000000000000000000000000000000000000000000000000000000000000000000000000000000000000000000000000
310
00000000000000070000000000070000000000000000000000000000000000000000000000000000000000000000000000000000000000000000000000000000000000000000000000000000000000000000000000000000000000000000000000000000000000000000000000000000000000000007000000000000000007
310
00000000000000000000000000000000000000000000000000000000000000000000000000000000000000000000000000000000000000000000000707000000000007070000000000000000000000000000000000000000000000000000000000000000000000000000000000000000000000000000000000000000000000
310
00000000000000000000000000000000000000000000000000000000000000000000000000000000000000070000000000000000070000000000000000000000000000000000000000000000000000000000000000000000000000000000000000000000000000000000000000000000070707070007070707000000000000
310
00000000000000000000000000000000000000000000000000000000000000000000000000000000000000000000000000000000000000000000000000000000000000000000000000000000000000000000000000000000000000000000000007000000000000000007000000000000000000000000000000000000000000
310
00000000000000000000000000000000000000000000000000000000000000000000000000000707070707070707070000000000000000000000000000000000000000000000000000000000000000000000000000000000000000000000000000000000000000000000000000000000000000000000000000000000000000
310
00000000000000000000000000000000000000000000070000000000000000070000000000000000000000000000000000000000000000000000000000000000000000000000000000000000000000000000000000000000000000070000000000000007000000000000000000000000000000000000000000000000000000
310
00000000000000000000000000000000000000000000000000000000000000000000000000000000000000000000000000000000000000000000000000000000000000000000000000000007000000000000000007000000000000000000000000000000000000000000000000000000000000000000000000000000000000
310
00000000000000000000000000000000000700000000000000070000000000000000000000000000000000000000000000000000000000000000000000000000000000000000000000000000000000000000000000000000000000000000000000000000000000000000000000000000000000000000000000000000000000
310
00070000000000000000070000000000000000000000000000000000000000000000000000000000000000000000000000000000000000000000000000000000000000000000070000000000000007000000000000000000000000000000000000000000000000000000000000000000000000000000000000000000000000
310
00000000000000000000000000000000000000000000000000000000000000000000000000000000000000000000000000000000000007000000000000000007000000000000000000000000000000000000000000000000000000000000000000000000000000000000000000000000000000000000000000000007000000
310
00000000070000000000000000000000000000000000000000000000000000000000000000000000000000000000000000000000000000000000000000000000000000000000000000000000000000000000000000000000000000000000000000000000000000000000000700000000000000000700000000000000000000
310
00000000000000000000000000000000000000000000000000000000000000000000000000000000000000000000000000070000000000000007000000000000000000000000000000000000000000000000000000000000000000000000000000000000000000000000000000000000000000000000000000000000000000
310
00000000000000000000000000000000000000000000000000000000000000000007000000000000000007000000000000000000000000000000000000000000000000000000000000000000000000000000000000000000000000000000000000000000000007000000000000000700000000000000000000000000000000
310
00000000000000000000000000000000000000000000000000000000000000000000000000000000000000000000000000000000000000000000000000000000000000000000000000000000000000000000000000000700000000000000000700000000000000000000000000000000000000000000000000000000000000
310
00000000000000000000000000000000000000000000000000000000070000000000000007000000000000000000000000000000000000000000000000000000000000000000000000000000000000000000000000000000000000000000000000000000000000000000000000000000000000000000000000000000000000
310
00000000000000000000000007000000000000000007000000000000000000000000000000000000000000000000000000000000000000000000000000000000000000000000000000000000000000000007000000000000000700000000000000000000000000000000000000000000000000000000000000000000000000
310
00000000000000000000000000000000000000000000000000000000000000000000000000000000000000000000000000000000000000000000000000000000000700000000000000000700000000000000000000000000000000000000000000000000000000000000000000000000000000000000000000000000000000
310
00000000000000070000000000000007000000000000000000000000000000000000000000000000000000000000000000000000000000000000000000000000000000000000000000000000000000000000000000000000000000000000000000000000000000000000000000000000000000000000070000000000000000
310
07000000000000000000000000000000000000000000000000000000000000000000000000000000000000000000000000000000000000000000000007000000000000000700000000000000000000000000000000000000000000000000000000000000000000000000000000000000000000000000000000000000000000
310
00000000000000000000000000000000000000000000000000000000000000000000000000000000000000000700000000000000000700000000000000000000000000000000000000000000000000000000000000000000000000000000000000000000000000000000000000000000000700000000000000070000000000
310
00000000000000000000000000000000000000000000000000000000000000000000000000000000000000000000000000000000000000000000000000000000000000000000000000000000000000000000000000000000000000000000000000070000000000000000070000000000000000000000000000000000000000
310
00000000000000000000000000000000000000000000000000000000000000000000000000000007000000000000000700000000000000000000000000000000000000000000000000000000000000000000000000000000000000000000000000000000000000000000000000000000000000000000000000000000000000
310
00000000000000000000000000000000000000000000000700000000000000000700000000000000000000000000000000000000000000000000000000000000000000000000000000000000000000000000000000000000000000000700000000000000070000000000000000000000000000000000000000000000000000
310
00000000000000000000000000000000000000000000000000000000000000000000000000000000000000000000000000000000000000000000000000000000000000000000000000000000070000000000000000070000000000000000000000000000000000000000000000000000000000000000000000000000000000
310
00000000000000000000000000000000000007000000000000000700000000000000000000000000000000000000000000000000000000000000000000000000000000000000000000000000000000000000000000000000000000000000000000000000000000000000000000000000000000000000000000000000000000
310
00000700000000000000000700000000000000000000000000000000000000000000000000000000000000000000000000000000000000000000000000000000000000000000000700000000000000070000000000000000000000000000000000000000000000000000000000000000000000000000000000000000000000
310
00000000000000000000000000000000000000000000000000000000000000000000000000000000000000000000000000000000000000070000000000000000070000000000000000000000000000000000000000000000000000000000000000000000000000000000000000000000000000000000000000000000070000
310
00000000000700000000000000000000000000000000000000000000000000000000000000000000000000000000000000000000000000000000000000000000000000000000000000000000000000000000000000000000000000000000000000000000000000000000000007000000000000000007000000000000000000
310
00000000000000000000000000000000000000000000000000000000000000000000000000000000000000000000000000070700000000000000070700000000000000000000000000000000000000000000000000000000000000000000000000000000000000000000000000000000000000000000000000000000000000
310
00000000000000000000000000000000000000000000000000000000000000000000070000000000000000070000000000000000000000000000000000000000000000000000000000000000000000000000000000000000000000000000000000000000000007070000000000000007000000000000000000000000000000
310
00000000000000000000000000000000000000000000000000000000000000000000000000000000000000000000000000000000000000000000000000000000000000000000000000000000000000000000000000000007000000000000000007000000000000000000000000000000000000000000000000000000000000
310
00000000000000000000000000000000000000000000000000000000070007000000000007000700000000000000000000000000000000000000000000000000000000000000000000000000000000000000000000000000000000000000000000000000000000000000000000000000000000000000000000000000000000
310
00000000000000000000000000070000000000000000070000000000000000000000000000000000000000000000000000000000000000000000000000000000000000000000000000000000000000000007070007070707070007070000000000000000000000000000000000000000000000000000000000000000000000
310
00000000000000000000000000000000000000000000000000000000000000000007070707070707070000000000000000000000000000000000000000000000000007000000000000000007000000000000000000000000000000000000000000000000000707070707070707000000000000000000000000000000000000
310
00000000000000070007000000000707000700000000000000000000000000000000000000000000000000000000000000000000000000000000000000000000000000000000000000000000000000000000000007070000070000070000070700000000000000000000000000000000000000000000070700000000000000
310
00070700000000000000000000000000000000000000000000070707000007000700000707000000000000000000000000000000000000000000000707000007070707000000070700000000000000000000000000000000000000000000000000000000000000000000000000000000000000000000000000000000000000
310
00000000000000000007000000000700000700000000070000000000000000000000000000000000000000070007000000000000000007000700000000000000000000000000000000000000000707000000000700070000000007070000000000000000000000000000000000000007000700000000000000000007000700
310
00000000000000000000000000000000000000000000000000000000000000000000000000000000000000000000000000000000000000000000000000070000000000070000070000000000070000000000000000000000000000000000000700000700000000000000000700000700000000000000000000000000000000
310
00000700000000000007000700000000000007000000000000000000000000000000000007000007070000000000000007070000070000000000000000000000000000000000000000000000000000000000000000000000000000000000000000000000000000000000000000000000000700000000000007000007000000
310
00000007000000000000000000000000000000000700000007000000000000000007000000070000000000000000000000000000000007000000000000000700070000000000000700000000000000000000000000000000070007070707070707000707070007070007000000000000000000000000000000000000000000
310
00000000000000000000000000000000000000000000000000000000000000000000000000000700000000000000070000070000000000000007000000000000000000000000000007000000070700000000000000000707000000070000000000000000000000000000070700000000000007070007000000000000000700
310
00000000000000000000000000070000070007000000070707000000070007000700000000000000000000000000000000000000000000000000000000000000000000000000000000000000000000000000000000000000000000070000000007070707000007070700000000000700000000000000000000000000000700
310
00070007000000000000000007070000000700000000000000000000000000000707000000000707070700070707070000000007000000000000000000000000000007000700070700000000000000000007070700070000000000000000000000000000000000000000000000000000000000000000000000000000000000
310
00000000000000000000000000000000070000000000070700070000070007000000000000070000000000000000000000000700000007000700000000000000000700070000000700000000000000000000000007070000000007070000070007000007000000000007000000000000000000000000000700070007070000
310
00000000000000070700070007000000000000000000000000000000000000000000000000000000000000000000000000000000000000000000000000000000000000000007000000000007000007000007000007000000000007000000000000000000000000070000070000070000000000000000070000070000070000
310
00000000000000000000070700000000070000000700070000000700000000070000000000000000000000000700070007000700000000000000000007070007000700000000000000000000000000000000000000000000000000000000000000000000000000000000000000000000000000000000000000000707070707
310
07070707070000070707070707070707070000000000000000000000000700000700000700000000000000000700000700000700000000000000000000000007070707070707070707070007070707070707070707070000000000000000000000070007000700070000000000000000000000070007000700000000000000
310
00000000000000000000000000000000000000000000000000000000000000000000000000000000000000000000000007000000000000000000000000000000000000000007000000000000000000000000070000070000070000000000000000070000000000000000000000000000000000000700000000000000000000
310
00000000000000000000000700000000000000000000000700070007000700000000000000000007000700070007000000000000000000000000000000000000000000000000000000000000000000000000000000000000000000000000000000000000000700000000000000000000000000000000000000000700000000
310
00000000000000000700000700000700000000000000000700000700000707000000000000000000000007000000000000000000000000000000000000000000070000000000000000000000070007000700070000000000000000000700070000000000000000000000000000000000000000000000000000000000000000
310
00000000000000000000000000000000000000000000000000000007070707070707070707000007070707070707070707000000000000000000000000070000070000070000000000000000070000070000070000000000000000000000000707070707070707070707000707070707070707070707000000000000000000
310
00000700070007000007000000000000000700070000070007000000000000000000000000000000000000000000000000000000000000000000000000000000000000000000000000000000000000000700000000000700000700000700000700000000000700000000000000000000000007000007000007000000000000
310
00000700070000000700000000000000000000000007070000000007000000070007000000070000000007000000000000000000000000070007000700000700000000000000070007000700070000000000000000000000000000000000000000000000000000000000000000000000000000000000000000000000000000
310
00000000000007000000000007070007000007000700000000000007000000000000000000000000070000000700070000000000000000070007000000070000000000000000000000000707000000000007000007000700000700000000000700000000000000000000000007000007000700000700000000070700000700
310
07000700000000000000000000000000000000000000000000000000000000000000000000000000000000000000000000000000000000000000000007000000000007070700000707000000000000070000000000000000000000000000070000070007070707070707070707070000000700000000000000000000000000
310
00070700000000000700070007000700000000000700000000000000000000000000000700070007000000070707070700000707070000070000000000000000000000000000000000000000000000000000000000000000000000000000000000000000000000000000000000000000000700000000000000070000070000
310
00000000000700000000000000000000000000000700000007000000000700070000000700000007000000000000000000000000000007070000000000000707000707000000000000070000000000000000000000000000000700070007000000000000000007070007000700000000000000000000000000000000000000
310
00000000000000000000000000000000000000000000000000000000000000000000000000000000070000000000000700000700000000000007000000000000000000000000000000000700000007070000070007000707000000070000000000000000000000000000000007000000000000000700070000000000000700
310
00000000000000000000000000000007000707000707000000000007070007000700000000000000000000000000000000000000000000000000000000000000000000000000000000000000000000000000000000000000000000000000070000000000070000070000000000070000000000000000000000000000000000
310
00070000000007070700070707000000070000000000000000000000000000000000000700000000000007000700000000000007000000000000000000000000000000000007000007070707070707070707070007000000000000000000000000000000000000000000000000000000000000000000000000000000000000
310
00000000000000000000000000000000000000000007000000000700000700000000070000000000000000000000000000000000000000070000000000070707000000000700000000000000000000000000000000000000000707000000000700070000000007070000000000000000000000000000000000000007000007
310
07070707070707000007070000000000000000000000000000000000000000000000000000000000000000000000000000000000000000000000000000000000000000000000000000000007070000070000070000070700000000000000000000000000000000000000000000070700000000000000000707000000000000
310
00000000000000000000000000000000070700000007000700000007000000000000000000000000000000000000000000000707000000000000000000070000000000000000000000000000000000000000000000000000000000000000000000000000000000000000000000000000000000000000000000000000000000
310
00000007070707070707070000000000000000000000000000000000000000000000000000070707070707070700000000000000000000000000000000000000000000000000000707070707070707070000000000000000000000000000000000000000000000000007070707070707070700000000000000000000000000
310
00000000000000000000000000000000000000000000000000000000000000000000000000000000000000000000000000000000000000000000000000000000000000000000000000000000000000000000000000000000000000000000000000000000000000000000000000000000000000000000000000000000000000
310
00000000000000000000000000000000000000000000000000000000000000000000000000000000000000000000000000000000000000000000000000000000000000000000000000000000000000000000000000000000000000000000000000000000000000000000000000000000000000000000000000000000000000
310
00000000000000000000000000000000000000000000000000000000000000000000000000000000000000000000000000000000000000000000000000000000000000000000000000000000000000000000000000000000000000000000000000000000000000000000000000000000000000000000000000000000000000
310
00000000000000000000000000000000000000000000000000000000000000000000000000000000000000000000000000000000000000000000000000000000000000000000000000000000000000000000000000000000000000000000000000000000000000000000000000000000000000000000000000000000000000
310
00000000000000000000000000000000000000000000000000000000000000000000000000000000000000000000000000000000000000000000000000000000000000000000000000000000000000000000000000000000000000000000000000000000000000000000000000000000000000000000000000000000000000
310
000000000000000000000000000000000000000000000000000000000000000000000000000000000000000000000000000000000000000000000000000000000000000000000000000000000000000000000000000000000000000000000000000000000000000000000000
  0
ENDSEC
  0
EOF
