999
unknown String-ID: 20550
0
SECTION
2
HEADER
9
$ACADVER
1
AC1009
9
$DWGCODEPAGE
3
unknown String-ID: 20561
0
ENDSEC
0
SECTION
2
TABLES
0
TABLE
2
LAYER
70
1
0
LAYER
2
0
70
0
62
7
6
CONTINUOUS
0
ENDTAB
0
ENDSEC
0
SECTION
2
ENTITIES
0
LINE
8
0
6
CONTINUOUS
10
0.024500
20
-0.046075
30
0.0
11
0.024500
21
-0.051614
31
0.0
0
LINE
8
0
6
CONTINUOUS
10
0.024500
20
-0.051614
30
0.0
11
0.024500
21
-0.056310
31
0.0
0
LINE
8
0
6
CONTINUOUS
10
0.024500
20
-0.056310
30
0.0
11
0.024500
21
-0.059447
31
0.0
0
LINE
8
0
6
CONTINUOUS
10
0.025291
20
-0.060549
30
0.0
11
0.049659
21
-0.060549
31
0.0
0
LINE
8
0
6
CONTINUOUS
10
0.024500
20
-0.059447
30
0.0
11
0.024500
21
-0.060549
31
0.0
0
LINE
8
0
6
CONTINUOUS
10
0.024500
20
-0.060549
30
0.0
11
0.025291
21
-0.060549
31
0.0
0
LINE
8
0
6
CONTINUOUS
10
0.049659
20
0.060549
30
0.0
11
0.025291
21
0.060549
31
0.0
0
LINE
8
0
6
CONTINUOUS
10
0.024500
20
0.060549
30
0.0
11
0.024500
21
0.059447
31
0.0
0
LINE
8
0
6
CONTINUOUS
10
0.025291
20
0.060549
30
0.0
11
0.024500
21
0.060549
31
0.0
0
LINE
8
0
6
CONTINUOUS
10
0.024500
20
0.059447
30
0.0
11
0.024500
21
0.056310
31
0.0
0
LINE
8
0
6
CONTINUOUS
10
0.024500
20
0.056310
30
0.0
11
0.024500
21
0.051614
31
0.0
0
LINE
8
0
6
CONTINUOUS
10
0.024500
20
0.051614
30
0.0
11
0.024500
21
0.046075
31
0.0
0
LINE
8
0
6
CONTINUOUS
10
0.024500
20
0.046075
30
0.0
11
0.024500
21
-0.046075
31
0.0
0
LINE
8
0
6
CONTINUOUS
10
0.050450
20
-0.051614
30
0.0
11
0.050450
21
-0.046075
31
0.0
0
LINE
8
0
6
CONTINUOUS
10
0.050450
20
-0.056310
30
0.0
11
0.050450
21
-0.051614
31
0.0
0
LINE
8
0
6
CONTINUOUS
10
0.050450
20
-0.059447
30
0.0
11
0.050450
21
-0.056310
31
0.0
0
LINE
8
0
6
CONTINUOUS
10
0.049659
20
-0.060549
30
0.0
11
0.050450
21
-0.060549
31
0.0
0
LINE
8
0
6
CONTINUOUS
10
0.050450
20
0.060549
30
0.0
11
0.049659
21
0.060549
31
0.0
0
LINE
8
0
6
CONTINUOUS
10
0.050450
20
0.056310
30
0.0
11
0.050450
21
0.059447
31
0.0
0
LINE
8
0
6
CONTINUOUS
10
0.050450
20
0.051614
30
0.0
11
0.050450
21
0.056310
31
0.0
0
LINE
8
0
6
CONTINUOUS
10
0.050450
20
0.046075
30
0.0
11
0.050450
21
0.051614
31
0.0
0
LINE
8
0
6
CONTINUOUS
10
0.050450
20
-0.046075
30
0.0
11
0.050450
21
0.046075
31
0.0
0
LINE
8
0
6
CONTINUOUS
10
0.052500
20
0.029000
30
0.0
11
0.050450
21
0.029000
31
0.0
0
LINE
8
0
6
CONTINUOUS
10
0.052500
20
0.011000
30
0.0
11
0.050450
21
0.011000
31
0.0
0
LINE
8
0
6
CONTINUOUS
10
0.052500
20
-0.007000
30
0.0
11
0.050450
21
-0.007000
31
0.0
0
LINE
8
0
6
CONTINUOUS
10
0.052500
20
-0.025000
30
0.0
11
0.050450
21
-0.025000
31
0.0
0
LINE
8
0
6
CONTINUOUS
10
0.052500
20
0.047000
30
0.0
11
0.050450
21
0.047000
31
0.0
0
LINE
8
0
6
CONTINUOUS
10
0.052500
20
0.029000
30
0.0
11
0.050450
21
0.029000
31
0.0
0
LINE
8
0
6
CONTINUOUS
10
0.052500
20
-0.007000
30
0.0
11
0.050450
21
-0.007000
31
0.0
0
LINE
8
0
6
CONTINUOUS
10
0.052500
20
-0.025000
30
0.0
11
0.050450
21
-0.025000
31
0.0
0
LINE
8
0
6
CONTINUOUS
10
0.052500
20
0.047000
30
0.0
11
0.050450
21
0.047000
31
0.0
0
LINE
8
0
6
CONTINUOUS
10
0.052500
20
0.029000
30
0.0
11
0.050450
21
0.029000
31
0.0
0
LINE
8
0
6
CONTINUOUS
10
0.052500
20
-0.007000
30
0.0
11
0.050450
21
-0.007000
31
0.0
0
LINE
8
0
6
CONTINUOUS
10
0.052500
20
-0.025000
30
0.0
11
0.050450
21
-0.025000
31
0.0
0
LINE
8
0
6
CONTINUOUS
10
0.052500
20
0.047000
30
0.0
11
0.050450
21
0.047000
31
0.0
0
LINE
8
0
6
CONTINUOUS
10
0.052500
20
0.029000
30
0.0
11
0.050450
21
0.029000
31
0.0
0
LINE
8
0
6
CONTINUOUS
10
0.052500
20
-0.007000
30
0.0
11
0.050450
21
-0.007000
31
0.0
0
LINE
8
0
6
CONTINUOUS
10
0.052500
20
-0.025000
30
0.0
11
0.050450
21
-0.025000
31
0.0
0
LINE
8
0
6
CONTINUOUS
10
0.052500
20
0.047000
30
0.0
11
0.050450
21
0.047000
31
0.0
0
LINE
8
0
6
CONTINUOUS
10
0.052500
20
0.029000
30
0.0
11
0.050450
21
0.029000
31
0.0
0
LINE
8
0
6
CONTINUOUS
10
0.052500
20
-0.007000
30
0.0
11
0.050450
21
-0.007000
31
0.0
0
LINE
8
0
6
CONTINUOUS
10
0.052500
20
-0.025000
30
0.0
11
0.050450
21
-0.025000
31
0.0
0
LINE
8
0
6
CONTINUOUS
10
0.052500
20
0.047000
30
0.0
11
0.050450
21
0.047000
31
0.0
0
LINE
8
0
6
CONTINUOUS
10
0.052500
20
0.025000
30
0.0
11
0.052500
21
0.026000
31
0.0
0
LINE
8
0
6
CONTINUOUS
10
0.050450
20
0.025000
30
0.0
11
0.052500
21
0.025000
31
0.0
0
LINE
8
0
6
CONTINUOUS
10
0.052500
20
0.029000
30
0.0
11
0.050450
21
0.029000
31
0.0
0
LINE
8
0
6
CONTINUOUS
10
0.052500
20
0.028000
30
0.0
11
0.052500
21
0.029000
31
0.0
0
LINE
8
0
6
CONTINUOUS
10
0.052500
20
0.026000
30
0.0
11
0.052500
21
0.028000
31
0.0
0
LINE
8
0
6
CONTINUOUS
10
0.052500
20
0.007000
30
0.0
11
0.052500
21
0.008000
31
0.0
0
LINE
8
0
6
CONTINUOUS
10
0.050450
20
0.007000
30
0.0
11
0.052500
21
0.007000
31
0.0
0
LINE
8
0
6
CONTINUOUS
10
0.052500
20
0.011000
30
0.0
11
0.050450
21
0.011000
31
0.0
0
LINE
8
0
6
CONTINUOUS
10
0.052500
20
0.010000
30
0.0
11
0.052500
21
0.011000
31
0.0
0
LINE
8
0
6
CONTINUOUS
10
0.052500
20
0.008000
30
0.0
11
0.052500
21
0.010000
31
0.0
0
LINE
8
0
6
CONTINUOUS
10
0.052500
20
-0.011000
30
0.0
11
0.052500
21
-0.010000
31
0.0
0
LINE
8
0
6
CONTINUOUS
10
0.050450
20
-0.011000
30
0.0
11
0.052500
21
-0.011000
31
0.0
0
LINE
8
0
6
CONTINUOUS
10
0.052500
20
-0.007000
30
0.0
11
0.050450
21
-0.007000
31
0.0
0
LINE
8
0
6
CONTINUOUS
10
0.052500
20
-0.008000
30
0.0
11
0.052500
21
-0.007000
31
0.0
0
LINE
8
0
6
CONTINUOUS
10
0.052500
20
-0.010000
30
0.0
11
0.052500
21
-0.008000
31
0.0
0
LINE
8
0
6
CONTINUOUS
10
0.052500
20
-0.029000
30
0.0
11
0.052500
21
-0.028000
31
0.0
0
LINE
8
0
6
CONTINUOUS
10
0.050450
20
-0.029000
30
0.0
11
0.052500
21
-0.029000
31
0.0
0
LINE
8
0
6
CONTINUOUS
10
0.052500
20
-0.025000
30
0.0
11
0.050450
21
-0.025000
31
0.0
0
LINE
8
0
6
CONTINUOUS
10
0.052500
20
-0.026000
30
0.0
11
0.052500
21
-0.025000
31
0.0
0
LINE
8
0
6
CONTINUOUS
10
0.052500
20
-0.028000
30
0.0
11
0.052500
21
-0.026000
31
0.0
0
LINE
8
0
6
CONTINUOUS
10
0.052500
20
-0.047000
30
0.0
11
0.052500
21
-0.046000
31
0.0
0
LINE
8
0
6
CONTINUOUS
10
0.050450
20
-0.047000
30
0.0
11
0.052500
21
-0.047000
31
0.0
0
LINE
8
0
6
CONTINUOUS
10
0.052500
20
-0.043000
30
0.0
11
0.050450
21
-0.043000
31
0.0
0
LINE
8
0
6
CONTINUOUS
10
0.052500
20
-0.044000
30
0.0
11
0.052500
21
-0.043000
31
0.0
0
LINE
8
0
6
CONTINUOUS
10
0.052500
20
-0.046000
30
0.0
11
0.052500
21
-0.044000
31
0.0
0
LINE
8
0
6
CONTINUOUS
10
0.052500
20
0.043000
30
0.0
11
0.052500
21
0.044000
31
0.0
0
LINE
8
0
6
CONTINUOUS
10
0.050450
20
0.043000
30
0.0
11
0.052500
21
0.043000
31
0.0
0
LINE
8
0
6
CONTINUOUS
10
0.052500
20
0.047000
30
0.0
11
0.050450
21
0.047000
31
0.0
0
LINE
8
0
6
CONTINUOUS
10
0.052500
20
0.046000
30
0.0
11
0.052500
21
0.047000
31
0.0
0
LINE
8
0
6
CONTINUOUS
10
0.052500
20
0.044000
30
0.0
11
0.052500
21
0.046000
31
0.0
0
LINE
8
0
6
CONTINUOUS
10
-0.045500
20
-0.033000
30
0.0
11
-0.045500
21
-0.029000
31
0.0
0
LINE
8
0
6
CONTINUOUS
10
-0.045500
20
0.027000
30
0.0
11
-0.045500
21
0.031000
31
0.0
0
LINE
8
0
6
CONTINUOUS
10
-0.045500
20
0.031000
30
0.0
11
-0.045500
21
0.027000
31
0.0
0
LINE
8
0
6
CONTINUOUS
10
-0.045500
20
-0.029000
30
0.0
11
-0.045500
21
-0.033000
31
0.0
0
LINE
8
0
6
CONTINUOUS
10
-0.050500
20
-0.033000
30
0.0
11
-0.050500
21
-0.029000
31
0.0
0
LINE
8
0
6
CONTINUOUS
10
-0.050500
20
-0.017000
30
0.0
11
-0.050500
21
-0.001000
31
0.0
0
LINE
8
0
6
CONTINUOUS
10
-0.050500
20
-0.001000
30
0.0
11
-0.050500
21
0.015000
31
0.0
0
LINE
8
0
6
CONTINUOUS
10
-0.050500
20
0.027000
30
0.0
11
-0.050500
21
0.031000
31
0.0
0
LINE
8
0
6
CONTINUOUS
10
-0.050500
20
0.031000
30
0.0
11
-0.050500
21
0.027000
31
0.0
0
LINE
8
0
6
CONTINUOUS
10
-0.050500
20
-0.029000
30
0.0
11
-0.050500
21
-0.033000
31
0.0
0
LINE
8
0
6
CONTINUOUS
10
0.001500
20
-0.014000
30
0.0
11
0.024500
21
-0.014000
31
0.0
0
LINE
8
0
6
CONTINUOUS
10
0.024500
20
0.014000
30
0.0
11
0.001500
21
0.014000
31
0.0
0
LINE
8
0
6
CONTINUOUS
10
-0.027500
20
0.049000
30
0.0
11
-0.039500
21
0.049000
31
0.0
0
LINE
8
0
6
CONTINUOUS
10
-0.039500
20
0.049000
30
0.0
11
-0.027500
21
0.049000
31
0.0
0
LINE
8
0
6
CONTINUOUS
10
-0.039500
20
0.049000
30
0.0
11
-0.027500
21
0.049000
31
0.0
0
LINE
8
0
6
CONTINUOUS
10
-0.039500
20
0.039000
30
0.0
11
-0.039500
21
0.049000
31
0.0
0
LINE
8
0
6
CONTINUOUS
10
-0.027500
20
0.039000
30
0.0
11
-0.027500
21
0.049000
31
0.0
0
LINE
8
0
6
CONTINUOUS
10
-0.039500
20
0.049000
30
0.0
11
-0.039500
21
0.039000
31
0.0
0
LINE
8
0
6
CONTINUOUS
10
-0.027500
20
0.049000
30
0.0
11
-0.039500
21
0.049000
31
0.0
0
LINE
8
0
6
CONTINUOUS
10
-0.027500
20
0.049000
30
0.0
11
-0.027500
21
0.039000
31
0.0
0
LINE
8
0
6
CONTINUOUS
10
-0.045500
20
0.039000
30
0.0
11
-0.044120
21
0.039000
31
0.0
0
LINE
8
0
6
CONTINUOUS
10
-0.044120
20
0.039000
30
0.0
11
-0.040940
21
0.039000
31
0.0
0
LINE
8
0
6
CONTINUOUS
10
-0.040940
20
0.039000
30
0.0
11
-0.037340
21
0.039000
31
0.0
0
LINE
8
0
6
CONTINUOUS
10
-0.037340
20
0.039000
30
0.0
11
-0.033500
21
0.039000
31
0.0
0
LINE
8
0
6
CONTINUOUS
10
-0.044120
20
0.039000
30
0.0
11
-0.045500
21
0.039000
31
0.0
0
LINE
8
0
6
CONTINUOUS
10
-0.040940
20
0.039000
30
0.0
11
-0.044120
21
0.039000
31
0.0
0
LINE
8
0
6
CONTINUOUS
10
-0.037340
20
0.039000
30
0.0
11
-0.040940
21
0.039000
31
0.0
0
LINE
8
0
6
CONTINUOUS
10
-0.033500
20
0.039000
30
0.0
11
-0.037340
21
0.039000
31
0.0
0
LINE
8
0
6
CONTINUOUS
10
-0.019040
20
0.039000
30
0.0
11
-0.018500
21
0.039000
31
0.0
0
LINE
8
0
6
CONTINUOUS
10
-0.020480
20
0.039000
30
0.0
11
-0.019040
21
0.039000
31
0.0
0
LINE
8
0
6
CONTINUOUS
10
-0.022880
20
0.039000
30
0.0
11
-0.020480
21
0.039000
31
0.0
0
LINE
8
0
6
CONTINUOUS
10
-0.026060
20
0.039000
30
0.0
11
-0.022880
21
0.039000
31
0.0
0
LINE
8
0
6
CONTINUOUS
10
-0.029660
20
0.039000
30
0.0
11
-0.026060
21
0.039000
31
0.0
0
LINE
8
0
6
CONTINUOUS
10
-0.033500
20
0.039000
30
0.0
11
-0.029660
21
0.039000
31
0.0
0
LINE
8
0
6
CONTINUOUS
10
-0.018500
20
0.039000
30
0.0
11
-0.019040
21
0.039000
31
0.0
0
LINE
8
0
6
CONTINUOUS
10
-0.018500
20
0.034000
30
0.0
11
-0.018500
21
0.039000
31
0.0
0
LINE
8
0
6
CONTINUOUS
10
-0.019040
20
0.039000
30
0.0
11
-0.020480
21
0.039000
31
0.0
0
LINE
8
0
6
CONTINUOUS
10
-0.020480
20
0.039000
30
0.0
11
-0.022880
21
0.039000
31
0.0
0
LINE
8
0
6
CONTINUOUS
10
-0.022880
20
0.039000
30
0.0
11
-0.026060
21
0.039000
31
0.0
0
LINE
8
0
6
CONTINUOUS
10
-0.026060
20
0.039000
30
0.0
11
-0.029660
21
0.039000
31
0.0
0
LINE
8
0
6
CONTINUOUS
10
-0.029660
20
0.039000
30
0.0
11
-0.033500
21
0.039000
31
0.0
0
LINE
8
0
6
CONTINUOUS
10
-0.018500
20
0.009000
30
0.0
11
-0.006500
21
0.009000
31
0.0
0
LINE
8
0
6
CONTINUOUS
10
-0.006500
20
0.009000
30
0.0
11
-0.018500
21
0.009000
31
0.0
0
LINE
8
0
6
CONTINUOUS
10
-0.018500
20
0.009000
30
0.0
11
-0.022170
21
0.009000
31
0.0
0
LINE
8
0
6
CONTINUOUS
10
-0.022170
20
0.009000
30
0.0
11
-0.018500
21
0.009000
31
0.0
0
LINE
8
0
6
CONTINUOUS
10
-0.006500
20
-0.001000
30
0.0
11
-0.018500
21
-0.001000
31
0.0
0
LINE
8
0
6
CONTINUOUS
10
-0.049924
20
0.003096
30
0.0
11
-0.050500
21
-0.001000
31
0.0
0
LINE
8
0
6
CONTINUOUS
10
-0.048388
20
0.006936
30
0.0
11
-0.049924
21
0.003096
31
0.0
0
LINE
8
0
6
CONTINUOUS
10
-0.045828
20
0.010328
30
0.0
11
-0.048388
21
0.006936
31
0.0
0
LINE
8
0
6
CONTINUOUS
10
-0.042436
20
0.012888
30
0.0
11
-0.045828
21
0.010328
31
0.0
0
LINE
8
0
6
CONTINUOUS
10
-0.038596
20
0.014424
30
0.0
11
-0.042436
21
0.012888
31
0.0
0
LINE
8
0
6
CONTINUOUS
10
-0.034500
20
0.015000
30
0.0
11
-0.038596
21
0.014424
31
0.0
0
LINE
8
0
6
CONTINUOUS
10
-0.049924
20
0.003096
30
0.0
11
-0.050500
21
-0.001000
31
0.0
0
LINE
8
0
6
CONTINUOUS
10
-0.048388
20
0.006936
30
0.0
11
-0.049924
21
0.003096
31
0.0
0
LINE
8
0
6
CONTINUOUS
10
-0.050500
20
-0.001000
30
0.0
11
-0.049924
21
-0.005096
31
0.0
0
LINE
8
0
6
CONTINUOUS
10
-0.049924
20
-0.005096
30
0.0
11
-0.048388
21
-0.008936
31
0.0
0
LINE
8
0
6
CONTINUOUS
10
-0.048388
20
-0.008936
30
0.0
11
-0.045828
21
-0.012328
31
0.0
0
LINE
8
0
6
CONTINUOUS
10
-0.045828
20
-0.012328
30
0.0
11
-0.042436
21
-0.014888
31
0.0
0
LINE
8
0
6
CONTINUOUS
10
-0.042436
20
-0.014888
30
0.0
11
-0.038596
21
-0.016424
31
0.0
0
LINE
8
0
6
CONTINUOUS
10
-0.038596
20
-0.016424
30
0.0
11
-0.034500
21
-0.017000
31
0.0
0
LINE
8
0
6
CONTINUOUS
10
-0.050500
20
-0.001000
30
0.0
11
-0.049924
21
-0.005096
31
0.0
0
LINE
8
0
6
CONTINUOUS
10
-0.049924
20
-0.005096
30
0.0
11
-0.048388
21
-0.008936
31
0.0
0
LINE
8
0
6
CONTINUOUS
10
-0.019076
20
-0.005096
30
0.0
11
-0.018500
21
-0.001000
31
0.0
0
LINE
8
0
6
CONTINUOUS
10
-0.020612
20
-0.008936
30
0.0
11
-0.019076
21
-0.005096
31
0.0
0
LINE
8
0
6
CONTINUOUS
10
-0.023172
20
-0.012328
30
0.0
11
-0.020612
21
-0.008936
31
0.0
0
LINE
8
0
6
CONTINUOUS
10
-0.026564
20
-0.014888
30
0.0
11
-0.023172
21
-0.012328
31
0.0
0
LINE
8
0
6
CONTINUOUS
10
-0.030404
20
-0.016424
30
0.0
11
-0.026564
21
-0.014888
31
0.0
0
LINE
8
0
6
CONTINUOUS
10
-0.034500
20
-0.017000
30
0.0
11
-0.030404
21
-0.016424
31
0.0
0
LINE
8
0
6
CONTINUOUS
10
-0.019076
20
-0.005096
30
0.0
11
-0.018500
21
-0.001000
31
0.0
0
LINE
8
0
6
CONTINUOUS
10
-0.020612
20
-0.008936
30
0.0
11
-0.019076
21
-0.005096
31
0.0
0
LINE
8
0
6
CONTINUOUS
10
-0.023172
20
-0.012328
30
0.0
11
-0.020612
21
-0.008936
31
0.0
0
LINE
8
0
6
CONTINUOUS
10
-0.026564
20
-0.014888
30
0.0
11
-0.023172
21
-0.012328
31
0.0
0
LINE
8
0
6
CONTINUOUS
10
-0.030404
20
-0.016424
30
0.0
11
-0.026564
21
-0.014888
31
0.0
0
LINE
8
0
6
CONTINUOUS
10
-0.034500
20
-0.017000
30
0.0
11
-0.030404
21
-0.016424
31
0.0
0
LINE
8
0
6
CONTINUOUS
10
-0.018500
20
-0.001000
30
0.0
11
-0.019076
21
0.003096
31
0.0
0
LINE
8
0
6
CONTINUOUS
10
-0.019076
20
0.003096
30
0.0
11
-0.020612
21
0.006936
31
0.0
0
LINE
8
0
6
CONTINUOUS
10
-0.020612
20
0.006936
30
0.0
11
-0.023172
21
0.010328
31
0.0
0
LINE
8
0
6
CONTINUOUS
10
-0.023172
20
0.010328
30
0.0
11
-0.026564
21
0.012888
31
0.0
0
LINE
8
0
6
CONTINUOUS
10
-0.026564
20
0.012888
30
0.0
11
-0.030404
21
0.014424
31
0.0
0
LINE
8
0
6
CONTINUOUS
10
-0.030404
20
0.014424
30
0.0
11
-0.034500
21
0.015000
31
0.0
0
LINE
8
0
6
CONTINUOUS
10
-0.018500
20
-0.001000
30
0.0
11
-0.019076
21
0.003096
31
0.0
0
LINE
8
0
6
CONTINUOUS
10
-0.019076
20
0.003096
30
0.0
11
-0.020612
21
0.006936
31
0.0
0
LINE
8
0
6
CONTINUOUS
10
-0.020612
20
0.006936
30
0.0
11
-0.023172
21
0.010328
31
0.0
0
LINE
8
0
6
CONTINUOUS
10
-0.023172
20
0.010328
30
0.0
11
-0.026564
21
0.012888
31
0.0
0
LINE
8
0
6
CONTINUOUS
10
-0.026564
20
0.012888
30
0.0
11
-0.030404
21
0.014424
31
0.0
0
LINE
8
0
6
CONTINUOUS
10
-0.030404
20
0.014424
30
0.0
11
-0.034500
21
0.015000
31
0.0
0
LINE
8
0
6
CONTINUOUS
10
-0.022170
20
0.009000
30
0.0
11
-0.018500
21
0.009000
31
0.0
0
LINE
8
0
6
CONTINUOUS
10
-0.018500
20
0.009000
30
0.0
11
-0.006500
21
0.009000
31
0.0
0
LINE
8
0
6
CONTINUOUS
10
-0.006500
20
0.009000
30
0.0
11
-0.006500
21
-0.001000
31
0.0
0
LINE
8
0
6
CONTINUOUS
10
-0.006500
20
0.009000
30
0.0
11
-0.018500
21
0.009000
31
0.0
0
LINE
8
0
6
CONTINUOUS
10
-0.006500
20
-0.001000
30
0.0
11
-0.006500
21
0.009000
31
0.0
0
LINE
8
0
6
CONTINUOUS
10
-0.018500
20
-0.001000
30
0.0
11
-0.006500
21
-0.001000
31
0.0
0
LINE
8
0
6
CONTINUOUS
10
-0.018500
20
0.009000
30
0.0
11
-0.018500
21
-0.001000
31
0.0
0
LINE
8
0
6
CONTINUOUS
10
-0.018500
20
-0.001000
30
0.0
11
-0.018500
21
0.009000
31
0.0
0
LINE
8
0
6
CONTINUOUS
10
-0.018500
20
0.009000
30
0.0
11
-0.022170
21
0.009000
31
0.0
0
LINE
8
0
6
CONTINUOUS
10
-0.043500
20
-0.036000
30
0.0
11
-0.033500
21
-0.036000
31
0.0
0
LINE
8
0
6
CONTINUOUS
10
-0.033500
20
-0.036000
30
0.0
11
-0.033500
21
-0.016859
31
0.0
0
LINE
8
0
6
CONTINUOUS
10
-0.033500
20
-0.036000
30
0.0
11
-0.043500
21
-0.036000
31
0.0
0
LINE
8
0
6
CONTINUOUS
10
-0.045500
20
-0.035560
30
0.0
11
-0.045500
21
-0.033000
31
0.0
0
LINE
8
0
6
CONTINUOUS
10
-0.045500
20
-0.037960
30
0.0
11
-0.045500
21
-0.035560
31
0.0
0
LINE
8
0
6
CONTINUOUS
10
-0.045500
20
-0.040080
30
0.0
11
-0.045500
21
-0.037960
31
0.0
0
LINE
8
0
6
CONTINUOUS
10
-0.045500
20
-0.041680
30
0.0
11
-0.045500
21
-0.040080
31
0.0
0
LINE
8
0
6
CONTINUOUS
10
-0.045500
20
-0.042640
30
0.0
11
-0.045500
21
-0.041680
31
0.0
0
LINE
8
0
6
CONTINUOUS
10
-0.045500
20
-0.043000
30
0.0
11
-0.045500
21
-0.042640
31
0.0
0
LINE
8
0
6
CONTINUOUS
10
-0.045500
20
-0.033000
30
0.0
11
-0.045500
21
-0.035560
31
0.0
0
LINE
8
0
6
CONTINUOUS
10
-0.050500
20
-0.035560
30
0.0
11
-0.050500
21
-0.033000
31
0.0
0
LINE
8
0
6
CONTINUOUS
10
-0.045500
20
-0.035560
30
0.0
11
-0.045500
21
-0.037960
31
0.0
0
LINE
8
0
6
CONTINUOUS
10
-0.050500
20
-0.037960
30
0.0
11
-0.050500
21
-0.035560
31
0.0
0
LINE
8
0
6
CONTINUOUS
10
-0.045500
20
-0.037960
30
0.0
11
-0.045500
21
-0.040080
31
0.0
0
LINE
8
0
6
CONTINUOUS
10
-0.050500
20
-0.040080
30
0.0
11
-0.050500
21
-0.037960
31
0.0
0
LINE
8
0
6
CONTINUOUS
10
-0.045500
20
-0.040080
30
0.0
11
-0.045500
21
-0.041680
31
0.0
0
LINE
8
0
6
CONTINUOUS
10
-0.050500
20
-0.041680
30
0.0
11
-0.050500
21
-0.040080
31
0.0
0
LINE
8
0
6
CONTINUOUS
10
-0.045500
20
-0.041680
30
0.0
11
-0.045500
21
-0.042640
31
0.0
0
LINE
8
0
6
CONTINUOUS
10
-0.050500
20
-0.042640
30
0.0
11
-0.050500
21
-0.041680
31
0.0
0
LINE
8
0
6
CONTINUOUS
10
-0.045500
20
-0.042640
30
0.0
11
-0.045500
21
-0.043000
31
0.0
0
LINE
8
0
6
CONTINUOUS
10
-0.050500
20
-0.043000
30
0.0
11
-0.050500
21
-0.042640
31
0.0
0
LINE
8
0
6
CONTINUOUS
10
-0.050500
20
-0.033000
30
0.0
11
-0.050500
21
-0.035560
31
0.0
0
LINE
8
0
6
CONTINUOUS
10
-0.050500
20
-0.035560
30
0.0
11
-0.050500
21
-0.037960
31
0.0
0
LINE
8
0
6
CONTINUOUS
10
-0.050500
20
-0.037960
30
0.0
11
-0.050500
21
-0.040080
31
0.0
0
LINE
8
0
6
CONTINUOUS
10
-0.050500
20
-0.040080
30
0.0
11
-0.050500
21
-0.041680
31
0.0
0
LINE
8
0
6
CONTINUOUS
10
-0.050500
20
-0.041680
30
0.0
11
-0.050500
21
-0.042640
31
0.0
0
LINE
8
0
6
CONTINUOUS
10
-0.050500
20
-0.042640
30
0.0
11
-0.050500
21
-0.043000
31
0.0
0
LINE
8
0
6
CONTINUOUS
10
-0.040500
20
-0.024536
30
0.0
11
-0.040500
21
-0.023000
31
0.0
0
LINE
8
0
6
CONTINUOUS
10
-0.040500
20
-0.025976
30
0.0
11
-0.040500
21
-0.024536
31
0.0
0
LINE
8
0
6
CONTINUOUS
10
-0.040500
20
-0.027248
30
0.0
11
-0.040500
21
-0.025976
31
0.0
0
LINE
8
0
6
CONTINUOUS
10
-0.040500
20
-0.028208
30
0.0
11
-0.040500
21
-0.027248
31
0.0
0
LINE
8
0
6
CONTINUOUS
10
-0.040500
20
-0.028784
30
0.0
11
-0.040500
21
-0.028208
31
0.0
0
LINE
8
0
6
CONTINUOUS
10
-0.040500
20
-0.029000
30
0.0
11
-0.040500
21
-0.028784
31
0.0
0
LINE
8
0
6
CONTINUOUS
10
-0.040500
20
-0.023000
30
0.0
11
-0.040500
21
-0.024536
31
0.0
0
LINE
8
0
6
CONTINUOUS
10
-0.050500
20
-0.024536
30
0.0
11
-0.050500
21
-0.023000
31
0.0
0
LINE
8
0
6
CONTINUOUS
10
-0.040500
20
-0.024536
30
0.0
11
-0.040500
21
-0.025976
31
0.0
0
LINE
8
0
6
CONTINUOUS
10
-0.050500
20
-0.025976
30
0.0
11
-0.050500
21
-0.024536
31
0.0
0
LINE
8
0
6
CONTINUOUS
10
-0.040500
20
-0.025976
30
0.0
11
-0.040500
21
-0.027248
31
0.0
0
LINE
8
0
6
CONTINUOUS
10
-0.050500
20
-0.027248
30
0.0
11
-0.050500
21
-0.025976
31
0.0
0
LINE
8
0
6
CONTINUOUS
10
-0.040500
20
-0.027248
30
0.0
11
-0.040500
21
-0.028208
31
0.0
0
LINE
8
0
6
CONTINUOUS
10
-0.050500
20
-0.028208
30
0.0
11
-0.050500
21
-0.027248
31
0.0
0
LINE
8
0
6
CONTINUOUS
10
-0.040500
20
-0.028208
30
0.0
11
-0.040500
21
-0.028784
31
0.0
0
LINE
8
0
6
CONTINUOUS
10
-0.050500
20
-0.028784
30
0.0
11
-0.050500
21
-0.028208
31
0.0
0
LINE
8
0
6
CONTINUOUS
10
-0.040500
20
-0.028784
30
0.0
11
-0.040500
21
-0.029000
31
0.0
0
LINE
8
0
6
CONTINUOUS
10
-0.050500
20
-0.029000
30
0.0
11
-0.050500
21
-0.028784
31
0.0
0
LINE
8
0
6
CONTINUOUS
10
-0.050500
20
-0.023000
30
0.0
11
-0.050500
21
-0.024536
31
0.0
0
LINE
8
0
6
CONTINUOUS
10
-0.050500
20
-0.024536
30
0.0
11
-0.050500
21
-0.025976
31
0.0
0
LINE
8
0
6
CONTINUOUS
10
-0.050500
20
-0.025976
30
0.0
11
-0.050500
21
-0.027248
31
0.0
0
LINE
8
0
6
CONTINUOUS
10
-0.050500
20
-0.027248
30
0.0
11
-0.050500
21
-0.028208
31
0.0
0
LINE
8
0
6
CONTINUOUS
10
-0.050500
20
-0.028208
30
0.0
11
-0.050500
21
-0.028784
31
0.0
0
LINE
8
0
6
CONTINUOUS
10
-0.050500
20
-0.028784
30
0.0
11
-0.050500
21
-0.029000
31
0.0
0
LINE
8
0
6
CONTINUOUS
10
-0.050500
20
-0.029000
30
0.0
11
-0.040500
21
-0.029000
31
0.0
0
LINE
8
0
6
CONTINUOUS
10
-0.050500
20
-0.017000
30
0.0
11
-0.050500
21
-0.016000
31
0.0
0
LINE
8
0
6
CONTINUOUS
10
-0.050500
20
-0.016000
30
0.0
11
-0.050500
21
-0.017000
31
0.0
0
LINE
8
0
6
CONTINUOUS
10
-0.040500
20
-0.023000
30
0.0
11
-0.040500
21
-0.021464
31
0.0
0
LINE
8
0
6
CONTINUOUS
10
-0.040500
20
-0.021464
30
0.0
11
-0.040500
21
-0.020024
31
0.0
0
LINE
8
0
6
CONTINUOUS
10
-0.040500
20
-0.020024
30
0.0
11
-0.040500
21
-0.018752
31
0.0
0
LINE
8
0
6
CONTINUOUS
10
-0.040500
20
-0.018752
30
0.0
11
-0.040500
21
-0.017792
31
0.0
0
LINE
8
0
6
CONTINUOUS
10
-0.040500
20
-0.017792
30
0.0
11
-0.040500
21
-0.017216
31
0.0
0
LINE
8
0
6
CONTINUOUS
10
-0.040500
20
-0.017216
30
0.0
11
-0.040500
21
-0.017000
31
0.0
0
LINE
8
0
6
CONTINUOUS
10
-0.050500
20
-0.023000
30
0.0
11
-0.050500
21
-0.021464
31
0.0
0
LINE
8
0
6
CONTINUOUS
10
-0.040500
20
-0.021464
30
0.0
11
-0.040500
21
-0.023000
31
0.0
0
LINE
8
0
6
CONTINUOUS
10
-0.050500
20
-0.021464
30
0.0
11
-0.050500
21
-0.020024
31
0.0
0
LINE
8
0
6
CONTINUOUS
10
-0.040500
20
-0.020024
30
0.0
11
-0.040500
21
-0.021464
31
0.0
0
LINE
8
0
6
CONTINUOUS
10
-0.050500
20
-0.020024
30
0.0
11
-0.050500
21
-0.018752
31
0.0
0
LINE
8
0
6
CONTINUOUS
10
-0.040500
20
-0.018752
30
0.0
11
-0.040500
21
-0.020024
31
0.0
0
LINE
8
0
6
CONTINUOUS
10
-0.050500
20
-0.018752
30
0.0
11
-0.050500
21
-0.017792
31
0.0
0
LINE
8
0
6
CONTINUOUS
10
-0.040500
20
-0.017792
30
0.0
11
-0.040500
21
-0.018752
31
0.0
0
LINE
8
0
6
CONTINUOUS
10
-0.050500
20
-0.017792
30
0.0
11
-0.050500
21
-0.017216
31
0.0
0
LINE
8
0
6
CONTINUOUS
10
-0.040500
20
-0.017216
30
0.0
11
-0.040500
21
-0.017792
31
0.0
0
LINE
8
0
6
CONTINUOUS
10
-0.050500
20
-0.017000
30
0.0
11
-0.040500
21
-0.017000
31
0.0
0
LINE
8
0
6
CONTINUOUS
10
-0.050500
20
-0.017216
30
0.0
11
-0.050500
21
-0.017000
31
0.0
0
LINE
8
0
6
CONTINUOUS
10
-0.040500
20
-0.017000
30
0.0
11
-0.040500
21
-0.017216
31
0.0
0
LINE
8
0
6
CONTINUOUS
10
-0.050500
20
-0.021464
30
0.0
11
-0.050500
21
-0.023000
31
0.0
0
LINE
8
0
6
CONTINUOUS
10
-0.050500
20
-0.020024
30
0.0
11
-0.050500
21
-0.021464
31
0.0
0
LINE
8
0
6
CONTINUOUS
10
-0.050500
20
-0.018752
30
0.0
11
-0.050500
21
-0.020024
31
0.0
0
LINE
8
0
6
CONTINUOUS
10
-0.050500
20
-0.017792
30
0.0
11
-0.050500
21
-0.018752
31
0.0
0
LINE
8
0
6
CONTINUOUS
10
-0.050500
20
-0.017216
30
0.0
11
-0.050500
21
-0.017792
31
0.0
0
LINE
8
0
6
CONTINUOUS
10
-0.050500
20
-0.017000
30
0.0
11
-0.050500
21
-0.017216
31
0.0
0
LINE
8
0
6
CONTINUOUS
10
-0.048388
20
-0.008936
30
0.0
11
-0.048388
21
-0.017000
31
0.0
0
LINE
8
0
6
CONTINUOUS
10
-0.048388
20
-0.017000
30
0.0
11
-0.034500
21
-0.017000
31
0.0
0
LINE
8
0
6
CONTINUOUS
10
-0.050500
20
-0.043000
30
0.0
11
-0.045500
21
-0.043000
31
0.0
0
LINE
8
0
6
CONTINUOUS
10
-0.048388
20
-0.017000
30
0.0
11
-0.048388
21
-0.008936
31
0.0
0
LINE
8
0
6
CONTINUOUS
10
-0.034500
20
-0.017000
30
0.0
11
-0.048388
21
-0.017000
31
0.0
0
LINE
8
0
6
CONTINUOUS
10
-0.043500
20
0.034000
30
0.0
11
-0.033500
21
0.034000
31
0.0
0
LINE
8
0
6
CONTINUOUS
10
-0.033500
20
0.034000
30
0.0
11
-0.043500
21
0.034000
31
0.0
0
LINE
8
0
6
CONTINUOUS
10
-0.033500
20
0.014859
30
0.0
11
-0.033500
21
0.034000
31
0.0
0
LINE
8
0
6
CONTINUOUS
10
-0.045500
20
0.031000
30
0.0
11
-0.045500
21
0.033560
31
0.0
0
LINE
8
0
6
CONTINUOUS
10
-0.045500
20
0.033560
30
0.0
11
-0.045500
21
0.035960
31
0.0
0
LINE
8
0
6
CONTINUOUS
10
-0.045500
20
0.035960
30
0.0
11
-0.045500
21
0.038080
31
0.0
0
LINE
8
0
6
CONTINUOUS
10
-0.045500
20
0.038080
30
0.0
11
-0.045500
21
0.039680
31
0.0
0
LINE
8
0
6
CONTINUOUS
10
-0.045500
20
0.039680
30
0.0
11
-0.045500
21
0.040640
31
0.0
0
LINE
8
0
6
CONTINUOUS
10
-0.045500
20
0.040640
30
0.0
11
-0.045500
21
0.041000
31
0.0
0
LINE
8
0
6
CONTINUOUS
10
-0.050500
20
0.031000
30
0.0
11
-0.050500
21
0.033560
31
0.0
0
LINE
8
0
6
CONTINUOUS
10
-0.045500
20
0.033560
30
0.0
11
-0.045500
21
0.031000
31
0.0
0
LINE
8
0
6
CONTINUOUS
10
-0.050500
20
0.033560
30
0.0
11
-0.050500
21
0.035960
31
0.0
0
LINE
8
0
6
CONTINUOUS
10
-0.045500
20
0.035960
30
0.0
11
-0.045500
21
0.033560
31
0.0
0
LINE
8
0
6
CONTINUOUS
10
-0.050500
20
0.035960
30
0.0
11
-0.050500
21
0.038080
31
0.0
0
LINE
8
0
6
CONTINUOUS
10
-0.045500
20
0.038080
30
0.0
11
-0.045500
21
0.035960
31
0.0
0
LINE
8
0
6
CONTINUOUS
10
-0.050500
20
0.038080
30
0.0
11
-0.050500
21
0.039680
31
0.0
0
LINE
8
0
6
CONTINUOUS
10
-0.045500
20
0.039680
30
0.0
11
-0.045500
21
0.038080
31
0.0
0
LINE
8
0
6
CONTINUOUS
10
-0.050500
20
0.039680
30
0.0
11
-0.050500
21
0.040640
31
0.0
0
LINE
8
0
6
CONTINUOUS
10
-0.045500
20
0.040640
30
0.0
11
-0.045500
21
0.039680
31
0.0
0
LINE
8
0
6
CONTINUOUS
10
-0.050500
20
0.041000
30
0.0
11
-0.045500
21
0.041000
31
0.0
0
LINE
8
0
6
CONTINUOUS
10
-0.050500
20
0.040640
30
0.0
11
-0.050500
21
0.041000
31
0.0
0
LINE
8
0
6
CONTINUOUS
10
-0.045500
20
0.041000
30
0.0
11
-0.045500
21
0.040640
31
0.0
0
LINE
8
0
6
CONTINUOUS
10
-0.050500
20
0.033560
30
0.0
11
-0.050500
21
0.031000
31
0.0
0
LINE
8
0
6
CONTINUOUS
10
-0.050500
20
0.035960
30
0.0
11
-0.050500
21
0.033560
31
0.0
0
LINE
8
0
6
CONTINUOUS
10
-0.050500
20
0.038080
30
0.0
11
-0.050500
21
0.035960
31
0.0
0
LINE
8
0
6
CONTINUOUS
10
-0.050500
20
0.039680
30
0.0
11
-0.050500
21
0.038080
31
0.0
0
LINE
8
0
6
CONTINUOUS
10
-0.050500
20
0.040640
30
0.0
11
-0.050500
21
0.039680
31
0.0
0
LINE
8
0
6
CONTINUOUS
10
-0.050500
20
0.041000
30
0.0
11
-0.050500
21
0.040640
31
0.0
0
LINE
8
0
6
CONTINUOUS
10
-0.040500
20
0.019464
30
0.0
11
-0.040500
21
0.021000
31
0.0
0
LINE
8
0
6
CONTINUOUS
10
-0.040500
20
0.018024
30
0.0
11
-0.040500
21
0.019464
31
0.0
0
LINE
8
0
6
CONTINUOUS
10
-0.040500
20
0.016752
30
0.0
11
-0.040500
21
0.018024
31
0.0
0
LINE
8
0
6
CONTINUOUS
10
-0.040500
20
0.015792
30
0.0
11
-0.040500
21
0.016752
31
0.0
0
LINE
8
0
6
CONTINUOUS
10
-0.040500
20
0.015216
30
0.0
11
-0.040500
21
0.015792
31
0.0
0
LINE
8
0
6
CONTINUOUS
10
-0.040500
20
0.015000
30
0.0
11
-0.040500
21
0.015216
31
0.0
0
LINE
8
0
6
CONTINUOUS
10
-0.040500
20
0.021000
30
0.0
11
-0.040500
21
0.019464
31
0.0
0
LINE
8
0
6
CONTINUOUS
10
-0.050500
20
0.019464
30
0.0
11
-0.050500
21
0.021000
31
0.0
0
LINE
8
0
6
CONTINUOUS
10
-0.040500
20
0.019464
30
0.0
11
-0.040500
21
0.018024
31
0.0
0
LINE
8
0
6
CONTINUOUS
10
-0.050500
20
0.018024
30
0.0
11
-0.050500
21
0.019464
31
0.0
0
LINE
8
0
6
CONTINUOUS
10
-0.040500
20
0.018024
30
0.0
11
-0.040500
21
0.016752
31
0.0
0
LINE
8
0
6
CONTINUOUS
10
-0.050500
20
0.016752
30
0.0
11
-0.050500
21
0.018024
31
0.0
0
LINE
8
0
6
CONTINUOUS
10
-0.040500
20
0.016752
30
0.0
11
-0.040500
21
0.015792
31
0.0
0
LINE
8
0
6
CONTINUOUS
10
-0.050500
20
0.015792
30
0.0
11
-0.050500
21
0.016752
31
0.0
0
LINE
8
0
6
CONTINUOUS
10
-0.040500
20
0.015792
30
0.0
11
-0.040500
21
0.015216
31
0.0
0
LINE
8
0
6
CONTINUOUS
10
-0.050500
20
0.015216
30
0.0
11
-0.050500
21
0.015792
31
0.0
0
LINE
8
0
6
CONTINUOUS
10
-0.040500
20
0.015216
30
0.0
11
-0.040500
21
0.015000
31
0.0
0
LINE
8
0
6
CONTINUOUS
10
-0.050500
20
0.015000
30
0.0
11
-0.050500
21
0.015216
31
0.0
0
LINE
8
0
6
CONTINUOUS
10
-0.050500
20
0.021000
30
0.0
11
-0.050500
21
0.019464
31
0.0
0
LINE
8
0
6
CONTINUOUS
10
-0.050500
20
0.019464
30
0.0
11
-0.050500
21
0.018024
31
0.0
0
LINE
8
0
6
CONTINUOUS
10
-0.050500
20
0.018024
30
0.0
11
-0.050500
21
0.016752
31
0.0
0
LINE
8
0
6
CONTINUOUS
10
-0.050500
20
0.016752
30
0.0
11
-0.050500
21
0.015792
31
0.0
0
LINE
8
0
6
CONTINUOUS
10
-0.050500
20
0.015792
30
0.0
11
-0.050500
21
0.015216
31
0.0
0
LINE
8
0
6
CONTINUOUS
10
-0.050500
20
0.015216
30
0.0
11
-0.050500
21
0.015000
31
0.0
0
LINE
8
0
6
CONTINUOUS
10
-0.050500
20
0.014000
30
0.0
11
-0.050500
21
0.015000
31
0.0
0
LINE
8
0
6
CONTINUOUS
10
-0.050500
20
0.015000
30
0.0
11
-0.040500
21
0.015000
31
0.0
0
LINE
8
0
6
CONTINUOUS
10
-0.050500
20
0.015000
30
0.0
11
-0.050500
21
0.014000
31
0.0
0
LINE
8
0
6
CONTINUOUS
10
-0.040500
20
0.021000
30
0.0
11
-0.040500
21
0.022536
31
0.0
0
LINE
8
0
6
CONTINUOUS
10
-0.040500
20
0.022536
30
0.0
11
-0.040500
21
0.023976
31
0.0
0
LINE
8
0
6
CONTINUOUS
10
-0.040500
20
0.023976
30
0.0
11
-0.040500
21
0.025248
31
0.0
0
LINE
8
0
6
CONTINUOUS
10
-0.040500
20
0.025248
30
0.0
11
-0.040500
21
0.026208
31
0.0
0
LINE
8
0
6
CONTINUOUS
10
-0.040500
20
0.026208
30
0.0
11
-0.040500
21
0.026784
31
0.0
0
LINE
8
0
6
CONTINUOUS
10
-0.040500
20
0.026784
30
0.0
11
-0.040500
21
0.027000
31
0.0
0
LINE
8
0
6
CONTINUOUS
10
-0.050500
20
0.021000
30
0.0
11
-0.050500
21
0.022536
31
0.0
0
LINE
8
0
6
CONTINUOUS
10
-0.040500
20
0.022536
30
0.0
11
-0.040500
21
0.021000
31
0.0
0
LINE
8
0
6
CONTINUOUS
10
-0.050500
20
0.022536
30
0.0
11
-0.050500
21
0.023976
31
0.0
0
LINE
8
0
6
CONTINUOUS
10
-0.040500
20
0.023976
30
0.0
11
-0.040500
21
0.022536
31
0.0
0
LINE
8
0
6
CONTINUOUS
10
-0.050500
20
0.023976
30
0.0
11
-0.050500
21
0.025248
31
0.0
0
LINE
8
0
6
CONTINUOUS
10
-0.040500
20
0.025248
30
0.0
11
-0.040500
21
0.023976
31
0.0
0
LINE
8
0
6
CONTINUOUS
10
-0.050500
20
0.025248
30
0.0
11
-0.050500
21
0.026208
31
0.0
0
LINE
8
0
6
CONTINUOUS
10
-0.040500
20
0.026208
30
0.0
11
-0.040500
21
0.025248
31
0.0
0
LINE
8
0
6
CONTINUOUS
10
-0.050500
20
0.026208
30
0.0
11
-0.050500
21
0.026784
31
0.0
0
LINE
8
0
6
CONTINUOUS
10
-0.040500
20
0.026784
30
0.0
11
-0.040500
21
0.026208
31
0.0
0
LINE
8
0
6
CONTINUOUS
10
-0.050500
20
0.027000
30
0.0
11
-0.040500
21
0.027000
31
0.0
0
LINE
8
0
6
CONTINUOUS
10
-0.050500
20
0.026784
30
0.0
11
-0.050500
21
0.027000
31
0.0
0
LINE
8
0
6
CONTINUOUS
10
-0.040500
20
0.027000
30
0.0
11
-0.040500
21
0.026784
31
0.0
0
LINE
8
0
6
CONTINUOUS
10
-0.050500
20
0.022536
30
0.0
11
-0.050500
21
0.021000
31
0.0
0
LINE
8
0
6
CONTINUOUS
10
-0.050500
20
0.023976
30
0.0
11
-0.050500
21
0.022536
31
0.0
0
LINE
8
0
6
CONTINUOUS
10
-0.050500
20
0.025248
30
0.0
11
-0.050500
21
0.023976
31
0.0
0
LINE
8
0
6
CONTINUOUS
10
-0.050500
20
0.026208
30
0.0
11
-0.050500
21
0.025248
31
0.0
0
LINE
8
0
6
CONTINUOUS
10
-0.050500
20
0.026784
30
0.0
11
-0.050500
21
0.026208
31
0.0
0
LINE
8
0
6
CONTINUOUS
10
-0.050500
20
0.027000
30
0.0
11
-0.050500
21
0.026784
31
0.0
0
LINE
8
0
6
CONTINUOUS
10
-0.048388
20
0.015000
30
0.0
11
-0.048388
21
0.006936
31
0.0
0
LINE
8
0
6
CONTINUOUS
10
-0.034500
20
0.015000
30
0.0
11
-0.040500
21
0.015000
31
0.0
0
LINE
8
0
6
CONTINUOUS
10
-0.048388
20
0.006936
30
0.0
11
-0.048388
21
0.015000
31
0.0
0
LINE
8
0
6
CONTINUOUS
10
-0.040500
20
0.015000
30
0.0
11
-0.034500
21
0.015000
31
0.0
0
LINE
8
0
6
CONTINUOUS
10
-0.016500
20
-0.036000
30
0.0
11
-0.017112
21
-0.036000
31
0.0
0
LINE
8
0
6
CONTINUOUS
10
-0.017112
20
-0.036000
30
0.0
11
-0.018744
21
-0.036000
31
0.0
0
LINE
8
0
6
CONTINUOUS
10
-0.018744
20
-0.036000
30
0.0
11
-0.021464
21
-0.036000
31
0.0
0
LINE
8
0
6
CONTINUOUS
10
-0.021464
20
-0.036000
30
0.0
11
-0.025068
21
-0.036000
31
0.0
0
LINE
8
0
6
CONTINUOUS
10
-0.025068
20
-0.036000
30
0.0
11
-0.029148
21
-0.036000
31
0.0
0
LINE
8
0
6
CONTINUOUS
10
-0.029148
20
-0.036000
30
0.0
11
-0.033500
21
-0.036000
31
0.0
0
LINE
8
0
6
CONTINUOUS
10
-0.016500
20
-0.036000
30
0.0
11
-0.016500
21
-0.017000
31
0.0
0
LINE
8
0
6
CONTINUOUS
10
-0.017112
20
-0.036000
30
0.0
11
-0.016500
21
-0.036000
31
0.0
0
LINE
8
0
6
CONTINUOUS
10
-0.018744
20
-0.036000
30
0.0
11
-0.017112
21
-0.036000
31
0.0
0
LINE
8
0
6
CONTINUOUS
10
-0.021464
20
-0.036000
30
0.0
11
-0.018744
21
-0.036000
31
0.0
0
LINE
8
0
6
CONTINUOUS
10
-0.025068
20
-0.036000
30
0.0
11
-0.021464
21
-0.036000
31
0.0
0
LINE
8
0
6
CONTINUOUS
10
-0.029148
20
-0.036000
30
0.0
11
-0.025068
21
-0.036000
31
0.0
0
LINE
8
0
6
CONTINUOUS
10
-0.033500
20
-0.036000
30
0.0
11
-0.029148
21
-0.036000
31
0.0
0
LINE
8
0
6
CONTINUOUS
10
0.001500
20
-0.016388
30
0.0
11
0.001500
21
-0.017000
31
0.0
0
LINE
8
0
6
CONTINUOUS
10
0.001500
20
-0.014756
30
0.0
11
0.001500
21
-0.016388
31
0.0
0
LINE
8
0
6
CONTINUOUS
10
0.001500
20
-0.012036
30
0.0
11
0.001500
21
-0.014756
31
0.0
0
LINE
8
0
6
CONTINUOUS
10
0.001500
20
-0.008432
30
0.0
11
0.001500
21
-0.012000
31
0.0
0
LINE
8
0
6
CONTINUOUS
10
0.001500
20
-0.004352
30
0.0
11
0.001500
21
-0.008432
31
0.0
0
LINE
8
0
6
CONTINUOUS
10
0.001500
20
-0.000000
30
0.0
11
0.001500
21
-0.004352
31
0.0
0
LINE
8
0
6
CONTINUOUS
10
0.001500
20
-0.017000
30
0.0
11
0.001500
21
-0.016388
31
0.0
0
LINE
8
0
6
CONTINUOUS
10
0.001500
20
-0.016388
30
0.0
11
0.001500
21
-0.014756
31
0.0
0
LINE
8
0
6
CONTINUOUS
10
0.001500
20
-0.014756
30
0.0
11
0.001500
21
-0.012036
31
0.0
0
LINE
8
0
6
CONTINUOUS
10
0.001500
20
-0.012036
30
0.0
11
0.001500
21
-0.008432
31
0.0
0
LINE
8
0
6
CONTINUOUS
10
0.001500
20
-0.008432
30
0.0
11
0.001500
21
-0.004352
31
0.0
0
LINE
8
0
6
CONTINUOUS
10
0.001500
20
-0.004352
30
0.0
11
0.001500
21
-0.000000
31
0.0
0
LINE
8
0
6
CONTINUOUS
10
-0.016500
20
-0.017000
30
0.0
11
0.001500
21
-0.017000
31
0.0
0
LINE
8
0
6
CONTINUOUS
10
0.001500
20
0.016388
30
0.0
11
0.001500
21
0.017000
31
0.0
0
LINE
8
0
6
CONTINUOUS
10
0.001500
20
0.014756
30
0.0
11
0.001500
21
0.016388
31
0.0
0
LINE
8
0
6
CONTINUOUS
10
0.001500
20
0.012036
30
0.0
11
0.001500
21
0.014756
31
0.0
0
LINE
8
0
6
CONTINUOUS
10
0.001500
20
0.008432
30
0.0
11
0.001500
21
0.012000
31
0.0
0
LINE
8
0
6
CONTINUOUS
10
0.001500
20
0.004352
30
0.0
11
0.001500
21
0.008432
31
0.0
0
LINE
8
0
6
CONTINUOUS
10
0.001500
20
-0.000000
30
0.0
11
0.001500
21
0.004352
31
0.0
0
LINE
8
0
6
CONTINUOUS
10
-0.016500
20
0.017000
30
0.0
11
0.001500
21
0.017000
31
0.0
0
LINE
8
0
6
CONTINUOUS
10
0.001500
20
0.017000
30
0.0
11
0.001500
21
0.016388
31
0.0
0
LINE
8
0
6
CONTINUOUS
10
0.001500
20
0.016388
30
0.0
11
0.001500
21
0.014756
31
0.0
0
LINE
8
0
6
CONTINUOUS
10
0.001500
20
0.014756
30
0.0
11
0.001500
21
0.012036
31
0.0
0
LINE
8
0
6
CONTINUOUS
10
0.001500
20
0.012036
30
0.0
11
0.001500
21
0.008432
31
0.0
0
LINE
8
0
6
CONTINUOUS
10
0.001500
20
0.008432
30
0.0
11
0.001500
21
0.004352
31
0.0
0
LINE
8
0
6
CONTINUOUS
10
0.001500
20
0.004352
30
0.0
11
0.001500
21
-0.000000
31
0.0
0
LINE
8
0
6
CONTINUOUS
10
-0.017112
20
0.034000
30
0.0
11
-0.016500
21
0.034000
31
0.0
0
LINE
8
0
6
CONTINUOUS
10
-0.018744
20
0.034000
30
0.0
11
-0.017112
21
0.034000
31
0.0
0
LINE
8
0
6
CONTINUOUS
10
-0.021464
20
0.034000
30
0.0
11
-0.018744
21
0.034000
31
0.0
0
LINE
8
0
6
CONTINUOUS
10
-0.025068
20
0.034000
30
0.0
11
-0.021464
21
0.034000
31
0.0
0
LINE
8
0
6
CONTINUOUS
10
-0.029148
20
0.034000
30
0.0
11
-0.025068
21
0.034000
31
0.0
0
LINE
8
0
6
CONTINUOUS
10
-0.033500
20
0.034000
30
0.0
11
-0.029148
21
0.034000
31
0.0
0
LINE
8
0
6
CONTINUOUS
10
-0.016500
20
0.017000
30
0.0
11
-0.016500
21
0.034000
31
0.0
0
LINE
8
0
6
CONTINUOUS
10
-0.016500
20
0.034000
30
0.0
11
-0.017112
21
0.034000
31
0.0
0
LINE
8
0
6
CONTINUOUS
10
-0.017112
20
0.034000
30
0.0
11
-0.018744
21
0.034000
31
0.0
0
LINE
8
0
6
CONTINUOUS
10
-0.018744
20
0.034000
30
0.0
11
-0.021464
21
0.034000
31
0.0
0
LINE
8
0
6
CONTINUOUS
10
-0.021464
20
0.034000
30
0.0
11
-0.025068
21
0.034000
31
0.0
0
LINE
8
0
6
CONTINUOUS
10
-0.025068
20
0.034000
30
0.0
11
-0.029148
21
0.034000
31
0.0
0
LINE
8
0
6
CONTINUOUS
10
-0.029148
20
0.034000
30
0.0
11
-0.033500
21
0.034000
31
0.0
0
LINE
8
0
6
CONTINUOUS
10
-0.050500
20
-0.026000
30
0.0
11
-0.052212
21
-0.026000
31
0.0
0
LINE
8
0
6
CONTINUOUS
10
-0.052404
20
-0.028121
30
0.0
11
-0.052404
21
-0.027029
31
0.0
0
LINE
8
0
6
CONTINUOUS
10
-0.052500
20
-0.027215
30
0.0
11
-0.052500
21
-0.028265
31
0.0
0
LINE
8
0
6
CONTINUOUS
10
-0.052404
20
-0.027029
30
0.0
11
-0.052404
21
-0.026350
31
0.0
0
LINE
8
0
6
CONTINUOUS
10
-0.052500
20
-0.026556
30
0.0
11
-0.052500
21
-0.027215
31
0.0
0
LINE
8
0
6
CONTINUOUS
10
-0.052404
20
-0.026103
30
0.0
11
-0.052500
21
-0.026309
31
0.0
0
LINE
8
0
6
CONTINUOUS
10
-0.052404
20
-0.026350
30
0.0
11
-0.052404
21
-0.026103
31
0.0
0
LINE
8
0
6
CONTINUOUS
10
-0.052500
20
-0.026309
30
0.0
11
-0.052500
21
-0.026556
31
0.0
0
LINE
8
0
6
CONTINUOUS
10
-0.052404
20
-0.027029
30
0.0
11
-0.052404
21
-0.028121
31
0.0
0
LINE
8
0
6
CONTINUOUS
10
-0.052404
20
-0.026350
30
0.0
11
-0.052404
21
-0.027029
31
0.0
0
LINE
8
0
6
CONTINUOUS
10
-0.052212
20
-0.026000
30
0.0
11
-0.052404
21
-0.026103
31
0.0
0
LINE
8
0
6
CONTINUOUS
10
-0.050500
20
-0.026000
30
0.0
11
-0.052212
21
-0.026000
31
0.0
0
LINE
8
0
6
CONTINUOUS
10
-0.052500
20
-0.028265
30
0.0
11
-0.052500
21
-0.029665
31
0.0
0
LINE
8
0
6
CONTINUOUS
10
-0.052404
20
-0.029562
30
0.0
11
-0.052404
21
-0.028121
31
0.0
0
LINE
8
0
6
CONTINUOUS
10
-0.052500
20
-0.029665
30
0.0
11
-0.052500
21
-0.031271
31
0.0
0
LINE
8
0
6
CONTINUOUS
10
-0.052404
20
-0.031229
30
0.0
11
-0.052404
21
-0.029562
31
0.0
0
LINE
8
0
6
CONTINUOUS
10
-0.052500
20
-0.031271
30
0.0
11
-0.052500
21
-0.033000
31
0.0
0
LINE
8
0
6
CONTINUOUS
10
-0.052404
20
-0.033000
30
0.0
11
-0.052404
21
-0.031229
31
0.0
0
LINE
8
0
6
CONTINUOUS
10
-0.052404
20
-0.028121
30
0.0
11
-0.052404
21
-0.029562
31
0.0
0
LINE
8
0
6
CONTINUOUS
10
-0.052404
20
-0.029562
30
0.0
11
-0.052404
21
-0.031229
31
0.0
0
LINE
8
0
6
CONTINUOUS
10
-0.052404
20
-0.031229
30
0.0
11
-0.052404
21
-0.033000
31
0.0
0
LINE
8
0
6
CONTINUOUS
10
-0.052404
20
-0.037879
30
0.0
11
-0.052404
21
-0.036438
31
0.0
0
LINE
8
0
6
CONTINUOUS
10
-0.052500
20
-0.036335
30
0.0
11
-0.052500
21
-0.037735
31
0.0
0
LINE
8
0
6
CONTINUOUS
10
-0.052404
20
-0.036438
30
0.0
11
-0.052404
21
-0.034771
31
0.0
0
LINE
8
0
6
CONTINUOUS
10
-0.052500
20
-0.034729
30
0.0
11
-0.052500
21
-0.036335
31
0.0
0
LINE
8
0
6
CONTINUOUS
10
-0.052404
20
-0.034771
30
0.0
11
-0.052404
21
-0.033000
31
0.0
0
LINE
8
0
6
CONTINUOUS
10
-0.052500
20
-0.033000
30
0.0
11
-0.052500
21
-0.034729
31
0.0
0
LINE
8
0
6
CONTINUOUS
10
-0.052404
20
-0.036438
30
0.0
11
-0.052404
21
-0.037879
31
0.0
0
LINE
8
0
6
CONTINUOUS
10
-0.052404
20
-0.034771
30
0.0
11
-0.052404
21
-0.036438
31
0.0
0
LINE
8
0
6
CONTINUOUS
10
-0.052404
20
-0.033000
30
0.0
11
-0.052404
21
-0.034771
31
0.0
0
LINE
8
0
6
CONTINUOUS
10
-0.052500
20
-0.037735
30
0.0
11
-0.052500
21
-0.038785
31
0.0
0
LINE
8
0
6
CONTINUOUS
10
-0.052404
20
-0.038971
30
0.0
11
-0.052404
21
-0.037879
31
0.0
0
LINE
8
0
6
CONTINUOUS
10
-0.052500
20
-0.038785
30
0.0
11
-0.052500
21
-0.039444
31
0.0
0
LINE
8
0
6
CONTINUOUS
10
-0.052404
20
-0.039650
30
0.0
11
-0.052404
21
-0.038971
31
0.0
0
LINE
8
0
6
CONTINUOUS
10
-0.052500
20
-0.039691
30
0.0
11
-0.052404
21
-0.039897
31
0.0
0
LINE
8
0
6
CONTINUOUS
10
-0.052500
20
-0.039444
30
0.0
11
-0.052500
21
-0.039691
31
0.0
0
LINE
8
0
6
CONTINUOUS
10
-0.052404
20
-0.039897
30
0.0
11
-0.052404
21
-0.039650
31
0.0
0
LINE
8
0
6
CONTINUOUS
10
-0.052404
20
-0.037879
30
0.0
11
-0.052404
21
-0.038971
31
0.0
0
LINE
8
0
6
CONTINUOUS
10
-0.052404
20
-0.038971
30
0.0
11
-0.052404
21
-0.039650
31
0.0
0
LINE
8
0
6
CONTINUOUS
10
-0.052404
20
-0.039897
30
0.0
11
-0.052212
21
-0.040000
31
0.0
0
LINE
8
0
6
CONTINUOUS
10
-0.052404
20
-0.039650
30
0.0
11
-0.052404
21
-0.039897
31
0.0
0
LINE
8
0
6
CONTINUOUS
10
-0.052212
20
-0.040000
30
0.0
11
-0.050500
21
-0.040000
31
0.0
0
LINE
8
0
6
CONTINUOUS
10
-0.043500
20
-0.033000
30
0.0
11
-0.043500
21
-0.031271
31
0.0
0
LINE
8
0
6
CONTINUOUS
10
-0.043596
20
-0.029562
30
0.0
11
-0.043596
21
-0.029000
31
0.0
0
LINE
8
0
6
CONTINUOUS
10
-0.043596
20
-0.031229
30
0.0
11
-0.043596
21
-0.029562
31
0.0
0
LINE
8
0
6
CONTINUOUS
10
-0.043596
20
-0.033000
30
0.0
11
-0.043596
21
-0.031229
31
0.0
0
LINE
8
0
6
CONTINUOUS
10
-0.043596
20
-0.029000
30
0.0
11
-0.043596
21
-0.029562
31
0.0
0
LINE
8
0
6
CONTINUOUS
10
-0.043596
20
-0.029562
30
0.0
11
-0.043596
21
-0.031229
31
0.0
0
LINE
8
0
6
CONTINUOUS
10
-0.043596
20
-0.031229
30
0.0
11
-0.043596
21
-0.033000
31
0.0
0
LINE
8
0
6
CONTINUOUS
10
-0.043596
20
-0.037879
30
0.0
11
-0.043596
21
-0.036438
31
0.0
0
LINE
8
0
6
CONTINUOUS
10
-0.043596
20
-0.036438
30
0.0
11
-0.043596
21
-0.034771
31
0.0
0
LINE
8
0
6
CONTINUOUS
10
-0.043596
20
-0.034771
30
0.0
11
-0.043596
21
-0.033000
31
0.0
0
LINE
8
0
6
CONTINUOUS
10
-0.043596
20
-0.036438
30
0.0
11
-0.043596
21
-0.037879
31
0.0
0
LINE
8
0
6
CONTINUOUS
10
-0.043596
20
-0.034771
30
0.0
11
-0.043596
21
-0.036438
31
0.0
0
LINE
8
0
6
CONTINUOUS
10
-0.043596
20
-0.033000
30
0.0
11
-0.043596
21
-0.034771
31
0.0
0
LINE
8
0
6
CONTINUOUS
10
-0.043596
20
-0.038971
30
0.0
11
-0.043596
21
-0.037879
31
0.0
0
LINE
8
0
6
CONTINUOUS
10
-0.043596
20
-0.039650
30
0.0
11
-0.043596
21
-0.038971
31
0.0
0
LINE
8
0
6
CONTINUOUS
10
-0.043500
20
-0.039691
30
0.0
11
-0.043596
21
-0.039897
31
0.0
0
LINE
8
0
6
CONTINUOUS
10
-0.043596
20
-0.039897
30
0.0
11
-0.043596
21
-0.039650
31
0.0
0
LINE
8
0
6
CONTINUOUS
10
-0.043596
20
-0.037879
30
0.0
11
-0.043596
21
-0.038971
31
0.0
0
LINE
8
0
6
CONTINUOUS
10
-0.043596
20
-0.038971
30
0.0
11
-0.043596
21
-0.039650
31
0.0
0
LINE
8
0
6
CONTINUOUS
10
-0.043596
20
-0.039897
30
0.0
11
-0.043789
21
-0.040000
31
0.0
0
LINE
8
0
6
CONTINUOUS
10
-0.043596
20
-0.039650
30
0.0
11
-0.043596
21
-0.039897
31
0.0
0
LINE
8
0
6
CONTINUOUS
10
-0.043789
20
-0.040000
30
0.0
11
-0.045500
21
-0.040000
31
0.0
0
LINE
8
0
6
CONTINUOUS
10
-0.052500
20
0.031000
30
0.0
11
-0.052500
21
0.029271
31
0.0
0
LINE
8
0
6
CONTINUOUS
10
-0.052404
20
0.026121
30
0.0
11
-0.052404
21
0.025029
31
0.0
0
LINE
8
0
6
CONTINUOUS
10
-0.052404
20
0.025029
30
0.0
11
-0.052404
21
0.024350
31
0.0
0
LINE
8
0
6
CONTINUOUS
10
-0.052404
20
0.024103
30
0.0
11
-0.052500
21
0.024309
31
0.0
0
LINE
8
0
6
CONTINUOUS
10
-0.052404
20
0.024350
30
0.0
11
-0.052404
21
0.024103
31
0.0
0
LINE
8
0
6
CONTINUOUS
10
-0.052404
20
0.025029
30
0.0
11
-0.052404
21
0.026121
31
0.0
0
LINE
8
0
6
CONTINUOUS
10
-0.052404
20
0.024350
30
0.0
11
-0.052404
21
0.025029
31
0.0
0
LINE
8
0
6
CONTINUOUS
10
-0.052212
20
0.024000
30
0.0
11
-0.052404
21
0.024103
31
0.0
0
LINE
8
0
6
CONTINUOUS
10
-0.050500
20
0.024000
30
0.0
11
-0.052212
21
0.024000
31
0.0
0
LINE
8
0
6
CONTINUOUS
10
-0.052404
20
0.027562
30
0.0
11
-0.052404
21
0.026121
31
0.0
0
LINE
8
0
6
CONTINUOUS
10
-0.052404
20
0.029229
30
0.0
11
-0.052404
21
0.027562
31
0.0
0
LINE
8
0
6
CONTINUOUS
10
-0.052404
20
0.031000
30
0.0
11
-0.052404
21
0.029229
31
0.0
0
LINE
8
0
6
CONTINUOUS
10
-0.052404
20
0.026121
30
0.0
11
-0.052404
21
0.027562
31
0.0
0
LINE
8
0
6
CONTINUOUS
10
-0.052404
20
0.027562
30
0.0
11
-0.052404
21
0.029229
31
0.0
0
LINE
8
0
6
CONTINUOUS
10
-0.052404
20
0.029229
30
0.0
11
-0.052404
21
0.031000
31
0.0
0
LINE
8
0
6
CONTINUOUS
10
-0.052404
20
0.035879
30
0.0
11
-0.052404
21
0.034438
31
0.0
0
LINE
8
0
6
CONTINUOUS
10
-0.052404
20
0.034438
30
0.0
11
-0.052404
21
0.032771
31
0.0
0
LINE
8
0
6
CONTINUOUS
10
-0.052404
20
0.032771
30
0.0
11
-0.052404
21
0.031000
31
0.0
0
LINE
8
0
6
CONTINUOUS
10
-0.052404
20
0.034438
30
0.0
11
-0.052404
21
0.035879
31
0.0
0
LINE
8
0
6
CONTINUOUS
10
-0.052404
20
0.032771
30
0.0
11
-0.052404
21
0.034438
31
0.0
0
LINE
8
0
6
CONTINUOUS
10
-0.052404
20
0.031000
30
0.0
11
-0.052404
21
0.032771
31
0.0
0
LINE
8
0
6
CONTINUOUS
10
-0.052404
20
0.036971
30
0.0
11
-0.052404
21
0.035879
31
0.0
0
LINE
8
0
6
CONTINUOUS
10
-0.052404
20
0.037650
30
0.0
11
-0.052404
21
0.036971
31
0.0
0
LINE
8
0
6
CONTINUOUS
10
-0.052500
20
0.037691
30
0.0
11
-0.052404
21
0.037897
31
0.0
0
LINE
8
0
6
CONTINUOUS
10
-0.052404
20
0.037897
30
0.0
11
-0.052404
21
0.037650
31
0.0
0
LINE
8
0
6
CONTINUOUS
10
-0.052404
20
0.035879
30
0.0
11
-0.052404
21
0.036971
31
0.0
0
LINE
8
0
6
CONTINUOUS
10
-0.052404
20
0.036971
30
0.0
11
-0.052404
21
0.037650
31
0.0
0
LINE
8
0
6
CONTINUOUS
10
-0.052404
20
0.037897
30
0.0
11
-0.052212
21
0.038000
31
0.0
0
LINE
8
0
6
CONTINUOUS
10
-0.052404
20
0.037650
30
0.0
11
-0.052404
21
0.037897
31
0.0
0
LINE
8
0
6
CONTINUOUS
10
-0.052212
20
0.038000
30
0.0
11
-0.050500
21
0.038000
31
0.0
0
LINE
8
0
6
CONTINUOUS
10
-0.043500
20
0.027000
30
0.0
11
-0.043500
21
0.027665
31
0.0
0
LINE
8
0
6
CONTINUOUS
10
-0.043596
20
0.027562
30
0.0
11
-0.043596
21
0.027000
31
0.0
0
LINE
8
0
6
CONTINUOUS
10
-0.043500
20
0.027665
30
0.0
11
-0.043500
21
0.029271
31
0.0
0
LINE
8
0
6
CONTINUOUS
10
-0.043596
20
0.029229
30
0.0
11
-0.043596
21
0.027562
31
0.0
0
LINE
8
0
6
CONTINUOUS
10
-0.043500
20
0.029271
30
0.0
11
-0.043500
21
0.031000
31
0.0
0
LINE
8
0
6
CONTINUOUS
10
-0.043596
20
0.031000
30
0.0
11
-0.043596
21
0.029229
31
0.0
0
LINE
8
0
6
CONTINUOUS
10
-0.043596
20
0.027000
30
0.0
11
-0.043596
21
0.027562
31
0.0
0
LINE
8
0
6
CONTINUOUS
10
-0.043596
20
0.027562
30
0.0
11
-0.043596
21
0.029229
31
0.0
0
LINE
8
0
6
CONTINUOUS
10
-0.043596
20
0.029229
30
0.0
11
-0.043596
21
0.031000
31
0.0
0
LINE
8
0
6
CONTINUOUS
10
-0.043596
20
0.035879
30
0.0
11
-0.043596
21
0.034438
31
0.0
0
LINE
8
0
6
CONTINUOUS
10
-0.043500
20
0.034335
30
0.0
11
-0.043500
21
0.035735
31
0.0
0
LINE
8
0
6
CONTINUOUS
10
-0.043596
20
0.034438
30
0.0
11
-0.043596
21
0.032771
31
0.0
0
LINE
8
0
6
CONTINUOUS
10
-0.043500
20
0.032729
30
0.0
11
-0.043500
21
0.034335
31
0.0
0
LINE
8
0
6
CONTINUOUS
10
-0.043596
20
0.032771
30
0.0
11
-0.043596
21
0.031000
31
0.0
0
LINE
8
0
6
CONTINUOUS
10
-0.043500
20
0.031000
30
0.0
11
-0.043500
21
0.032729
31
0.0
0
LINE
8
0
6
CONTINUOUS
10
-0.043596
20
0.034438
30
0.0
11
-0.043596
21
0.035879
31
0.0
0
LINE
8
0
6
CONTINUOUS
10
-0.043596
20
0.032771
30
0.0
11
-0.043596
21
0.034438
31
0.0
0
LINE
8
0
6
CONTINUOUS
10
-0.043596
20
0.031000
30
0.0
11
-0.043596
21
0.032771
31
0.0
0
LINE
8
0
6
CONTINUOUS
10
-0.043500
20
0.035735
30
0.0
11
-0.043500
21
0.036785
31
0.0
0
LINE
8
0
6
CONTINUOUS
10
-0.043596
20
0.036971
30
0.0
11
-0.043596
21
0.035879
31
0.0
0
LINE
8
0
6
CONTINUOUS
10
-0.043500
20
0.036785
30
0.0
11
-0.043500
21
0.037444
31
0.0
0
LINE
8
0
6
CONTINUOUS
10
-0.043596
20
0.037650
30
0.0
11
-0.043596
21
0.036971
31
0.0
0
LINE
8
0
6
CONTINUOUS
10
-0.043500
20
0.037691
30
0.0
11
-0.043596
21
0.037897
31
0.0
0
LINE
8
0
6
CONTINUOUS
10
-0.043500
20
0.037444
30
0.0
11
-0.043500
21
0.037691
31
0.0
0
LINE
8
0
6
CONTINUOUS
10
-0.043596
20
0.037897
30
0.0
11
-0.043596
21
0.037650
31
0.0
0
LINE
8
0
6
CONTINUOUS
10
-0.043596
20
0.035879
30
0.0
11
-0.043596
21
0.036971
31
0.0
0
LINE
8
0
6
CONTINUOUS
10
-0.043596
20
0.036971
30
0.0
11
-0.043596
21
0.037650
31
0.0
0
LINE
8
0
6
CONTINUOUS
10
-0.043596
20
0.037897
30
0.0
11
-0.043789
21
0.038000
31
0.0
0
LINE
8
0
6
CONTINUOUS
10
-0.043596
20
0.037650
30
0.0
11
-0.043596
21
0.037897
31
0.0
0
LINE
8
0
6
CONTINUOUS
10
-0.043789
20
0.038000
30
0.0
11
-0.045500
21
0.038000
31
0.0
0
LINE
8
0
6
CONTINUOUS
10
-0.052212
20
0.038000
30
0.0
11
-0.050500
21
0.038000
31
0.0
0
ENDSEC
0
EOF
