  0
SECTION
  2
HEADER
  9
$ACADVER
  1
AC1015
  9
$ACADMAINTVER
 70
     6
  9
$DWGCODEPAGE
  3
ANSI_1252
  9
$INSBASE
 10
0.0
 20
0.0
 30
0.0
  9
$EXTMIN
 10
-18.90545
 20
0.0
 30
0.0
  9
$EXTMAX
 10
230.80485
 20
284.0
 30
0.0
  9
$LIMMIN
 10
0.0
 20
0.0
  9
$LIMMAX
 10
12.0
 20
9.0
  9
$ORTHOMODE
 70
     0
  9
$REGENMODE
 70
     1
  9
$FILLMODE
 70
     1
  9
$QTEXTMODE
 70
     0
  9
$MIRRTEXT
 70
     1
  9
$LTSCALE
 40
1.0
  9
$ATTMODE
 70
     1
  9
$TEXTSIZE
 40
0.2
  9
$TRACEWID
 40
0.05
  9
$TEXTSTYLE
  7
STANDARD
  9
$CLAYER
  8
0
  9
$CELTYPE
  6
CONTINUOUS
  9
$CECOLOR
 62
   256
  9
$CELTSCALE
 40
1.0
  9
$DISPSILH
 70
     0
  9
$DIMSCALE
 40
1.0
  9
$DIMASZ
 40
0.18
  9
$DIMEXO
 40
0.0625
  9
$DIMDLI
 40
0.38
  9
$DIMRND
 40
0.0
  9
$DIMDLE
 40
0.0
  9
$DIMEXE
 40
0.18
  9
$DIMTP
 40
0.0
  9
$DIMTM
 40
0.0
  9
$DIMTXT
 40
0.18
  9
$DIMCEN
 40
0.09
  9
$DIMTSZ
 40
0.0
  9
$DIMTOL
 70
     0
  9
$DIMLIM
 70
     0
  9
$DIMTIH
 70
     1
  9
$DIMTOH
 70
     1
  9
$DIMSE1
 70
     0
  9
$DIMSE2
 70
     0
  9
$DIMTAD
 70
     0
  9
$DIMZIN
 70
     0
  9
$DIMBLK
  1

  9
$DIMASO
 70
     1
  9
$DIMSHO
 70
     1
  9
$DIMPOST
  1

  9
$DIMAPOST
  1

  9
$DIMALT
 70
     0
  9
$DIMALTD
 70
     2
  9
$DIMALTF
 40
25.4
  9
$DIMLFAC
 40
1.0
  9
$DIMTOFL
 70
     0
  9
$DIMTVP
 40
0.0
  9
$DIMTIX
 70
     0
  9
$DIMSOXD
 70
     0
  9
$DIMSAH
 70
     0
  9
$DIMBLK1
  1

  9
$DIMBLK2
  1

  9
$DIMSTYLE
  2
STANDARD
  9
$DIMCLRD
 70
     0
  9
$DIMCLRE
 70
     0
  9
$DIMCLRT
 70
     0
  9
$DIMTFAC
 40
1.0
  9
$DIMGAP
 40
0.09
  9
$DIMJUST
 70
     0
  9
$DIMSD1
 70
     0
  9
$DIMSD2
 70
     0
  9
$DIMTOLJ
 70
     1
  9
$DIMTZIN
 70
     0
  9
$DIMALTZ
 70
     0
  9
$DIMALTTZ
 70
     0
  9
$DIMUPT
 70
     0
  9
$DIMDEC
 70
     4
  9
$DIMTDEC
 70
     4
  9
$DIMALTU
 70
     2
  9
$DIMALTTD
 70
     2
  9
$DIMTXSTY
  7
STANDARD
  9
$DIMAUNIT
 70
     0
  9
$DIMADEC
 70
     0
  9
$DIMALTRND
 40
0.0
  9
$DIMAZIN
 70
     0
  9
$DIMDSEP
 70
    46
  9
$DIMATFIT
 70
     3
  9
$DIMFRAC
 70
     0
  9
$DIMLDRBLK
  1

  9
$DIMLUNIT
 70
     2
  9
$DIMLWD
 70
    -2
  9
$DIMLWE
 70
    -2
  9
$DIMTMOVE
 70
     2
  9
$LUNITS
 70
     2
  9
$LUPREC
 70
     4
  9
$SKETCHINC
 40
0.1
  9
$FILLETRAD
 40
0.0
  9
$AUNITS
 70
     0
  9
$AUPREC
 70
     0
  9
$MENU
  1
.
  9
$ELEVATION
 40
0.0
  9
$PELEVATION
 40
0.0
  9
$THICKNESS
 40
0.0
  9
$LIMCHECK
 70
     0
  9
$CHAMFERA
 40
0.0
  9
$CHAMFERB
 40
0.0
  9
$CHAMFERC
 40
0.0
  9
$CHAMFERD
 40
0.0
  9
$SKPOLY
 70
     0
  9
$TDCREATE
 40
2454638.692290035
  9
$TDUCREATE
 40
2454638.608956702
  9
$TDUPDATE
 40
2456209.810887766
  9
$TDUUPDATE
 40
2456209.727554433
  9
$TDINDWG
 40
0.0583467245
  9
$TDUSRTIMER
 40
0.0583467245
  9
$USRTIMER
 70
     1
  9
$ANGBASE
 50
0.0
  9
$ANGDIR
 70
     0
  9
$PDMODE
 70
     0
  9
$PDSIZE
 40
0.0
  9
$PLINEWID
 40
0.0
  9
$SPLFRAME
 70
     0
  9
$SPLINETYPE
 70
     6
  9
$SPLINESEGS
 70
     8
  9
$HANDSEED
  5
8E3
  9
$SURFTAB1
 70
     6
  9
$SURFTAB2
 70
     6
  9
$SURFTYPE
 70
     6
  9
$SURFU
 70
     6
  9
$SURFV
 70
     6
  9
$UCSBASE
  2

  9
$UCSNAME
  2

  9
$UCSORG
 10
0.0
 20
0.0
 30
0.0
  9
$UCSXDIR
 10
1.0
 20
0.0
 30
0.0
  9
$UCSYDIR
 10
0.0
 20
1.0
 30
0.0
  9
$UCSORTHOREF
  2

  9
$UCSORTHOVIEW
 70
     0
  9
$UCSORGTOP
 10
0.0
 20
0.0
 30
0.0
  9
$UCSORGBOTTOM
 10
0.0
 20
0.0
 30
0.0
  9
$UCSORGLEFT
 10
0.0
 20
0.0
 30
0.0
  9
$UCSORGRIGHT
 10
0.0
 20
0.0
 30
0.0
  9
$UCSORGFRONT
 10
0.0
 20
0.0
 30
0.0
  9
$UCSORGBACK
 10
0.0
 20
0.0
 30
0.0
  9
$PUCSBASE
  2

  9
$PUCSNAME
  2

  9
$PUCSORG
 10
0.0
 20
0.0
 30
0.0
  9
$PUCSXDIR
 10
1.0
 20
0.0
 30
0.0
  9
$PUCSYDIR
 10
0.0
 20
1.0
 30
0.0
  9
$PUCSORTHOREF
  2

  9
$PUCSORTHOVIEW
 70
     0
  9
$PUCSORGTOP
 10
0.0
 20
0.0
 30
0.0
  9
$PUCSORGBOTTOM
 10
0.0
 20
0.0
 30
0.0
  9
$PUCSORGLEFT
 10
0.0
 20
0.0
 30
0.0
  9
$PUCSORGRIGHT
 10
0.0
 20
0.0
 30
0.0
  9
$PUCSORGFRONT
 10
0.0
 20
0.0
 30
0.0
  9
$PUCSORGBACK
 10
0.0
 20
0.0
 30
0.0
  9
$USERI1
 70
     0
  9
$USERI2
 70
     0
  9
$USERI3
 70
     0
  9
$USERI4
 70
     0
  9
$USERI5
 70
     0
  9
$USERR1
 40
0.0
  9
$USERR2
 40
0.0
  9
$USERR3
 40
0.0
  9
$USERR4
 40
0.0
  9
$USERR5
 40
0.0
  9
$WORLDVIEW
 70
     1
  9
$SHADEDGE
 70
     3
  9
$SHADEDIF
 70
    70
  9
$TILEMODE
 70
     1
  9
$MAXACTVP
 70
    64
  9
$PINSBASE
 10
0.0
 20
0.0
 30
0.0
  9
$PLIMCHECK
 70
     0
  9
$PEXTMIN
 10
1.000000000000E+20
 20
1.000000000000E+20
 30
1.000000000000E+20
  9
$PEXTMAX
 10
-1.000000000000E+20
 20
-1.000000000000E+20
 30
-1.000000000000E+20
  9
$PLIMMIN
 10
0.0
 20
0.0
  9
$PLIMMAX
 10
12.0
 20
9.0
  9
$UNITMODE
 70
     0
  9
$VISRETAIN
 70
     1
  9
$PLINEGEN
 70
     0
  9
$PSLTSCALE
 70
     1
  9
$TREEDEPTH
 70
  3020
  9
$CMLSTYLE
  2
STANDARD
  9
$CMLJUST
 70
     0
  9
$CMLSCALE
 40
1.0
  9
$PROXYGRAPHICS
 70
     1
  9
$MEASUREMENT
 70
     0
  9
$CELWEIGHT
370
    -1
  9
$ENDCAPS
280
     0
  9
$JOINSTYLE
280
     0
  9
$LWDISPLAY
290
     0
  9
$INSUNITS
 70
     0
  9
$HYPERLINKBASE
  1

  9
$STYLESHEET
  1

  9
$XEDIT
290
     1
  9
$CEPSNTYPE
380
     0
  9
$PSTYLEMODE
290
     1
  9
$FINGERPRINTGUID
  2
{17C87942-554E-4C14-96DA-4C719F874EEA}
  9
$VERSIONGUID
  2
{53159E5E-0A71-4AC8-AD90-5FAFE64325E8}
  9
$EXTNAMES
290
     1
  9
$PSVPSCALE
 40
0.0
  9
$OLESTARTUP
290
     0
  0
ENDSEC
  0
SECTION
  2
CLASSES
  0
CLASS
  1
ACDBDICTIONARYWDFLT
  2
AcDbDictionaryWithDefault
  3
ObjectDBX Classes
 90
        0
280
     0
281
     0
  0
CLASS
  1
ACDBPLACEHOLDER
  2
AcDbPlaceHolder
  3
ObjectDBX Classes
 90
        0
280
     0
281
     0
  0
CLASS
  1
LAYOUT
  2
AcDbLayout
  3
ObjectDBX Classes
 90
        0
280
     0
281
     0
  0
CLASS
  1
DICTIONARYVAR
  2
AcDbDictionaryVar
  3
ObjectDBX Classes
 90
        0
280
     0
281
     0
  0
CLASS
  1
DUMMY
  2
AcDbLongTransaction
  3
DUMMY
 90
        0
280
     0
281
     0
  0
CLASS
  1
LWPOLYLINE
  2
AcDbPolyline
  3
AutoCAD 2000
 90
        0
280
     0
281
     1
  0
CLASS
  1
HATCH
  2
AcDbHatch
  3
AutoCAD 2000
 90
        0
280
     0
281
     1
  0
CLASS
  1
XRECORD
  2
AcDbXrecord
  3
AutoCAD 2000
 90
        0
280
     0
281
     0
  0
CLASS
  1
SCALE
  2
AcDbScale
  3
ObjectDBX Classes
 90
     1153
280
     0
281
     0
  0
ENDSEC
  0
SECTION
  2
TABLES
  0
TABLE
  2
VPORT
  5
8
330
0
100
AcDbSymbolTable
 70
     1
  0
VPORT
  5
43A
330
8
100
AcDbSymbolTableRecord
100
AcDbViewportTableRecord
  2
*ACTIVE
 70
     0
 10
0.0
 20
0.0
 11
1.0
 21
1.0
 12
105.9497
 22
142.0
 13
0.0
 23
0.0
 14
1.0
 24
1.0
 15
0.0
 25
0.0
 16
0.0
 26
0.0
 36
1.0
 17
0.0
 27
0.0
 37
0.0
 40
289.68
 41
2.271724137931
 42
50.0
 43
0.0
 44
0.0
 50
0.0
 51
0.0
 71
    16
 72
   100
 73
     1
 74
     3
 75
     0
 76
     0
 77
     0
 78
     0
281
     0
 65
     1
110
0.0
120
0.0
130
0.0
111
1.0
121
0.0
131
0.0
112
0.0
122
1.0
132
0.0
 79
     0
146
0.0
  0
ENDTAB
  0
TABLE
  2
LTYPE
  5
5
330
0
100
AcDbSymbolTable
 70
     1
  0
LTYPE
  5
13
330
5
100
AcDbSymbolTableRecord
100
AcDbLinetypeTableRecord
  2
BYBLOCK
 70
     0
  3

 72
    65
 73
     0
 40
0.0
  0
LTYPE
  5
14
330
5
100
AcDbSymbolTableRecord
100
AcDbLinetypeTableRecord
  2
BYLAYER
 70
     0
  3

 72
    65
 73
     0
 40
0.0
  0
LTYPE
  5
15
330
5
100
AcDbSymbolTableRecord
100
AcDbLinetypeTableRecord
  2
CONTINUOUS
 70
     0
  3
Solid line
 72
    65
 73
     0
 40
0.0
  0
ENDTAB
  0
TABLE
  2
LAYER
  5
2
330
0
100
AcDbSymbolTable
 70
     1
  0
LAYER
  5
10
330
2
100
AcDbSymbolTableRecord
100
AcDbLayerTableRecord
  2
0
 70
     0
 62
     7
  6
CONTINUOUS
370
    -3
390
F
  0
ENDTAB
  0
TABLE
  2
STYLE
  5
3
330
0
100
AcDbSymbolTable
 70
     1
  0
STYLE
  5
11
330
3
100
AcDbSymbolTableRecord
100
AcDbTextStyleTableRecord
  2
STANDARD
 70
     0
 40
0.0
 41
1.0
 50
0.0
 71
     0
 42
0.2
  3
txt
  4

  0
ENDTAB
  0
TABLE
  2
VIEW
  5
6
330
0
100
AcDbSymbolTable
 70
     0
  0
ENDTAB
  0
TABLE
  2
UCS
  5
7
330
0
100
AcDbSymbolTable
 70
     0
  0
ENDTAB
  0
TABLE
  2
APPID
  5
9
330
0
100
AcDbSymbolTable
 70
     1
  0
APPID
  5
12
330
9
100
AcDbSymbolTableRecord
100
AcDbRegAppTableRecord
  2
ACAD
 70
     0
  0
ENDTAB
  0
TABLE
  2
DIMSTYLE
  5
A
330
0
100
AcDbSymbolTable
 70
     1
100
AcDbDimStyleTable
  0
DIMSTYLE
105
41B
330
A
100
AcDbSymbolTableRecord
100
AcDbDimStyleTableRecord
  2
STANDARD
 70
     0
340
11
  0
ENDTAB
  0
TABLE
  2
BLOCK_RECORD
  5
1
330
0
100
AcDbSymbolTable
 70
     1
  0
BLOCK_RECORD
  5
1E
330
1
100
AcDbSymbolTableRecord
100
AcDbBlockTableRecord
  2
*MODEL_SPACE
340
45F
  0
BLOCK_RECORD
  5
1A
330
1
100
AcDbSymbolTableRecord
100
AcDbBlockTableRecord
  2
*PAPER_SPACE
340
460
  0
ENDTAB
  0
ENDSEC
  0
SECTION
  2
BLOCKS
  0
BLOCK
  5
1F
330
1E
100
AcDbEntity
  8
0
100
AcDbBlockBegin
  2
*MODEL_SPACE
 70
     0
 10
0.0
 20
0.0
 30
0.0
  3
*MODEL_SPACE
  1
*MODEL_SPACE
  0
ENDBLK
  5
20
330
1E
100
AcDbEntity
  8
0
100
AcDbBlockEnd
  0
BLOCK
  5
1B
330
1A
100
AcDbEntity
 67
     1
  8
0
100
AcDbBlockBegin
  2
*PAPER_SPACE
 70
     0
 10
0.0
 20
0.0
 30
0.0
  3
*PAPER_SPACE
  1
*PAPER_SPACE
  0
ENDBLK
  5
1C
330
1A
100
AcDbEntity
 67
     1
  8
0
100
AcDbBlockEnd
  0
ENDSEC
  0
SECTION
  2
ENTITIES
  0
LINE
  5
1D4
330
1E
100
AcDbEntity
  8
0
100
AcDbLine
 10
161.62885
 20
0.0
 30
0.0
 11
162.65785
 21
0.0
 31
0.0
  0
LINE
  5
1D5
330
1E
100
AcDbEntity
  8
0
100
AcDbLine
 10
161.01085
 20
0.0
 30
0.0
 11
161.62885
 21
0.0
 31
0.0
  0
LINE
  5
1DE
330
1E
100
AcDbEntity
  8
0
100
AcDbLine
 10
160.80485
 20
0.0
 30
0.0
 11
161.01085
 21
0.0
 31
0.0
  0
LINE
  5
1E2
330
1E
100
AcDbEntity
  8
0
100
AcDbLine
 10
162.65785
 20
0.0
 30
0.0
 11
163.89285
 21
0.0
 31
0.0
  0
LINE
  5
1E3
330
1E
100
AcDbEntity
  8
0
100
AcDbLine
 10
163.89285
 20
0.0
 30
0.0
 11
165.43685
 21
0.0
 31
0.0
  0
LINE
  5
1ED
330
1E
100
AcDbEntity
  8
0
100
AcDbLine
 10
165.43685
 20
0.0
 30
0.0
 11
166.80485
 21
0.0
 31
0.0
  0
LINE
  5
1EE
330
1E
100
AcDbEntity
  8
0
100
AcDbLine
 10
165.43685
 20
0.0
 30
0.0
 11
166.98085
 21
0.0
 31
0.0
  0
LINE
  5
20A
330
1E
100
AcDbEntity
  8
0
100
AcDbLine
 10
166.98085
 20
0.0
 30
0.0
 11
195.80485
 21
0.0
 31
0.0
  0
LINE
  5
24C
330
1E
100
AcDbEntity
  8
0
100
AcDbLine
 10
195.80485
 20
0.0
 30
0.0
 11
224.62885
 21
0.0
 31
0.0
  0
LINE
  5
276
330
1E
100
AcDbEntity
  8
0
100
AcDbLine
 10
204.36285
 20
25.7065
 30
0.0
 11
208.55785
 21
24.0435
 31
0.0
  0
LINE
  5
277
330
1E
100
AcDbEntity
  8
0
100
AcDbLine
 10
208.55785
 20
24.0435
 30
0.0
 11
212.41685
 21
22.0109
 31
0.0
  0
LINE
  5
279
330
1E
100
AcDbEntity
  8
0
100
AcDbLine
 10
209.80485
 20
23.386684192796
 30
0.0
 11
209.80485
 21
45.0
 31
0.0
  0
LINE
  5
27C
330
1E
100
AcDbEntity
  8
0
100
AcDbLine
 10
212.41685
 20
22.0109
 30
0.0
 11
216.10885
 21
19.2391
 31
0.0
  0
LINE
  5
27D
330
1E
100
AcDbEntity
  8
0
100
AcDbLine
 10
209.80485
 20
33.5
 30
0.0
 11
211.30485
 21
33.5
 31
0.0
  0
LINE
  5
27E
330
1E
100
AcDbEntity
  8
0
100
AcDbLine
 10
211.30485
 20
33.5
 30
0.0
 11
214.90485
 21
33.5
 31
0.0
  0
LINE
  5
283
330
1E
100
AcDbEntity
  8
0
100
AcDbLine
 10
216.10885
 20
19.2391
 30
0.0
 11
219.46485
 21
16.0978
 31
0.0
  0
LINE
  5
284
330
1E
100
AcDbEntity
  8
0
100
AcDbLine
 10
214.90485
 20
33.5
 30
0.0
 11
217.00485
 21
33.5
 31
0.0
  0
LINE
  5
285
330
1E
100
AcDbEntity
  8
0
100
AcDbLine
 10
209.80485
 20
34.0
 30
0.0
 11
211.00485
 21
34.0
 31
0.0
  0
LINE
  5
286
330
1E
100
AcDbEntity
  8
0
100
AcDbLine
 10
211.00485
 20
34.0
 30
0.0
 11
214.40485
 21
34.0
 31
0.0
  0
LINE
  5
287
330
1E
100
AcDbEntity
  8
0
100
AcDbLine
 10
214.40485
 20
34.0
 30
0.0
 11
216.50485
 21
34.0
 31
0.0
  0
LINE
  5
288
330
1E
100
AcDbEntity
  8
0
100
AcDbLine
 10
216.50485
 20
34.0
 30
0.0
 11
217.30485
 21
34.0
 31
0.0
  0
LINE
  5
289
330
1E
100
AcDbEntity
  8
0
100
AcDbLine
 10
217.00485
 20
33.5
 30
0.0
 11
217.80485
 21
33.5
 31
0.0
  0
LINE
  5
28A
330
1E
100
AcDbEntity
  8
0
100
AcDbLine
 10
217.80485
 20
17.651601549464
 30
0.0
 11
217.80485
 21
33.5
 31
0.0
  0
LINE
  5
28C
330
1E
100
AcDbEntity
  8
0
100
AcDbLine
 10
209.80485
 20
37.5
 30
0.0
 11
210.30485
 21
35.5
 31
0.0
  0
LINE
  5
28D
330
1E
100
AcDbEntity
  8
0
100
AcDbLine
 10
210.30485
 20
35.5
 30
0.0
 11
211.30485
 21
34.5
 31
0.0
  0
LINE
  5
28E
330
1E
100
AcDbEntity
  8
0
100
AcDbLine
 10
211.30485
 20
34.5
 30
0.0
 11
212.80485
 21
34.0
 31
0.0
  0
LINE
  5
28F
330
1E
100
AcDbEntity
  8
0
100
AcDbLine
 10
217.30485
 20
34.0
 30
0.0
 11
217.80485
 21
33.5
 31
0.0
  0
LINE
  5
29F
330
1E
100
AcDbEntity
  8
0
100
AcDbLine
 10
224.62885
 20
0.0
 30
0.0
 11
226.17285
 21
0.0
 31
0.0
  0
LINE
  5
2A3
330
1E
100
AcDbEntity
  8
0
100
AcDbLine
 10
227.71685
 20
0.0
 30
0.0
 11
228.95185
 21
0.0
 31
0.0
  0
LINE
  5
2A4
330
1E
100
AcDbEntity
  8
0
100
AcDbLine
 10
226.17285
 20
0.0
 30
0.0
 11
227.71685
 21
0.0
 31
0.0
  0
LINE
  5
2A5
330
1E
100
AcDbEntity
  8
0
100
AcDbLine
 10
224.80485
 20
0.0
 30
0.0
 11
226.17285
 21
0.0
 31
0.0
  0
LINE
  5
2A6
330
1E
100
AcDbEntity
  8
0
100
AcDbLine
 10
228.95185
 20
0.0
 30
0.0
 11
229.98085
 21
0.0
 31
0.0
  0
LINE
  5
2A7
330
1E
100
AcDbEntity
  8
0
100
AcDbLine
 10
229.98085
 20
0.0
 30
0.0
 11
230.59885
 21
0.0
 31
0.0
  0
LINE
  5
2AA
330
1E
100
AcDbEntity
  8
0
100
AcDbLine
 10
230.59885
 20
0.0
 30
0.0
 11
230.80485
 21
0.0
 31
0.0
  0
LINE
  5
2AB
330
1E
100
AcDbEntity
  8
0
100
AcDbLine
 10
219.46485
 20
16.0978
 30
0.0
 11
222.31785
 21
12.4022
 31
0.0
  0
LINE
  5
2AC
330
1E
100
AcDbEntity
  8
0
100
AcDbLine
 10
222.31785
 20
12.4022
 30
0.0
 11
223.80485
 21
10.0
 31
0.0
  0
LINE
  5
2BD
330
1E
100
AcDbEntity
  8
0
100
AcDbLine
 10
217.80485
 20
33.5
 30
0.0
 11
217.80485
 21
17.651601549464
 31
0.0
  0
LINE
  5
2C7
330
1E
100
AcDbEntity
  8
0
100
AcDbLine
 10
181.80485
 20
53.2
 30
0.0
 11
181.80485
 21
50.4
 31
0.0
  0
LINE
  5
2C8
330
1E
100
AcDbEntity
  8
0
100
AcDbLine
 10
181.80485
 20
53.2
 30
0.0
 11
181.80485
 21
55.7
 31
0.0
  0
LINE
  5
2CB
330
1E
100
AcDbEntity
  8
0
100
AcDbLine
 10
181.80485
 20
50.4
 30
0.0
 11
181.80485
 21
53.2
 31
0.0
  0
LINE
  5
2CD
330
1E
100
AcDbEntity
  8
0
100
AcDbLine
 10
181.80485
 20
57.9196
 30
0.0
 11
181.80485
 21
57.2099
 31
0.0
  0
LINE
  5
2CE
330
1E
100
AcDbEntity
  8
0
100
AcDbLine
 10
181.80485
 20
57.9196
 30
0.0
 11
181.80485
 21
58.1224
 31
0.0
  0
LINE
  5
2CF
330
1E
100
AcDbEntity
  8
0
100
AcDbLine
 10
181.80485
 20
57.2099
 30
0.0
 11
181.80485
 21
55.7
 31
0.0
  0
LINE
  5
2D0
330
1E
100
AcDbEntity
  8
0
100
AcDbLine
 10
181.80485
 20
57.2099
 30
0.0
 11
181.80485
 21
57.9196
 31
0.0
  0
LINE
  5
2D1
330
1E
100
AcDbEntity
  8
0
100
AcDbLine
 10
181.80485
 20
58.1941
 30
0.0
 11
181.80485
 21
58.0
 31
0.0
  0
LINE
  5
2D2
330
1E
100
AcDbEntity
  8
0
100
AcDbLine
 10
181.80485
 20
58.1941
 30
0.0
 11
181.80485
 21
58.1224
 31
0.0
  0
LINE
  5
2D3
330
1E
100
AcDbEntity
  8
0
100
AcDbLine
 10
181.80485
 20
58.1941
 30
0.0
 11
181.80485
 21
59.5485
 31
0.0
  0
LINE
  5
2D4
330
1E
100
AcDbEntity
  8
0
100
AcDbLine
 10
181.80485
 20
58.1941
 30
0.0
 11
182.20485
 21
58.1941
 31
0.0
  0
LINE
  5
2D5
330
1E
100
AcDbEntity
  8
0
100
AcDbLine
 10
181.80485
 20
59.5485
 30
0.0
 11
182.07185
 21
59.8194
 31
0.0
  0
LINE
  5
2D6
330
1E
100
AcDbEntity
  8
0
100
AcDbLine
 10
181.80485
 20
59.5485
 30
0.0
 11
181.80485
 21
58.1941
 31
0.0
  0
LINE
  5
2D7
330
1E
100
AcDbEntity
  8
0
100
AcDbLine
 10
181.80485
 20
59.5485
 30
0.0
 11
182.20485
 21
59.5485
 31
0.0
  0
LINE
  5
2D8
330
1E
100
AcDbEntity
  8
0
100
AcDbLine
 10
181.80485
 20
58.1224
 30
0.0
 11
181.80485
 21
58.1941
 31
0.0
  0
LINE
  5
2D9
330
1E
100
AcDbEntity
  8
0
100
AcDbLine
 10
181.80485
 20
58.1224
 30
0.0
 11
181.80485
 21
57.9196
 31
0.0
  0
LINE
  5
2DA
330
1E
100
AcDbEntity
  8
0
100
AcDbLine
 10
181.80485
 20
58.1224
 30
0.0
 11
181.80485
 21
58.0
 31
0.0
  0
LINE
  5
2DB
330
1E
100
AcDbEntity
  8
0
100
AcDbLine
 10
181.80485
 20
58.0
 30
0.0
 11
181.80485
 21
59.5
 31
0.0
  0
LINE
  5
2DD
330
1E
100
AcDbEntity
  8
0
100
AcDbLine
 10
181.80485
 20
58.0
 30
0.0
 11
181.80485
 21
58.1224
 31
0.0
  0
LINE
  5
2DE
330
1E
100
AcDbEntity
  8
0
100
AcDbLine
 10
181.80485
 20
58.0
 30
0.0
 11
181.80485
 21
58.1941
 31
0.0
  0
LINE
  5
2DF
330
1E
100
AcDbEntity
  8
0
100
AcDbLine
 10
181.80485
 20
59.5
 30
0.0
 11
181.80485
 21
58.0
 31
0.0
  0
LINE
  5
2E0
330
1E
100
AcDbEntity
  8
0
100
AcDbLine
 10
181.80485
 20
55.7
 30
0.0
 11
181.80485
 21
57.2099
 31
0.0
  0
LINE
  5
2E1
330
1E
100
AcDbEntity
  8
0
100
AcDbLine
 10
181.80485
 20
55.7
 30
0.0
 11
181.80485
 21
53.2
 31
0.0
  0
LINE
  5
2E9
330
1E
100
AcDbEntity
  8
0
100
AcDbLine
 10
188.87185
 20
48.3
 30
0.0
 11
192.20485
 21
48.0
 31
0.0
  0
LINE
  5
2F2
330
1E
100
AcDbEntity
  8
0
100
AcDbLine
 10
185.80485
 20
48.7
 30
0.0
 11
188.87185
 21
48.3
 31
0.0
  0
LINE
  5
31D
330
1E
100
AcDbEntity
  8
0
100
AcDbLine
 10
209.80485
 20
45.0
 30
0.0
 11
209.80485
 21
23.386684192796
 31
0.0
  0
LINE
  5
31E
330
1E
100
AcDbEntity
  8
0
100
AcDbLine
 10
209.80485
 20
45.0
 30
0.0
 11
209.80485
 21
53.2
 31
0.0
  0
LINE
  5
31F
330
1E
100
AcDbEntity
  8
0
100
AcDbLine
 10
209.80485
 20
57.2099
 30
0.0
 11
209.80485
 21
53.2
 31
0.0
  0
LINE
  5
320
330
1E
100
AcDbEntity
  8
0
100
AcDbLine
 10
209.80485
 20
53.2
 30
0.0
 11
209.80485
 21
57.2099
 31
0.0
  0
LINE
  5
321
330
1E
100
AcDbEntity
  8
0
100
AcDbLine
 10
209.80485
 20
53.2
 30
0.0
 11
209.80485
 21
45.0
 31
0.0
  0
LINE
  5
322
330
1E
100
AcDbEntity
  8
0
100
AcDbLine
 10
209.80485
 20
57.2099
 30
0.0
 11
209.80485
 21
57.9196
 31
0.0
  0
LINE
  5
323
330
1E
100
AcDbEntity
  8
0
100
AcDbLine
 10
209.80485
 20
57.9196
 30
0.0
 11
209.80485
 21
58.1224
 31
0.0
  0
LINE
  5
324
330
1E
100
AcDbEntity
  8
0
100
AcDbLine
 10
209.80485
 20
57.9196
 30
0.0
 11
209.80485
 21
57.2099
 31
0.0
  0
LINE
  5
326
330
1E
100
AcDbEntity
  8
0
100
AcDbLine
 10
182.20485
 20
58.1941
 30
0.0
 11
183.67185
 21
58.1941
 31
0.0
  0
LINE
  5
327
330
1E
100
AcDbEntity
  8
0
100
AcDbLine
 10
183.67185
 20
58.1941
 30
0.0
 11
185.80485
 21
58.1941
 31
0.0
  0
LINE
  5
328
330
1E
100
AcDbEntity
  8
0
100
AcDbLine
 10
182.20485
 20
59.5485
 30
0.0
 11
183.67185
 21
59.5485
 31
0.0
  0
LINE
  5
329
330
1E
100
AcDbEntity
  8
0
100
AcDbLine
 10
183.67185
 20
59.5485
 30
0.0
 11
185.80485
 21
59.5485
 31
0.0
  0
LINE
  5
32A
330
1E
100
AcDbEntity
  8
0
100
AcDbLine
 10
185.80485
 20
59.5485
 30
0.0
 11
188.87185
 21
59.5485
 31
0.0
  0
LINE
  5
32B
330
1E
100
AcDbEntity
  8
0
100
AcDbLine
 10
188.87185
 20
59.5485
 30
0.0
 11
192.20485
 21
59.5485
 31
0.0
  0
LINE
  5
32C
330
1E
100
AcDbEntity
  8
0
100
AcDbLine
 10
192.20485
 20
59.5485
 30
0.0
 11
195.80485
 21
59.5485
 31
0.0
  0
LINE
  5
32D
330
1E
100
AcDbEntity
  8
0
100
AcDbLine
 10
185.80485
 20
58.1941
 30
0.0
 11
202.73785
 21
58.1941
 31
0.0
  0
LINE
  5
32E
330
1E
100
AcDbEntity
  8
0
100
AcDbLine
 10
202.73785
 20
59.5485
 30
0.0
 11
205.80485
 21
59.5485
 31
0.0
  0
LINE
  5
32F
330
1E
100
AcDbEntity
  8
0
100
AcDbLine
 10
199.40485
 20
59.5485
 30
0.0
 11
202.73785
 21
59.5485
 31
0.0
  0
LINE
  5
330
330
1E
100
AcDbEntity
  8
0
100
AcDbLine
 10
195.80485
 20
59.5485
 30
0.0
 11
199.40485
 21
59.5485
 31
0.0
  0
LINE
  5
331
330
1E
100
AcDbEntity
  8
0
100
AcDbLine
 10
207.93785
 20
58.1941
 30
0.0
 11
209.40485
 21
58.1941
 31
0.0
  0
LINE
  5
332
330
1E
100
AcDbEntity
  8
0
100
AcDbLine
 10
207.93785
 20
59.5485
 30
0.0
 11
209.40485
 21
59.5485
 31
0.0
  0
LINE
  5
333
330
1E
100
AcDbEntity
  8
0
100
AcDbLine
 10
205.80485
 20
59.5485
 30
0.0
 11
207.93785
 21
59.5485
 31
0.0
  0
LINE
  5
334
330
1E
100
AcDbEntity
  8
0
100
AcDbLine
 10
205.80485
 20
58.1941
 30
0.0
 11
207.93785
 21
58.1941
 31
0.0
  0
LINE
  5
335
330
1E
100
AcDbEntity
  8
0
100
AcDbLine
 10
202.73785
 20
58.1941
 30
0.0
 11
205.80485
 21
58.1941
 31
0.0
  0
LINE
  5
336
330
1E
100
AcDbEntity
  8
0
100
AcDbLine
 10
183.00485
 20
60.0
 30
0.0
 11
184.20485
 21
60.0
 31
0.0
  0
LINE
  5
337
330
1E
100
AcDbEntity
  8
0
100
AcDbLine
 10
184.20485
 20
60.0
 30
0.0
 11
186.33785
 21
60.0
 31
0.0
  0
LINE
  5
338
330
1E
100
AcDbEntity
  8
0
100
AcDbLine
 10
186.33785
 20
60.0
 30
0.0
 11
189.13785
 21
60.0
 31
0.0
  0
LINE
  5
339
330
1E
100
AcDbEntity
  8
0
100
AcDbLine
 10
189.13785
 20
60.0
 30
0.0
 11
192.33785
 21
60.0
 31
0.0
  0
LINE
  5
33A
330
1E
100
AcDbEntity
  8
0
100
AcDbLine
 10
192.33785
 20
60.0
 30
0.0
 11
195.80485
 21
60.0
 31
0.0
  0
LINE
  5
33B
330
1E
100
AcDbEntity
  8
0
100
AcDbLine
 10
208.60485
 20
60.0
 30
0.0
 11
209.13785
 21
60.0
 31
0.0
  0
LINE
  5
33C
330
1E
100
AcDbEntity
  8
0
100
AcDbLine
 10
207.40485
 20
60.0
 30
0.0
 11
208.60485
 21
60.0
 31
0.0
  0
LINE
  5
33D
330
1E
100
AcDbEntity
  8
0
100
AcDbLine
 10
205.27185
 20
60.0
 30
0.0
 11
207.40485
 21
60.0
 31
0.0
  0
LINE
  5
33E
330
1E
100
AcDbEntity
  8
0
100
AcDbLine
 10
202.47185
 20
60.0
 30
0.0
 11
205.27185
 21
60.0
 31
0.0
  0
LINE
  5
33F
330
1E
100
AcDbEntity
  8
0
100
AcDbLine
 10
199.27185
 20
60.0
 30
0.0
 11
202.47185
 21
60.0
 31
0.0
  0
LINE
  5
340
330
1E
100
AcDbEntity
  8
0
100
AcDbLine
 10
195.80485
 20
60.0
 30
0.0
 11
199.27185
 21
60.0
 31
0.0
  0
LINE
  5
341
330
1E
100
AcDbEntity
  8
0
100
AcDbLine
 10
182.47185
 20
60.0
 30
0.0
 11
183.00485
 21
60.0
 31
0.0
  0
LINE
  5
342
330
1E
100
AcDbEntity
  8
0
100
AcDbLine
 10
182.07185
 20
59.8194
 30
0.0
 11
182.47185
 21
60.0
 31
0.0
  0
LINE
  5
343
330
1E
100
AcDbEntity
  8
0
100
AcDbLine
 10
209.40485
 20
59.5485
 30
0.0
 11
209.80485
 21
59.5485
 31
0.0
  0
LINE
  5
344
330
1E
100
AcDbEntity
  8
0
100
AcDbLine
 10
209.40485
 20
58.1941
 30
0.0
 11
209.80485
 21
58.1941
 31
0.0
  0
LINE
  5
345
330
1E
100
AcDbEntity
  8
0
100
AcDbLine
 10
209.80485
 20
58.1941
 30
0.0
 11
209.80485
 21
58.0
 31
0.0
  0
LINE
  5
346
330
1E
100
AcDbEntity
  8
0
100
AcDbLine
 10
209.80485
 20
58.1941
 30
0.0
 11
209.80485
 21
59.5485
 31
0.0
  0
LINE
  5
347
330
1E
100
AcDbEntity
  8
0
100
AcDbLine
 10
209.80485
 20
67.0
 30
0.0
 11
211.80485
 21
67.0
 31
0.0
  0
LINE
  5
348
330
1E
100
AcDbEntity
  8
0
100
AcDbLine
 10
209.53785
 20
59.8194
 30
0.0
 11
209.80485
 21
59.5485
 31
0.0
  0
LINE
  5
349
330
1E
100
AcDbEntity
  8
0
100
AcDbLine
 10
209.13785
 20
60.0
 30
0.0
 11
209.53785
 21
59.8194
 31
0.0
  0
LINE
  5
34A
330
1E
100
AcDbEntity
  8
0
100
AcDbLine
 10
209.80485
 20
58.1224
 30
0.0
 11
209.80485
 21
58.1941
 31
0.0
  0
LINE
  5
34B
330
1E
100
AcDbEntity
  8
0
100
AcDbLine
 10
209.80485
 20
58.1224
 30
0.0
 11
209.80485
 21
57.9196
 31
0.0
  0
LINE
  5
34C
330
1E
100
AcDbEntity
  8
0
100
AcDbLine
 10
212.03585
 20
66.0
 30
0.0
 11
223.57385
 21
66.0
 31
0.0
  0
LINE
  5
34D
330
1E
100
AcDbEntity
  8
0
100
AcDbLine
 10
211.80485
 20
66.624
 30
0.0
 11
211.80485
 21
67.248
 31
0.0
  0
LINE
  5
34E
330
1E
100
AcDbEntity
  8
0
100
AcDbLine
 10
211.80485
 20
66.624
 30
0.0
 11
211.80485
 21
66.24
 31
0.0
  0
LINE
  5
34F
330
1E
100
AcDbEntity
  8
0
100
AcDbLine
 10
211.80485
 20
66.624
 30
0.0
 11
211.80485
 21
67.0
 31
0.0
  0
LINE
  5
350
330
1E
100
AcDbEntity
  8
0
100
AcDbLine
 10
211.80485
 20
66.24
 30
0.0
 11
211.80485
 21
66.624
 31
0.0
  0
LINE
  5
351
330
1E
100
AcDbEntity
  8
0
100
AcDbLine
 10
211.80485
 20
66.24
 30
0.0
 11
211.80485
 21
66.096
 31
0.0
  0
LINE
  5
352
330
1E
100
AcDbEntity
  8
0
100
AcDbLine
 10
211.80485
 20
66.096
 30
0.0
 11
211.80485
 21
66.24
 31
0.0
  0
LINE
  5
353
330
1E
100
AcDbEntity
  8
0
100
AcDbLine
 10
211.80485
 20
66.096
 30
0.0
 11
212.03585
 21
66.0
 31
0.0
  0
LINE
  5
354
330
1E
100
AcDbEntity
  8
0
100
AcDbLine
 10
223.80485
 20
66.096
 30
0.0
 11
223.80485
 21
66.24
 31
0.0
  0
LINE
  5
355
330
1E
100
AcDbEntity
  8
0
100
AcDbLine
 10
211.80485
 20
67.0
 30
0.0
 11
211.80485
 21
66.624
 31
0.0
  0
LINE
  5
356
330
1E
100
AcDbEntity
  8
0
100
AcDbLine
 10
211.80485
 20
67.0
 30
0.0
 11
211.80485
 21
67.108
 31
0.0
  0
LINE
  5
357
330
1E
100
AcDbEntity
  8
0
100
AcDbLine
 10
223.80485
 20
66.624
 30
0.0
 11
223.80485
 21
66.24
 31
0.0
  0
LINE
  5
358
330
1E
100
AcDbEntity
  8
0
100
AcDbLine
 10
223.80485
 20
66.624
 30
0.0
 11
223.80485
 21
67.248
 31
0.0
  0
LINE
  5
359
330
1E
100
AcDbEntity
  8
0
100
AcDbLine
 10
223.80485
 20
66.24
 30
0.0
 11
223.80485
 21
66.096
 31
0.0
  0
LINE
  5
35A
330
1E
100
AcDbEntity
  8
0
100
AcDbLine
 10
223.80485
 20
66.24
 30
0.0
 11
223.80485
 21
66.624
 31
0.0
  0
LINE
  5
35B
330
1E
100
AcDbEntity
  8
0
100
AcDbLine
 10
223.57385
 20
66.0
 30
0.0
 11
223.80485
 21
66.096
 31
0.0
  0
LINE
  5
35C
330
1E
100
AcDbEntity
  8
0
100
AcDbLine
 10
209.80485
 20
59.5485
 30
0.0
 11
209.80485
 21
72.892
 31
0.0
  0
LINE
  5
35D
330
1E
100
AcDbEntity
  8
0
100
AcDbLine
 10
209.80485
 20
59.5485
 30
0.0
 11
209.80485
 21
58.1941
 31
0.0
  0
LINE
  5
35E
330
1E
100
AcDbEntity
  8
0
100
AcDbLine
 10
209.80485
 20
73.0
 30
0.0
 11
211.80485
 21
73.0
 31
0.0
  0
LINE
  5
35F
330
1E
100
AcDbEntity
  8
0
100
AcDbLine
 10
211.80485
 20
67.108
 30
0.0
 11
211.80485
 21
67.396
 31
0.0
  0
LINE
  5
360
330
1E
100
AcDbEntity
  8
0
100
AcDbLine
 10
211.80485
 20
67.248
 30
0.0
 11
211.80485
 21
68.064
 31
0.0
  0
LINE
  5
361
330
1E
100
AcDbEntity
  8
0
100
AcDbLine
 10
211.80485
 20
67.248
 30
0.0
 11
211.80485
 21
66.624
 31
0.0
  0
LINE
  5
362
330
1E
100
AcDbEntity
  8
0
100
AcDbLine
 10
211.80485
 20
68.512
 30
0.0
 11
211.80485
 21
69.232
 31
0.0
  0
LINE
  5
363
330
1E
100
AcDbEntity
  8
0
100
AcDbLine
 10
211.80485
 20
67.876
 30
0.0
 11
211.80485
 21
68.512
 31
0.0
  0
LINE
  5
364
330
1E
100
AcDbEntity
  8
0
100
AcDbLine
 10
211.80485
 20
67.396
 30
0.0
 11
211.80485
 21
67.876
 31
0.0
  0
LINE
  5
365
330
1E
100
AcDbEntity
  8
0
100
AcDbLine
 10
211.80485
 20
68.992
 30
0.0
 11
211.80485
 21
70.0
 31
0.0
  0
LINE
  5
366
330
1E
100
AcDbEntity
  8
0
100
AcDbLine
 10
211.80485
 20
68.992
 30
0.0
 11
211.80485
 21
68.064
 31
0.0
  0
LINE
  5
367
330
1E
100
AcDbEntity
  8
0
100
AcDbLine
 10
211.80485
 20
68.064
 30
0.0
 11
211.80485
 21
68.992
 31
0.0
  0
LINE
  5
368
330
1E
100
AcDbEntity
  8
0
100
AcDbLine
 10
211.80485
 20
68.064
 30
0.0
 11
211.80485
 21
67.248
 31
0.0
  0
LINE
  5
369
330
1E
100
AcDbEntity
  8
0
100
AcDbLine
 10
211.80485
 20
69.232
 30
0.0
 11
211.80485
 21
70.0
 31
0.0
  0
LINE
  5
36A
330
1E
100
AcDbEntity
  8
0
100
AcDbLine
 10
211.80485
 20
70.768
 30
0.0
 11
211.80485
 21
71.488
 31
0.0
  0
LINE
  5
36B
330
1E
100
AcDbEntity
  8
0
100
AcDbLine
 10
211.80485
 20
71.488
 30
0.0
 11
211.80485
 21
72.124
 31
0.0
  0
LINE
  5
36C
330
1E
100
AcDbEntity
  8
0
100
AcDbLine
 10
211.80485
 20
71.008
 30
0.0
 11
211.80485
 21
71.936
 31
0.0
  0
LINE
  5
36D
330
1E
100
AcDbEntity
  8
0
100
AcDbLine
 10
211.80485
 20
71.008
 30
0.0
 11
211.80485
 21
70.0
 31
0.0
  0
LINE
  5
36E
330
1E
100
AcDbEntity
  8
0
100
AcDbLine
 10
211.80485
 20
72.124
 30
0.0
 11
211.80485
 21
72.604
 31
0.0
  0
LINE
  5
36F
330
1E
100
AcDbEntity
  8
0
100
AcDbLine
 10
211.80485
 20
72.604
 30
0.0
 11
211.80485
 21
72.892
 31
0.0
  0
LINE
  5
370
330
1E
100
AcDbEntity
  8
0
100
AcDbLine
 10
211.80485
 20
72.892
 30
0.0
 11
211.80485
 21
73.0
 31
0.0
  0
LINE
  5
371
330
1E
100
AcDbEntity
  8
0
100
AcDbLine
 10
211.80485
 20
73.0
 30
0.0
 11
211.80485
 21
73.376
 31
0.0
  0
LINE
  5
372
330
1E
100
AcDbEntity
  8
0
100
AcDbLine
 10
211.80485
 20
71.936
 30
0.0
 11
211.80485
 21
72.752
 31
0.0
  0
LINE
  5
373
330
1E
100
AcDbEntity
  8
0
100
AcDbLine
 10
211.80485
 20
71.936
 30
0.0
 11
211.80485
 21
71.008
 31
0.0
  0
LINE
  5
374
330
1E
100
AcDbEntity
  8
0
100
AcDbLine
 10
211.80485
 20
72.752
 30
0.0
 11
211.80485
 21
73.376
 31
0.0
  0
LINE
  5
375
330
1E
100
AcDbEntity
  8
0
100
AcDbLine
 10
211.80485
 20
72.752
 30
0.0
 11
211.80485
 21
71.936
 31
0.0
  0
LINE
  5
376
330
1E
100
AcDbEntity
  8
0
100
AcDbLine
 10
211.80485
 20
73.376
 30
0.0
 11
211.80485
 21
73.76
 31
0.0
  0
LINE
  5
377
330
1E
100
AcDbEntity
  8
0
100
AcDbLine
 10
211.80485
 20
73.376
 30
0.0
 11
211.80485
 21
72.752
 31
0.0
  0
LINE
  5
378
330
1E
100
AcDbEntity
  8
0
100
AcDbLine
 10
211.80485
 20
73.376
 30
0.0
 11
211.80485
 21
73.0
 31
0.0
  0
LINE
  5
379
330
1E
100
AcDbEntity
  8
0
100
AcDbLine
 10
211.80485
 20
73.76
 30
0.0
 11
211.80485
 21
73.904
 31
0.0
  0
LINE
  5
37A
330
1E
100
AcDbEntity
  8
0
100
AcDbLine
 10
211.80485
 20
73.76
 30
0.0
 11
211.80485
 21
73.376
 31
0.0
  0
LINE
  5
37B
330
1E
100
AcDbEntity
  8
0
100
AcDbLine
 10
211.80485
 20
73.904
 30
0.0
 11
212.03585
 21
74.0
 31
0.0
  0
LINE
  5
37C
330
1E
100
AcDbEntity
  8
0
100
AcDbLine
 10
211.80485
 20
73.904
 30
0.0
 11
211.80485
 21
73.76
 31
0.0
  0
LINE
  5
37D
330
1E
100
AcDbEntity
  8
0
100
AcDbLine
 10
223.80485
 20
71.008
 30
0.0
 11
223.80485
 21
70.0
 31
0.0
  0
LINE
  5
37E
330
1E
100
AcDbEntity
  8
0
100
AcDbLine
 10
223.80485
 20
71.008
 30
0.0
 11
223.80485
 21
71.936
 31
0.0
  0
LINE
  5
37F
330
1E
100
AcDbEntity
  8
0
100
AcDbLine
 10
223.80485
 20
71.936
 30
0.0
 11
223.80485
 21
71.008
 31
0.0
  0
LINE
  5
380
330
1E
100
AcDbEntity
  8
0
100
AcDbLine
 10
223.80485
 20
71.936
 30
0.0
 11
223.80485
 21
72.752
 31
0.0
  0
LINE
  5
381
330
1E
100
AcDbEntity
  8
0
100
AcDbLine
 10
223.80485
 20
72.752
 30
0.0
 11
223.80485
 21
71.936
 31
0.0
  0
LINE
  5
382
330
1E
100
AcDbEntity
  8
0
100
AcDbLine
 10
223.80485
 20
72.752
 30
0.0
 11
223.80485
 21
73.376
 31
0.0
  0
LINE
  5
383
330
1E
100
AcDbEntity
  8
0
100
AcDbLine
 10
223.80485
 20
73.376
 30
0.0
 11
223.80485
 21
72.752
 31
0.0
  0
LINE
  5
384
330
1E
100
AcDbEntity
  8
0
100
AcDbLine
 10
223.80485
 20
73.376
 30
0.0
 11
223.80485
 21
73.76
 31
0.0
  0
LINE
  5
385
330
1E
100
AcDbEntity
  8
0
100
AcDbLine
 10
223.80485
 20
73.76
 30
0.0
 11
223.80485
 21
73.376
 31
0.0
  0
LINE
  5
386
330
1E
100
AcDbEntity
  8
0
100
AcDbLine
 10
223.80485
 20
73.76
 30
0.0
 11
223.80485
 21
73.904
 31
0.0
  0
LINE
  5
387
330
1E
100
AcDbEntity
  8
0
100
AcDbLine
 10
223.57385
 20
74.0
 30
0.0
 11
223.80485
 21
73.904
 31
0.0
  0
LINE
  5
388
330
1E
100
AcDbEntity
  8
0
100
AcDbLine
 10
223.80485
 20
73.904
 30
0.0
 11
223.80485
 21
73.76
 31
0.0
  0
LINE
  5
389
330
1E
100
AcDbEntity
  8
0
100
AcDbLine
 10
212.03585
 20
74.0
 30
0.0
 11
223.57385
 21
74.0
 31
0.0
  0
LINE
  5
38A
330
1E
100
AcDbEntity
  8
0
100
AcDbLine
 10
211.80485
 20
70.0
 30
0.0
 11
211.80485
 21
68.992
 31
0.0
  0
LINE
  5
38B
330
1E
100
AcDbEntity
  8
0
100
AcDbLine
 10
211.80485
 20
70.0
 30
0.0
 11
211.80485
 21
71.008
 31
0.0
  0
LINE
  5
38C
330
1E
100
AcDbEntity
  8
0
100
AcDbLine
 10
211.80485
 20
70.0
 30
0.0
 11
211.80485
 21
70.768
 31
0.0
  0
LINE
  5
38D
330
1E
100
AcDbEntity
  8
0
100
AcDbLine
 10
223.80485
 20
70.0
 30
0.0
 11
223.80485
 21
68.992
 31
0.0
  0
LINE
  5
38E
330
1E
100
AcDbEntity
  8
0
100
AcDbLine
 10
223.80485
 20
70.0
 30
0.0
 11
223.80485
 21
71.008
 31
0.0
  0
LINE
  5
38F
330
1E
100
AcDbEntity
  8
0
100
AcDbLine
 10
223.80485
 20
68.992
 30
0.0
 11
223.80485
 21
68.064
 31
0.0
  0
LINE
  5
390
330
1E
100
AcDbEntity
  8
0
100
AcDbLine
 10
223.80485
 20
68.992
 30
0.0
 11
223.80485
 21
70.0
 31
0.0
  0
LINE
  5
391
330
1E
100
AcDbEntity
  8
0
100
AcDbLine
 10
223.80485
 20
68.064
 30
0.0
 11
223.80485
 21
67.248
 31
0.0
  0
LINE
  5
392
330
1E
100
AcDbEntity
  8
0
100
AcDbLine
 10
223.80485
 20
68.064
 30
0.0
 11
223.80485
 21
68.992
 31
0.0
  0
LINE
  5
393
330
1E
100
AcDbEntity
  8
0
100
AcDbLine
 10
223.80485
 20
67.248
 30
0.0
 11
223.80485
 21
66.624
 31
0.0
  0
LINE
  5
394
330
1E
100
AcDbEntity
  8
0
100
AcDbLine
 10
223.80485
 20
67.248
 30
0.0
 11
223.80485
 21
68.064
 31
0.0
  0
LINE
  5
395
330
1E
100
AcDbEntity
  8
0
100
AcDbLine
 10
209.80485
 20
72.892
 30
0.0
 11
209.80485
 21
217.0
 31
0.0
  0
LINE
  5
396
330
1E
100
AcDbEntity
  8
0
100
AcDbLine
 10
209.80485
 20
72.892
 30
0.0
 11
209.80485
 21
59.5485
 31
0.0
  0
LINE
  5
397
330
1E
100
AcDbEntity
  8
0
100
AcDbLine
 10
181.80485
 20
49.517074093369
 30
0.0
 11
181.80485
 21
217.0
 31
0.0
  0
LINE
  5
3D1
330
1E
100
AcDbEntity
  8
0
100
AcDbLine
 10
50.184853627593
 20
175.876877415031
 30
0.0
 11
80.90485
 21
242.64
 31
0.0
  0
LINE
  5
3E4
330
1E
100
AcDbEntity
  8
0
100
AcDbLine
 10
74.982958900243
 20
163.064149425731
 30
0.0
 11
106.77385
 21
231.925
 31
0.0
  0
LINE
  5
3EC
330
1E
100
AcDbEntity
  8
0
100
AcDbLine
 10
106.77385
 20
231.925
 30
0.0
 11
109.02985
 21
236.5
 31
0.0
  0
LINE
  5
3ED
330
1E
100
AcDbEntity
  8
0
100
AcDbLine
 10
80.90485
 20
242.64
 30
0.0
 11
84.78085
 21
250.5
 31
0.0
  0
LINE
  5
3EE
330
1E
100
AcDbEntity
  8
0
100
AcDbLine
 10
111.86385
 20
240.742
 30
0.0
 11
115.22785
 21
244.577
 31
0.0
  0
LINE
  5
3EF
330
1E
100
AcDbEntity
  8
0
100
AcDbLine
 10
109.02985
 20
236.5
 30
0.0
 11
111.86385
 21
240.742
 31
0.0
  0
LINE
  5
3F0
330
1E
100
AcDbEntity
  8
0
100
AcDbLine
 10
115.22785
 20
244.577
 30
0.0
 11
119.06285
 21
247.941
 31
0.0
  0
LINE
  5
3F1
330
1E
100
AcDbEntity
  8
0
100
AcDbLine
 10
181.80485
 20
217.0
 30
0.0
 11
181.80485
 21
49.517074093369
 31
0.0
  0
LINE
  5
3F2
330
1E
100
AcDbEntity
  8
0
100
AcDbLine
 10
181.47085
 20
222.091
 30
0.0
 11
181.80485
 21
217.0
 31
0.0
  0
LINE
  5
3F3
330
1E
100
AcDbEntity
  8
0
100
AcDbLine
 10
178.83585
 20
231.925
 30
0.0
 11
180.47585
 21
227.094
 31
0.0
  0
LINE
  5
3F4
330
1E
100
AcDbEntity
  8
0
100
AcDbLine
 10
176.57985
 20
236.5
 30
0.0
 11
178.83585
 21
231.925
 31
0.0
  0
LINE
  5
3F5
330
1E
100
AcDbEntity
  8
0
100
AcDbLine
 10
204.70485
 20
242.64
 30
0.0
 11
207.52185
 21
234.341
 31
0.0
  0
LINE
  5
3F6
330
1E
100
AcDbEntity
  8
0
100
AcDbLine
 10
207.52185
 20
234.341
 30
0.0
 11
209.23185
 21
225.745
 31
0.0
  0
LINE
  5
3F7
330
1E
100
AcDbEntity
  8
0
100
AcDbLine
 10
180.47585
 20
227.094
 30
0.0
 11
181.47085
 21
222.091
 31
0.0
  0
LINE
  5
3F8
330
1E
100
AcDbEntity
  8
0
100
AcDbLine
 10
209.23185
 20
225.745
 30
0.0
 11
209.80485
 21
217.0
 31
0.0
  0
LINE
  5
3F9
330
1E
100
AcDbEntity
  8
0
100
AcDbLine
 10
173.74585
 20
240.742
 30
0.0
 11
176.57985
 21
236.5
 31
0.0
  0
LINE
  5
3FA
330
1E
100
AcDbEntity
  8
0
100
AcDbLine
 10
89.64985
 20
257.787
 30
0.0
 11
95.42885
 21
264.376
 31
0.0
  0
LINE
  5
3FB
330
1E
100
AcDbEntity
  8
0
100
AcDbLine
 10
84.78085
 20
250.5
 30
0.0
 11
89.64985
 21
257.787
 31
0.0
  0
LINE
  5
3FC
330
1E
100
AcDbEntity
  8
0
100
AcDbLine
 10
95.42885
 20
264.376
 30
0.0
 11
102.01785
 21
270.155
 31
0.0
  0
LINE
  5
3FD
330
1E
100
AcDbEntity
  8
0
100
AcDbLine
 10
102.01785
 20
270.155
 30
0.0
 11
109.30485
 21
275.024
 31
0.0
  0
LINE
  5
3FE
330
1E
100
AcDbEntity
  8
0
100
AcDbLine
 10
119.06285
 20
247.941
 30
0.0
 11
123.30485
 21
250.775
 31
0.0
  0
LINE
  5
3FF
330
1E
100
AcDbEntity
  8
0
100
AcDbLine
 10
123.30485
 20
250.775
 30
0.0
 11
127.87985
 21
253.031
 31
0.0
  0
LINE
  5
400
330
1E
100
AcDbEntity
  8
0
100
AcDbLine
 10
137.71385
 20
255.666
 30
0.0
 11
142.80485
 21
256.0
 31
0.0
  0
LINE
  5
401
330
1E
100
AcDbEntity
  8
0
100
AcDbLine
 10
132.71085
 20
254.671
 30
0.0
 11
137.71385
 21
255.666
 31
0.0
  0
LINE
  5
402
330
1E
100
AcDbEntity
  8
0
100
AcDbLine
 10
127.87985
 20
253.031
 30
0.0
 11
132.71085
 21
254.671
 31
0.0
  0
LINE
  5
403
330
1E
100
AcDbEntity
  8
0
100
AcDbLine
 10
109.30485
 20
275.024
 30
0.0
 11
117.16485
 21
278.9
 31
0.0
  0
LINE
  5
404
330
1E
100
AcDbEntity
  8
0
100
AcDbLine
 10
134.05985
 20
283.427
 30
0.0
 11
142.80485
 21
284.0
 31
0.0
  0
LINE
  5
405
330
1E
100
AcDbEntity
  8
0
100
AcDbLine
 10
125.46385
 20
281.717
 30
0.0
 11
134.05985
 21
283.427
 31
0.0
  0
LINE
  5
406
330
1E
100
AcDbEntity
  8
0
100
AcDbLine
 10
117.16485
 20
278.9
 30
0.0
 11
125.46385
 21
281.717
 31
0.0
  0
LINE
  5
407
330
1E
100
AcDbEntity
  8
0
100
AcDbLine
 10
152.89885
 20
254.671
 30
0.0
 11
157.72985
 21
253.031
 31
0.0
  0
LINE
  5
408
330
1E
100
AcDbEntity
  8
0
100
AcDbLine
 10
157.72985
 20
253.031
 30
0.0
 11
162.30485
 21
250.775
 31
0.0
  0
LINE
  5
409
330
1E
100
AcDbEntity
  8
0
100
AcDbLine
 10
166.54685
 20
247.941
 30
0.0
 11
170.38185
 21
244.577
 31
0.0
  0
LINE
  5
40A
330
1E
100
AcDbEntity
  8
0
100
AcDbLine
 10
162.30485
 20
250.775
 30
0.0
 11
166.54685
 21
247.941
 31
0.0
  0
LINE
  5
40B
330
1E
100
AcDbEntity
  8
0
100
AcDbLine
 10
183.59185
 20
270.155
 30
0.0
 11
190.18085
 21
264.376
 31
0.0
  0
LINE
  5
40C
330
1E
100
AcDbEntity
  8
0
100
AcDbLine
 10
160.14585
 20
281.717
 30
0.0
 11
168.44485
 21
278.9
 31
0.0
  0
LINE
  5
40D
330
1E
100
AcDbEntity
  8
0
100
AcDbLine
 10
168.44485
 20
278.9
 30
0.0
 11
176.30485
 21
275.024
 31
0.0
  0
LINE
  5
40E
330
1E
100
AcDbEntity
  8
0
100
AcDbLine
 10
176.30485
 20
275.024
 30
0.0
 11
183.59185
 21
270.155
 31
0.0
  0
LINE
  5
40F
330
1E
100
AcDbEntity
  8
0
100
AcDbLine
 10
151.54985
 20
283.427
 30
0.0
 11
160.14585
 21
281.717
 31
0.0
  0
LINE
  5
410
330
1E
100
AcDbEntity
  8
0
100
AcDbLine
 10
147.89585
 20
255.666
 30
0.0
 11
152.89885
 21
254.671
 31
0.0
  0
LINE
  5
411
330
1E
100
AcDbEntity
  8
0
100
AcDbLine
 10
142.80485
 20
256.0
 30
0.0
 11
147.89585
 21
255.666
 31
0.0
  0
LINE
  5
412
330
1E
100
AcDbEntity
  8
0
100
AcDbLine
 10
142.80485
 20
284.0
 30
0.0
 11
151.54985
 21
283.427
 31
0.0
  0
LINE
  5
413
330
1E
100
AcDbEntity
  8
0
100
AcDbLine
 10
200.82885
 20
250.5
 30
0.0
 11
204.70485
 21
242.64
 31
0.0
  0
LINE
  5
414
330
1E
100
AcDbEntity
  8
0
100
AcDbLine
 10
195.95985
 20
257.787
 30
0.0
 11
200.82885
 21
250.5
 31
0.0
  0
LINE
  5
415
330
1E
100
AcDbEntity
  8
0
100
AcDbLine
 10
190.18085
 20
264.376
 30
0.0
 11
195.95985
 21
257.787
 31
0.0
  0
LINE
  5
416
330
1E
100
AcDbEntity
  8
0
100
AcDbLine
 10
170.38185
 20
244.577
 30
0.0
 11
173.74585
 21
240.742
 31
0.0
  0
LINE
  5
417
330
1E
100
AcDbEntity
  8
0
100
AcDbLine
 10
209.80485
 20
217.0
 30
0.0
 11
209.80485
 21
72.892
 31
0.0
  0
LINE
  5
422
330
1E
100
AcDbEntity
  8
0
100
AcDbLine
 10
185.80485
 20
48.7
 30
0.0
 11
183.597055486926
 21
50.043108686765
 31
0.0
  0
LINE
  5
423
330
1E
100
AcDbEntity
  8
0
100
AcDbLine
 10
183.597055486926
 20
50.043108686765
 30
0.0
 11
182.20485
 21
52.3
 31
0.0
  0
LINE
  5
424
330
1E
100
AcDbEntity
  8
0
100
AcDbLine
 10
182.20485
 20
52.3
 30
0.0
 11
181.80485
 21
58.1941
 31
0.0
  0
LINE
  5
426
330
1E
100
AcDbEntity
  8
0
100
AcDbLine
 10
205.794632083959
 20
48.722911642416
 30
0.0
 11
208.002426597032
 21
50.066020329181
 31
0.0
  0
LINE
  5
427
330
1E
100
AcDbEntity
  8
0
100
AcDbLine
 10
205.794632083959
 20
48.722911642416
 30
0.0
 11
202.727632083958
 21
48.322911642416
 31
0.0
  0
LINE
  5
428
330
1E
100
AcDbEntity
  8
0
100
AcDbLine
 10
202.727632083958
 20
48.322911642416
 30
0.0
 11
199.394632083959
 21
48.022911642416
 31
0.0
  0
LINE
  5
429
330
1E
100
AcDbEntity
  8
0
100
AcDbLine
 10
208.002426597032
 20
50.066020329181
 30
0.0
 11
209.394632083959
 21
52.322911642416
 31
0.0
  0
LINE
  5
42A
330
1E
100
AcDbEntity
  8
0
100
AcDbLine
 10
209.394632083959
 20
52.322911642416
 30
0.0
 11
209.794632083959
 21
58.217011642416
 31
0.0
  0
LINE
  5
42B
330
1E
100
AcDbEntity
  8
0
100
AcDbLine
 10
192.20485
 20
48.0
 30
0.0
 11
195.720214018197
 21
47.838372793384
 31
0.0
  0
LINE
  5
42C
330
1E
100
AcDbEntity
  8
0
100
AcDbLine
 10
195.720214018197
 20
47.838372793384
 30
0.0
 11
199.394632083959
 21
48.022911642416
 31
0.0
  0
LINE
  5
6AF
330
1E
100
AcDbEntity
  8
0
100
AcDbLine
 10
-18.20395
 20
180.869388
 30
0.0
 11
-17.07905
 21
180.345388
 31
0.0
  0
LINE
  5
6B0
330
1E
100
AcDbEntity
  8
0
100
AcDbLine
 10
-18.66665
 20
181.086388
 30
0.0
 11
-18.20395
 21
180.869388
 31
0.0
  0
LINE
  5
6B1
330
1E
100
AcDbEntity
  8
0
100
AcDbLine
 10
-15.70995
 20
178.603388
 30
0.0
 11
-15.321114434094
 21
179.437461451239
 31
0.0
  0
LINE
  5
6B2
330
1E
100
AcDbEntity
  8
0
100
AcDbLine
 10
-15.70995
 20
178.603388
 30
0.0
 11
-15.04855
 21
178.294388
 31
0.0
  0
LINE
  5
6B3
330
1E
100
AcDbEntity
  8
0
100
AcDbLine
 10
-16.682038642761
 20
180.160158805021
 30
0.0
 11
-15.334276082978
 21
179.409228998061
 31
0.0
  0
LINE
  5
6B4
330
1E
100
AcDbEntity
  8
0
100
AcDbLine
 10
-16.682038642761
 20
180.160158805021
 30
0.0
 11
-15.334276082978
 21
179.409228998061
 31
0.0
  0
LINE
  5
6B5
330
1E
100
AcDbEntity
  8
0
100
AcDbLine
 10
-13.65571
 20
177.645388
 30
0.0
 11
-13.595593393377
 21
177.617349125723
 31
0.0
  0
LINE
  5
6B6
330
1E
100
AcDbEntity
  8
0
100
AcDbLine
 10
-13.65571
 20
177.645388
 30
0.0
 11
-13.595593393377
 21
177.617349125723
 31
0.0
  0
LINE
  5
6B7
330
1E
100
AcDbEntity
  8
0
100
AcDbLine
 10
-13.902632087106
 20
177.760447871842
 30
0.0
 11
-13.82519
 21
177.724388
 31
0.0
  0
LINE
  5
6B8
330
1E
100
AcDbEntity
  8
0
100
AcDbLine
 10
-13.902621758408
 20
177.760470026414
 30
0.0
 11
-13.82519
 21
177.724388
 31
0.0
  0
LINE
  5
6B9
330
1E
100
AcDbEntity
  8
0
100
AcDbLine
 10
-13.28103
 20
177.470388
 30
0.0
 11
-12.876913093701
 21
178.337189480178
 31
0.0
  0
LINE
  5
6BA
330
1E
100
AcDbEntity
  8
0
100
AcDbLine
 10
-13.28103
 20
177.470388
 30
0.0
 11
-12.13511
 21
176.936388
 31
0.0
  0
LINE
  5
6BB
330
1E
100
AcDbEntity
  8
0
100
AcDbLine
 10
-14.656020761524
 20
178.111464147496
 30
0.0
 11
-14.48665
 21
178.032388
 31
0.0
  0
LINE
  5
6BC
330
1E
100
AcDbEntity
  8
0
100
AcDbLine
 10
-14.656020761525
 20
178.111464147496
 30
0.0
 11
-14.48665
 21
178.032388
 31
0.0
  0
LINE
  5
6BD
330
1E
100
AcDbEntity
  8
0
100
AcDbLine
 10
-15.04855
 20
178.294388
 30
0.0
 11
-14.681847362511
 21
179.080975808673
 31
0.0
  0
LINE
  5
6BE
330
1E
100
AcDbEntity
  8
0
100
AcDbLine
 10
-15.04855
 20
178.294388
 30
0.0
 11
-13.90266
 21
177.760388
 31
0.0
  0
LINE
  5
6BF
330
1E
100
AcDbEntity
  8
0
100
AcDbLine
 10
-14.48665
 20
178.032388
 30
0.0
 11
-14.096103184317
 21
177.850535100005
 31
0.0
  0
LINE
  5
6C0
330
1E
100
AcDbEntity
  8
0
100
AcDbLine
 10
-14.48665
 20
178.032388
 30
0.0
 11
-14.096103184317
 21
177.850535100005
 31
0.0
  0
LINE
  5
6C1
330
1E
100
AcDbEntity
  8
0
100
AcDbLine
 10
-13.94243
 20
177.779388
 30
0.0
 11
-13.571764183266
 21
178.574010190055
 31
0.0
  0
LINE
  5
6C2
330
1E
100
AcDbEntity
  8
0
100
AcDbLine
 10
-13.94243
 20
177.779388
 30
0.0
 11
-13.28103
 21
177.470388
 31
0.0
  0
LINE
  5
6C3
330
1E
100
AcDbEntity
  8
0
100
AcDbLine
 10
-15.16075
 20
179.450388
 30
0.0
 11
-12.71296
 21
178.309388
 31
0.0
  0
LINE
  5
6C4
330
1E
100
AcDbEntity
  8
0
100
AcDbLine
 10
-17.07905
 20
180.345388
 30
0.0
 11
-15.16075
 21
179.450388
 31
0.0
  0
LINE
  5
6C5
330
1E
100
AcDbEntity
  8
0
100
AcDbLine
 10
-17.07905
 20
180.345388
 30
0.0
 11
-16.682038642761
 21
180.160158805021
 31
0.0
  0
LINE
  5
6C6
330
1E
100
AcDbEntity
  8
0
100
AcDbLine
 10
-17.07905
 20
180.345388
 30
0.0
 11
-16.682038642761
 21
180.160158805021
 31
0.0
  0
LINE
  5
6C7
330
1E
100
AcDbEntity
  8
0
100
AcDbLine
 10
-12.676138746114
 20
177.188508000022
 30
0.0
 11
-12.51079
 21
177.111388
 31
0.0
  0
LINE
  5
6C8
330
1E
100
AcDbEntity
  8
0
100
AcDbLine
 10
-12.676138746114
 20
177.188508000022
 30
0.0
 11
-12.51079
 21
177.111388
 31
0.0
  0
LINE
  5
6C9
330
1E
100
AcDbEntity
  8
0
100
AcDbLine
 10
-12.51079
 20
177.111388
 30
0.0
 11
-12.445595560109
 21
177.081074617825
 31
0.0
  0
LINE
  5
6CA
330
1E
100
AcDbEntity
  8
0
100
AcDbLine
 10
-12.51079
 20
177.111388
 30
0.0
 11
-12.445595560109
 21
177.081074617825
 31
0.0
  0
LINE
  5
6CB
330
1E
100
AcDbEntity
  8
0
100
AcDbLine
 10
-12.13498719499
 20
176.936651410964
 30
0.0
 11
-11.84838
 21
176.803388
 31
0.0
  0
LINE
  5
6CC
330
1E
100
AcDbEntity
  8
0
100
AcDbLine
 10
-12.134873879305
 20
176.936894467772
 30
0.0
 11
-11.84838
 21
176.803388
 31
0.0
  0
LINE
  5
6CD
330
1E
100
AcDbEntity
  8
0
100
AcDbLine
 10
-12.13511
 20
176.936388
 30
0.0
 11
-11.772970007426
 21
177.713161231906
 31
0.0
  0
LINE
  5
6CE
330
1E
100
AcDbEntity
  8
0
100
AcDbLine
 10
-11.879618487016
 20
177.484405264966
 30
0.0
 11
-10.369833329266
 21
176.643201694774
 31
0.0
  0
LINE
  5
6CF
330
1E
100
AcDbEntity
  8
0
100
AcDbLine
 10
-11.84838
 20
176.803388
 30
0.0
 11
-11.60268302391
 21
177.330105761435
 31
0.0
  0
LINE
  5
6D0
330
1E
100
AcDbEntity
  8
0
100
AcDbLine
 10
-11.879618487016
 20
177.484405264966
 30
0.0
 11
-10.369833329266
 21
176.643201694774
 31
0.0
  0
LINE
  5
6D1
330
1E
100
AcDbEntity
  8
0
100
AcDbLine
 10
-12.71296
 20
178.309388
 30
0.0
 11
-9.40493
 21
176.767388
 31
0.0
  0
LINE
  5
6D2
330
1E
100
AcDbEntity
  8
0
100
AcDbLine
 10
-12.81987
 20
179.462388
 30
0.0
 11
-9.51183
 21
177.920388
 31
0.0
  0
LINE
  5
6D3
330
1E
100
AcDbEntity
  8
0
100
AcDbLine
 10
-15.39955
 20
180.665388
 30
0.0
 11
-12.81987
 21
179.462388
 31
0.0
  0
LINE
  5
6D4
330
1E
100
AcDbEntity
  8
0
100
AcDbLine
 10
-17.25185
 20
181.529388
 30
0.0
 11
-15.39955
 21
180.665388
 31
0.0
  0
LINE
  5
6D5
330
1E
100
AcDbEntity
  8
0
100
AcDbLine
 10
-18.44275
 20
182.084388
 30
0.0
 11
-17.25185
 21
181.529388
 31
0.0
  0
LINE
  5
6D6
330
1E
100
AcDbEntity
  8
0
100
AcDbLine
 10
-18.90545
 20
182.301388
 30
0.0
 11
-18.44275
 21
182.084388
 31
0.0
  0
LINE
  5
6D7
330
1E
100
AcDbEntity
  8
0
100
AcDbLine
 10
-18.90545
 20
182.301388
 30
0.0
 11
-10.03038
 21
201.333388
 31
0.0
  0
LINE
  5
6D8
330
1E
100
AcDbEntity
  8
0
100
AcDbLine
 10
-18.90545
 20
182.301388
 30
0.0
 11
-18.66665
 21
181.086388
 31
0.0
  0
LINE
  5
6D9
330
1E
100
AcDbEntity
  8
0
100
AcDbLine
 10
-11.098166527332
 20
177.556670662233
 30
0.0
 11
-10.149915694591
 21
177.114654482184
 31
0.0
  0
LINE
  5
6DA
330
1E
100
AcDbEntity
  8
0
100
AcDbLine
 10
-10.57266
 20
176.208388
 30
0.0
 11
-10.182608830424
 21
177.044567924367
 31
0.0
  0
LINE
  5
6DB
330
1E
100
AcDbEntity
  8
0
100
AcDbLine
 10
-10.57266
 20
176.208388
 30
0.0
 11
-9.91126
 21
175.899388
 31
0.0
  0
LINE
  5
6DC
330
1E
100
AcDbEntity
  8
0
100
AcDbLine
 10
-10.57266
 20
176.208388
 30
0.0
 11
-9.42774
 21
175.673388
 31
0.0
  0
LINE
  5
6DD
330
1E
100
AcDbEntity
  8
0
100
AcDbLine
 10
-10.99251
 20
177.507388
 30
0.0
 11
-7.81736
 21
176.026388
 31
0.0
  0
LINE
  5
6DE
330
1E
100
AcDbEntity
  8
0
100
AcDbLine
 10
-11.098166527332
 20
177.556670662233
 30
0.0
 11
-10.99251
 21
177.507388
 31
0.0
  0
LINE
  5
6DF
330
1E
100
AcDbEntity
  8
0
100
AcDbLine
 10
-11.098166527332
 20
177.556670662233
 30
0.0
 11
-10.149915694591
 21
177.114654482184
 31
0.0
  0
LINE
  5
6E0
330
1E
100
AcDbEntity
  8
0
100
AcDbLine
 10
-11.098166527332
 20
177.556670662233
 30
0.0
 11
-10.99251
 21
177.507388
 31
0.0
  0
LINE
  5
6E1
330
1E
100
AcDbEntity
  8
0
100
AcDbLine
 10
139.67485
 20
51.518788
 30
0.0
 11
140.11085
 21
51.973188
 31
0.0
  0
LINE
  5
6E2
330
1E
100
AcDbEntity
  8
0
100
AcDbLine
 10
140.11085
 20
51.973188
 30
0.0
 11
141.05585
 21
52.764888
 31
0.0
  0
LINE
  5
6E3
330
1E
100
AcDbEntity
  8
0
100
AcDbLine
 10
139.62785
 20
50.669688
 30
0.0
 11
140.02585
 21
49.462188
 31
0.0
  0
LINE
  5
6E4
330
1E
100
AcDbEntity
  8
0
100
AcDbLine
 10
139.62785
 20
50.669688
 30
0.0
 11
139.67485
 21
51.518788
 31
0.0
  0
LINE
  5
6E5
330
1E
100
AcDbEntity
  8
0
100
AcDbLine
 10
140.02585
 20
49.462188
 30
0.0
 11
152.08985
 21
35.168788
 31
0.0
  0
LINE
  5
6E6
330
1E
100
AcDbEntity
  8
0
100
AcDbLine
 10
140.58085
 20
53.239288
 30
0.0
 11
140.95685
 21
53.593788
 31
0.0
  0
LINE
  5
6E7
330
1E
100
AcDbEntity
  8
0
100
AcDbLine
 10
140.58085
 20
53.239288
 30
0.0
 11
141.524178535095
 21
53.154325959753
 31
0.0
  0
LINE
  5
6E8
330
1E
100
AcDbEntity
  8
0
100
AcDbLine
 10
140.95685
 20
53.593788
 30
0.0
 11
141.83685
 21
54.347888
 31
0.0
  0
LINE
  5
6E9
330
1E
100
AcDbEntity
  8
0
100
AcDbLine
 10
141.83685
 20
54.347888
 30
0.0
 11
143.26085
 21
55.589588
 31
0.0
  0
LINE
  5
6EA
330
1E
100
AcDbEntity
  8
0
100
AcDbLine
 10
143.26085
 20
55.589588
 30
0.0
 11
145.15085
 21
57.142588
 31
0.0
  0
LINE
  5
6EB
330
1E
100
AcDbEntity
  8
0
100
AcDbLine
 10
145.15085
 20
57.142588
 30
0.0
 11
147.41685
 21
59.050088
 31
0.0
  0
LINE
  5
6EC
330
1E
100
AcDbEntity
  8
0
100
AcDbLine
 10
147.41685
 20
59.050088
 30
0.0
 11
149.72085
 21
61.045888
 31
0.0
  0
LINE
  5
6ED
330
1E
100
AcDbEntity
  8
0
100
AcDbLine
 10
149.72085
 20
61.045888
 30
0.0
 11
152.11485
 21
62.998388
 31
0.0
  0
LINE
  5
6EE
330
1E
100
AcDbEntity
  8
0
100
AcDbLine
 10
152.59385
 20
34.548088
 30
0.0
 11
169.80885
 21
14.061888
 31
0.0
  0
LINE
  5
6EF
330
1E
100
AcDbEntity
  8
0
100
AcDbLine
 10
152.11485
 20
62.998388
 30
0.0
 11
154.34085
 21
64.817688
 31
0.0
  0
LINE
  5
6F0
330
1E
100
AcDbEntity
  8
0
100
AcDbLine
 10
154.34085
 20
64.817688
 30
0.0
 11
156.27085
 21
66.458888
 31
0.0
  0
LINE
  5
6F1
330
1E
100
AcDbEntity
  8
0
100
AcDbLine
 10
156.348438653744
 20
65.51315144926
 30
0.0
 11
156.65485
 21
65.766088
 31
0.0
  0
LINE
  5
6F2
330
1E
100
AcDbEntity
  8
0
100
AcDbLine
 10
156.27085
 20
66.458888
 30
0.0
 11
157.69485
 21
67.700588
 31
0.0
  0
LINE
  5
6F3
330
1E
100
AcDbEntity
  8
0
100
AcDbLine
 10
157.69485
 20
67.700588
 30
0.0
 11
158.57485
 21
68.454588
 31
0.0
  0
LINE
  5
6F4
330
1E
100
AcDbEntity
  8
0
100
AcDbLine
 10
158.860163101317
 20
67.668481027107
 30
0.0
 11
158.91185
 21
68.720888
 31
0.0
  0
LINE
  5
6F5
330
1E
100
AcDbEntity
  8
0
100
AcDbLine
 10
158.57485
 20
68.454588
 30
0.0
 11
158.91185
 21
68.720888
 31
0.0
  0
LINE
  5
6F6
330
1E
100
AcDbEntity
  8
0
100
AcDbLine
 10
-9.91126
 20
175.899388
 30
0.0
 11
-9.536830766018
 21
176.70252107606
 31
0.0
  0
LINE
  5
6F7
330
1E
100
AcDbEntity
  8
0
100
AcDbLine
 10
-9.91126
 20
175.899388
 30
0.0
 11
-9.536830766018
 21
176.70252107606
 31
0.0
  0
LINE
  5
6F8
330
1E
100
AcDbEntity
  8
0
100
AcDbLine
 10
-9.91126
 20
175.899388
 30
0.0
 11
-8.76534
 21
175.365388
 31
0.0
  0
LINE
  5
6F9
330
1E
100
AcDbEntity
  8
0
100
AcDbLine
 10
-9.42774
 20
175.673388
 30
0.0
 11
-8.76534
 21
175.365388
 31
0.0
  0
LINE
  5
6FA
330
1E
100
AcDbEntity
  8
0
100
AcDbLine
 10
-9.40493
 20
176.767388
 30
0.0
 11
-5.56837
 21
174.977388
 31
0.0
  0
LINE
  5
6FB
330
1E
100
AcDbEntity
  8
0
100
AcDbLine
 10
-9.51183
 20
177.920388
 30
0.0
 11
-5.60838
 21
176.100388
 31
0.0
  0
LINE
  5
6FC
330
1E
100
AcDbEntity
  8
0
100
AcDbLine
 10
-10.03038
 20
201.333388
 30
0.0
 11
-8.94635
 21
201.930388
 31
0.0
  0
LINE
  5
6FD
330
1E
100
AcDbEntity
  8
0
100
AcDbLine
 10
-8.76534
 20
175.365388
 30
0.0
 11
-8.427827468655
 21
176.089336487208
 31
0.0
  0
LINE
  5
6FE
330
1E
100
AcDbEntity
  8
0
100
AcDbLine
 10
-8.76534
 20
175.365388
 30
0.0
 11
-8.623287945994
 21
175.670082967008
 31
0.0
  0
LINE
  5
6FF
330
1E
100
AcDbEntity
  8
0
100
AcDbLine
 10
-7.95421
 20
174.435388
 30
0.0
 11
-7.627116193474
 21
175.136988813061
 31
0.0
  0
LINE
  5
700
330
1E
100
AcDbEntity
  8
0
100
AcDbLine
 10
-7.95421
 20
174.435388
 30
0.0
 11
-7.29281
 21
174.127388
 31
0.0
  0
LINE
  5
701
330
1E
100
AcDbEntity
  8
0
100
AcDbLine
 10
-7.95421
 20
174.435388
 30
0.0
 11
-7.077098161971
 21
174.026649336835
 31
0.0
  0
LINE
  5
702
330
1E
100
AcDbEntity
  8
0
100
AcDbLine
 10
-8.623287945994
 20
175.670082967008
 30
0.0
 11
-6.787715606511
 21
174.647361292078
 31
0.0
  0
LINE
  5
703
330
1E
100
AcDbEntity
  8
0
100
AcDbLine
 10
-8.623287945994
 20
175.670082967008
 30
0.0
 11
-6.787715606511
 21
174.647361292078
 31
0.0
  0
LINE
  5
704
330
1E
100
AcDbEntity
  8
0
100
AcDbLine
 10
-8.342753976627
 20
176.271815121735
 30
0.0
 11
-7.320422529765
 21
175.794832280366
 31
0.0
  0
LINE
  5
705
330
1E
100
AcDbEntity
  8
0
100
AcDbLine
 10
-7.81736
 20
176.026388
 30
0.0
 11
-4.11268
 21
174.298388
 31
0.0
  0
LINE
  5
706
330
1E
100
AcDbEntity
  8
0
100
AcDbLine
 10
-7.29281
 20
174.127388
 30
0.0
 11
-6.987402648715
 21
174.782111061531
 31
0.0
  0
LINE
  5
707
330
1E
100
AcDbEntity
  8
0
100
AcDbLine
 10
-7.29281
 20
174.127388
 30
0.0
 11
-6.987402648715
 21
174.782111061531
 31
0.0
  0
LINE
  5
708
330
1E
100
AcDbEntity
  8
0
100
AcDbLine
 10
-7.29281
 20
174.127388
 30
0.0
 11
-7.077087264492
 21
174.026672711414
 31
0.0
  0
LINE
  5
709
330
1E
100
AcDbEntity
  8
0
100
AcDbLine
 10
-6.41581
 20
173.717388
 30
0.0
 11
-6.204341832732
 21
174.170977261342
 31
0.0
  0
LINE
  5
70A
330
1E
100
AcDbEntity
  8
0
100
AcDbLine
 10
-6.41581
 20
173.717388
 30
0.0
 11
-5.27089
 21
173.183388
 31
0.0
  0
LINE
  5
70B
330
1E
100
AcDbEntity
  8
0
100
AcDbLine
 10
-7.07722
 20
174.026388
 30
0.0
 11
-6.747983256429
 21
174.732585312117
 31
0.0
  0
LINE
  5
70C
330
1E
100
AcDbEntity
  8
0
100
AcDbLine
 10
-7.07722
 20
174.026388
 30
0.0
 11
-6.41581
 21
173.717388
 31
0.0
  0
LINE
  5
70D
330
1E
100
AcDbEntity
  8
0
100
AcDbLine
 10
-6.22023
 20
174.178388
 30
0.0
 11
-5.79781865853
 21
175.084440437279
 31
0.0
  0
LINE
  5
70E
330
1E
100
AcDbEntity
  8
0
100
AcDbLine
 10
-6.22023
 20
174.178388
 30
0.0
 11
-4.89742
 21
173.561388
 31
0.0
  0
LINE
  5
70F
330
1E
100
AcDbEntity
  8
0
100
AcDbLine
 10
-6.22023
 20
174.178388
 30
0.0
 11
-5.865623580507
 21
174.939002072382
 31
0.0
  0
LINE
  5
710
330
1E
100
AcDbEntity
  8
0
100
AcDbLine
 10
-6.22023
 20
174.178388
 30
0.0
 11
-5.79781865853
 21
175.084440437279
 31
0.0
  0
LINE
  5
711
330
1E
100
AcDbEntity
  8
0
100
AcDbLine
 10
-5.270425012965
 20
173.184385375294
 30
0.0
 11
-4.9612
 21
173.040388
 31
0.0
  0
LINE
  5
712
330
1E
100
AcDbEntity
  8
0
100
AcDbLine
 10
-4.9612
 20
173.040388
 30
0.0
 11
-4.743017340783
 21
173.508121399391
 31
0.0
  0
LINE
  5
713
330
1E
100
AcDbEntity
  8
0
100
AcDbLine
 10
-4.9612
 20
173.040388
 30
0.0
 11
-4.743017340783
 21
173.508121399391
 31
0.0
  0
LINE
  5
714
330
1E
100
AcDbEntity
  8
0
100
AcDbLine
 10
-5.270386013369
 20
173.184469027593
 30
0.0
 11
-4.9612
 21
173.040388
 31
0.0
  0
LINE
  5
715
330
1E
100
AcDbEntity
  8
0
100
AcDbLine
 10
-5.27089
 20
173.183388
 30
0.0
 11
-5.059431993789
 21
173.636955466354
 31
0.0
  0
LINE
  5
716
330
1E
100
AcDbEntity
  8
0
100
AcDbLine
 10
-4.89742
 20
173.561388
 30
0.0
 11
-4.474899711556
 21
174.467663401301
 31
0.0
  0
LINE
  5
717
330
1E
100
AcDbEntity
  8
0
100
AcDbLine
 10
-4.89742
 20
173.561388
 30
0.0
 11
-4.587216029673
 21
174.226753037802
 31
0.0
  0
LINE
  5
718
330
1E
100
AcDbEntity
  8
0
100
AcDbLine
 10
-4.5353
 20
173.392388
 30
0.0
 11
-3.717163077223
 21
172.960981934635
 31
0.0
  0
LINE
  5
719
330
1E
100
AcDbEntity
  8
0
100
AcDbLine
 10
-4.5353
 20
173.392388
 30
0.0
 11
-3.717163077223
 21
172.960981934635
 31
0.0
  0
LINE
  5
71A
330
1E
100
AcDbEntity
  8
0
100
AcDbLine
 10
-4.885295490904
 20
173.587394193423
 30
0.0
 11
-4.5353
 21
173.392388
 31
0.0
  0
LINE
  5
71B
330
1E
100
AcDbEntity
  8
0
100
AcDbLine
 10
-4.327477918391
 20
174.398942270828
 30
0.0
 11
-3.275654505894
 21
173.908631493751
 31
0.0
  0
LINE
  5
71C
330
1E
100
AcDbEntity
  8
0
100
AcDbLine
 10
-4.327477918391
 20
174.398942270828
 30
0.0
 11
-3.275654505894
 21
173.908631493751
 31
0.0
  0
LINE
  5
71D
330
1E
100
AcDbEntity
  8
0
100
AcDbLine
 10
-4.11268
 20
174.298388
 30
0.0
 11
0.05455
 21
172.355388
 31
0.0
  0
LINE
  5
71E
330
1E
100
AcDbEntity
  8
0
100
AcDbLine
 10
-5.56837
 20
174.977388
 30
0.0
 11
-1.13635
 21
172.911388
 31
0.0
  0
LINE
  5
71F
330
1E
100
AcDbEntity
  8
0
100
AcDbLine
 10
-5.60838
 20
176.100388
 30
0.0
 11
-1.11045
 21
174.002388
 31
0.0
  0
LINE
  5
720
330
1E
100
AcDbEntity
  8
0
100
AcDbLine
 10
-3.24805
 20
172.241388
 30
0.0
 11
-2.938544111066
 21
172.904928784132
 31
0.0
  0
LINE
  5
721
330
1E
100
AcDbEntity
  8
0
100
AcDbLine
 10
-3.24805
 20
172.241388
 30
0.0
 11
-2.10205
 21
171.706388
 31
0.0
  0
LINE
  5
722
330
1E
100
AcDbEntity
  8
0
100
AcDbLine
 10
-3.90939
 20
172.548388
 30
0.0
 11
-3.574075082461
 21
173.268104568162
 31
0.0
  0
LINE
  5
723
330
1E
100
AcDbEntity
  8
0
100
AcDbLine
 10
-3.90939
 20
172.548388
 30
0.0
 11
-3.24805
 21
172.241388
 31
0.0
  0
LINE
  5
724
330
1E
100
AcDbEntity
  8
0
100
AcDbLine
 10
-3.90939
 20
172.548388
 30
0.0
 11
-2.76345
 21
172.014388
 31
0.0
  0
LINE
  5
725
330
1E
100
AcDbEntity
  8
0
100
AcDbLine
 10
-3.90939
 20
172.548388
 30
0.0
 11
-3.717163077223
 21
172.960981934635
 31
0.0
  0
LINE
  5
726
330
1E
100
AcDbEntity
  8
0
100
AcDbLine
 10
-2.76345
 20
172.014388
 30
0.0
 11
-2.10205
 21
171.706388
 31
0.0
  0
LINE
  5
727
330
1E
100
AcDbEntity
  8
0
100
AcDbLine
 10
-2.10205
 20
171.706388
 30
0.0
 11
-1.836695237218
 21
172.275274453102
 31
0.0
  0
LINE
  5
728
330
1E
100
AcDbEntity
  8
0
100
AcDbLine
 10
-1.95120250841
 20
172.029785603836
 30
0.0
 11
0.725734058796
 21
170.618228883268
 31
0.0
  0
LINE
  5
729
330
1E
100
AcDbEntity
  8
0
100
AcDbLine
 10
-1.95120250841
 20
172.029785603836
 30
0.0
 11
0.725734058796
 21
170.618228883268
 31
0.0
  0
LINE
  5
72A
330
1E
100
AcDbEntity
  8
0
100
AcDbLine
 10
-1.467893447268
 20
173.065938016032
 30
0.0
 11
-1.13635
 21
172.911388
 31
0.0
  0
LINE
  5
72B
330
1E
100
AcDbEntity
  8
0
100
AcDbLine
 10
-1.467893447268
 20
173.065938016032
 30
0.0
 11
-1.13635
 21
172.911388
 31
0.0
  0
LINE
  5
72C
330
1E
100
AcDbEntity
  8
0
100
AcDbLine
 10
-1.13635
 20
172.911388
 30
0.0
 11
3.75925
 21
170.628388
 31
0.0
  0
LINE
  5
72D
330
1E
100
AcDbEntity
  8
0
100
AcDbLine
 10
-1.11045
 20
174.002388
 30
0.0
 11
3.85105
 21
171.689388
 31
0.0
  0
LINE
  5
72E
330
1E
100
AcDbEntity
  8
0
100
AcDbLine
 10
13.83165
 20
162.479388
 30
0.0
 11
14.29535
 21
162.263388
 31
0.0
  0
LINE
  5
72F
330
1E
100
AcDbEntity
  8
0
100
AcDbLine
 10
13.44665
 20
162.658388
 30
0.0
 11
13.83165
 21
162.479388
 31
0.0
  0
LINE
  5
730
330
1E
100
AcDbEntity
  8
0
100
AcDbLine
 10
13.21535
 20
162.767388
 30
0.0
 11
13.44665
 21
162.658388
 31
0.0
  0
LINE
  5
731
330
1E
100
AcDbEntity
  8
0
100
AcDbLine
 10
13.13475
 20
162.804388
 30
0.0
 11
13.21535
 21
162.767388
 31
0.0
  0
LINE
  5
732
330
1E
100
AcDbEntity
  8
0
100
AcDbLine
 10
16.61545
 20
161.181388
 30
0.0
 11
17.07905
 21
160.965388
 31
0.0
  0
LINE
  5
733
330
1E
100
AcDbEntity
  8
0
100
AcDbLine
 10
16.07125
 20
161.435388
 30
0.0
 11
16.61545
 21
161.181388
 31
0.0
  0
LINE
  5
734
330
1E
100
AcDbEntity
  8
0
100
AcDbLine
 10
17.07905
 20
160.965388
 30
0.0
 11
17.46315
 21
160.785388
 31
0.0
  0
LINE
  5
735
330
1E
100
AcDbEntity
  8
0
100
AcDbLine
 10
17.46315
 20
160.785388
 30
0.0
 11
17.69545
 21
160.677388
 31
0.0
  0
LINE
  5
736
330
1E
100
AcDbEntity
  8
0
100
AcDbLine
 10
17.77505
 20
160.640388
 30
0.0
 11
18.742997969856
 21
161.434219707244
 31
0.0
  0
LINE
  5
737
330
1E
100
AcDbEntity
  8
0
100
AcDbLine
 10
17.69545
 20
160.677388
 30
0.0
 11
17.77505
 21
160.640388
 31
0.0
  0
LINE
  5
738
330
1E
100
AcDbEntity
  8
0
100
AcDbLine
 10
16.98335
 20
161.703388
 30
0.0
 11
17.19461833096
 21
162.156570068187
 31
0.0
  0
LINE
  5
739
330
1E
100
AcDbEntity
  8
0
100
AcDbLine
 10
19.41585
 20
160.427388
 30
0.0
 11
19.61155
 21
160.336388
 31
0.0
  0
LINE
  5
73A
330
1E
100
AcDbEntity
  8
0
100
AcDbLine
 10
19.41585
 20
160.427388
 30
0.0
 11
19.681294043887
 21
160.996779920926
 31
0.0
  0
LINE
  5
73B
330
1E
100
AcDbEntity
  8
0
100
AcDbLine
 10
19.61155
 20
160.336388
 30
0.0
 11
20.13375
 21
160.093388
 31
0.0
  0
LINE
  5
73C
330
1E
100
AcDbEntity
  8
0
100
AcDbLine
 10
20.13375
 20
160.093388
 30
0.0
 11
21.00335
 21
159.687388
 31
0.0
  0
LINE
  5
73D
330
1E
100
AcDbEntity
  8
0
100
AcDbLine
 10
18.742997969856
 20
161.434219707244
 30
0.0
 11
19.38605
 21
161.134388
 31
0.0
  0
LINE
  5
73E
330
1E
100
AcDbEntity
  8
0
100
AcDbLine
 10
14.83945
 20
162.009388
 30
0.0
 11
15.45585
 21
161.722388
 31
0.0
  0
LINE
  5
73F
330
1E
100
AcDbEntity
  8
0
100
AcDbLine
 10
14.29535
 20
162.263388
 30
0.0
 11
14.83945
 21
162.009388
 31
0.0
  0
LINE
  5
740
330
1E
100
AcDbEntity
  8
0
100
AcDbLine
 10
15.45585
 20
161.722388
 30
0.0
 11
16.07125
 21
161.435388
 31
0.0
  0
LINE
  5
741
330
1E
100
AcDbEntity
  8
0
100
AcDbLine
 10
16.38675
 20
162.533388
 30
0.0
 11
16.598056494778
 21
162.986651931653
 31
0.0
  0
LINE
  5
742
330
1E
100
AcDbEntity
  8
0
100
AcDbLine
 10
16.38675
 20
162.533388
 30
0.0
 11
17.70955
 21
161.916388
 31
0.0
  0
LINE
  5
743
330
1E
100
AcDbEntity
  8
0
100
AcDbLine
 10
15.66055
 20
162.320388
 30
0.0
 11
16.032045382726
 21
163.11726581458
 31
0.0
  0
LINE
  5
744
330
1E
100
AcDbEntity
  8
0
100
AcDbLine
 10
15.66055
 20
162.320388
 30
0.0
 11
16.98335
 21
161.703388
 31
0.0
  0
LINE
  5
745
330
1E
100
AcDbEntity
  8
0
100
AcDbLine
 10
15.66055
 20
162.320388
 30
0.0
 11
15.989874344668
 21
163.026806642787
 31
0.0
  0
LINE
  5
746
330
1E
100
AcDbEntity
  8
0
100
AcDbLine
 10
17.25945
 20
162.678388
 30
0.0
 11
17.528677991133
 21
163.255578156097
 31
0.0
  0
LINE
  5
747
330
1E
100
AcDbEntity
  8
0
100
AcDbLine
 10
15.93565
 20
163.295388
 30
0.0
 11
16.146822542398
 21
163.748114747309
 31
0.0
  0
LINE
  5
748
330
1E
100
AcDbEntity
  8
0
100
AcDbLine
 10
15.93565
 20
163.295388
 30
0.0
 11
17.25945
 21
162.678388
 31
0.0
  0
LINE
  5
749
330
1E
100
AcDbEntity
  8
0
100
AcDbLine
 10
17.70955
 20
161.916388
 30
0.0
 11
18.104862040474
 21
162.764353841671
 31
0.0
  0
LINE
  5
74A
330
1E
100
AcDbEntity
  8
0
100
AcDbLine
 10
17.32325
 20
163.199388
 30
0.0
 11
17.746031295192
 21
164.106276888054
 31
0.0
  0
LINE
  5
74B
330
1E
100
AcDbEntity
  8
0
100
AcDbLine
 10
18.12925
 20
161.720388
 30
0.0
 11
19.38605
 21
161.134388
 31
0.0
  0
LINE
  5
74C
330
1E
100
AcDbEntity
  8
0
100
AcDbLine
 10
13.96205
 20
163.663388
 30
0.0
 11
14.49055
 21
163.416388
 31
0.0
  0
LINE
  5
74D
330
1E
100
AcDbEntity
  8
0
100
AcDbLine
 10
16.00045
 20
163.816388
 30
0.0
 11
16.37335708645
 21
164.616293995899
 31
0.0
  0
LINE
  5
74E
330
1E
100
AcDbEntity
  8
0
100
AcDbLine
 10
16.00045
 20
163.816388
 30
0.0
 11
17.32325
 21
163.199388
 31
0.0
  0
LINE
  5
74F
330
1E
100
AcDbEntity
  8
0
100
AcDbLine
 10
13.69725
 20
163.787388
 30
0.0
 11
13.96205
 21
163.663388
 31
0.0
  0
LINE
  5
750
330
1E
100
AcDbEntity
  8
0
100
AcDbLine
 10
18.554668934547
 20
163.729214110191
 30
0.0
 11
20.23135
 21
162.947388
 31
0.0
  0
LINE
  5
751
330
1E
100
AcDbEntity
  8
0
100
AcDbLine
 10
21.00335
 20
159.687388
 30
0.0
 11
22.15665
 21
159.149388
 31
0.0
  0
LINE
  5
752
330
1E
100
AcDbEntity
  8
0
100
AcDbLine
 10
23.46165
 20
158.541388
 30
0.0
 11
24.85345
 21
157.892388
 31
0.0
  0
LINE
  5
753
330
1E
100
AcDbEntity
  8
0
100
AcDbLine
 10
22.15665
 20
159.149388
 30
0.0
 11
23.46165
 21
158.541388
 31
0.0
  0
LINE
  5
754
330
1E
100
AcDbEntity
  8
0
100
AcDbLine
 10
24.85345
 20
157.892388
 30
0.0
 11
26.24535
 21
157.242388
 31
0.0
  0
LINE
  5
755
330
1E
100
AcDbEntity
  8
0
100
AcDbLine
 10
26.24535
 20
157.242388
 30
0.0
 11
26.909915427228
 21
156.932766712832
 31
0.0
  0
LINE
  5
756
330
1E
100
AcDbEntity
  8
0
100
AcDbLine
 10
25.80325
 20
158.142388
 30
0.0
 11
26.014474794227
 21
158.595423078592
 31
0.0
  0
LINE
  5
757
330
1E
100
AcDbEntity
  8
0
100
AcDbLine
 10
25.59195
 20
157.689388
 30
0.0
 11
25.803154269183
 21
158.142432652188
 31
0.0
  0
LINE
  5
758
330
1E
100
AcDbEntity
  8
0
100
AcDbLine
 10
24.48045
 20
158.759388
 30
0.0
 11
24.903005763783
 21
159.665793110907
 31
0.0
  0
LINE
  5
759
330
1E
100
AcDbEntity
  8
0
100
AcDbLine
 10
24.26925
 20
158.305388
 30
0.0
 11
25.59195
 21
157.689388
 31
0.0
  0
LINE
  5
75A
330
1E
100
AcDbEntity
  8
0
100
AcDbLine
 10
24.26925
 20
158.305388
 30
0.0
 11
24.480702968041
 21
158.759270006894
 31
0.0
  0
LINE
  5
75B
330
1E
100
AcDbEntity
  8
0
100
AcDbLine
 10
24.69175
 20
159.212388
 30
0.0
 11
26.01455
 21
158.595388
 31
0.0
  0
LINE
  5
75C
330
1E
100
AcDbEntity
  8
0
100
AcDbLine
 10
24.69175
 20
159.212388
 30
0.0
 11
24.90333719245
 21
159.666254043437
 31
0.0
  0
LINE
  5
75D
330
1E
100
AcDbEntity
  8
0
100
AcDbLine
 10
26.01455
 20
158.595388
 30
0.0
 11
26.275652434163
 21
159.15540067377
 31
0.0
  0
LINE
  5
75E
330
1E
100
AcDbEntity
  8
0
100
AcDbLine
 10
26.22585
 20
159.049388
 30
0.0
 11
26.648332610513
 21
159.955029180942
 31
0.0
  0
LINE
  5
75F
330
1E
100
AcDbEntity
  8
0
100
AcDbLine
 10
24.90305
 20
159.666388
 30
0.0
 11
26.22585
 21
159.049388
 31
0.0
  0
LINE
  5
760
330
1E
100
AcDbEntity
  8
0
100
AcDbLine
 10
24.90305
 20
159.666388
 30
0.0
 11
25.325470476942
 21
160.571895990321
 31
0.0
  0
LINE
  5
761
330
1E
100
AcDbEntity
  8
0
100
AcDbLine
 10
25.98705
 20
160.263388
 30
0.0
 11
31.74295
 21
157.579388
 31
0.0
  0
LINE
  5
762
330
1E
100
AcDbEntity
  8
0
100
AcDbLine
 10
25.98705
 20
160.263388
 30
0.0
 11
31.61005
 21
157.640388
 31
0.0
  0
LINE
  5
763
330
1E
100
AcDbEntity
  8
0
100
AcDbLine
 10
27.23025
 20
156.231388
 30
0.0
 11
27.35904805985
 21
156.171711906609
 31
0.0
  0
LINE
  5
764
330
1E
100
AcDbEntity
  8
0
100
AcDbLine
 10
27.172321803853
 20
156.258568385289
 30
0.0
 11
27.23025
 21
156.231388
 31
0.0
  0
LINE
  5
765
330
1E
100
AcDbEntity
  8
0
100
AcDbLine
 10
27.02095
 20
156.328388
 30
0.0
 11
27.23125
 21
156.231388
 31
0.0
  0
LINE
  5
766
330
1E
100
AcDbEntity
  8
0
100
AcDbLine
 10
26.98325
 20
156.346388
 30
0.0
 11
27.22295
 21
156.235388
 31
0.0
  0
LINE
  5
767
330
1E
100
AcDbEntity
  8
0
100
AcDbLine
 10
26.91315
 20
156.379388
 30
0.0
 11
26.98325
 21
156.346388
 31
0.0
  0
LINE
  5
768
330
1E
100
AcDbEntity
  8
0
100
AcDbLine
 10
26.9058495371
 20
157.628369255966
 30
0.0
 11
26.91315
 21
156.379388
 31
0.0
  0
LINE
  5
769
330
1E
100
AcDbEntity
  8
0
100
AcDbLine
 10
27.22295
 20
156.235388
 30
0.0
 11
27.57775
 21
156.069388
 31
0.0
  0
LINE
  5
76A
330
1E
100
AcDbEntity
  8
0
100
AcDbLine
 10
27.22295
 20
156.235388
 30
0.0
 11
27.59965
 21
156.059388
 31
0.0
  0
LINE
  5
76B
330
1E
100
AcDbEntity
  8
0
100
AcDbLine
 10
28.208145958728
 20
155.775602617368
 30
0.0
 11
28.64515
 21
155.571388
 31
0.0
  0
LINE
  5
76C
330
1E
100
AcDbEntity
  8
0
100
AcDbLine
 10
27.59965
 20
156.059388
 30
0.0
 11
28.07275
 21
155.838388
 31
0.0
  0
LINE
  5
76D
330
1E
100
AcDbEntity
  8
0
100
AcDbLine
 10
28.07275
 20
155.838388
 30
0.0
 11
28.63775
 21
155.576388
 31
0.0
  0
LINE
  5
76E
330
1E
100
AcDbEntity
  8
0
100
AcDbLine
 10
28.64515
 20
155.571388
 30
0.0
 11
29.094764918338
 21
155.362282595049
 31
0.0
  0
LINE
  5
76F
330
1E
100
AcDbEntity
  8
0
100
AcDbLine
 10
28.63775
 20
155.576388
 30
0.0
 11
29.23115
 21
155.298388
 31
0.0
  0
LINE
  5
770
330
1E
100
AcDbEntity
  8
0
100
AcDbLine
 10
29.23115
 20
155.298388
 30
0.0
 11
29.81825
 21
155.024388
 31
0.0
  0
LINE
  5
771
330
1E
100
AcDbEntity
  8
0
100
AcDbLine
 10
27.57775
 20
156.069388
 30
0.0
 11
27.736456727656
 21
155.995481242841
 31
0.0
  0
LINE
  5
772
330
1E
100
AcDbEntity
  8
0
100
AcDbLine
 10
26.40975
 20
161.170388
 30
0.0
 11
32.23145
 21
158.455388
 31
0.0
  0
LINE
  5
773
330
1E
100
AcDbEntity
  8
0
100
AcDbLine
 10
20.36415
 20
162.885388
 30
0.0
 11
25.987049999996
 21
160.263388000002
 31
0.0
  0
LINE
  5
774
330
1E
100
AcDbEntity
  8
0
100
AcDbLine
 10
20.36415
 20
162.885388
 30
0.0
 11
25.98705
 21
160.263388
 31
0.0
  0
LINE
  5
775
330
1E
100
AcDbEntity
  8
0
100
AcDbLine
 10
20.23135
 20
162.947388
 30
0.0
 11
25.98705
 21
160.263388
 31
0.0
  0
LINE
  5
776
330
1E
100
AcDbEntity
  8
0
100
AcDbLine
 10
20.23135
 20
162.947388
 30
0.0
 11
25.325429531862
 21
160.571915083844
 31
0.0
  0
LINE
  5
777
330
1E
100
AcDbEntity
  8
0
100
AcDbLine
 10
3.89975
 20
168.356388
 30
0.0
 11
4.56115
 21
168.048388
 31
0.0
  0
LINE
  5
778
330
1E
100
AcDbEntity
  8
0
100
AcDbLine
 10
4.56115
 20
168.048388
 30
0.0
 11
4.846336996522
 21
168.659792209297
 31
0.0
  0
LINE
  5
779
330
1E
100
AcDbEntity
  8
0
100
AcDbLine
 10
8.25755
 20
165.772388
 30
0.0
 11
8.468681928297
 21
166.225277477049
 31
0.0
  0
LINE
  5
77A
330
1E
100
AcDbEntity
  8
0
100
AcDbLine
 10
8.25755
 20
165.772388
 30
0.0
 11
9.40355
 21
165.237388
 31
0.0
  0
LINE
  5
77B
330
1E
100
AcDbEntity
  8
0
100
AcDbLine
 10
7.59615
 20
166.081388
 30
0.0
 11
7.943096263959
 21
166.825196128601
 31
0.0
  0
LINE
  5
77C
330
1E
100
AcDbEntity
  8
0
100
AcDbLine
 10
7.59615
 20
166.081388
 30
0.0
 11
8.25755
 21
165.772388
 31
0.0
  0
LINE
  5
77D
330
1E
100
AcDbEntity
  8
0
100
AcDbLine
 10
7.59615
 20
166.081388
 30
0.0
 11
8.74215
 21
165.545388
 31
0.0
  0
LINE
  5
77E
330
1E
100
AcDbEntity
  8
0
100
AcDbLine
 10
8.21975
 20
166.341388
 30
0.0
 11
8.430868805543
 21
166.794195753992
 31
0.0
  0
LINE
  5
77F
330
1E
100
AcDbEntity
  8
0
100
AcDbLine
 10
8.21975
 20
166.341388
 30
0.0
 11
9.54255
 21
165.724388
 31
0.0
  0
LINE
  5
780
330
1E
100
AcDbEntity
  8
0
100
AcDbLine
 10
8.50335
 20
166.760388
 30
0.0
 11
8.785829963889
 21
167.36632289651
 31
0.0
  0
LINE
  5
781
330
1E
100
AcDbEntity
  8
0
100
AcDbLine
 10
7.18055
 20
167.377388
 30
0.0
 11
7.392196246235
 21
167.831380717019
 31
0.0
  0
LINE
  5
782
330
1E
100
AcDbEntity
  8
0
100
AcDbLine
 10
7.18055
 20
167.377388
 30
0.0
 11
8.50335
 21
166.760388
 31
0.0
  0
LINE
  5
783
330
1E
100
AcDbEntity
  8
0
100
AcDbLine
 10
8.74215
 20
165.545388
 30
0.0
 11
9.40355
 21
165.237388
 31
0.0
  0
LINE
  5
784
330
1E
100
AcDbEntity
  8
0
100
AcDbLine
 10
8.56705
 20
167.283388
 30
0.0
 11
8.989750446232
 21
168.189603343791
 31
0.0
  0
LINE
  5
785
330
1E
100
AcDbEntity
  8
0
100
AcDbLine
 10
7.24425
 20
167.900388
 30
0.0
 11
7.666864760033
 21
168.806419643611
 31
0.0
  0
LINE
  5
786
330
1E
100
AcDbEntity
  8
0
100
AcDbLine
 10
7.24425
 20
167.900388
 30
0.0
 11
8.56705
 21
167.283388
 31
0.0
  0
LINE
  5
787
330
1E
100
AcDbEntity
  8
0
100
AcDbLine
 10
7.24425
 20
167.900388
 30
0.0
 11
7.539940411864
 21
168.534310179718
 31
0.0
  0
LINE
  5
788
330
1E
100
AcDbEntity
  8
0
100
AcDbLine
 10
4.766084024554
 20
168.487740168117
 30
0.0
 11
8.330002985773
 21
166.608474957692
 31
0.0
  0
LINE
  5
789
330
1E
100
AcDbEntity
  8
0
100
AcDbLine
 10
2.28805
 20
169.108388
 30
0.0
 11
2.544900376536
 21
169.65897700069
 31
0.0
  0
LINE
  5
78A
330
1E
100
AcDbEntity
  8
0
100
AcDbLine
 10
2.233777593835
 20
169.133661512396
 30
0.0
 11
2.28805
 21
169.108388
 31
0.0
  0
LINE
  5
78B
330
1E
100
AcDbEntity
  8
0
100
AcDbLine
 10
2.2337844649
 20
169.133676241333
 30
0.0
 11
2.28805
 21
169.108388
 31
0.0
  0
LINE
  5
78C
330
1E
100
AcDbEntity
  8
0
100
AcDbLine
 10
2.23365
 20
169.133388
 30
0.0
 11
2.444876000402
 21
169.586175782714
 31
0.0
  0
LINE
  5
78D
330
1E
100
AcDbEntity
  8
0
100
AcDbLine
 10
3.41525
 20
168.582388
 30
0.0
 11
3.729272066565
 21
169.25561088762
 31
0.0
  0
LINE
  5
78E
330
1E
100
AcDbEntity
  8
0
100
AcDbLine
 10
3.41525
 20
168.582388
 30
0.0
 11
4.56115
 21
168.048388
 31
0.0
  0
LINE
  5
78F
330
1E
100
AcDbEntity
  8
0
100
AcDbLine
 10
2.75375
 20
168.890388
 30
0.0
 11
3.079359002278
 21
169.588754403797
 31
0.0
  0
LINE
  5
790
330
1E
100
AcDbEntity
  8
0
100
AcDbLine
 10
2.75375
 20
168.890388
 30
0.0
 11
3.41525
 21
168.582388
 31
0.0
  0
LINE
  5
791
330
1E
100
AcDbEntity
  8
0
100
AcDbLine
 10
2.75375
 20
168.890388
 30
0.0
 11
3.89975
 21
168.356388
 31
0.0
  0
LINE
  5
792
330
1E
100
AcDbEntity
  8
0
100
AcDbLine
 10
2.75375
 20
168.890388
 30
0.0
 11
3.000170814616
 21
169.418911526439
 31
0.0
  0
LINE
  5
793
330
1E
100
AcDbEntity
  8
0
100
AcDbLine
 10
4.766084024554
 20
168.487740168117
 30
0.0
 11
8.330002985773
 21
166.608474957692
 31
0.0
  0
LINE
  5
794
330
1E
100
AcDbEntity
  8
0
100
AcDbLine
 10
9.40355
 20
165.237388
 30
0.0
 11
9.709091543808
 21
165.892868793898
 31
0.0
  0
LINE
  5
795
330
1E
100
AcDbEntity
  8
0
100
AcDbLine
 10
10.56295
 20
164.697388
 30
0.0
 11
11.22435
 21
164.388388
 31
0.0
  0
LINE
  5
796
330
1E
100
AcDbEntity
  8
0
100
AcDbLine
 10
11.22435
 20
164.388388
 30
0.0
 11
11.549013727934
 21
165.084726978759
 31
0.0
  0
LINE
  5
797
330
1E
100
AcDbEntity
  8
0
100
AcDbLine
 10
9.54255
 20
165.724388
 30
0.0
 11
9.863730471665
 21
166.412876128069
 31
0.0
  0
LINE
  5
798
330
1E
100
AcDbEntity
  8
0
100
AcDbLine
 10
9.54255
 20
165.724388
 30
0.0
 11
9.797856162115
 21
166.271666795401
 31
0.0
  0
LINE
  5
799
330
1E
100
AcDbEntity
  8
0
100
AcDbLine
 10
10.07945
 20
164.923388
 30
0.0
 11
10.432522206277
 21
165.680239813289
 31
0.0
  0
LINE
  5
79A
330
1E
100
AcDbEntity
  8
0
100
AcDbLine
 10
10.07945
 20
164.923388
 30
0.0
 11
11.22435
 21
164.388388
 31
0.0
  0
LINE
  5
79B
330
1E
100
AcDbEntity
  8
0
100
AcDbLine
 10
9.41805
 20
165.231388
 30
0.0
 11
9.773210900155
 21
165.993137333943
 31
0.0
  0
LINE
  5
79C
330
1E
100
AcDbEntity
  8
0
100
AcDbLine
 10
9.41805
 20
165.231388
 30
0.0
 11
10.07945
 21
164.923388
 31
0.0
  0
LINE
  5
79D
330
1E
100
AcDbEntity
  8
0
100
AcDbLine
 10
9.41805
 20
165.231388
 30
0.0
 11
10.56295
 21
164.697388
 31
0.0
  0
LINE
  5
79E
330
1E
100
AcDbEntity
  8
0
100
AcDbLine
 10
9.63416906811
 20
165.920784251527
 30
0.0
 11
9.718695702703
 21
165.876213102331
 31
0.0
  0
LINE
  5
79F
330
1E
100
AcDbEntity
  8
0
100
AcDbLine
 10
9.63416906811
 20
165.920784251527
 30
0.0
 11
9.718695702703
 21
165.876213102331
 31
0.0
  0
LINE
  5
7A0
330
1E
100
AcDbEntity
  8
0
100
AcDbLine
 10
13.120392375552
 20
164.091930224797
 30
0.0
 11
13.13475
 21
162.804388
 31
0.0
  0
LINE
  5
7A1
330
1E
100
AcDbEntity
  8
0
100
AcDbLine
 10
11.484028941042
 20
164.945347564781
 30
0.0
 11
13.120498288182
 21
164.082432345476
 31
0.0
  0
LINE
  5
7A2
330
1E
100
AcDbEntity
  8
0
100
AcDbLine
 10
11.484028941042
 20
164.945347564781
 30
0.0
 11
13.120498288182
 21
164.082432345476
 31
0.0
  0
LINE
  5
7A3
330
1E
100
AcDbEntity
  8
0
100
AcDbLine
 10
9.71275
 20
167.852388
 30
0.0
 11
15.66745
 21
165.075388
 31
0.0
  0
LINE
  5
7A4
330
1E
100
AcDbEntity
  8
0
100
AcDbLine
 10
8.91945
 20
168.222388
 30
0.0
 11
14.74125
 21
165.507388
 31
0.0
  0
LINE
  5
7A5
330
1E
100
AcDbEntity
  8
0
100
AcDbLine
 10
0.48075
 20
169.950388
 30
0.0
 11
0.867549999994
 21
169.770263415787
 31
0.0
  0
LINE
  5
7A6
330
1E
100
AcDbEntity
  8
0
100
AcDbLine
 10
0.48075
 20
169.950388
 30
0.0
 11
0.867549999994
 21
169.770263415787
 31
0.0
  0
LINE
  5
7A7
330
1E
100
AcDbEntity
  8
0
100
AcDbLine
 10
0.48075
 20
169.950388
 30
0.0
 11
0.975707141256
 21
169.719733393637
 31
0.0
  0
LINE
  5
7A8
330
1E
100
AcDbEntity
  8
0
100
AcDbLine
 10
1.321849999976
 20
169.558295234499
 30
0.0
 11
1.57225
 21
169.441388
 31
0.0
  0
LINE
  5
7A9
330
1E
100
AcDbEntity
  8
0
100
AcDbLine
 10
1.321849999977
 20
169.558295234499
 30
0.0
 11
1.57225
 21
169.441388
 31
0.0
  0
LINE
  5
7AA
330
1E
100
AcDbEntity
  8
0
100
AcDbLine
 10
1.57225
 20
169.441388
 30
0.0
 11
2.23365
 21
169.133388
 31
0.0
  0
LINE
  5
7AB
330
1E
100
AcDbEntity
  8
0
100
AcDbLine
 10
1.08775
 20
169.667388
 30
0.0
 11
1.299051594774
 21
170.120587800457
 31
0.0
  0
LINE
  5
7AC
330
1E
100
AcDbEntity
  8
0
100
AcDbLine
 10
1.08775
 20
169.667388
 30
0.0
 11
2.23365
 21
169.133388
 31
0.0
  0
LINE
  5
7AD
330
1E
100
AcDbEntity
  8
0
100
AcDbLine
 10
0.42635
 20
169.976388
 30
0.0
 11
0.746106599372
 21
170.661904987769
 31
0.0
  0
LINE
  5
7AE
330
1E
100
AcDbEntity
  8
0
100
AcDbLine
 10
0.42635
 20
169.976388
 30
0.0
 11
1.08775
 21
169.667388
 31
0.0
  0
LINE
  5
7AF
330
1E
100
AcDbEntity
  8
0
100
AcDbLine
 10
2.47015
 20
169.574388
 30
0.0
 11
2.759873063294
 21
170.19585973894
 31
0.0
  0
LINE
  5
7B0
330
1E
100
AcDbEntity
  8
0
100
AcDbLine
 10
1.14725
 20
170.191388
 30
0.0
 11
1.499987882819
 21
170.947940444754
 31
0.0
  0
LINE
  5
7B1
330
1E
100
AcDbEntity
  8
0
100
AcDbLine
 10
1.14725
 20
170.191388
 30
0.0
 11
2.47015
 21
169.574388
 31
0.0
  0
LINE
  5
7B2
330
1E
100
AcDbEntity
  8
0
100
AcDbLine
 10
1.14725
 20
170.191388
 30
0.0
 11
1.458314779489
 21
170.858559945124
 31
0.0
  0
LINE
  5
7B3
330
1E
100
AcDbEntity
  8
0
100
AcDbLine
 10
2.516552886728
 20
169.673924717509
 30
0.0
 11
3.000170814616
 21
169.418911526439
 31
0.0
  0
LINE
  5
7B4
330
1E
100
AcDbEntity
  8
0
100
AcDbLine
 10
-0.11385
 20
171.331388
 30
0.0
 11
0.294482576731
 21
172.20669691877
 31
0.0
  0
LINE
  5
7B5
330
1E
100
AcDbEntity
  8
0
100
AcDbLine
 10
-0.11385
 20
171.331388
 30
0.0
 11
1.21005
 21
170.714388
 31
0.0
  0
LINE
  5
7B6
330
1E
100
AcDbEntity
  8
0
100
AcDbLine
 10
1.21005
 20
170.714388
 30
0.0
 11
1.571246051296
 21
171.488745838321
 31
0.0
  0
LINE
  5
7B7
330
1E
100
AcDbEntity
  8
0
100
AcDbLine
 10
3.133120964574
 20
170.919897035617
 30
0.0
 11
3.598764061711
 21
170.702774719368
 31
0.0
  0
LINE
  5
7B8
330
1E
100
AcDbEntity
  8
0
100
AcDbLine
 10
0.05455
 20
172.355388
 30
0.0
 11
4.75125
 21
170.165388
 31
0.0
  0
LINE
  5
7B9
330
1E
100
AcDbEntity
  8
0
100
AcDbLine
 10
0.05455
 20
172.355388
 30
0.0
 11
0.30858814529
 21
172.236933864504
 31
0.0
  0
LINE
  5
7BA
330
1E
100
AcDbEntity
  8
0
100
AcDbLine
 10
0.05455
 20
172.355388
 30
0.0
 11
0.30858814529
 21
172.236933864504
 31
0.0
  0
LINE
  5
7BB
330
1E
100
AcDbEntity
  8
0
100
AcDbLine
 10
3.75925
 20
170.628388
 30
0.0
 11
8.91945
 21
168.222388
 31
0.0
  0
LINE
  5
7BC
330
1E
100
AcDbEntity
  8
0
100
AcDbLine
 10
5.383215380995
 20
169.871196281331
 30
0.0
 11
7.666864760033
 21
168.806419643611
 31
0.0
  0
LINE
  5
7BD
330
1E
100
AcDbEntity
  8
0
100
AcDbLine
 10
5.383215380995
 20
169.871196281331
 30
0.0
 11
7.666864760033
 21
168.806419643611
 31
0.0
  0
LINE
  5
7BE
330
1E
100
AcDbEntity
  8
0
100
AcDbLine
 10
3.92706138213
 20
170.550144097553
 30
0.0
 11
4.26045
 21
170.394388
 31
0.0
  0
LINE
  5
7BF
330
1E
100
AcDbEntity
  8
0
100
AcDbLine
 10
3.92706138213
 20
170.550144097553
 30
0.0
 11
4.26045
 21
170.394388
 31
0.0
  0
LINE
  5
7C0
330
1E
100
AcDbEntity
  8
0
100
AcDbLine
 10
4.26045
 20
170.394388
 30
0.0
 11
5.40635
 21
169.860388
 31
0.0
  0
LINE
  5
7C1
330
1E
100
AcDbEntity
  8
0
100
AcDbLine
 10
4.75125
 20
170.165388
 30
0.0
 11
9.71275
 21
167.852388
 31
0.0
  0
LINE
  5
7C2
330
1E
100
AcDbEntity
  8
0
100
AcDbLine
 10
3.85105
 20
171.689388
 30
0.0
 11
9.07735
 21
169.252388
 31
0.0
  0
LINE
  5
7C3
330
1E
100
AcDbEntity
  8
0
100
AcDbLine
 10
9.07735
 20
169.252388
 30
0.0
 11
14.70035
 21
166.629388
 31
0.0
  0
LINE
  5
7C4
330
1E
100
AcDbEntity
  8
0
100
AcDbLine
 10
17.780621875216
 20
165.193284547469
 30
0.0
 11
20.58805
 21
163.884388
 31
0.0
  0
LINE
  5
7C5
330
1E
100
AcDbEntity
  8
0
100
AcDbLine
 10
17.780621875217
 20
165.193284547468
 30
0.0
 11
20.58805
 21
163.884388
 31
0.0
  0
LINE
  5
7C6
330
1E
100
AcDbEntity
  8
0
100
AcDbLine
 10
15.66745
 20
165.075388
 30
0.0
 11
20.36415
 21
162.885388
 31
0.0
  0
LINE
  5
7C7
330
1E
100
AcDbEntity
  8
0
100
AcDbLine
 10
14.74125
 20
165.507388
 30
0.0
 11
20.23135
 21
162.947388
 31
0.0
  0
LINE
  5
7C8
330
1E
100
AcDbEntity
  8
0
100
AcDbLine
 10
14.74125
 20
165.507388
 30
0.0
 11
16.423159890353
 21
164.723123720788
 31
0.0
  0
LINE
  5
7C9
330
1E
100
AcDbEntity
  8
0
100
AcDbLine
 10
14.70035
 20
166.629388
 30
0.0
 11
20.58805
 21
163.884388
 31
0.0
  0
LINE
  5
7CA
330
1E
100
AcDbEntity
  8
0
100
AcDbLine
 10
14.70035
 20
166.629388
 30
0.0
 11
16.845575298077
 21
165.62922776031
 31
0.0
  0
LINE
  5
7CB
330
1E
100
AcDbEntity
  8
0
100
AcDbLine
 10
20.58805
 20
163.884388
 30
0.0
 11
26.40975
 21
161.170388
 31
0.0
  0
LINE
  5
7CC
330
1E
100
AcDbEntity
  8
0
100
AcDbLine
 10
30.346440563277
 20
154.778482367228
 30
0.0
 11
30.40015
 21
154.753388
 31
0.0
  0
LINE
  5
7CD
330
1E
100
AcDbEntity
  8
0
100
AcDbLine
 10
30.98257170133
 20
154.481621270318
 30
0.0
 11
31.24885
 21
154.357388
 31
0.0
  0
LINE
  5
7CE
330
1E
100
AcDbEntity
  8
0
100
AcDbLine
 10
31.012813417723
 20
154.467638632911
 30
0.0
 11
31.24885
 21
154.357388
 31
0.0
  0
LINE
  5
7CF
330
1E
100
AcDbEntity
  8
0
100
AcDbLine
 10
31.109141909718
 20
154.42309994476
 30
0.0
 11
31.24055
 21
154.361388
 31
0.0
  0
LINE
  5
7D0
330
1E
100
AcDbEntity
  8
0
100
AcDbLine
 10
31.55865
 20
154.213388
 30
0.0
 11
32.519167924951
 21
155.009997582376
 31
0.0
  0
LINE
  5
7D1
330
1E
100
AcDbEntity
  8
0
100
AcDbLine
 10
31.24885
 20
154.357388
 30
0.0
 11
31.48745
 21
154.246388
 31
0.0
  0
LINE
  5
7D2
330
1E
100
AcDbEntity
  8
0
100
AcDbLine
 10
31.24055
 20
154.361388
 30
0.0
 11
31.48005
 21
154.250388
 31
0.0
  0
LINE
  5
7D3
330
1E
100
AcDbEntity
  8
0
100
AcDbLine
 10
31.48005
 20
154.250388
 30
0.0
 11
31.55135
 21
154.216388
 31
0.0
  0
LINE
  5
7D4
330
1E
100
AcDbEntity
  8
0
100
AcDbLine
 10
31.45075
 20
154.264388
 30
0.0
 11
31.55135
 21
154.216388
 31
0.0
  0
LINE
  5
7D5
330
1E
100
AcDbEntity
  8
0
100
AcDbLine
 10
31.55135
 20
154.216388
 30
0.0
 11
32.512178294337
 21
155.013254988532
 31
0.0
  0
LINE
  5
7D6
330
1E
100
AcDbEntity
  8
0
100
AcDbLine
 10
31.24045
 20
154.362388
 30
0.0
 11
31.45075
 21
154.264388
 31
0.0
  0
LINE
  5
7D7
330
1E
100
AcDbEntity
  8
0
100
AcDbLine
 10
30.40015
 20
154.753388
 30
0.0
 11
30.473293976652
 21
154.719257112133
 31
0.0
  0
LINE
  5
7D8
330
1E
100
AcDbEntity
  8
0
100
AcDbLine
 10
30.88575
 20
154.526388
 30
0.0
 11
31.24045
 21
154.362388
 31
0.0
  0
LINE
  5
7D9
330
1E
100
AcDbEntity
  8
0
100
AcDbLine
 10
30.39175
 20
154.757388
 30
0.0
 11
30.88575
 21
154.526388
 31
0.0
  0
LINE
  5
7DA
330
1E
100
AcDbEntity
  8
0
100
AcDbLine
 10
29.81825
 20
155.024388
 30
0.0
 11
30.39175
 21
154.757388
 31
0.0
  0
LINE
  5
7DB
330
1E
100
AcDbEntity
  8
0
100
AcDbLine
 10
34.20065
 20
153.674388
 30
0.0
 11
34.572306243721
 21
154.471610870169
 31
0.0
  0
LINE
  5
7DC
330
1E
100
AcDbEntity
  8
0
100
AcDbLine
 10
33.89695
 20
154.368388
 30
0.0
 11
34.108090387154
 21
154.821242042246
 31
0.0
  0
LINE
  5
7DD
330
1E
100
AcDbEntity
  8
0
100
AcDbLine
 10
34.77075
 20
154.512388
 30
0.0
 11
34.982120069075
 21
154.965734664182
 31
0.0
  0
LINE
  5
7DE
330
1E
100
AcDbEntity
  8
0
100
AcDbLine
 10
33.44695
 20
155.129388
 30
0.0
 11
34.77075
 21
154.512388
 31
0.0
  0
LINE
  5
7DF
330
1E
100
AcDbEntity
  8
0
100
AcDbLine
 10
33.44695
 20
155.129388
 30
0.0
 11
33.716487254986
 21
155.707491683058
 31
0.0
  0
LINE
  5
7E0
330
1E
100
AcDbEntity
  8
0
100
AcDbLine
 10
35.12865
 20
154.897388
 30
0.0
 11
35.50120311763
 21
155.69609392658
 31
0.0
  0
LINE
  5
7E1
330
1E
100
AcDbEntity
  8
0
100
AcDbLine
 10
32.57325
 20
154.984388
 30
0.0
 11
33.089023437542
 21
154.744366516639
 31
0.0
  0
LINE
  5
7E2
330
1E
100
AcDbEntity
  8
0
100
AcDbLine
 10
32.57325
 20
154.984388
 30
0.0
 11
33.89695
 21
154.368388
 31
0.0
  0
LINE
  5
7E3
330
1E
100
AcDbEntity
  8
0
100
AcDbLine
 10
32.57325
 20
154.984388
 30
0.0
 11
32.968847502085
 21
155.833434224304
 31
0.0
  0
LINE
  5
7E4
330
1E
100
AcDbEntity
  8
0
100
AcDbLine
 10
32.57325
 20
154.984388
 30
0.0
 11
32.794076688362
 21
155.458334536547
 31
0.0
  0
LINE
  5
7E5
330
1E
100
AcDbEntity
  8
0
100
AcDbLine
 10
32.87785
 20
154.291388
 30
0.0
 11
34.20065
 21
153.674388
 31
0.0
  0
LINE
  5
7E6
330
1E
100
AcDbEntity
  8
0
100
AcDbLine
 10
32.87785
 20
154.291388
 30
0.0
 11
33.089023437542
 21
154.744366516639
 31
0.0
  0
LINE
  5
7E7
330
1E
100
AcDbEntity
  8
0
100
AcDbLine
 10
32.519167924951
 20
155.009997582376
 30
0.0
 11
32.573405225679
 21
154.984721151186
 31
0.0
  0
LINE
  5
7E8
330
1E
100
AcDbEntity
  8
0
100
AcDbLine
 10
35.19685
 20
153.761388
 30
0.0
 11
36.71845
 21
153.052388
 31
0.0
  0
LINE
  5
7E9
330
1E
100
AcDbEntity
  8
0
100
AcDbLine
 10
36.71845
 20
153.052388
 30
0.0
 11
38.895829325247
 21
152.16389863214
 31
0.0
  0
LINE
  5
7EA
330
1E
100
AcDbEntity
  8
0
100
AcDbLine
 10
32.15355
 20
155.180388
 30
0.0
 11
32.573405225679
 21
154.984721151186
 31
0.0
  0
LINE
  5
7EB
330
1E
100
AcDbEntity
  8
0
100
AcDbLine
 10
33.80585
 20
155.514388
 30
0.0
 11
35.12865
 21
154.897388
 31
0.0
  0
LINE
  5
7EC
330
1E
100
AcDbEntity
  8
0
100
AcDbLine
 10
33.80585
 20
155.514388
 30
0.0
 11
34.228460181389
 21
156.420409827588
 31
0.0
  0
LINE
  5
7ED
330
1E
100
AcDbEntity
  8
0
100
AcDbLine
 10
36.30685
 20
155.450388
 30
0.0
 11
42.26085
 21
152.675388
 31
0.0
  0
LINE
  5
7EE
330
1E
100
AcDbEntity
  8
0
100
AcDbLine
 10
37.23305
 20
155.019388
 30
0.0
 11
43.05465
 21
152.305388
 31
0.0
  0
LINE
  5
7EF
330
1E
100
AcDbEntity
  8
0
100
AcDbLine
 10
37.23305
 20
155.019388
 30
0.0
 11
42.837035319895
 21
152.406838845439
 31
0.0
  0
LINE
  5
7F0
330
1E
100
AcDbEntity
  8
0
100
AcDbLine
 10
31.61005
 20
157.640388
 30
0.0
 11
36.30685
 21
155.450388
 31
0.0
  0
LINE
  5
7F1
330
1E
100
AcDbEntity
  8
0
100
AcDbLine
 10
31.74295
 20
157.579388
 30
0.0
 11
37.23305
 21
155.019388
 31
0.0
  0
LINE
  5
7F2
330
1E
100
AcDbEntity
  8
0
100
AcDbLine
 10
40.45765
 20
150.757388
 30
0.0
 11
41.60365
 21
150.222388
 31
0.0
  0
LINE
  5
7F3
330
1E
100
AcDbEntity
  8
0
100
AcDbLine
 10
40.74115
 20
151.177388
 30
0.0
 11
42.06385
 21
150.560388
 31
0.0
  0
LINE
  5
7F4
330
1E
100
AcDbEntity
  8
0
100
AcDbLine
 10
40.74115
 20
151.177388
 30
0.0
 11
41.061785193401
 21
151.864707259957
 31
0.0
  0
LINE
  5
7F5
330
1E
100
AcDbEntity
  8
0
100
AcDbLine
 10
40.74115
 20
151.177388
 30
0.0
 11
40.995891775298
 21
151.723456965858
 31
0.0
  0
LINE
  5
7F6
330
1E
100
AcDbEntity
  8
0
100
AcDbLine
 10
39.29715
 20
151.297388
 30
0.0
 11
40.44315
 21
150.763388
 31
0.0
  0
LINE
  5
7F7
330
1E
100
AcDbEntity
  8
0
100
AcDbLine
 10
39.78165
 20
151.072388
 30
0.0
 11
40.44315
 21
150.763388
 31
0.0
  0
LINE
  5
7F8
330
1E
100
AcDbEntity
  8
0
100
AcDbLine
 10
38.63575
 20
151.606388
 30
0.0
 11
39.78165
 21
151.072388
 31
0.0
  0
LINE
  5
7F9
330
1E
100
AcDbEntity
  8
0
100
AcDbLine
 10
38.63575
 20
151.606388
 30
0.0
 11
38.960421015981
 21
152.302358520476
 31
0.0
  0
LINE
  5
7FA
330
1E
100
AcDbEntity
  8
0
100
AcDbLine
 10
38.63575
 20
151.606388
 30
0.0
 11
39.29715
 21
151.297388
 31
0.0
  0
LINE
  5
7FB
330
1E
100
AcDbEntity
  8
0
100
AcDbLine
 10
38.63575
 20
151.606388
 30
0.0
 11
38.895829325247
 21
152.16389863214
 31
0.0
  0
LINE
  5
7FC
330
1E
100
AcDbEntity
  8
0
100
AcDbLine
 10
38.11915
 20
155.709388
 30
0.0
 11
43.74185
 21
153.087388
 31
0.0
  0
LINE
  5
7FD
330
1E
100
AcDbEntity
  8
0
100
AcDbLine
 10
32.23145
 20
158.455388
 30
0.0
 11
38.11915
 21
155.709388
 31
0.0
  0
LINE
  5
7FE
330
1E
100
AcDbEntity
  8
0
100
AcDbLine
 10
47.52955
 20
148.010388
 30
0.0
 11
47.854963996383
 21
148.708803747088
 31
0.0
  0
LINE
  5
7FF
330
1E
100
AcDbEntity
  8
0
100
AcDbLine
 10
46.38365
 20
148.545388
 30
0.0
 11
47.52955
 21
148.010388
 31
0.0
  0
LINE
  5
800
330
1E
100
AcDbEntity
  8
0
100
AcDbLine
 10
42.26465
 20
149.914388
 30
0.0
 11
42.611877350804
 21
150.65920956532
 31
0.0
  0
LINE
  5
801
330
1E
100
AcDbEntity
  8
0
100
AcDbLine
 10
41.60365
 20
150.222388
 30
0.0
 11
42.26465
 21
149.914388
 31
0.0
  0
LINE
  5
802
330
1E
100
AcDbEntity
  8
0
100
AcDbLine
 10
41.60365
 20
150.222388
 30
0.0
 11
41.815194896002
 21
150.676378170989
 31
0.0
  0
LINE
  5
803
330
1E
100
AcDbEntity
  8
0
100
AcDbLine
 10
45.72215
 20
148.854388
 30
0.0
 11
46.86795
 21
148.319388
 31
0.0
  0
LINE
  5
804
330
1E
100
AcDbEntity
  8
0
100
AcDbLine
 10
45.72215
 20
148.854388
 30
0.0
 11
46.007110820573
 21
149.465572156748
 31
0.0
  0
LINE
  5
805
330
1E
100
AcDbEntity
  8
0
100
AcDbLine
 10
45.72215
 20
148.854388
 30
0.0
 11
46.38365
 21
148.545388
 31
0.0
  0
LINE
  5
806
330
1E
100
AcDbEntity
  8
0
100
AcDbLine
 10
45.72215
 20
148.854388
 30
0.0
 11
45.927410359768
 21
149.294630555613
 31
0.0
  0
LINE
  5
807
330
1E
100
AcDbEntity
  8
0
100
AcDbLine
 10
46.86795
 20
148.319388
 30
0.0
 11
47.52955
 21
148.010388
 31
0.0
  0
LINE
  5
808
330
1E
100
AcDbEntity
  8
0
100
AcDbLine
 10
46.86795
 20
148.319388
 30
0.0
 11
47.181825171543
 21
148.992667325612
 31
0.0
  0
LINE
  5
809
330
1E
100
AcDbEntity
  8
0
100
AcDbLine
 10
47.99515
 20
147.794388
 30
0.0
 11
48.050191025285
 21
147.768690340058
 31
0.0
  0
LINE
  5
80A
330
1E
100
AcDbEntity
  8
0
100
AcDbLine
 10
47.99515
 20
147.794388
 30
0.0
 11
48.252284410723
 21
148.345955305537
 31
0.0
  0
LINE
  5
80B
330
1E
100
AcDbEntity
  8
0
100
AcDbLine
 10
48.05005
 20
147.768388
 30
0.0
 11
49.19575
 21
147.234388
 31
0.0
  0
LINE
  5
80C
330
1E
100
AcDbEntity
  8
0
100
AcDbLine
 10
48.05005
 20
147.768388
 30
0.0
 11
48.261445547751
 21
148.221592842078
 31
0.0
  0
LINE
  5
80D
330
1E
100
AcDbEntity
  8
0
100
AcDbLine
 10
48.05005
 20
147.768388
 30
0.0
 11
48.71155
 21
147.459388
 31
0.0
  0
LINE
  5
80E
330
1E
100
AcDbEntity
  8
0
100
AcDbLine
 10
47.77638250825
 20
148.540149204408
 30
0.0
 11
48.282845272083
 21
148.333484809434
 31
0.0
  0
LINE
  5
80F
330
1E
100
AcDbEntity
  8
0
100
AcDbLine
 10
47.77638250825
 20
148.540149204408
 30
0.0
 11
48.282845272083
 21
148.333484809434
 31
0.0
  0
LINE
  5
810
330
1E
100
AcDbEntity
  8
0
100
AcDbLine
 10
42.06385
 20
150.560388
 30
0.0
 11
42.275259937821
 21
151.013623692537
 31
0.0
  0
LINE
  5
811
330
1E
100
AcDbEntity
  8
0
100
AcDbLine
 10
43.52605
 20
150.430388
 30
0.0
 11
43.737179730142
 21
150.883022963343
 31
0.0
  0
LINE
  5
812
330
1E
100
AcDbEntity
  8
0
100
AcDbLine
 10
42.20285
 20
151.047388
 30
0.0
 11
43.52605
 21
150.430388
 31
0.0
  0
LINE
  5
813
330
1E
100
AcDbEntity
  8
0
100
AcDbLine
 10
42.20285
 20
151.047388
 30
0.0
 11
42.484825653505
 21
151.651835987876
 31
0.0
  0
LINE
  5
814
330
1E
100
AcDbEntity
  8
0
100
AcDbLine
 10
43.88435
 20
150.814388
 30
0.0
 11
44.307078670733
 21
151.721164005726
 31
0.0
  0
LINE
  5
815
330
1E
100
AcDbEntity
  8
0
100
AcDbLine
 10
43.88435
 20
150.814388
 30
0.0
 11
44.179956997984
 21
151.448481099082
 31
0.0
  0
LINE
  5
816
330
1E
100
AcDbEntity
  8
0
100
AcDbLine
 10
42.56135
 20
151.431388
 30
0.0
 11
43.88435
 21
150.814388
 31
0.0
  0
LINE
  5
817
330
1E
100
AcDbEntity
  8
0
100
AcDbLine
 10
42.56135
 20
151.431388
 30
0.0
 11
42.984126151944
 21
152.338265855508
 31
0.0
  0
LINE
  5
818
330
1E
100
AcDbEntity
  8
0
100
AcDbLine
 10
42.337872716987
 20
150.759357438139
 30
0.0
 11
45.927410359768
 21
149.294630555613
 31
0.0
  0
LINE
  5
819
330
1E
100
AcDbEntity
  8
0
100
AcDbLine
 10
44.307078670733
 20
151.721164005726
 30
0.0
 11
46.567210311792
 21
150.666873916573
 31
0.0
  0
LINE
  5
81A
330
1E
100
AcDbEntity
  8
0
100
AcDbLine
 10
47.22245
 20
150.360388
 30
0.0
 11
51.91935
 21
148.170388
 31
0.0
  0
LINE
  5
81B
330
1E
100
AcDbEntity
  8
0
100
AcDbLine
 10
48.23615
 20
148.233388
 30
0.0
 11
49.55935
 21
147.616388
 31
0.0
  0
LINE
  5
81C
330
1E
100
AcDbEntity
  8
0
100
AcDbLine
 10
48.23615
 20
148.233388
 30
0.0
 11
48.525956416471
 21
148.854622149587
 31
0.0
  0
LINE
  5
81D
330
1E
100
AcDbEntity
  8
0
100
AcDbLine
 10
48.23615
 20
148.233388
 30
0.0
 11
48.502815766011
 21
148.805017442816
 31
0.0
  0
LINE
  5
81E
330
1E
100
AcDbEntity
  8
0
100
AcDbLine
 10
48.71155
 20
147.459388
 30
0.0
 11
49.85735
 21
146.925388
 31
0.0
  0
LINE
  5
81F
330
1E
100
AcDbEntity
  8
0
100
AcDbLine
 10
48.37426114297
 20
149.823338796673
 30
0.0
 11
48.839825316403
 21
149.606262525129
 31
0.0
  0
LINE
  5
820
330
1E
100
AcDbEntity
  8
0
100
AcDbLine
 10
48.374495990744
 20
149.823842835791
 30
0.0
 11
48.84004401355
 21
149.606731642412
 31
0.0
  0
LINE
  5
821
330
1E
100
AcDbEntity
  8
0
100
AcDbLine
 10
48.21465
 20
149.898388
 30
0.0
 11
53.11005
 21
147.615388
 31
0.0
  0
LINE
  5
822
330
1E
100
AcDbEntity
  8
0
100
AcDbLine
 10
42.26085
 20
152.675388
 30
0.0
 11
47.22245
 21
150.360388
 31
0.0
  0
LINE
  5
823
330
1E
100
AcDbEntity
  8
0
100
AcDbLine
 10
43.05465
 20
152.305388
 30
0.0
 11
48.21465
 21
149.898388
 31
0.0
  0
LINE
  5
824
330
1E
100
AcDbEntity
  8
0
100
AcDbLine
 10
49.85735
 20
146.925388
 30
0.0
 11
50.177831350213
 21
147.612837938401
 31
0.0
  0
LINE
  5
825
330
1E
100
AcDbEntity
  8
0
100
AcDbLine
 10
49.55935
 20
147.616388
 30
0.0
 11
49.912237972878
 21
148.372934387665
 31
0.0
  0
LINE
  5
826
330
1E
100
AcDbEntity
  8
0
100
AcDbLine
 10
49.91915
 20
147.999388
 30
0.0
 11
51.24225
 21
147.382388
 31
0.0
  0
LINE
  5
827
330
1E
100
AcDbEntity
  8
0
100
AcDbLine
 10
49.91915
 20
147.999388
 30
0.0
 11
50.280754202371
 21
148.775048694391
 31
0.0
  0
LINE
  5
828
330
1E
100
AcDbEntity
  8
0
100
AcDbLine
 10
49.91915
 20
147.999388
 30
0.0
 11
50.254256730766
 21
148.718210175674
 31
0.0
  0
LINE
  5
829
330
1E
100
AcDbEntity
  8
0
100
AcDbLine
 10
49.19575
 20
147.234388
 30
0.0
 11
49.85735
 21
146.925388
 31
0.0
  0
LINE
  5
82A
330
1E
100
AcDbEntity
  8
0
100
AcDbLine
 10
49.19575
 20
147.234388
 30
0.0
 11
49.407056340896
 21
147.687401594065
 31
0.0
  0
LINE
  5
82B
330
1E
100
AcDbEntity
  8
0
100
AcDbLine
 10
51.24225
 20
147.382388
 30
0.0
 11
51.650796771058
 21
148.258743059072
 31
0.0
  0
LINE
  5
82C
330
1E
100
AcDbEntity
  8
0
100
AcDbLine
 10
50.157224837908
 20
147.568635847996
 30
0.0
 11
52.959335603721
 21
146.425222022888
 31
0.0
  0
LINE
  5
82D
330
1E
100
AcDbEntity
  8
0
100
AcDbLine
 10
50.157224837908
 20
147.568635847996
 30
0.0
 11
52.959335603721
 21
146.425222022888
 31
0.0
  0
LINE
  5
82E
330
1E
100
AcDbEntity
  8
0
100
AcDbLine
 10
50.193287766773
 20
148.975468967101
 30
0.0
 11
50.341928558194
 21
148.906271017044
 31
0.0
  0
LINE
  5
82F
330
1E
100
AcDbEntity
  8
0
100
AcDbLine
 10
51.664912971326
 20
148.289023076922
 30
0.0
 11
51.91935
 21
148.170388
 31
0.0
  0
LINE
  5
830
330
1E
100
AcDbEntity
  8
0
100
AcDbLine
 10
51.665033019275
 20
148.289280586305
 30
0.0
 11
53.11005
 21
147.615388
 31
0.0
  0
LINE
  5
831
330
1E
100
AcDbEntity
  8
0
100
AcDbLine
 10
51.91935
 20
148.170388
 30
0.0
 11
53.866041101849
 21
147.262832079254
 31
0.0
  0
LINE
  5
832
330
1E
100
AcDbEntity
  8
0
100
AcDbLine
 10
48.96815
 20
150.650388
 30
0.0
 11
53.92975
 21
148.336388
 31
0.0
  0
LINE
  5
833
330
1E
100
AcDbEntity
  8
0
100
AcDbLine
 10
43.74185
 20
153.087388
 30
0.0
 11
48.96815
 21
150.650388
 31
0.0
  0
LINE
  5
834
330
1E
100
AcDbEntity
  8
0
100
AcDbLine
 10
52.80835
 20
146.101388
 30
0.0
 11
53.95415
 21
145.567388
 31
0.0
  0
LINE
  5
835
330
1E
100
AcDbEntity
  8
0
100
AcDbLine
 10
52.80835
 20
146.101388
 30
0.0
 11
53.073246927568
 21
146.669539105739
 31
0.0
  0
LINE
  5
836
330
1E
100
AcDbEntity
  8
0
100
AcDbLine
 10
52.80835
 20
146.101388
 30
0.0
 11
53.820836946205
 21
145.62951853825
 31
0.0
  0
LINE
  5
837
330
1E
100
AcDbEntity
  8
0
100
AcDbLine
 10
52.80835
 20
146.101388
 30
0.0
 11
52.959335603721
 21
146.425222022888
 31
0.0
  0
LINE
  5
838
330
1E
100
AcDbEntity
  8
0
100
AcDbLine
 10
52.80835
 20
146.101388
 30
0.0
 11
53.820836946205
 21
145.62951853825
 31
0.0
  0
LINE
  5
839
330
1E
100
AcDbEntity
  8
0
100
AcDbLine
 10
60.854672605326
 20
142.901001026838
 30
0.0
 11
61.70195
 21
142.505388
 31
0.0
  0
LINE
  5
83A
330
1E
100
AcDbEntity
  8
0
100
AcDbLine
 10
60.854672605326
 20
142.901001026838
 30
0.0
 11
61.70195
 21
142.505388
 31
0.0
  0
LINE
  5
83B
330
1E
100
AcDbEntity
  8
0
100
AcDbLine
 10
56.81335
 20
144.233388
 30
0.0
 11
57.06125477865
 21
144.117961436396
 31
0.0
  0
LINE
  5
83C
330
1E
100
AcDbEntity
  8
0
100
AcDbLine
 10
56.81335
 20
144.233388
 30
0.0
 11
57.06125477865
 21
144.117961436396
 31
0.0
  0
LINE
  5
83D
330
1E
100
AcDbEntity
  8
0
100
AcDbLine
 10
56.63815
 20
144.315388
 30
0.0
 11
56.787850000006
 21
144.245620326756
 31
0.0
  0
LINE
  5
83E
330
1E
100
AcDbEntity
  8
0
100
AcDbLine
 10
56.63815
 20
144.315388
 30
0.0
 11
56.787850000006
 21
144.245620326756
 31
0.0
  0
LINE
  5
83F
330
1E
100
AcDbEntity
  8
0
100
AcDbLine
 10
58.66015
 20
143.372388
 30
0.0
 11
58.979387713733
 21
144.057089259906
 31
0.0
  0
LINE
  5
840
330
1E
100
AcDbEntity
  8
0
100
AcDbLine
 10
57.99855
 20
143.681388
 30
0.0
 11
58.66015
 21
143.372388
 31
0.0
  0
LINE
  5
841
330
1E
100
AcDbEntity
  8
0
100
AcDbLine
 10
57.51435
 20
143.906388
 30
0.0
 11
58.66015
 21
143.372388
 31
0.0
  0
LINE
  5
842
330
1E
100
AcDbEntity
  8
0
100
AcDbLine
 10
57.165049999991
 20
144.069553079369
 30
0.0
 11
57.51435
 21
143.906388
 31
0.0
  0
LINE
  5
843
330
1E
100
AcDbEntity
  8
0
100
AcDbLine
 10
57.783958828742
 20
143.781406927687
 30
0.0
 11
57.99855
 21
143.681388
 31
0.0
  0
LINE
  5
844
330
1E
100
AcDbEntity
  8
0
100
AcDbLine
 10
57.12245
 20
144.089388
 30
0.0
 11
57.78395
 21
143.781388
 31
0.0
  0
LINE
  5
845
330
1E
100
AcDbEntity
  8
0
100
AcDbLine
 10
59.89455
 20
143.348388
 30
0.0
 11
61.04055
 21
142.814388
 31
0.0
  0
LINE
  5
846
330
1E
100
AcDbEntity
  8
0
100
AcDbLine
 10
59.89455
 20
143.348388
 30
0.0
 11
60.232165253302
 21
144.072505418948
 31
0.0
  0
LINE
  5
847
330
1E
100
AcDbEntity
  8
0
100
AcDbLine
 10
59.89455
 20
143.348388
 30
0.0
 11
60.036923593837
 21
143.653750978382
 31
0.0
  0
LINE
  5
848
330
1E
100
AcDbEntity
  8
0
100
AcDbLine
 10
61.04055
 20
142.814388
 30
0.0
 11
61.70195
 21
142.505388
 31
0.0
  0
LINE
  5
849
330
1E
100
AcDbEntity
  8
0
100
AcDbLine
 10
58.073675763746
 20
144.402522741963
 30
0.0
 11
60.036923593837
 21
143.653750978382
 31
0.0
  0
LINE
  5
84A
330
1E
100
AcDbEntity
  8
0
100
AcDbLine
 10
61.419033506517
 20
142.637488125688
 30
0.0
 11
64.72295
 21
137.778388
 31
0.0
  0
LINE
  5
84B
330
1E
100
AcDbEntity
  8
0
100
AcDbLine
 10
61.70195
 20
142.505388
 30
0.0
 11
62.092101594427
 21
143.342185398198
 31
0.0
  0
LINE
  5
84C
330
1E
100
AcDbEntity
  8
0
100
AcDbLine
 10
61.37925
 20
143.759388
 30
0.0
 11
64.68705
 21
142.217388
 31
0.0
  0
LINE
  5
84D
330
1E
100
AcDbEntity
  8
0
100
AcDbLine
 10
54.61575
 20
145.258388
 30
0.0
 11
54.950704219225
 21
145.976883030118
 31
0.0
  0
LINE
  5
84E
330
1E
100
AcDbEntity
  8
0
100
AcDbLine
 10
57.34905
 20
144.535388
 30
0.0
 11
57.771724081655
 21
145.441439621861
 31
0.0
  0
LINE
  5
84F
330
1E
100
AcDbEntity
  8
0
100
AcDbLine
 10
56.32905
 20
144.459388
 30
0.0
 11
56.462363053828
 21
144.397257461735
 31
0.0
  0
LINE
  5
850
330
1E
100
AcDbEntity
  8
0
100
AcDbLine
 10
56.02595
 20
145.152388
 30
0.0
 11
57.34905
 21
144.535388
 31
0.0
  0
LINE
  5
851
330
1E
100
AcDbEntity
  8
0
100
AcDbLine
 10
56.02595
 20
145.152388
 30
0.0
 11
56.448585576974
 21
146.058464272453
 31
0.0
  0
LINE
  5
852
330
1E
100
AcDbEntity
  8
0
100
AcDbLine
 10
56.02595
 20
145.152388
 30
0.0
 11
56.336392978708
 21
145.817937783978
 31
0.0
  0
LINE
  5
853
330
1E
100
AcDbEntity
  8
0
100
AcDbLine
 10
55.66745
 20
144.768388
 30
0.0
 11
56.81335
 21
144.233388
 31
0.0
  0
LINE
  5
854
330
1E
100
AcDbEntity
  8
0
100
AcDbLine
 10
55.66745
 20
144.768388
 30
0.0
 11
55.885881423329
 21
145.236935291169
 31
0.0
  0
LINE
  5
855
330
1E
100
AcDbEntity
  8
0
100
AcDbLine
 10
55.66745
 20
144.768388
 30
0.0
 11
56.32905
 21
144.459388
 31
0.0
  0
LINE
  5
856
330
1E
100
AcDbEntity
  8
0
100
AcDbLine
 10
55.97665
 20
144.624388
 30
0.0
 11
57.12245
 21
144.089388
 31
0.0
  0
LINE
  5
857
330
1E
100
AcDbEntity
  8
0
100
AcDbLine
 10
55.97665
 20
144.624388
 30
0.0
 11
56.63815
 21
144.315388
 31
0.0
  0
LINE
  5
858
330
1E
100
AcDbEntity
  8
0
100
AcDbLine
 10
55.66445
 20
145.321388
 30
0.0
 11
56.03827579922
 21
145.178812926866
 31
0.0
  0
LINE
  5
859
330
1E
100
AcDbEntity
  8
0
100
AcDbLine
 10
53.820836946205
 20
145.62951853825
 30
0.0
 11
54.61575
 21
145.258388
 31
0.0
  0
LINE
  5
85A
330
1E
100
AcDbEntity
  8
0
100
AcDbLine
 10
53.820836946205
 20
145.62951853825
 30
0.0
 11
54.61575
 21
145.258388
 31
0.0
  0
LINE
  5
85B
330
1E
100
AcDbEntity
  8
0
100
AcDbLine
 10
53.95415
 20
145.567388
 30
0.0
 11
54.61575
 21
145.258388
 31
0.0
  0
LINE
  5
85C
330
1E
100
AcDbEntity
  8
0
100
AcDbLine
 10
54.808035853599
 20
145.670851621125
 30
0.0
 11
55.66445
 21
145.321388
 31
0.0
  0
LINE
  5
85D
330
1E
100
AcDbEntity
  8
0
100
AcDbLine
 10
57.54235
 20
145.548388
 30
0.0
 11
61.37925
 21
143.759388
 31
0.0
  0
LINE
  5
85E
330
1E
100
AcDbEntity
  8
0
100
AcDbLine
 10
58.42815
 20
146.238388
 30
0.0
 11
62.33115
 21
144.419388
 31
0.0
  0
LINE
  5
85F
330
1E
100
AcDbEntity
  8
0
100
AcDbLine
 10
62.33115
 20
144.419388
 30
0.0
 11
65.63885
 21
142.876388
 31
0.0
  0
LINE
  5
860
330
1E
100
AcDbEntity
  8
0
100
AcDbLine
 10
53.11005
 20
147.615388
 30
0.0
 11
57.54235
 21
145.548388
 31
0.0
  0
LINE
  5
861
330
1E
100
AcDbEntity
  8
0
100
AcDbLine
 10
53.11005
 20
147.615388
 30
0.0
 11
53.442054539288
 21
147.460557915685
 31
0.0
  0
LINE
  5
862
330
1E
100
AcDbEntity
  8
0
100
AcDbLine
 10
53.92975
 20
148.336388
 30
0.0
 11
58.42815
 21
146.238388
 31
0.0
  0
LINE
  5
863
330
1E
100
AcDbEntity
  8
0
100
AcDbLine
 10
68.93425
 20
135.787388
 30
0.0
 11
69.17565
 21
136.778388
 31
0.0
  0
LINE
  5
864
330
1E
100
AcDbEntity
  8
0
100
AcDbLine
 10
68.37265
 20
135.056388
 30
0.0
 11
68.93425
 21
135.787388
 31
0.0
  0
LINE
  5
865
330
1E
100
AcDbEntity
  8
0
100
AcDbLine
 10
67.70815
 20
134.814388
 30
0.0
 11
68.37265
 21
135.056388
 31
0.0
  0
LINE
  5
866
330
1E
100
AcDbEntity
  8
0
100
AcDbLine
 10
66.75955
 20
135.146388
 30
0.0
 11
67.70815
 21
134.814388
 31
0.0
  0
LINE
  5
867
330
1E
100
AcDbEntity
  8
0
100
AcDbLine
 10
66.07075
 20
135.798388
 30
0.0
 11
66.75955
 21
135.146388
 31
0.0
  0
LINE
  5
868
330
1E
100
AcDbEntity
  8
0
100
AcDbLine
 10
64.72295
 20
137.778388
 30
0.0
 11
66.07075
 21
135.798388
 31
0.0
  0
LINE
  5
869
330
1E
100
AcDbEntity
  8
0
100
AcDbLine
 10
68.911273190457
 20
140.247504486516
 30
0.0
 11
69.17565
 21
136.778388
 31
0.0
  0
LINE
  5
86A
330
1E
100
AcDbEntity
  8
0
100
AcDbLine
 10
66.83865
 20
140.110388
 30
0.0
 11
67.227476312405
 21
140.944441601977
 31
0.0
  0
LINE
  5
86B
330
1E
100
AcDbEntity
  8
0
100
AcDbLine
 10
69.05315
 20
140.181388
 30
0.0
 11
70.17775
 21
139.657388
 31
0.0
  0
LINE
  5
86C
330
1E
100
AcDbEntity
  8
0
100
AcDbLine
 10
70.17775
 20
139.657388
 30
0.0
 11
70.64085
 21
139.441388
 31
0.0
  0
LINE
  5
86D
330
1E
100
AcDbEntity
  8
0
100
AcDbLine
 10
70.64085
 20
139.441388
 30
0.0
 11
71.72505
 21
140.038388
 31
0.0
  0
LINE
  5
86E
330
1E
100
AcDbEntity
  8
0
100
AcDbLine
 10
65.07120642782
 20
140.934723546188
 30
0.0
 11
65.69275
 21
140.644388
 31
0.0
  0
LINE
  5
86F
330
1E
100
AcDbEntity
  8
0
100
AcDbLine
 10
65.69275
 20
140.644388
 30
0.0
 11
66.83865
 21
140.110388
 31
0.0
  0
LINE
  5
870
330
1E
100
AcDbEntity
  8
0
100
AcDbLine
 10
66.17715
 20
140.419388
 30
0.0
 11
66.83865
 21
140.110388
 31
0.0
  0
LINE
  5
871
330
1E
100
AcDbEntity
  8
0
100
AcDbLine
 10
64.259849999981
 20
141.31315567325
 30
0.0
 11
65.07105
 21
140.934388
 31
0.0
  0
LINE
  5
872
330
1E
100
AcDbEntity
  8
0
100
AcDbLine
 10
64.259849999981
 20
141.31315567325
 30
0.0
 11
65.07105
 21
140.934388
 31
0.0
  0
LINE
  5
873
330
1E
100
AcDbEntity
  8
0
100
AcDbLine
 10
64.40955
 20
141.243388
 30
0.0
 11
65.07105
 21
140.934388
 31
0.0
  0
LINE
  5
874
330
1E
100
AcDbEntity
  8
0
100
AcDbLine
 10
67.13475
 20
141.075388
 30
0.0
 11
69.05315
 21
140.181388
 31
0.0
  0
LINE
  5
875
330
1E
100
AcDbEntity
  8
0
100
AcDbLine
 10
63.26375
 20
141.777388
 30
0.0
 11
64.40955
 21
141.243388
 31
0.0
  0
LINE
  5
876
330
1E
100
AcDbEntity
  8
0
100
AcDbLine
 10
63.26375
 20
141.777388
 30
0.0
 11
63.625517112133
 21
142.553398144696
 31
0.0
  0
LINE
  5
877
330
1E
100
AcDbEntity
  8
0
100
AcDbLine
 10
65.34855
 20
141.908388
 30
0.0
 11
67.13475
 21
141.075388
 31
0.0
  0
LINE
  5
878
330
1E
100
AcDbEntity
  8
0
100
AcDbLine
 10
63.51148382344
 20
142.765402705924
 30
0.0
 11
65.34855
 21
141.908388
 31
0.0
  0
LINE
  5
879
330
1E
100
AcDbEntity
  8
0
100
AcDbLine
 10
63.511483823441
 20
142.765402705924
 30
0.0
 11
65.34855
 21
141.908388
 31
0.0
  0
LINE
  5
87A
330
1E
100
AcDbEntity
  8
0
100
AcDbLine
 10
67.68364294193
 20
141.92294384917
 30
0.0
 11
68.21885
 21
141.673388
 31
0.0
  0
LINE
  5
87B
330
1E
100
AcDbEntity
  8
0
100
AcDbLine
 10
65.63885
 20
142.876388
 30
0.0
 11
68.21885
 21
141.673388
 31
0.0
  0
LINE
  5
87C
330
1E
100
AcDbEntity
  8
0
100
AcDbLine
 10
68.21885
 20
141.673388
 30
0.0
 11
70.07115
 21
140.810388
 31
0.0
  0
LINE
  5
87D
330
1E
100
AcDbEntity
  8
0
100
AcDbLine
 10
70.07115
 20
140.810388
 30
0.0
 11
71.26195
 21
140.254388
 31
0.0
  0
LINE
  5
87E
330
1E
100
AcDbEntity
  8
0
100
AcDbLine
 10
71.26195
 20
140.254388
 30
0.0
 11
71.72505
 21
140.038388
 31
0.0
  0
LINE
  5
87F
330
1E
100
AcDbEntity
  8
0
100
AcDbLine
 10
71.931809564881
 20
140.481796991366
 30
0.0
 11
85.33535
 21
124.343388
 31
0.0
  0
LINE
  5
880
330
1E
100
AcDbEntity
  8
0
100
AcDbLine
 10
79.962310048768
 20
157.786292245797
 30
0.0
 11
93.183658615507
 21
141.90661786486
 31
0.0
  0
LINE
  5
881
330
1E
100
AcDbEntity
  8
0
100
AcDbLine
 10
79.986992418702
 20
157.756647161144
 30
0.0
 11
80.60005
 21
159.071388
 31
0.0
  0
LINE
  5
882
330
1E
100
AcDbEntity
  8
0
100
AcDbLine
 10
71.72505
 20
140.038388
 30
0.0
 11
71.935094603247
 21
140.48884196435
 31
0.0
  0
LINE
  5
883
330
1E
100
AcDbEntity
  8
0
100
AcDbLine
 10
83.79725
 20
120.901388
 30
0.0
 11
83.99445
 21
121.342388
 31
0.0
  0
LINE
  5
884
330
1E
100
AcDbEntity
  8
0
100
AcDbLine
 10
83.79725
 20
120.901388
 30
0.0
 11
140.58085
 21
53.239288
 31
0.0
  0
LINE
  5
885
330
1E
100
AcDbEntity
  8
0
100
AcDbLine
 10
83.99445
 20
121.342388
 30
0.0
 11
84.54655
 21
122.578388
 31
0.0
  0
LINE
  5
886
330
1E
100
AcDbEntity
  8
0
100
AcDbLine
 10
84.54655
 20
122.578388
 30
0.0
 11
85.785658904114
 21
125.350803525124
 31
0.0
  0
LINE
  5
887
330
1E
100
AcDbEntity
  8
0
100
AcDbLine
 10
93.183658615507
 20
141.90661786486
 30
0.0
 11
93.97285
 21
143.671388
 31
0.0
  0
LINE
  5
888
330
1E
100
AcDbEntity
  8
0
100
AcDbLine
 10
93.183658615507
 20
141.90661786486
 30
0.0
 11
93.97285
 21
143.671388
 31
0.0
  0
LINE
  5
889
330
1E
100
AcDbEntity
  8
0
100
AcDbLine
 10
93.97285
 20
143.671388
 30
0.0
 11
94.48485
 21
144.819388
 31
0.0
  0
LINE
  5
88A
330
1E
100
AcDbEntity
  8
0
100
AcDbLine
 10
94.48485
 20
144.819388
 30
0.0
 11
94.68185
 21
145.260388
 31
0.0
  0
LINE
  5
88B
330
1E
100
AcDbEntity
  8
0
100
AcDbLine
 10
80.36105
 20
160.285388
 30
0.0
 11
80.60005
 21
159.071388
 31
0.0
  0
LINE
  5
88C
330
1E
100
AcDbEntity
  8
0
100
AcDbLine
 10
67.26265
 20
166.393388
 30
0.0
 11
71.09945
 21
164.605388
 31
0.0
  0
LINE
  5
88D
330
1E
100
AcDbEntity
  8
0
100
AcDbLine
 10
71.09945
 20
164.605388
 30
0.0
 11
74.40725
 21
163.062388
 31
0.0
  0
LINE
  5
88E
330
1E
100
AcDbEntity
  8
0
100
AcDbLine
 10
74.40725
 20
163.062388
 30
0.0
 11
76.85495
 21
161.920388
 31
0.0
  0
LINE
  5
88F
330
1E
100
AcDbEntity
  8
0
100
AcDbLine
 10
76.85495
 20
161.920388
 30
0.0
 11
78.77345
 21
161.026388
 31
0.0
  0
LINE
  5
890
330
1E
100
AcDbEntity
  8
0
100
AcDbLine
 10
78.77345
 20
161.026388
 30
0.0
 11
79.89795
 21
160.502388
 31
0.0
  0
LINE
  5
891
330
1E
100
AcDbEntity
  8
0
100
AcDbLine
 10
79.89795
 20
160.502388
 30
0.0
 11
80.36105
 21
160.285388
 31
0.0
  0
LINE
  5
892
330
1E
100
AcDbEntity
  8
0
100
AcDbLine
 10
62.83025
 20
168.461388
 30
0.0
 11
67.26265
 21
166.393388
 31
0.0
  0
LINE
  5
893
330
1E
100
AcDbEntity
  8
0
100
AcDbLine
 10
57.93495
 20
170.743388
 30
0.0
 11
62.83025
 21
168.461388
 31
0.0
  0
LINE
  5
894
330
1E
100
AcDbEntity
  8
0
100
AcDbLine
 10
52.77495
 20
173.149388
 30
0.0
 11
57.93495
 21
170.743388
 31
0.0
  0
LINE
  5
895
330
1E
100
AcDbEntity
  8
0
100
AcDbLine
 10
46.95335
 20
175.864388
 30
0.0
 11
52.77495
 21
173.149388
 31
0.0
  0
LINE
  5
896
330
1E
100
AcDbEntity
  8
0
100
AcDbLine
 10
41.46265
 20
178.424388
 30
0.0
 11
46.95335
 21
175.864388
 31
0.0
  0
LINE
  5
897
330
1E
100
AcDbEntity
  8
0
100
AcDbLine
 10
36.55265
 20
182.920388
 30
0.0
 11
80.36105
 21
160.285388
 31
0.0
  0
LINE
  5
898
330
1E
100
AcDbEntity
  8
0
100
AcDbLine
 10
35.70735
 20
181.108388
 30
0.0
 11
41.46265
 21
178.424388
 31
0.0
  0
LINE
  5
899
330
1E
100
AcDbEntity
  8
0
100
AcDbLine
 10
4.15185
 20
195.823388
 30
0.0
 11
8.58375
 21
193.756388
 31
0.0
  0
LINE
  5
89A
330
1E
100
AcDbEntity
  8
0
100
AcDbLine
 10
8.58375
 20
193.756388
 30
0.0
 11
13.47935
 21
191.473388
 31
0.0
  0
LINE
  5
89B
330
1E
100
AcDbEntity
  8
0
100
AcDbLine
 10
13.47935
 20
191.473388
 30
0.0
 11
18.63975
 21
189.067388
 31
0.0
  0
LINE
  5
89C
330
1E
100
AcDbEntity
  8
0
100
AcDbLine
 10
18.63975
 20
189.067388
 30
0.0
 11
24.46145
 21
186.353388
 31
0.0
  0
LINE
  5
89D
330
1E
100
AcDbEntity
  8
0
100
AcDbLine
 10
24.46145
 20
186.353388
 30
0.0
 11
29.95155
 21
183.791388
 31
0.0
  0
LINE
  5
89E
330
1E
100
AcDbEntity
  8
0
100
AcDbLine
 10
29.95155
 20
183.791388
 30
0.0
 11
35.70735
 21
181.108388
 31
0.0
  0
LINE
  5
89F
330
1E
100
AcDbEntity
  8
0
100
AcDbLine
 10
0.31525
 20
197.612388
 30
0.0
 11
4.15185
 21
195.823388
 31
0.0
  0
LINE
  5
8A0
330
1E
100
AcDbEntity
  8
0
100
AcDbLine
 10
-2.99275
 20
199.155388
 30
0.0
 11
0.31525
 21
197.612388
 31
0.0
  0
LINE
  5
8A1
330
1E
100
AcDbEntity
  8
0
100
AcDbLine
 10
-5.44054
 20
200.296388
 30
0.0
 11
-2.99275
 21
199.155388
 31
0.0
  0
LINE
  5
8A2
330
1E
100
AcDbEntity
  8
0
100
AcDbLine
 10
-7.35877
 20
201.190388
 30
0.0
 11
-5.44054
 21
200.296388
 31
0.0
  0
LINE
  5
8A3
330
1E
100
AcDbEntity
  8
0
100
AcDbLine
 10
-8.48381
 20
201.715388
 30
0.0
 11
-7.35877
 21
201.190388
 31
0.0
  0
LINE
  5
8A4
330
1E
100
AcDbEntity
  8
0
100
AcDbLine
 10
-8.94635
 20
201.930388
 30
0.0
 11
-8.48381
 21
201.715388
 31
0.0
  0
LINE
  5
8A5
330
1E
100
AcDbEntity
  8
0
100
AcDbLine
 10
-8.94635
 20
201.930388
 30
0.0
 11
36.55265
 21
182.920388
 31
0.0
  0
LINE
  5
8A6
330
1E
100
AcDbEntity
  8
0
100
AcDbLine
 10
-8.94635
 20
201.930388
 30
0.0
 11
36.55265
 21
182.920388
 31
0.0
  0
LINE
  5
8A7
330
1E
100
AcDbEntity
  8
0
100
AcDbLine
 10
94.68185
 20
145.260388
 30
0.0
 11
158.91185
 21
68.720888
 31
0.0
  0
LINE
  5
8A8
330
1E
100
AcDbEntity
  8
0
100
AcDbLine
 10
160.80485
 20
0.0
 30
0.0
 11
161.08585
 21
6.945168
 31
0.0
  0
LINE
  5
8A9
330
1E
100
AcDbEntity
  8
0
100
AcDbLine
 10
160.80485
 20
0.0
 30
0.0
 11
161.08585
 21
6.945168
 31
0.0
  0
LINE
  5
8AA
330
1E
100
AcDbEntity
  8
0
100
AcDbLine
 10
161.08585
 20
6.945168
 30
0.0
 11
161.21685
 21
7.654248
 31
0.0
  0
LINE
  5
8AB
330
1E
100
AcDbEntity
  8
0
100
AcDbLine
 10
161.89185
 20
8.513718
 30
0.0
 11
162.96985
 21
8.837758
 31
0.0
  0
LINE
  5
8AC
330
1E
100
AcDbEntity
  8
0
100
AcDbLine
 10
163.09785
 20
8.837758
 30
0.0
 11
167.25485
 21
9.062388
 31
0.0
  0
LINE
  5
8AD
330
1E
100
AcDbEntity
  8
0
100
AcDbLine
 10
162.96985
 20
8.837758
 30
0.0
 11
163.09885
 21
8.837758
 31
0.0
  0
LINE
  5
8AE
330
1E
100
AcDbEntity
  8
0
100
AcDbLine
 10
162.96985
 20
8.837758
 30
0.0
 11
163.09785
 21
8.837758
 31
0.0
  0
LINE
  5
8AF
330
1E
100
AcDbEntity
  8
0
100
AcDbLine
 10
161.21685
 20
7.654248
 30
0.0
 11
161.89185
 21
8.513718
 31
0.0
  0
LINE
  5
8B0
330
1E
100
AcDbEntity
  8
0
100
AcDbLine
 10
167.25485
 20
9.062388
 30
0.0
 11
167.39685
 21
9.062388
 31
0.0
  0
LINE
  5
8B1
330
1E
100
AcDbEntity
  8
0
100
AcDbLine
 10
167.40885
 20
9.062388
 30
0.0
 11
167.55785
 21
9.062388
 31
0.0
  0
LINE
  5
8B2
330
1E
100
AcDbEntity
  8
0
100
AcDbLine
 10
167.55785
 20
9.062388
 30
0.0
 11
168.11785
 21
9.062388
 31
0.0
  0
LINE
  5
8B3
330
1E
100
AcDbEntity
  8
0
100
AcDbLine
 10
168.69188157751
 20
9.062388
 30
0.0
 11
169.436506785869
 21
9.240884777647
 31
0.0
  0
LINE
  5
8B4
330
1E
100
AcDbEntity
  8
0
100
AcDbLine
 10
167.82085
 20
9.062388
 30
0.0
 11
168.52585
 21
9.062388
 31
0.0
  0
LINE
  5
8B5
330
1E
100
AcDbEntity
  8
0
100
AcDbLine
 10
169.436506785869
 20
9.240884777647
 30
0.0
 11
170.08685
 21
9.934688
 31
0.0
  0
LINE
  5
8B6
330
1E
100
AcDbEntity
  8
0
100
AcDbLine
 10
167.39685
 20
9.062388
 30
0.0
 11
167.82085
 21
9.062388
 31
0.0
  0
LINE
  5
8B7
330
1E
100
AcDbEntity
  8
0
100
AcDbLine
 10
170.08685
 20
9.934688
 30
0.0
 11
170.556474425727
 21
10.831885990046
 31
0.0
  0
LINE
  5
8B8
330
1E
100
AcDbEntity
  8
0
100
AcDbLine
 10
218.47785
 20
9.442748
 30
0.0
 11
220.692629621111
 21
9.062388
 31
0.0
  0
LINE
  5
8B9
330
1E
100
AcDbEntity
  8
0
100
AcDbLine
 10
170.556474425727
 20
10.831885990046
 30
0.0
 11
170.69485
 21
12.113488
 31
0.0
  0
LINE
  5
8BA
330
1E
100
AcDbEntity
  8
0
100
AcDbLine
 10
170.29985
 20
13.375888
 30
0.0
 11
170.69485
 21
12.113488
 31
0.0
  0
LINE
  5
8BB
330
1E
100
AcDbEntity
  8
0
100
AcDbLine
 10
216.14552058259
 20
10.341676717557
 30
0.0
 11
218.47785
 21
9.442748
 31
0.0
  0
LINE
  5
8BC
330
1E
100
AcDbEntity
  8
0
100
AcDbLine
 10
213.48885
 20
12.047588
 30
0.0
 11
214.11085
 21
11.580288
 31
0.0
  0
LINE
  5
8BD
330
1E
100
AcDbEntity
  8
0
100
AcDbLine
 10
214.11085
 20
11.580288
 30
0.0
 11
216.14552058259
 21
10.341676717557
 31
0.0
  0
LINE
  5
8BE
330
1E
100
AcDbEntity
  8
0
100
AcDbLine
 10
170.556474425727
 20
10.831885990046
 30
0.0
 11
170.69485
 21
12.113488
 31
0.0
  0
LINE
  5
8BF
330
1E
100
AcDbEntity
  8
0
100
AcDbLine
 10
169.80885
 20
14.061888
 30
0.0
 11
170.29985
 21
13.375888
 31
0.0
  0
LINE
  5
8C0
330
1E
100
AcDbEntity
  8
0
100
AcDbLine
 10
211.55085
 20
14.062388
 30
0.0
 11
211.970077285216
 21
13.519407420048
 31
0.0
  0
LINE
  5
8C1
330
1E
100
AcDbEntity
  8
0
100
AcDbLine
 10
177.10685
 20
55.116688
 30
0.0
 11
211.55085
 21
14.062388
 31
0.0
  0
LINE
  5
8C2
330
1E
100
AcDbEntity
  8
0
100
AcDbLine
 10
163.67985
 20
70.716088
 30
0.0
 11
164.54485
 21
70.032788
 31
0.0
  0
LINE
  5
8C3
330
1E
100
AcDbEntity
  8
0
100
AcDbLine
 10
162.41385
 20
70.697388
 30
0.0
 11
163.67985
 21
70.716088
 31
0.0
  0
LINE
  5
8C4
330
1E
100
AcDbEntity
  8
0
100
AcDbLine
 10
162.13485
 20
70.440588
 30
0.0
 11
162.41385
 21
70.697388
 31
0.0
  0
LINE
  5
8C5
330
1E
100
AcDbEntity
  8
0
100
AcDbLine
 10
164.545731746159
 20
70.032091471503
 30
0.0
 11
176.59785
 21
55.734088
 31
0.0
  0
LINE
  5
8C6
330
1E
100
AcDbEntity
  8
0
100
AcDbLine
 10
228.27285
 20
8.924758
 30
0.0
 11
229.70085
 21
8.255288
 31
0.0
  0
LINE
  5
8C7
330
1E
100
AcDbEntity
  8
0
100
AcDbLine
 10
230.32285
 20
6.945168
 30
0.0
 11
230.66485
 21
0.059734
 31
0.0
  0
LINE
  5
8C8
330
1E
100
AcDbEntity
  8
0
100
AcDbLine
 10
230.32285
 20
6.945168
 30
0.0
 11
230.66485
 21
0.059734
 31
0.0
  0
LINE
  5
8C9
330
1E
100
AcDbEntity
  8
0
100
AcDbLine
 10
229.70085
 20
8.255288
 30
0.0
 11
230.11285
 21
7.656268
 31
0.0
  0
LINE
  5
8CA
330
1E
100
AcDbEntity
  8
0
100
AcDbLine
 10
230.11285
 20
7.656268
 30
0.0
 11
230.32285
 21
6.945168
 31
0.0
  0
LINE
  5
8CB
330
1E
100
AcDbEntity
  8
0
100
AcDbLine
 10
211.970077285216
 20
13.519407420048
 30
0.0
 11
213.48885
 21
12.047588
 31
0.0
  0
LINE
  5
8CC
330
1E
100
AcDbEntity
  8
0
100
AcDbLine
 10
160.80485
 20
0.0
 30
0.0
 11
230.66485
 21
0.059734
 31
0.0
  0
LINE
  5
8CD
330
1E
100
AcDbEntity
  8
0
100
AcDbLine
 10
220.692629621111
 20
9.062388
 30
0.0
 11
228.27285
 21
8.924758
 31
0.0
  0
LINE
  5
8CE
330
1E
100
AcDbEntity
  8
0
100
AcDbLine
 10
220.692629621111
 20
9.062388
 30
0.0
 11
168.52585
 21
9.062388
 31
0.0
  0
LINE
  5
8CF
330
1E
100
AcDbEntity
  8
0
100
AcDbLine
 10
141.05585
 20
52.764888
 30
0.0
 11
156.348438653744
 21
65.51315144926
 31
0.0
  0
LINE
  5
8D0
330
1E
100
AcDbEntity
  8
0
100
AcDbLine
 10
156.65485
 20
65.766088
 30
0.0
 11
158.860163101317
 21
67.668481027107
 31
0.0
  0
LINE
  5
8D1
330
1E
100
AcDbEntity
  8
0
100
AcDbLine
 10
158.860163101317
 20
67.668481027107
 30
0.0
 11
162.13485
 21
70.440588
 31
0.0
  0
LINE
  5
8D2
330
1E
100
AcDbEntity
  8
0
100
AcDbLine
 10
152.08985
 20
35.168788
 30
0.0
 11
176.59785
 21
55.734088
 31
0.0
  0
LINE
  5
8D3
330
1E
100
AcDbEntity
  8
0
100
AcDbLine
 10
176.59785
 20
55.734088
 30
0.0
 11
177.10685
 21
55.116688
 31
0.0
  0
LINE
  5
8D4
330
1E
100
AcDbEntity
  8
0
100
AcDbLine
 10
177.10685
 20
55.116688
 30
0.0
 11
152.59385
 21
34.548088
 31
0.0
  0
LINE
  5
8D5
330
1E
100
AcDbEntity
  8
0
100
AcDbLine
 10
152.59385
 20
34.548088
 30
0.0
 11
152.08985
 21
35.168788
 31
0.0
  0
LINE
  5
8D6
330
1E
100
AcDbEntity
  8
0
100
AcDbLine
 10
93.183658615507
 20
141.90661786486
 30
0.0
 11
85.785658904114
 21
125.350803525124
 31
0.0
  0
LINE
  5
8D7
330
1E
100
AcDbEntity
  8
0
100
AcDbLine
 10
79.986992418702
 20
157.756647161144
 30
0.0
 11
71.935094603247
 21
140.48884196435
 31
0.0
  0
LINE
  5
8D8
330
1E
100
AcDbEntity
  8
0
100
AcDbLine
 10
223.80485
 20
10.0
 30
0.0
 11
224.362409091011
 21
9.045902524586
 31
0.0
  0
LINE
  5
8D9
330
1E
100
AcDbEntity
  8
0
100
AcDbLine
 10
204.363129526644
 20
25.706616749193
 30
0.0
 11
201.340700906614
 21
26.293424604247
 31
0.0
  0
ENDSEC
  0
SECTION
  2
OBJECTS
  0
DICTIONARY
  5
C
330
0
100
AcDbDictionary
281
     1
  3
ACAD_GROUP
350
D
  3
ACAD_LAYOUT
350
19
  3
ACAD_MLEADERSTYLE
350
8DC
  3
ACAD_MLINESTYLE
350
16
  3
ACAD_PLOTSETTINGS
350
18
  3
ACAD_PLOTSTYLENAME
350
E
  3
ACAD_SCALELIST
350
461
  3
ACDBVARIABLEDICTIONARY
350
42D
  3
DWGPROPS
350
8E2
  0
DICTIONARY
  5
D
102
{ACAD_REACTORS
330
C
102
}
330
C
100
AcDbDictionary
281
     1
  0
DICTIONARY
  5
19
102
{ACAD_REACTORS
330
C
102
}
330
C
100
AcDbDictionary
281
     1
  3
Layout1
350
460
  3
Model
350
45F
  0
DICTIONARY
  5
8DC
102
{ACAD_REACTORS
330
C
102
}
330
C
100
AcDbDictionary
281
     1
  0
DICTIONARY
  5
16
102
{ACAD_REACTORS
330
C
102
}
330
C
100
AcDbDictionary
281
     1
  3
STANDARD
350
17
  0
DICTIONARY
  5
18
102
{ACAD_REACTORS
330
C
102
}
330
C
100
AcDbDictionary
281
     1
  0
ACDBDICTIONARYWDFLT
  5
E
102
{ACAD_REACTORS
330
C
102
}
330
C
100
AcDbDictionary
281
     1
  3
Normal
350
F
100
AcDbDictionaryWithDefault
340
F
  0
DICTIONARY
  5
461
102
{ACAD_REACTORS
330
C
102
}
330
C
100
AcDbDictionary
281
     1
  3
A0
350
462
  3
A1
350
463
  3
A2
350
464
  3
A3
350
465
  3
A4
350
466
  3
A5
350
467
  3
A6
350
468
  3
A7
350
469
  3
A8
350
46A
  3
A9
350
46B
  3
B0
350
46C
  3
B1
350
46D
  3
B2
350
46E
  3
B3
350
46F
  3
B4
350
470
  3
B5
350
471
  3
B6
350
472
  3
B7
350
473
  3
B8
350
474
  3
B9
350
475
  3
C0
350
476
  3
C1
350
477
  3
C2
350
478
  3
C3
350
479
  3
C4
350
47A
  3
C5
350
47B
  3
C6
350
47C
  3
C7
350
47D
  3
C8
350
47E
  3
C9
350
47F
  3
D0
350
480
  3
D1
350
481
  3
D2
350
482
  0
DICTIONARY
  5
42D
102
{ACAD_REACTORS
330
C
102
}
330
C
100
AcDbDictionary
281
     1
  3
CANNOSCALE
350
8DD
  3
DIMASSOC
350
42E
  0
XRECORD
  5
8E2
102
{ACAD_REACTORS
330
C
102
}
330
C
100
AcDbXrecord
280
     1
  1
DWGPROPS COOKIE
  2

  3

  4

  6

  7

  8
MARTIN
  9

300
=
301
=
302
=
303
=
304
=
305
=
306
=
307
=
308
=
309
=
 40
0.0
 41
2454638.608956702
 42
2456209.727554433
  1

 90
        0
  0
LAYOUT
  5
460
102
{ACAD_REACTORS
330
19
102
}
330
19
100
AcDbPlotSettings
  1

  2
none_device
  4

  6

 40
0.0
 41
0.0
 42
0.0
 43
0.0
 44
0.0
 45
0.0
 46
0.0
 47
0.0
 48
0.0
 49
0.0
140
0.0
141
0.0
142
1.0
143
1.0
 70
   688
 72
     0
 73
     0
 74
     5
  7

 75
    16
147
1.0
148
0.0
149
0.0
100
AcDbLayout
  1
Layout1
 70
     1
 71
     1
 10
0.0
 20
0.0
 11
0.0
 21
0.0
 12
0.0
 22
0.0
 32
0.0
 14
0.0
 24
0.0
 34
0.0
 15
0.0
 25
0.0
 35
0.0
146
0.0
 13
0.0
 23
0.0
 33
0.0
 16
1.0
 26
0.0
 36
0.0
 17
0.0
 27
1.0
 37
0.0
 76
     0
330
1A
  0
LAYOUT
  5
45F
102
{ACAD_REACTORS
330
19
102
}
330
19
100
AcDbPlotSettings
  1

  2
none_device
  4

  6

 40
0.0
 41
0.0
 42
0.0
 43
0.0
 44
0.0
 45
0.0
 46
0.0
 47
0.0
 48
0.0
 49
0.0
140
0.0
141
0.0
142
1.0
143
1.0
 70
   688
 72
     0
 73
     0
 74
     5
  7

 75
    16
147
1.0
148
0.0
149
0.0
100
AcDbLayout
  1
Model
 70
     1
 71
     0
 10
0.0
 20
0.0
 11
0.0
 21
0.0
 12
0.0
 22
0.0
 32
0.0
 14
-18.90545
 24
0.0
 34
0.0
 15
230.80485
 25
284.0
 35
0.0
146
0.0
 13
0.0
 23
0.0
 33
0.0
 16
1.0
 26
0.0
 36
0.0
 17
0.0
 27
1.0
 37
0.0
 76
     0
330
1E
331
43A
  0
MLINESTYLE
  5
17
102
{ACAD_REACTORS
330
16
102
}
330
16
100
AcDbMlineStyle
  2
STANDARD
 70
     0
  3

 62
   256
 51
90.0
 52
90.0
 71
     2
 49
0.5
 62
   256
  6
BYLAYER
 49
-0.5
 62
   256
  6
BYLAYER
  0
ACDBPLACEHOLDER
  5
F
102
{ACAD_REACTORS
330
E
102
}
330
E
  0
SCALE
  5
462
102
{ACAD_REACTORS
330
461
102
}
330
461
100
AcDbScale
 70
     0
300
1:1
140
1.0
141
1.0
290
     1
  0
SCALE
  5
463
102
{ACAD_REACTORS
330
461
102
}
330
461
100
AcDbScale
 70
     0
300
1:2
140
1.0
141
2.0
290
     0
  0
SCALE
  5
464
102
{ACAD_REACTORS
330
461
102
}
330
461
100
AcDbScale
 70
     0
300
1:4
140
1.0
141
4.0
290
     0
  0
SCALE
  5
465
102
{ACAD_REACTORS
330
461
102
}
330
461
100
AcDbScale
 70
     0
300
1:5
140
1.0
141
5.0
290
     0
  0
SCALE
  5
466
102
{ACAD_REACTORS
330
461
102
}
330
461
100
AcDbScale
 70
     0
300
1:8
140
1.0
141
8.0
290
     0
  0
SCALE
  5
467
102
{ACAD_REACTORS
330
461
102
}
330
461
100
AcDbScale
 70
     0
300
1:10
140
1.0
141
10.0
290
     0
  0
SCALE
  5
468
102
{ACAD_REACTORS
330
461
102
}
330
461
100
AcDbScale
 70
     0
300
1:16
140
1.0
141
16.0
290
     0
  0
SCALE
  5
469
102
{ACAD_REACTORS
330
461
102
}
330
461
100
AcDbScale
 70
     0
300
1:20
140
1.0
141
20.0
290
     0
  0
SCALE
  5
46A
102
{ACAD_REACTORS
330
461
102
}
330
461
100
AcDbScale
 70
     0
300
1:30
140
1.0
141
30.0
290
     0
  0
SCALE
  5
46B
102
{ACAD_REACTORS
330
461
102
}
330
461
100
AcDbScale
 70
     0
300
1:40
140
1.0
141
40.0
290
     0
  0
SCALE
  5
46C
102
{ACAD_REACTORS
330
461
102
}
330
461
100
AcDbScale
 70
     0
300
1:50
140
1.0
141
50.0
290
     0
  0
SCALE
  5
46D
102
{ACAD_REACTORS
330
461
102
}
330
461
100
AcDbScale
 70
     0
300
1:100
140
1.0
141
100.0
290
     0
  0
SCALE
  5
46E
102
{ACAD_REACTORS
330
461
102
}
330
461
100
AcDbScale
 70
     0
300
2:1
140
2.0
141
1.0
290
     0
  0
SCALE
  5
46F
102
{ACAD_REACTORS
330
461
102
}
330
461
100
AcDbScale
 70
     0
300
4:1
140
4.0
141
1.0
290
     0
  0
SCALE
  5
470
102
{ACAD_REACTORS
330
461
102
}
330
461
100
AcDbScale
 70
     0
300
8:1
140
8.0
141
1.0
290
     0
  0
SCALE
  5
471
102
{ACAD_REACTORS
330
461
102
}
330
461
100
AcDbScale
 70
     0
300
10:1
140
10.0
141
1.0
290
     0
  0
SCALE
  5
472
102
{ACAD_REACTORS
330
461
102
}
330
461
100
AcDbScale
 70
     0
300
100:1
140
100.0
141
1.0
290
     0
  0
SCALE
  5
473
102
{ACAD_REACTORS
330
461
102
}
330
461
100
AcDbScale
 70
     0
300
1/128" = 1'-0"
140
0.0078125
141
12.0
290
     0
  0
SCALE
  5
474
102
{ACAD_REACTORS
330
461
102
}
330
461
100
AcDbScale
 70
     0
300
1/64" = 1'-0"
140
0.015625
141
12.0
290
     0
  0
SCALE
  5
475
102
{ACAD_REACTORS
330
461
102
}
330
461
100
AcDbScale
 70
     0
300
1/32" = 1'-0"
140
0.03125
141
12.0
290
     0
  0
SCALE
  5
476
102
{ACAD_REACTORS
330
461
102
}
330
461
100
AcDbScale
 70
     0
300
1/16" = 1'-0"
140
0.0625
141
12.0
290
     0
  0
SCALE
  5
477
102
{ACAD_REACTORS
330
461
102
}
330
461
100
AcDbScale
 70
     0
300
3/32" = 1'-0"
140
0.09375
141
12.0
290
     0
  0
SCALE
  5
478
102
{ACAD_REACTORS
330
461
102
}
330
461
100
AcDbScale
 70
     0
300
1/8" = 1'-0"
140
0.125
141
12.0
290
     0
  0
SCALE
  5
479
102
{ACAD_REACTORS
330
461
102
}
330
461
100
AcDbScale
 70
     0
300
3/16" = 1'-0"
140
0.1875
141
12.0
290
     0
  0
SCALE
  5
47A
102
{ACAD_REACTORS
330
461
102
}
330
461
100
AcDbScale
 70
     0
300
1/4" = 1'-0"
140
0.25
141
12.0
290
     0
  0
SCALE
  5
47B
102
{ACAD_REACTORS
330
461
102
}
330
461
100
AcDbScale
 70
     0
300
3/8" = 1'-0"
140
0.375
141
12.0
290
     0
  0
SCALE
  5
47C
102
{ACAD_REACTORS
330
461
102
}
330
461
100
AcDbScale
 70
     0
300
1/2" = 1'-0"
140
0.5
141
12.0
290
     0
  0
SCALE
  5
47D
102
{ACAD_REACTORS
330
461
102
}
330
461
100
AcDbScale
 70
     0
300
3/4" = 1'-0"
140
0.75
141
12.0
290
     0
  0
SCALE
  5
47E
102
{ACAD_REACTORS
330
461
102
}
330
461
100
AcDbScale
 70
     0
300
1" = 1'-0"
140
1.0
141
12.0
290
     0
  0
SCALE
  5
47F
102
{ACAD_REACTORS
330
461
102
}
330
461
100
AcDbScale
 70
     0
300
1-1/2" = 1'-0"
140
1.5
141
12.0
290
     0
  0
SCALE
  5
480
102
{ACAD_REACTORS
330
461
102
}
330
461
100
AcDbScale
 70
     0
300
3" = 1'-0"
140
3.0
141
12.0
290
     0
  0
SCALE
  5
481
102
{ACAD_REACTORS
330
461
102
}
330
461
100
AcDbScale
 70
     0
300
6" = 1'-0"
140
6.0
141
12.0
290
     0
  0
SCALE
  5
482
102
{ACAD_REACTORS
330
461
102
}
330
461
100
AcDbScale
 70
     0
300
1'-0" = 1'-0"
140
12.0
141
12.0
290
     0
  0
DICTIONARYVAR
  5
8DD
102
{ACAD_REACTORS
330
42D
102
}
330
42D
100
DictionaryVariables
280
     0
  1
1:1
  0
DICTIONARYVAR
  5
42E
102
{ACAD_REACTORS
330
42D
102
}
330
42D
100
DictionaryVariables
280
     0
  1
1
  0
ENDSEC
  0
SECTION
  2
THUMBNAILIMAGE
 90
    16364
310
28000000B40000005500000001000800000000000000000000000000000000000000000000000000FFFFFF000000FF0000FFFF0000FF0000FFFF0000FF000000FF00FF000000000080808000C0C0C0000000FF007F7FFF000000A5005252A50000007F003F3F7F0000004C0026264C000000260013132600003FFF007F9FFF
310
000029A5005267A500001F7F003F4F7F0000134C00262F4C000009260013172600007FFF007FBFFF000052A500527CA500003F7F003F5F7F0000264C0026394C0000132600131C260000BFFF007FDFFF00007CA5005291A500005F7F003F6F7F0000394C0026424C00001C26001321260000FFFF007FFFFF0000A5A50052A5
310
A500007F7F003F7F7F00004C4C00264C4C00002626001326260000FFBF007FFFDF0000A57C0052A59100007F5F003F7F6F00004C3900264C420000261C001326210000FF7F007FFFBF0000A5520052A57C00007F3F003F7F5F00004C2600264C39000026130013261C0000FF3F007FFF9F0000A5290052A56700007F1F003F
310
7F4F00004C1300264C2F00002609001326170000FF00007FFF7F0000A5000052A55200007F00003F7F3F00004C0000264C260000260000132613003FFF00009FFF7F0029A5000067A552001F7F00004F7F3F00134C00002F4C260009260000172613007FFF0000BFFF7F0052A500007CA552003F7F00005F7F3F00264C0000
310
394C2600132600001C261300BFFF0000DFFF7F007CA5000091A552005F7F00006F7F3F00394C0000424C26001C26000021261300FFFF0000FFFF7F00A5A50000A5A552007F7F00007F7F3F004C4C00004C4C26002626000026261300FFBF0000FFDF7F00A57C0000A59152007F5F00007F6F3F004C3900004C422600261C00
310
0026211300FF7F0000FFBF7F00A5520000A57C52007F3F00007F5F3F004C2600004C39260026130000261C1300FF3F0000FF9F7F00A5290000A56752007F1F00007F4F3F004C1300004C2F26002609000026171300FF000000FF7F7F00A5000000A55252007F0000007F3F3F004C0000004C2626002600000026131300FF00
310
3F00FF7F9F00A5002900A55267007F001F007F3F4F004C0013004C262F002600090026131700FF007F00FF7FBF00A5005200A5527C007F003F007F3F5F004C0026004C2639002600130026131C00FF00BF00FF7FDF00A5007C00A55291007F005F007F3F6F004C0039004C26420026001C0026132100FF00FF00FF7FFF00A5
310
00A500A552A5007F007F007F3F7F004C004C004C264C002600260026132600BF00FF00DF7FFF007C00A5009152A5005F007F006F3F7F0039004C0042264C001C002600211326007F00FF00BF7FFF005200A5007C52A5003F007F005F3F7F0026004C0039264C00130026001C1326003F00FF009F7FFF002900A5006752A500
310
1F007F004F3F7F0013004C002F264C000900260017132600000000002D2D2D005B5B5B0089898900B7B7B700B3B3B30000000000000000000000000000000000000000000000000000000000000000000000000000000000000000000000000000000000000000000000000000000000000000000000000000000000000000
310
00000000000000000000000000000000000000000000000000000000000000000000000000000000000000000000000000000000000000000000000000000000000000000000000000000000000000000000000000000000000000000000000000000000000000000000000000000000000000000000000000000000000000
310
00000000000000000000000000000000000000000000000000000000000000000000000000000000000000000000000000000000000000000000000000000000000000000000000000000000000000000000000000000000000000000000000000000000000000000000000000000000000000000000000000000000000000
310
00000000000000000000000000000000000000000000000000000000000000000000000000000000000000000000000000000000000000000000000000000000000000000000000000000000000000000000000000000000000000000000000000000000000000000000000000000000000000000000000000000000000000
310
00000000000000000000000000000000000000000000000000000000000000000000000000000000000000000000000000000000000000000000000000000000000000000000000000000000000000000000000000000000000000000000000000000000000000000000000000000000000000000000000000000000000000
310
00000000000000000000000000000000000000000000000000000000000000000000000000000000000000000000000000000000000000000000070707070707070707070707070707070707070700000000000000000000000000000000000000000000000000000000000000000000000000000000000000000000000000
310
00000000000000000000000000000000000000000000000000000000000000000000000000000000000000000000000000000000000000000000000000000000000000000000000000000000000000000000000000000000000000000000000000000000000000000000000000000007000000000000000000000000000000
310
00000007000000000000000000000000000000000000000000000000000000000000000000000000000000000000000000000000000000000000000000000000000000000000000000000000000000000000000000000000000000000000000000000000000000000000000000000000000000000000000000000000000000
310
00000000000000000000000000000000000000000000000000000000000000000000000000070707070707070707070707070707070707070700000000000000000000000000000000000000000000000000000000000000000000000000000000000000000000000000000000000000000000000000000000000000000000
310
00000000000000000000000000000000000000000000000000000000000000000000000000000000000000000000000000000000000000000000000000000000000000000000000000000000000000000000000000000000000000000007000000000000000000000707000700000000000000000000000000000000000000
310
00000000000000000000000000000000000000000000000000000000000000000000000000000000000000000000000000000000000000000000000000000000000000000000000000000000000000000000000000000000000000000000000000000000000000000000000000000000000000000000000000000000000000
310
00000000000000000000000000000000000007000000000000000000000007000700000000000000000000000000000000000000000000000000000000000000000000000000000000000000000000000000000000000000000000000000000000000000000000000000000000000000000000000000000000000000000000
310
00000000000000000000000000000000000000000000000000000000000000000000000000000000000000000000000000000000000000000000000000000000000000000000070000000000000000000000070007070000000000000000000000000000000000000000000000000000000000000000000000000000000000
310
00000000000000000000000000000000000000000000000000000000000000000000000000000000000000000000000000000000000000000000000000000000000000000000000000000000000000000000000000000000000000000000000000000000000000000000000000000000000000000000000000000700000000
310
00000000000000070707000700000000000000000000000000000000000000000000000000000000000000000000000000000000000000000000000000000000000000000000000000000000000000000000000000000000000000000000000000000000000000000000000000000000000000000000000000000000000000
310
00000000000000000000000000000000000000000000000000000000000000000000000000000000000000000000000007000000000000000000000707070000070000000000000000000000000000000000000000000000000000000000000000000000000000000000000000000000000000000000000000000000000000
310
00000000000000000000000000000000000000000000000000000000000000000000000000000000000000000000000000000000000000000000000000000000000000000000000000000000000000000000000000000000000000000000000000000000070000000000000000000007000007000007000000000000000000
310
00000000000000000000000000000000000000000000000000000000000000000000000000000000000000000000000000000000000000000000000000000000000000000000000000000000000000000000000000000000000000000000000000000000000000000000000000000000000000000000000000000000000000
310
00000000000000000000000000000000000000000000000000070000000000000000000007000000070707070000000000000000000000000000000000000000000000000000000000000000000000000000000000000000000000000000000000000000000000000000000000000000000000000000000000000000000000
310
00000000000000000000000000000000000000000000000000000000000000000000000000000000000000000000000000000000000000000000000000000000000000000000000000000000000700070000000000000000000700000007000000000000000000000000000000000000000000000000000000000000000000
310
00000000000000000000000000000000000000000000000000000000000000000000000000000000000000000000000000000000000000000000000000000000000000000000000000000000000000000000000000000000000000000000000000000000000000000000000000000000000000000000000000000000000000
310
00000700000007000000000000000700000000070000000000000000000000000000000000000000000000000000000000000000000000000000000000000000000000000000000000000000000000000000000000000000000000000000000000000000000000000000000000000000000000000000000000000000000000
310
00000000000000000000000000000000000000000000000000000000000000000000000000000000000000000000000000000000000007000000000007000000000007000000000007000000000000000000000000000000000000000000000000000000000000000000000000000000000000000000000000000000000000
310
00000000000000000000000000000000000000000000000000000000000000000000000000000000000000000000000000000000000000000000000000000000000000000000000000000000000000000000000000000000000000000000000000000000000000000000070000000000000007000000070707070707070700
310
00000000000000000000000000000000000000000000000000000000000000000000000000000000000000000000000000000000000000000000000000000000000000000000000000000000000000000000000000000000000000000000000000000000000000000000000000000000000000000000000000000000000000
310
00000000000000000000000000000000000000000000000000000000000000000707000000000000000700070700000000000007000000000000000000000000000000000000000000000000000000000000000000000000000000000000000000000000000000000000000000000000000000000000000000000000000000
310
00000000000000000000000000000000000000000000000000000000000000000000000000000000000000000000000000000000000000000000000000000000000000000000000000000000000000000000000007000707000000000000000700070000000000000700000000000000000000000000000000000000000000
310
00000000000000000000000000000000000000000000000000000000000000000000000000000000000000000000000000000000000000000000000000000000000000000000000000000000000000000000000000000000000000000000000000000000000000000000000000000000000000000000000000000000000000
310
00000000000000000007000000070700000000000700000707070707070707000000000000000000000000000000000000000000000000000000000000000000000000000000000000000000000000000000000000000000000000000000000000000000000000000000000000000000000000000000000000000000000000
310
00000000000000000000000000000000000000000000000000000000000000000000000000000000000000000000000000000000000000000000000000000700000000000700000007000000070000000000000700000000000000000000000000000000000000000000000000000000000000000000000000000000000000
310
00000000000000000000000000000000000000000000000000000000000000000000000000000000000000000000000000000000000000000000000000000000000000000000000000000000000000000000000000000000000000000000000000000000000000000000000000000000000007000000000000000700000700
310
00000700000000000007070707070000000000000000000000000000000000000000000000000000000000000000000000000000000000000000000000000000000000000000000000000000000000000000000000000000000000000000000000000000000000000000000000000000000000000000000000000000000000
310
00000000000000000000000000000000000000000000000000000000000000000000000000000007000000000000000700070700000000070000000000000707000007000000000000000000000000000000000000000000000000000000000000000000000000000000000000000000000000000000000000000000000000
310
00000000000000000000000000000000000000000000000000000000000000000000000000000000000000000000000000000000000000000000000000000000000000000000000000000000000000000000000000000000000000070000000000000007000000000000000007000000000000070707070700000000000000
310
00000000000000000000000000000000000000000000000000000000000000000000000000000000000000000000000000000000000000000000000000000000000000000000000000000000000000000000000000000000000000000000000000000000000000000000000000000000000000000000000000000000000000
310
00000000000000000000000000000000070000000000000000070000000000000000070000000000000700000000000000000000000000000000000000000000000000000000000000000000000000000000000000000000000000000000000000000000000000000000000000000000000000000000000000000000000000
310
00000000000000000000000000000000000000000000000000000000000000000000000000000000000000000000000000000000000000000000000000000000000000000007000000000000000700000000000000000007000000000000070000000000000000000000000000000000000000000000000000000000000000
310
00000000000000000000000000000000000000000000000000000000000000000000000000000000000000000000000000000000000000000000000000000000000000000000000000000000000000000000000000000000000000000000000000000000000000000000000000000000000000000000000000070000000000
310
00000700000000000000000000070000000000000700000000000000000000000000000000000000000000000000000000000000000000000000000000000000000000000000000000000000000000000000000000000000000000000000000000000000000000000000000000000000000000000000000000000000000000
310
00000000000000000000000000000000000000000000000000000000000000000000000000000000000000000000070000000000000007000000000000000000000007000000000000070000000000000000000000000000000000000000000000000000000000000000000000000000000000000000000000000000000000
310
00000000000000000000000000000000000000000000000000000000000000000000000000000000000000000000000000000000000000000000000000000000000000000000000000000000000000000000000000000000000000000000000000000700000000000000070000000000000000000000000700000000000007
310
00000000000000000000000000000000000000000000000000000000000000000000000000000000000000000000000000000000000000000000000000000000000000000000000000000000000000000000000000000000000000000000000000000000000000000000000000000000000000000000000000000000000000
310
00000000000000000000000000000000000000000000000007000000000000000700000000000000000000000007000000000000070000000000000000000000000000000000000000000000000000000000000000000000000000000000000000000000000000000000000000000000000000000000000000000000000000
310
00000000000000000000000000000000000000000000000000000000000000000000000000000000000000000000000000000000000000000000000000000000000000000000000000000000070000000000000007000000000000000000000000000700000000000007000000000000000000000000000000000000000000
310
00000000000000000000000000000000000000000000000000000000000000000000000000000000000000000000000000000000000000000000000000000000000000000000000000000000000000000000000000000000000000000000000000000000000000000000000000000000000000000000000000000000000000
310
00070000000000000007000000000000000000000000000007000000000000070000000000000000000000000000000000000000000000000000000000000000000000000000000000000000000000000000000000000000000000000000000000000000000000000000000000000000000000000000000000000000000000
310
00000000000000000000000000000000000000000000000000000000000000000000000000000000000000000000000000000000000700000000000000070000000000000000000000000000000700000000000007000000000000000000000000000000000000000000000000000000000000000000000000000000000000
310
00000000000000000000000000000000000000000000000000000000000000000000000000000000000000000000000000000000000000000000000000000000000000000000000000000000000000000000000000000000000000000000000000000000000000000007000000000000000700000000000000000000000000
310
00000007000000000000070000000000000000000000000000000000000000000000000000000000000000000000000000000000000000000000000000000000000000000000000000000000000000000000000000000000000000000000000000000000000000000000000000000000000000000000000000000000000000
310
00000000000000000000000000000000000000000000000000000000000000070000000000000700000000000000000000000000000000000700000000000007000000000000000000000000000000000000000000000000000000000000000000000000000000000000000000000000000000000000000000000000000000
310
00000000000000000000000000000000000000000000000000000000000000000000000000000000000000000000000000000000000000000000000000000000000000000000000000000000000000000000000700000000000000070000000000000000000000000000000000070000000000000700000000000000000000
310
00000000000000000000000000000000000000000000000000000000000000000000000000000000000000000000000000000000000000000000000000000000000000000000000000000000000000000000000000000000000000000000000000000000000000000000000000000000000000000000000000000000000000
310
00000000000000000700000000000000070000000000000000000000000000000000000700000000000007000000000000000000000000000000000000000000000000000000000000000000000000000000000000000000000000000000000000000000000000000000000000000000000000000000000000000000000000
310
00000000000000000000000000000000000000000000000000000000000000000000000000000000000000000000000000000000000000000000000000000000000000000700000000000000000000000000000000000000070000000000000700000000000000000000000000000000000000000000000000000000000000
310
00000000000000000000000000000000000000000000000000000000000000000000000000000000000000000000000000000000000000000000000000000000000000000000000000000000000000000000000000000000000000000000000000000000000000000000000000000000000700070000000007000000000000
310
00000000000000000000000000000700000000000007000000000000000000000000000000000000000000000000000000000000000000000000000000000000000000000000000000000000000000000000000000000000000000000000000000000000000000000000000000000000000000000000000000000000000000
310
00000000000000000000000000000000000000000000000000000000000000000000000000000700000700000007000000000000000000000000000000000000000000070000000000000700000000000000000000000000000000000000000000000000000000000000000000000000000000000000000000000000000000
310
00000000000000000000000000000000000000000000000000000000000000000000000000000000000000000000000000000000000000000000000000000000000000000000000000000000000000000000000000000000070700070000000700000700000000000000000000000000000000000000000007000000000000
310
07000000000000000000000000000000000000000000000000000000000000000000000000000000000000000000000000000000000000000000000000000000000000000000000000000000000000000000000000000000000000000000000000000000000000000000000000000000000000000000000000000000000000
310
00000000000000000000000000070707070000000000070700000000000000000000000000000000000000000000070000000000000700000000000000000000000000000000000000000000000000000000000000000000000000000000000000000000000000000000000000000000000000000000000000000000000000
310
00000000000000000000000000000000000000000000000000000000000000000000000000000000000000000000000000000000000000000000000000000000070707070007000000000707000000000000000000000000000000000000000000000007000000000000070000000000000000000000000000000000000000
310
00000000000000000000000000000000000000000000000000000000000000000000000000000000000000000000000000000000000000000000000000000000000000000000000000000000000000000000000000000000000000000000000000000000000000000000000000000000000000070707070000000007000007
310
00000000000000000000000000000000000000000000000000070000000000000700000000000000000000000000000000000000000000000000000000000000000000000000000000000000000000000000000000000000000000000000000000000000000000000000000000000000000000000000000000000000000000
310
00000000000000000000000000000000000000000000000000000000000000000000000000000007070707000000000000070000070000000000000000000000000000000000000000000000000007000000000000070000000000000000000000000000000000000000000000000000000000000000000000000000000000
310
00000000000000000000000000000000000000000000000000000000000000000000000000000000000000000000000000000000000000000000000000000000000000000000000000000000000000000000000000000000070707070707000000000000000000070700000000000000000000000000000000000000000000
310
00000000070000000000000700000000000000000000000000000000000000000000000000000000000000000000000000000000000000000000000000000000000000000000000000000000000000000000000000000000000000000000000000000000000000000000000000000000000000000000000000000000000000
310
00000000000000000000000000070707070000000000000000000000000700000000000000000000000000000000000000000000000000000007000000000000070000000000000000000000000000000000000000000000000000000000000000000000000000000000000000000000000000000000000000000000000000
310
00000000000000000000000000000000000000000000000000000000000000000000000000000000000000000000000000000000000000000000000000000000070707070700000000000000000000000707070000000000000000000000000000000000000000000000000000000700000000000007000000000000000000
310
00000000000000000000000000000000000000000000000000000000000000000000000000000000000000000000000000000000000000000000000000000000000000000000000000000000000000000000000000000000000000000000000000000000000000000000000000000000000000070707070000000000000000
310
00000000070707070000000000000000000000000000000000000000000000000000000007000000000000070000000000000000000000000000000000000000000000000000000000000000000000000000000000000000000000000000000000000000000000000000000000000000000000000000000000000000000000
310
00000000000000000000000000000000000000000000000000000000000000000000000000000007070707000000000000000000000000070707070000070000000000000000000000000000000000000000000000000000000700000000000007000000000000000000000000000000000000000000000000000000000000
310
00000000000000000000000000000000000000000000000000000000000000000000000000000000000000000000000000000000000000000000000000000000000000000000000000000000000000000000000000000000000007070707070000000000000000000000070707070000000007000000000000000000000000
310
00000000000000000000000000000007000000000000070000000000000000000000000000000000000000000000000000000000000000000000000000000000000000000000000000000000000000000000000000000000000000000000000000000000000000000000000000000000000000000000000000000000000000
310
00000000000000000000000000000707070700000000000000000000000707070707000000000000000700000000000000000000000000000000000000000000000000000700000000000007000000000000000000000000000000000000000000000000000000000000000000000000000000000000000000000000000000
310
00000000000000000000000000000000000000000000000000000000000000000000000000000000000000000000000000000000000000000000000000000000000007070700000000000000000000000007000707070000000000000000070000000000000000000000000000000000000000000000000000070000000000
310
00070000000000000000000000000000000000000000000000000000000000000000000000000000000000000000000000000000000000000000000000000000000000000000000000000000000000000000000000000000000000000000000000000000000000000000000000000000000000000000000700000000000000
310
00000000000707070700000007000000000000000007000000000000000000000000000000000000000000000000000700000000000007000000000000000000000000000000000000000000000000000000000000000000000000000000000000000000000000000000000000000000000000000000000000000000000000
310
00000000000000000000000000000000000000000000000000000000000000000000000000000000000000000007000000000000000000070707070000000000000700000000000000000700000000000000000000000000000000000000000000000000070000000000000700000000000000000000000000000000000000
310
00000000000000000000000000000000000000000000000000000000000000000000000000000000000000000000000000000000000000000000000000000000000000000000000000000000000000000000000000000000000000000000000000000007000000000000000707070000000000000000000700000000000000
310
07000000000000000000000000000000000000000000000000000700000000000007000000000000000000000000000000000000000000000000000000000000000000000000000000000000000000000000000000000000000000000000000000000000000000000000000000000000000000000000000000000000000000
310
00000000000000000000000000000000000000000000000000070000000007070707000000000000000000000007000000000000000007000000000000000000000000000000000000000000000000070000000000000700000000000000000000000000000000000000000000000000000000000000000000000000000000
310
00000000000000000000000000000000000000000000000000000000000000000000000000000000000000000000000000000000000000000000000000000000000000000000000000000000000000070007070700000000000000000000000000000007000000000000000700000000000000000000000000000000000000
310
00000000000700000000000007000000000000000000000000000000000000000000000000000000000000000000000000000000000000000000000000000000000000000000000000000000000000000000000000000000000000000000000000000000000000000000000000000000000000000000000000000000000000
310
00000000000707070000000000000000000000000000000000070000000000000000070000000000000000000000000000000000000000000000070000000000000700000000000000000000000000000000000000000000000000000000000000000000000000000000000000000000000000000000000000000000000000
310
00000000000000000000000000000000000000000000000000000000000000000000000000000000000000000000000000000000000000000000000000000000000000000000000000000000000000070000000000000007000000000000000000000000000000000000000000000007000000000000070000000000000000
310
00000000000000000000000000000000000000000000000000000000000000000000000000000000000000000000000000000000000000000000000000000000000000000000000000000000000000000000000000000000000000000000000000000000000000000000000000000000000000000000000000000000000000
310
00000000000700000000000000070000000000000000000000000000000000000000000000070000000000000700000000000000000000000000000000000000000000000000000000000000000000000000000000000000000000000000000000000000000000000000000000000000000000000000000000000000000000
310
00000000000000000000000000000000000000000000000000000000000000000000000000000000000000000000000000000000000000000000070000000000000000070000000000000000000000000000000000000000000007000000000000070000000000000000000000000000000000000000000000000000000000
310
00000000000000000000000000000000000000000000000000000000000000000000000000000000000000000000000000000000000000000000000000000000000000000000000000000000000000000000000000000000000000000000000000000000000000000000000000000000070000000000000007000000000000
310
00000000000000000000000000000000070000000000000700000000000000000000000000000000000000000000000000000000000000000000000000000000000000000000000000000000000000000000000000000000000000000000000000000000000000000000000000000000000000000000000000000000000000
310
00000000000000000000000000000000000000000000000000000000000000000000000000000700000000000000000700000000000000000000000000000000000000000007000000000000070000000000000000000000000000000000000000000000000000000000000000000000000000000000000000000000000000
310
00000000000000000000000000000000000000000000000000000000000000000000000000000000000000000000000000000000000000000000000000000000000000000000000000000000000000000000000000000000000000000700000000000000070000000000000000000000000000000000000000070000000000
310
00000700000000000000000000000000000000000000000000000000000000000000000000000000000000000000000000000000000000000000000000000000000000000000000000000000000000000000000000000000000000000000000000000000000000000000000000000000000000000000000000000000000000
310
00000000000000000000000000000000000007000000000000000007000000000000000000000000000000000000000700000000000000070000000000000000000000000000000000000000000000000000000000000000000000000000000000000000000000000000000000000000000000000000000000000000000000
310
00000000000000000000000000000000000000000000000000000000000000000000000000000000000000000000000000000000000000000000000000000000000000000000000007000000000000000700000000000000000000000000000000000000070000000000000007000000000000000000000000000000000000
310
00000000000000000000000000000000000000000000000000000000000000000000000000000000000000000000000000000000000000000000000000000000000000000000000000000000000000000000000000000000000000000000000000000000000000000000000000000000000000000000000000000000000700
310
00000000000000070000000000000000000000000000000000070000000000000000070000000000000000000000000000000000000000000000000000000000000000000000000000000000000000000000000000000000000000000000000000000000000000000000000000000000000000000000000000000000000000
310
00000000000000000000000000000000000000000000000000000000000000000000000000000000000000000000000000000000070000000000000007000000000000000000000000000000000007000000000000000700000000000000000000000000000000000000000000000000000000000000000000000000000000
310
00000000000000000000000000000000000000000000000000000000000000000000000000000000000000000000000000000000000000000000000000000000000000000000000000000000000000000000000000000000000000000000000000000000000000000007000000000000000007000000000000000000000000
310
00000000070000000000000007000000000000000000000000000000000000000000000000000000000000000000000000000000000000000000000000000000000000000000000000000000000000000000000000000000000000000000000000000000000000000000000000000000000000000000000000000000000000
310
00000000000000000000000000000000000000000000000000000000000000070000000000000000000707000000000000000000000000070700000000000000070000000000000000000000000000000000000000000000000000000000000000000000000000000000000000000000000000000000000000000000000000
310
00000000000000000000000000000000000000000000000000000000000000000000000000000000000000000000000000000000000000000000000000000000000000000000000000000000000000000000000000070000000000000000000007000000000000000000070700000000000000000007000000000000000000
310
00000000000000000000000000000000000000000000000000000000000000000000000000000000000000000000000000000000000000000000000000000000000000000000000000000000000000000000000000000000000000000000000000000000000000000000000000000000000000000000000000000000000000
310
00000000000000000000000007000000000000000000000707000000000007070000000000000000000007000000000000000000000000000000000000000000000000000000000000000000000000000000000000000000000000000000000000000000000000000000000000000000000000000000000000000000000000
310
00000000000000000000000000000000000000000000000000000000000000000000000000000000000000000000000000000000000000000000000000000000000007000000000000000000000007070707070000000000000000000000000700000000000000000000000000000000000000000000000000000000000000
310
00000000000000000000000000000000000000000000000000000000000000000000000000000000000000000000000000000000000000000000000000000000000000000000000000000000000000000000000000000000000000000000000000000000000000000000000000000000000000000000000700000000000000
310
00000000000000000000000000000000000000000700000000000000000000000000000000000000000000000000000000000000000000000000000000000000000000000000000000000000000000000000000000000000000000000000000000000000000000000000000000000000000000000000000000000000000000
310
00000000000000000000000000000000000000000000000000000000000000000000000000000000000000000000070000000000000000000000000000000000000000000000000007000000000000000000000000000000000000000000000000000000000000000000000000000000000000000000000000000000000000
310
00000000000000000000000000000000000000000000000000000000000000000000000000000000000000000000000000000000000000000000000000000000000000000000000000000000000000000000000000000000000000000000000000000000070000000000000000000000000000000000000000000000070000
310
00000000000000000000000000000000000000000000000000000000000000000000000000000000000000000000000000000000000000000000000000000000000000000000000000000000000000000000000000000000000000000000000000000000000000000000000000000000000000000000000000000000000000
310
00000000000000000000000000000000000000000000000000000007000000000000000000000000000000000000000000070000000000000000000000000000000000000000000000000000000000000000000000000000000000000000000000000000000000000000000000000000000000000000000000000000000000
310
00000000000000000000000000000000000000000000000000000000000000000000000000000000000000000000000000000000000000000000000000000000000000000000000000000000000000000007070000000000000000000000000000000000070700000000000000000000000000000000000000000000000000
310
00000000000000000000000000000000000000000000000000000000000000000000000000000000000000000000000000000000000000000000000000000000000000000000000000000000000000000000000000000000000000000000000000000000000000000000000000000000000000000000000000000000000000
310
00000000000000000007070000000000000000000000000007070000000000000000000000000000000000000000000000000000000000000000000000000000000000000000000000000000000000000000000000000000000000000000000000000000000000000000000000000000000000000000000000000000000000
310
00000000000000000000000000000000000000000000000000000000000000000000000000000000000000000000000000000000000000000000000000000000070707070707070707070707070000000000000000000000000000000000000000000000000000000000000000000000000000000000000000000000000000
310
00000000000000000000000000000000000000000000000000000000000000000000000000000000000000000000000000000000000000000000000000000000000000000000000000000000000000000000000000000000000000000000000000000000000000000000000000000000000000000000000000000000000000
310
00000000000000000000000000000000000000000000000000000000000000000000000000000000000000000000000000000000000000000000000000000000000000000000000000000000000000000000000000000000000000000000000000000000000000000000000000000000000000000000000000000000000000
310
00000000000000000000000000000000000000000000000000000000000000000000000000000000000000000000000000000000000000000000000000000000000000000000000000000000000000000000000000000000000000000000000000000000000000000000000000000000000000000000000000000000000000
310
00000000000000000000000000000000000000000000000000000000000000000000000000000000000000000000000000000000000000000000000000000000000000000000000000000000000000000000000000000000000000000000000000000000000000000000000000000000000000000000000000000000000000
310
00000000000000000000000000000000000000000000000000000000000000000000000000000000000000000000000000000000000000000000000000000000000000000000000000000000000000000000000000000000000000000000000000000000000000000000000000000000000000000000000000000000000000
310
000000000000000000000000000000000000000000000000000000000000000000000000000000000000000000000000000000000000000000000000000000000000000000000000000000000000000000000000000000000000000000000000000000000000000000000000
  0
ENDSEC
  0
EOF
