  0
SECTION
  2
HEADER
  9
$ACADVER
  1
AC1015
  9
$ACADMAINTVER
 70
     6
  9
$DWGCODEPAGE
  3
ANSI_1252
  9
$INSBASE
 10
0.0
 20
0.0
 30
0.0
  9
$EXTMIN
 10
0.0
 20
-17.776890559471
 30
0.0
  9
$EXTMAX
 10
418.932538159769
 20
239.90835
 30
0.0
  9
$LIMMIN
 10
0.0
 20
0.0
  9
$LIMMAX
 10
12.0
 20
9.0
  9
$ORTHOMODE
 70
     0
  9
$REGENMODE
 70
     1
  9
$FILLMODE
 70
     1
  9
$QTEXTMODE
 70
     0
  9
$MIRRTEXT
 70
     1
  9
$LTSCALE
 40
1.0
  9
$ATTMODE
 70
     1
  9
$TEXTSIZE
 40
0.2
  9
$TRACEWID
 40
0.05
  9
$TEXTSTYLE
  7
Standard
  9
$CLAYER
  8
0
  9
$CELTYPE
  6
ByBlock
  9
$CECOLOR
 62
   256
  9
$CELTSCALE
 40
1.0
  9
$DISPSILH
 70
     0
  9
$DIMSCALE
 40
1.0
  9
$DIMASZ
 40
0.18
  9
$DIMEXO
 40
0.0625
  9
$DIMDLI
 40
0.38
  9
$DIMRND
 40
0.0
  9
$DIMDLE
 40
0.0
  9
$DIMEXE
 40
0.18
  9
$DIMTP
 40
0.0
  9
$DIMTM
 40
0.0
  9
$DIMTXT
 40
0.18
  9
$DIMCEN
 40
0.09
  9
$DIMTSZ
 40
0.0
  9
$DIMTOL
 70
     0
  9
$DIMLIM
 70
     0
  9
$DIMTIH
 70
     1
  9
$DIMTOH
 70
     1
  9
$DIMSE1
 70
     0
  9
$DIMSE2
 70
     0
  9
$DIMTAD
 70
     0
  9
$DIMZIN
 70
     0
  9
$DIMBLK
  1

  9
$DIMASO
 70
     1
  9
$DIMSHO
 70
     1
  9
$DIMPOST
  1

  9
$DIMAPOST
  1

  9
$DIMALT
 70
     0
  9
$DIMALTD
 70
     2
  9
$DIMALTF
 40
25.4
  9
$DIMLFAC
 40
1.0
  9
$DIMTOFL
 70
     0
  9
$DIMTVP
 40
0.0
  9
$DIMTIX
 70
     0
  9
$DIMSOXD
 70
     0
  9
$DIMSAH
 70
     0
  9
$DIMBLK1
  1

  9
$DIMBLK2
  1

  9
$DIMSTYLE
  2
Standard
  9
$DIMCLRD
 70
     0
  9
$DIMCLRE
 70
     0
  9
$DIMCLRT
 70
     0
  9
$DIMTFAC
 40
1.0
  9
$DIMGAP
 40
0.09
  9
$DIMJUST
 70
     0
  9
$DIMSD1
 70
     0
  9
$DIMSD2
 70
     0
  9
$DIMTOLJ
 70
     1
  9
$DIMTZIN
 70
     0
  9
$DIMALTZ
 70
     0
  9
$DIMALTTZ
 70
     0
  9
$DIMUPT
 70
     0
  9
$DIMDEC
 70
     4
  9
$DIMTDEC
 70
     4
  9
$DIMALTU
 70
     2
  9
$DIMALTTD
 70
     2
  9
$DIMTXSTY
  7
Standard
  9
$DIMAUNIT
 70
     0
  9
$DIMADEC
 70
     0
  9
$DIMALTRND
 40
0.0
  9
$DIMAZIN
 70
     0
  9
$DIMDSEP
 70
    46
  9
$DIMATFIT
 70
     3
  9
$DIMFRAC
 70
     0
  9
$DIMLDRBLK
  1

  9
$DIMLUNIT
 70
     2
  9
$DIMLWD
 70
    -2
  9
$DIMLWE
 70
    -2
  9
$DIMTMOVE
 70
     2
  9
$LUNITS
 70
     2
  9
$LUPREC
 70
     4
  9
$SKETCHINC
 40
0.1
  9
$FILLETRAD
 40
0.5
  9
$AUNITS
 70
     0
  9
$AUPREC
 70
     0
  9
$MENU
  1
.
  9
$ELEVATION
 40
0.0
  9
$PELEVATION
 40
0.0
  9
$THICKNESS
 40
0.0
  9
$LIMCHECK
 70
     0
  9
$CHAMFERA
 40
0.5
  9
$CHAMFERB
 40
0.5
  9
$CHAMFERC
 40
1.0
  9
$CHAMFERD
 40
0.0
  9
$SKPOLY
 70
     0
  9
$TDCREATE
 40
2455824.934863275
  9
$TDUCREATE
 40
2455824.851529942
  9
$TDUPDATE
 40
2456209.830775822
  9
$TDUUPDATE
 40
2456209.747442489
  9
$TDINDWG
 40
0.0044475463
  9
$TDUSRTIMER
 40
0.0044475463
  9
$USRTIMER
 70
     1
  9
$ANGBASE
 50
0.0
  9
$ANGDIR
 70
     0
  9
$PDMODE
 70
     0
  9
$PDSIZE
 40
0.0
  9
$PLINEWID
 40
0.0
  9
$SPLFRAME
 70
     0
  9
$SPLINETYPE
 70
     6
  9
$SPLINESEGS
 70
     8
  9
$HANDSEED
  5
D77
  9
$SURFTAB1
 70
     6
  9
$SURFTAB2
 70
     6
  9
$SURFTYPE
 70
     6
  9
$SURFU
 70
     6
  9
$SURFV
 70
     6
  9
$UCSBASE
  2

  9
$UCSNAME
  2

  9
$UCSORG
 10
0.0
 20
0.0
 30
0.0
  9
$UCSXDIR
 10
1.0
 20
0.0
 30
0.0
  9
$UCSYDIR
 10
0.0
 20
1.0
 30
0.0
  9
$UCSORTHOREF
  2

  9
$UCSORTHOVIEW
 70
     0
  9
$UCSORGTOP
 10
0.0
 20
0.0
 30
0.0
  9
$UCSORGBOTTOM
 10
0.0
 20
0.0
 30
0.0
  9
$UCSORGLEFT
 10
0.0
 20
0.0
 30
0.0
  9
$UCSORGRIGHT
 10
0.0
 20
0.0
 30
0.0
  9
$UCSORGFRONT
 10
0.0
 20
0.0
 30
0.0
  9
$UCSORGBACK
 10
0.0
 20
0.0
 30
0.0
  9
$PUCSBASE
  2

  9
$PUCSNAME
  2

  9
$PUCSORG
 10
0.0
 20
0.0
 30
0.0
  9
$PUCSXDIR
 10
1.0
 20
0.0
 30
0.0
  9
$PUCSYDIR
 10
0.0
 20
1.0
 30
0.0
  9
$PUCSORTHOREF
  2

  9
$PUCSORTHOVIEW
 70
     0
  9
$PUCSORGTOP
 10
0.0
 20
0.0
 30
0.0
  9
$PUCSORGBOTTOM
 10
0.0
 20
0.0
 30
0.0
  9
$PUCSORGLEFT
 10
0.0
 20
0.0
 30
0.0
  9
$PUCSORGRIGHT
 10
0.0
 20
0.0
 30
0.0
  9
$PUCSORGFRONT
 10
0.0
 20
0.0
 30
0.0
  9
$PUCSORGBACK
 10
0.0
 20
0.0
 30
0.0
  9
$USERI1
 70
     0
  9
$USERI2
 70
     0
  9
$USERI3
 70
     0
  9
$USERI4
 70
     0
  9
$USERI5
 70
     0
  9
$USERR1
 40
0.0
  9
$USERR2
 40
0.0
  9
$USERR3
 40
0.0
  9
$USERR4
 40
0.0
  9
$USERR5
 40
0.0
  9
$WORLDVIEW
 70
     1
  9
$SHADEDGE
 70
     3
  9
$SHADEDIF
 70
    70
  9
$TILEMODE
 70
     1
  9
$MAXACTVP
 70
    64
  9
$PINSBASE
 10
0.0
 20
0.0
 30
0.0
  9
$PLIMCHECK
 70
     0
  9
$PEXTMIN
 10
1.000000000000E+20
 20
1.000000000000E+20
 30
1.000000000000E+20
  9
$PEXTMAX
 10
-1.000000000000E+20
 20
-1.000000000000E+20
 30
-1.000000000000E+20
  9
$PLIMMIN
 10
0.0
 20
0.0
  9
$PLIMMAX
 10
12.0
 20
9.0
  9
$UNITMODE
 70
     0
  9
$VISRETAIN
 70
     1
  9
$PLINEGEN
 70
     0
  9
$PSLTSCALE
 70
     1
  9
$TREEDEPTH
 70
  3020
  9
$CMLSTYLE
  2
Standard
  9
$CMLJUST
 70
     0
  9
$CMLSCALE
 40
1.0
  9
$PROXYGRAPHICS
 70
     1
  9
$MEASUREMENT
 70
     0
  9
$CELWEIGHT
370
    -1
  9
$ENDCAPS
280
     0
  9
$JOINSTYLE
280
     0
  9
$LWDISPLAY
290
     0
  9
$INSUNITS
 70
     0
  9
$HYPERLINKBASE
  1

  9
$STYLESHEET
  1

  9
$XEDIT
290
     1
  9
$CEPSNTYPE
380
     0
  9
$PSTYLEMODE
290
     1
  9
$FINGERPRINTGUID
  2
{584C6BA7-CCAE-49CD-9859-4C2F3FA158BA}
  9
$VERSIONGUID
  2
{FAEB1C32-E019-11D5-929B-00C0DF256EC4}
  9
$EXTNAMES
290
     1
  9
$PSVPSCALE
 40
0.0
  9
$OLESTARTUP
290
     0
  0
ENDSEC
  0
SECTION
  2
CLASSES
  0
CLASS
  1
ACDBDICTIONARYWDFLT
  2
AcDbDictionaryWithDefault
  3
ObjectDBX Classes
 90
        0
280
     0
281
     0
  0
CLASS
  1
SCALE
  2
AcDbScale
  3
ObjectDBX Classes
 90
     1153
280
     0
281
     0
  0
CLASS
  1
DICTIONARYVAR
  2
AcDbDictionaryVar
  3
ObjectDBX Classes
 90
        0
280
     0
281
     0
  0
CLASS
  1
ACDBPLACEHOLDER
  2
AcDbPlaceHolder
  3
ObjectDBX Classes
 90
        0
280
     0
281
     0
  0
CLASS
  1
LAYOUT
  2
AcDbLayout
  3
ObjectDBX Classes
 90
        0
280
     0
281
     0
  0
ENDSEC
  0
SECTION
  2
TABLES
  0
TABLE
  2
VPORT
  5
8
330
0
100
AcDbSymbolTable
 70
     1
  0
VPORT
  5
72D
330
8
100
AcDbSymbolTableRecord
100
AcDbViewportTableRecord
  2
*Active
 70
     0
 10
0.0
 20
0.0
 11
1.0
 21
1.0
 12
209.466269079885
 22
111.065729720265
 13
0.0
 23
0.0
 14
0.5
 24
0.5
 15
0.5
 25
0.5
 16
0.0
 26
0.0
 36
1.0
 17
0.0
 27
0.0
 37
0.0
 40
262.83894537066
 41
2.271724137931
 42
50.0
 43
0.0
 44
0.0
 50
0.0
 51
0.0
 71
    16
 72
   100
 73
     1
 74
     3
 75
     0
 76
     0
 77
     0
 78
     0
281
     0
 65
     1
110
0.0
120
0.0
130
0.0
111
1.0
121
0.0
131
0.0
112
0.0
122
1.0
132
0.0
 79
     0
146
0.0
  0
ENDTAB
  0
TABLE
  2
LTYPE
  5
5
330
0
100
AcDbSymbolTable
 70
     1
  0
LTYPE
  5
14
330
5
100
AcDbSymbolTableRecord
100
AcDbLinetypeTableRecord
  2
ByBlock
 70
     0
  3

 72
    65
 73
     0
 40
0.0
  0
LTYPE
  5
15
330
5
100
AcDbSymbolTableRecord
100
AcDbLinetypeTableRecord
  2
ByLayer
 70
     0
  3

 72
    65
 73
     0
 40
0.0
  0
LTYPE
  5
16
330
5
100
AcDbSymbolTableRecord
100
AcDbLinetypeTableRecord
  2
Continuous
 70
     0
  3
Solid line
 72
    65
 73
     0
 40
0.0
  0
ENDTAB
  0
TABLE
  2
LAYER
  5
2
330
0
100
AcDbSymbolTable
 70
     1
  0
LAYER
  5
10
330
2
100
AcDbSymbolTableRecord
100
AcDbLayerTableRecord
  2
0
 70
     0
 62
     7
  6
Continuous
370
    -3
390
F
  0
ENDTAB
  0
TABLE
  2
STYLE
  5
3
330
0
100
AcDbSymbolTable
 70
     1
  0
STYLE
  5
11
330
3
100
AcDbSymbolTableRecord
100
AcDbTextStyleTableRecord
  2
Standard
 70
     0
 40
0.0
 41
1.0
 50
0.0
 71
     0
 42
0.2
  3
txt
  4

  0
ENDTAB
  0
TABLE
  2
VIEW
  5
6
330
0
100
AcDbSymbolTable
 70
     0
  0
ENDTAB
  0
TABLE
  2
UCS
  5
7
330
0
100
AcDbSymbolTable
 70
     0
  0
ENDTAB
  0
TABLE
  2
APPID
  5
9
330
0
100
AcDbSymbolTable
 70
     1
  0
APPID
  5
12
330
9
100
AcDbSymbolTableRecord
100
AcDbRegAppTableRecord
  2
ACAD
 70
     0
  0
ENDTAB
  0
TABLE
  2
DIMSTYLE
  5
A
330
0
100
AcDbSymbolTable
 70
     1
100
AcDbDimStyleTable
  0
DIMSTYLE
105
20
330
A
100
AcDbSymbolTableRecord
100
AcDbDimStyleTableRecord
  2
Standard
 70
     0
340
11
  0
ENDTAB
  0
TABLE
  2
BLOCK_RECORD
  5
1
330
0
100
AcDbSymbolTable
 70
     1
  0
BLOCK_RECORD
  5
1D
330
1
100
AcDbSymbolTableRecord
100
AcDbBlockTableRecord
  2
*Model_Space
340
1E
  0
BLOCK_RECORD
  5
1B
330
1
100
AcDbSymbolTableRecord
100
AcDbBlockTableRecord
  2
*Paper_Space
340
1C
  0
ENDTAB
  0
ENDSEC
  0
SECTION
  2
BLOCKS
  0
BLOCK
  5
730
330
1D
100
AcDbEntity
  8
0
100
AcDbBlockBegin
  2
*Model_Space
 70
     0
 10
0.0
 20
0.0
 30
0.0
  3
*Model_Space
  1
*Model_Space
  0
ENDBLK
  5
731
330
1D
100
AcDbEntity
  8
0
100
AcDbBlockEnd
  0
BLOCK
  5
72E
330
1B
100
AcDbEntity
 67
     1
  8
0
100
AcDbBlockBegin
  2
*Paper_Space
 70
     0
 10
0.0
 20
0.0
 30
0.0
  3
*Paper_Space
  1
*Paper_Space
  0
ENDBLK
  5
72F
330
1B
100
AcDbEntity
 67
     1
  8
0
100
AcDbBlockEnd
  0
ENDSEC
  0
SECTION
  2
ENTITIES
  0
LINE
  5
21
330
1D
100
AcDbEntity
  8
0
100
AcDbLine
 10
9.3094
 20
162.43535
 30
0.0
 11
11.3704
 21
161.90935
 31
0.0
  0
LINE
  5
27
330
1D
100
AcDbEntity
  8
0
100
AcDbLine
 10
7.7292
 20
163.16935
 30
0.0
 11
9.3094
 21
162.43535
 31
0.0
  0
LINE
  5
29
330
1D
100
AcDbEntity
  8
0
100
AcDbLine
 10
6.3011
 20
164.16635
 30
0.0
 11
7.7292
 21
163.16935
 31
0.0
  0
LINE
  5
30
330
1D
100
AcDbEntity
  8
0
100
AcDbLine
 10
5.0691
 20
165.39535
 30
0.0
 11
6.3011
 21
164.16635
 31
0.0
  0
LINE
  5
44
330
1D
100
AcDbEntity
  8
0
100
AcDbLine
 10
35.8547
 20
167.19135
 30
0.0
 11
38.8233
 21
167.10635
 31
0.0
  0
LINE
  5
48
330
1D
100
AcDbEntity
  8
0
100
AcDbLine
 10
33.0179
 20
167.50635
 30
0.0
 11
35.8547
 21
167.19135
 31
0.0
  0
LINE
  5
51
330
1D
100
AcDbEntity
  8
0
100
AcDbLine
 10
4.0694
 20
166.81935
 30
0.0
 11
5.0691
 21
165.39535
 31
0.0
  0
LINE
  5
54
330
1D
100
AcDbEntity
  8
0
100
AcDbLine
 10
30.2288
 20
168.11135
 30
0.0
 11
33.0179
 21
167.50635
 31
0.0
  0
LINE
  5
5B
330
1D
100
AcDbEntity
  8
0
100
AcDbLine
 10
27.5103
 20
168.97835
 30
0.0
 11
30.2288
 21
168.11135
 31
0.0
  0
LINE
  5
5D
330
1D
100
AcDbEntity
  8
0
100
AcDbLine
 10
3.3328
 20
168.39435
 30
0.0
 11
4.0694
 21
166.81935
 31
0.0
  0
LINE
  5
6D
330
1D
100
AcDbEntity
  8
0
100
AcDbLine
 10
24.8964
 20
170.12135
 30
0.0
 11
27.5103
 21
168.97835
 31
0.0
  0
LINE
  5
6F
330
1D
100
AcDbEntity
  8
0
100
AcDbLine
 10
2.8815
 20
170.07335
 30
0.0
 11
3.3328
 21
168.39435
 31
0.0
  0
LINE
  5
74
330
1D
100
AcDbEntity
  8
0
100
AcDbLine
 10
0.2544
 20
176.45835
 30
0.0
 11
0.6789
 21
175.64235
 31
0.0
  0
LINE
  5
75
330
1D
100
AcDbEntity
  8
0
100
AcDbLine
 10
0.1091
 20
178.61835
 30
0.0
 11
0.4724
 21
179.63835
 31
0.0
  0
LINE
  5
76
330
1D
100
AcDbEntity
  8
0
100
AcDbLine
 10
0.0
 20
177.47235
 30
0.0
 11
0.2544
 21
176.45835
 31
0.0
  0
LINE
  5
77
330
1D
100
AcDbEntity
  8
0
100
AcDbLine
 10
0.0
 20
177.47235
 30
0.0
 11
0.1091
 21
178.61835
 31
0.0
  0
LINE
  5
78
330
1D
100
AcDbEntity
  8
0
100
AcDbLine
 10
2.0414
 20
173.95735
 30
0.0
 11
2.5459
 21
173.71035
 31
0.0
  0
LINE
  5
79
330
1D
100
AcDbEntity
  8
0
100
AcDbLine
 10
1.2416
 20
174.74135
 30
0.0
 11
2.0414
 21
173.95735
 31
0.0
  0
LINE
  5
7A
330
1D
100
AcDbEntity
  8
0
100
AcDbLine
 10
2.5459
 20
173.71035
 30
0.0
 11
3.3689
 21
173.40135
 31
0.0
  0
LINE
  5
7B
330
1D
100
AcDbEntity
  8
0
100
AcDbLine
 10
0.6789
 20
175.64235
 30
0.0
 11
1.2416
 21
174.74135
 31
0.0
  0
LINE
  5
7C
330
1D
100
AcDbEntity
  8
0
100
AcDbLine
 10
0.4724
 20
179.63835
 30
0.0
 11
0.9196
 21
180.45635
 31
0.0
  0
LINE
  5
7D
330
1D
100
AcDbEntity
  8
0
100
AcDbLine
 10
2.5911
 20
182.23235
 30
0.0
 11
3.5275
 21
182.99535
 31
0.0
  0
LINE
  5
7E
330
1D
100
AcDbEntity
  8
0
100
AcDbLine
 10
1.6885
 20
181.44735
 30
0.0
 11
2.5911
 21
182.23235
 31
0.0
  0
LINE
  5
7F
330
1D
100
AcDbEntity
  8
0
100
AcDbLine
 10
0.9196
 20
180.45635
 30
0.0
 11
1.6885
 21
181.44735
 31
0.0
  0
LINE
  5
80
330
1D
100
AcDbEntity
  8
0
100
AcDbLine
 10
3.3689
 20
173.40135
 30
0.0
 11
4.2603
 21
173.25135
 31
0.0
  0
LINE
  5
81
330
1D
100
AcDbEntity
  8
0
100
AcDbLine
 10
3.5275
 20
182.99535
 30
0.0
 11
4.2122
 21
183.43235
 31
0.0
  0
LINE
  5
82
330
1D
100
AcDbEntity
  8
0
100
AcDbLine
 10
4.2603
 20
173.25135
 30
0.0
 11
5.0349
 21
173.24235
 31
0.0
  0
LINE
  5
83
330
1D
100
AcDbEntity
  8
0
100
AcDbLine
 10
6.4573
 20
173.42835
 30
0.0
 11
9.012
 21
174.44535
 31
0.0
  0
LINE
  5
86
330
1D
100
AcDbEntity
  8
0
100
AcDbLine
 10
8.2195
 20
194.85435
 30
0.0
 11
8.519
 21
192.06435
 31
0.0
  0
LINE
  5
87
330
1D
100
AcDbEntity
  8
0
100
AcDbLine
 10
5.0349
 20
173.24235
 30
0.0
 11
6.4573
 21
173.42835
 31
0.0
  0
LINE
  5
88
330
1D
100
AcDbEntity
  8
0
100
AcDbLine
 10
4.2122
 20
183.43235
 30
0.0
 11
19.8577
 21
193.36335
 31
0.0
  0
LINE
  5
8D
330
1D
100
AcDbEntity
  8
0
100
AcDbLine
 10
8.1155
 20
197.71535
 30
0.0
 11
8.3639
 21
200.63035
 31
0.0
  0
LINE
  5
8E
330
1D
100
AcDbEntity
  8
0
100
AcDbLine
 10
8.1155
 20
197.71535
 30
0.0
 11
8.2195
 21
194.85435
 31
0.0
  0
LINE
  5
91
330
1D
100
AcDbEntity
  8
0
100
AcDbLine
 10
8.3639
 20
200.63035
 30
0.0
 11
8.8914
 21
203.31935
 31
0.0
  0
LINE
  5
96
330
1D
100
AcDbEntity
  8
0
100
AcDbLine
 10
2.7294
 20
182.345039982913
 30
0.0
 11
2.7294
 21
222.19735
 31
0.0
  0
LINE
  5
97
330
1D
100
AcDbEntity
  8
0
100
AcDbLine
 10
2.7294
 20
171.80435
 30
0.0
 11
2.7294
 21
173.641453888214
 31
0.0
  0
LINE
  5
98
330
1D
100
AcDbEntity
  8
0
100
AcDbLine
 10
2.7294
 20
171.80435
 30
0.0
 11
2.8815
 21
170.07335
 31
0.0
  0
LINE
  5
9D
330
1D
100
AcDbEntity
  8
0
100
AcDbLine
 10
15.7982
 20
176.88635
 30
0.0
 11
17.832
 21
174.89035
 31
0.0
  0
LINE
  5
9E
330
1D
100
AcDbEntity
  8
0
100
AcDbLine
 10
15.178635912595
 20
177.647453920075
 30
0.0
 11
15.7982
 21
176.88635
 31
0.0
  0
LINE
  5
9F
330
1D
100
AcDbEntity
  8
0
100
AcDbLine
 10
9.012
 20
174.44535
 30
0.0
 11
25.9437
 21
183.23735
 31
0.0
  0
LINE
  5
A1
330
1D
100
AcDbEntity
  8
0
100
AcDbLine
 10
9.1241
 20
189.29135
 30
0.0
 11
9.878465208128
 21
187.029018676739
 31
0.0
  0
LINE
  5
A7
330
1D
100
AcDbEntity
  8
0
100
AcDbLine
 10
22.3934
 20
171.48435
 30
0.0
 11
24.8964
 21
170.12135
 31
0.0
  0
LINE
  5
AC
330
1D
100
AcDbEntity
  8
0
100
AcDbLine
 10
20.0177
 20
173.06035
 30
0.0
 11
22.3934
 21
171.48435
 31
0.0
  0
LINE
  5
AD
330
1D
100
AcDbEntity
  8
0
100
AcDbLine
 10
17.832
 20
174.89035
 30
0.0
 11
20.0177
 21
173.06035
 31
0.0
  0
LINE
  5
AE
330
1D
100
AcDbEntity
  8
0
100
AcDbLine
 10
25.87213669377
 20
183.200189845475
 30
0.0
 11
26.4271
 21
183.44035
 31
0.0
  0
LINE
  5
AF
330
1D
100
AcDbEntity
  8
0
100
AcDbLine
 10
25.87213669377
 20
183.200189845475
 30
0.0
 11
26.4271
 21
183.44035
 31
0.0
  0
LINE
  5
B1
330
1D
100
AcDbEntity
  8
0
100
AcDbLine
 10
35.7839
 20
182.15335
 30
0.0
 11
37.8523
 21
182.00435
 31
0.0
  0
LINE
  5
B2
330
1D
100
AcDbEntity
  8
0
100
AcDbLine
 10
34.3773
 20
182.46235
 30
0.0
 11
35.7839
 21
182.15335
 31
0.0
  0
LINE
  5
B3
330
1D
100
AcDbEntity
  8
0
100
AcDbLine
 10
32.861
 20
182.85835
 30
0.0
 11
34.3773
 21
182.46235
 31
0.0
  0
LINE
  5
B4
330
1D
100
AcDbEntity
  8
0
100
AcDbLine
 10
30.550511868094
 20
183.639281988982
 30
0.0
 11
32.861
 21
182.85835
 31
0.0
  0
LINE
  5
B6
330
1D
100
AcDbEntity
  8
0
100
AcDbLine
 10
29.43081641583
 20
183.884300708763
 30
0.0
 11
29.7165
 21
183.83035
 31
0.0
  0
LINE
  5
B8
330
1D
100
AcDbEntity
  8
0
100
AcDbLine
 10
27.779454691196
 20
183.843978917723
 30
0.0
 11
28.5674
 21
183.92935
 31
0.0
  0
LINE
  5
CC
330
1D
100
AcDbEntity
  8
0
100
AcDbLine
 10
19.8577
 20
193.36335
 30
0.0
 11
21.550706116162
 21
194.854836738298
 31
0.0
  0
LINE
  5
CE
330
1D
100
AcDbEntity
  8
0
100
AcDbLine
 10
21.550706116162
 20
194.854836738298
 30
0.0
 11
21.9304
 21
195.39535
 31
0.0
  0
LINE
  5
CF
330
1D
100
AcDbEntity
  8
0
100
AcDbLine
 10
21.9304
 20
195.39535
 30
0.0
 11
22.1813
 21
195.87535
 31
0.0
  0
LINE
  5
D1
330
1D
100
AcDbEntity
  8
0
100
AcDbLine
 10
23.4275
 20
200.86935
 30
0.0
 11
24.2287
 21
203.04935
 31
0.0
  0
LINE
  5
D2
330
1D
100
AcDbEntity
  8
0
100
AcDbLine
 10
22.9971
 20
198.78835
 30
0.0
 11
23.4275
 21
200.86935
 31
0.0
  0
LINE
  5
D3
330
1D
100
AcDbEntity
  8
0
100
AcDbLine
 10
22.597520082298
 20
196.997129679268
 30
0.0
 11
22.9971
 21
198.78835
 31
0.0
  0
LINE
  5
D5
330
1D
100
AcDbEntity
  8
0
100
AcDbLine
 10
22.1813
 20
195.87535
 30
0.0
 11
22.4185
 21
196.43435
 31
0.0
  0
LINE
  5
DA
330
1D
100
AcDbEntity
  8
0
100
AcDbLine
 10
24.2287
 20
203.04935
 30
0.0
 11
24.7758
 21
204.13535
 31
0.0
  0
LINE
  5
DC
330
1D
100
AcDbEntity
  8
0
100
AcDbLine
 10
8.519
 20
192.06435
 30
0.0
 11
9.1241
 21
189.29135
 31
0.0
  0
LINE
  5
121
330
1D
100
AcDbEntity
  8
0
100
AcDbLine
 10
8.8914
 20
203.31935
 30
0.0
 11
9.5375
 21
205.99635
 31
0.0
  0
LINE
  5
122
330
1D
100
AcDbEntity
  8
0
100
AcDbLine
 10
24.7758
 20
204.13535
 30
0.0
 11
25.3361
 21
205.11335
 31
0.0
  0
LINE
  5
126
330
1D
100
AcDbEntity
  8
0
100
AcDbLine
 10
25.3361
 20
205.11335
 30
0.0
 11
26.71
 21
206.95335
 31
0.0
  0
LINE
  5
128
330
1D
100
AcDbEntity
  8
0
100
AcDbLine
 10
9.5375
 20
205.99635
 30
0.0
 11
10.5224
 21
208.73835
 31
0.0
  0
LINE
  5
12C
330
1D
100
AcDbEntity
  8
0
100
AcDbLine
 10
26.71
 20
206.95335
 30
0.0
 11
27.1847
 21
207.34435
 31
0.0
  0
LINE
  5
130
330
1D
100
AcDbEntity
  8
0
100
AcDbLine
 10
10.5224
 20
208.73835
 30
0.0
 11
11.8151
 21
211.30435
 31
0.0
  0
LINE
  5
132
330
1D
100
AcDbEntity
  8
0
100
AcDbLine
 10
28.0309
 20
208.27035
 30
0.0
 11
29.588
 21
209.61035
 31
0.0
  0
LINE
  5
133
330
1D
100
AcDbEntity
  8
0
100
AcDbLine
 10
27.1847
 20
207.34435
 30
0.0
 11
28.0309
 21
208.27035
 31
0.0
  0
LINE
  5
134
330
1D
100
AcDbEntity
  8
0
100
AcDbLine
 10
29.588
 20
209.61035
 30
0.0
 11
30.368903073502
 21
210.352393193095
 31
0.0
  0
LINE
  5
13F
330
1D
100
AcDbEntity
  8
0
100
AcDbLine
 10
31.1551
 20
211.27635
 30
0.0
 11
31.640789432049
 21
212.278155259709
 31
0.0
  0
LINE
  5
146
330
1D
100
AcDbEntity
  8
0
100
AcDbLine
 10
11.8151
 20
211.30435
 30
0.0
 11
13.2447
 21
213.71135
 31
0.0
  0
LINE
  5
150
330
1D
100
AcDbEntity
  8
0
100
AcDbLine
 10
114.0
 20
170.77435
 30
0.0
 11
114.151
 21
169.03735
 31
0.0
  0
LINE
  5
151
330
1D
100
AcDbEntity
  8
0
100
AcDbLine
 10
114.151
 20
169.03735
 30
0.0
 11
114.5989
 21
167.35235
 31
0.0
  0
LINE
  5
152
330
1D
100
AcDbEntity
  8
0
100
AcDbLine
 10
114.5989
 20
167.35235
 30
0.0
 11
115.3298
 21
165.77135
 31
0.0
  0
LINE
  5
153
330
1D
100
AcDbEntity
  8
0
100
AcDbLine
 10
115.3298
 20
165.77135
 30
0.0
 11
116.3219
 21
164.34335
 31
0.0
  0
LINE
  5
154
330
1D
100
AcDbEntity
  8
0
100
AcDbLine
 10
116.3219
 20
164.34335
 30
0.0
 11
117.5445
 21
163.11035
 31
0.0
  0
LINE
  5
155
330
1D
100
AcDbEntity
  8
0
100
AcDbLine
 10
117.5445
 20
163.11035
 30
0.0
 11
118.9617
 21
162.11035
 31
0.0
  0
LINE
  5
156
330
1D
100
AcDbEntity
  8
0
100
AcDbLine
 10
118.9617
 20
162.11035
 30
0.0
 11
120.5298
 21
161.37335
 31
0.0
  0
LINE
  5
157
330
1D
100
AcDbEntity
  8
0
100
AcDbLine
 10
120.5298
 20
161.37335
 30
0.0
 11
122.2003
 21
160.92135
 31
0.0
  0
LINE
  5
158
330
1D
100
AcDbEntity
  8
0
100
AcDbLine
 10
136.9593
 20
54.74165
 30
0.0
 11
137.0169
 21
54.66645
 31
0.0
  0
LINE
  5
159
330
1D
100
AcDbEntity
  8
0
100
AcDbLine
 10
137.0169
 20
54.66645
 30
0.0
 11
139.216
 21
52.04815
 31
0.0
  0
LINE
  5
15A
330
1D
100
AcDbEntity
  8
0
100
AcDbLine
 10
139.216
 20
52.04815
 30
0.0
 11
142.082
 21
50.03855
 31
0.0
  0
LINE
  5
15B
330
1D
100
AcDbEntity
  8
0
100
AcDbLine
 10
135.0961
 20
61.09335
 30
0.0
 11
135.5699
 21
57.80555
 31
0.0
  0
LINE
  5
15C
330
1D
100
AcDbEntity
  8
0
100
AcDbLine
 10
135.0961
 20
61.09335
 30
0.0
 11
135.0961
 21
95.46735
 31
0.0
  0
LINE
  5
15D
330
1D
100
AcDbEntity
  8
0
100
AcDbLine
 10
135.5699
 20
57.80555
 30
0.0
 11
136.9593
 21
54.74165
 31
0.0
  0
LINE
  5
15E
330
1D
100
AcDbEntity
  8
0
100
AcDbLine
 10
142.082
 20
50.03855
 30
0.0
 11
145.419
 21
48.77495
 31
0.0
  0
LINE
  5
161
330
1D
100
AcDbEntity
  8
0
100
AcDbLine
 10
135.0961
 20
98.91135
 30
0.0
 11
135.0961
 21
95.46735
 31
0.0
  0
LINE
  5
162
330
1D
100
AcDbEntity
  8
0
100
AcDbLine
 10
135.0961
 20
98.91135
 30
0.0
 11
135.0961
 21
103.16635
 31
0.0
  0
LINE
  5
163
330
1D
100
AcDbEntity
  8
0
100
AcDbLine
 10
135.0961
 20
103.16635
 30
0.0
 11
135.0961
 21
98.91135
 31
0.0
  0
LINE
  5
164
330
1D
100
AcDbEntity
  8
0
100
AcDbLine
 10
135.0961
 20
103.16635
 30
0.0
 11
135.0961
 21
108.15335
 31
0.0
  0
LINE
  5
165
330
1D
100
AcDbEntity
  8
0
100
AcDbLine
 10
135.0961
 20
108.15335
 30
0.0
 11
135.0961
 21
103.16635
 31
0.0
  0
LINE
  5
166
330
1D
100
AcDbEntity
  8
0
100
AcDbLine
 10
135.0961
 20
108.15335
 30
0.0
 11
135.0961
 21
113.78235
 31
0.0
  0
LINE
  5
167
330
1D
100
AcDbEntity
  8
0
100
AcDbLine
 10
135.0961
 20
113.78235
 30
0.0
 11
135.0961
 21
108.15335
 31
0.0
  0
LINE
  5
168
330
1D
100
AcDbEntity
  8
0
100
AcDbLine
 10
135.0961
 20
113.78235
 30
0.0
 11
135.0961
 21
119.95135
 31
0.0
  0
LINE
  5
169
330
1D
100
AcDbEntity
  8
0
100
AcDbLine
 10
135.0961
 20
119.95135
 30
0.0
 11
135.0961
 21
113.78235
 31
0.0
  0
LINE
  5
16A
330
1D
100
AcDbEntity
  8
0
100
AcDbLine
 10
135.0961
 20
119.95135
 30
0.0
 11
135.0961
 21
126.54635
 31
0.0
  0
LINE
  5
16B
330
1D
100
AcDbEntity
  8
0
100
AcDbLine
 10
135.0961
 20
126.54635
 30
0.0
 11
135.0961
 21
119.95135
 31
0.0
  0
LINE
  5
16C
330
1D
100
AcDbEntity
  8
0
100
AcDbLine
 10
135.0961
 20
126.54635
 30
0.0
 11
135.0961
 21
133.44835
 31
0.0
  0
LINE
  5
16D
330
1D
100
AcDbEntity
  8
0
100
AcDbLine
 10
135.0961
 20
133.44835
 30
0.0
 11
135.0961
 21
126.54635
 31
0.0
  0
LINE
  5
16E
330
1D
100
AcDbEntity
  8
0
100
AcDbLine
 10
135.0961
 20
133.44835
 30
0.0
 11
135.0961
 21
140.52935
 31
0.0
  0
LINE
  5
16F
330
1D
100
AcDbEntity
  8
0
100
AcDbLine
 10
135.0961
 20
140.52935
 30
0.0
 11
135.0961
 21
133.44835
 31
0.0
  0
LINE
  5
170
330
1D
100
AcDbEntity
  8
0
100
AcDbLine
 10
135.0961
 20
140.52935
 30
0.0
 11
135.0961
 21
147.65935
 31
0.0
  0
LINE
  5
171
330
1D
100
AcDbEntity
  8
0
100
AcDbLine
 10
135.0961
 20
147.65935
 30
0.0
 11
135.0961
 21
140.52935
 31
0.0
  0
LINE
  5
172
330
1D
100
AcDbEntity
  8
0
100
AcDbLine
 10
135.0961
 20
147.65935
 30
0.0
 11
135.0961
 21
154.71135
 31
0.0
  0
LINE
  5
173
330
1D
100
AcDbEntity
  8
0
100
AcDbLine
 10
135.0961
 20
154.71135
 30
0.0
 11
135.0961
 21
147.65935
 31
0.0
  0
LINE
  5
174
330
1D
100
AcDbEntity
  8
0
100
AcDbLine
 10
135.0961
 20
154.71135
 30
0.0
 11
135.0961
 21
161.55335
 31
0.0
  0
LINE
  5
175
330
1D
100
AcDbEntity
  8
0
100
AcDbLine
 10
135.0961
 20
95.46735
 30
0.0
 11
135.0961
 21
61.09335
 31
0.0
  0
LINE
  5
176
330
1D
100
AcDbEntity
  8
0
100
AcDbLine
 10
135.0961
 20
95.46735
 30
0.0
 11
135.0961
 21
98.91135
 31
0.0
  0
LINE
  5
179
330
1D
100
AcDbEntity
  8
0
100
AcDbLine
 10
145.419
 20
48.77495
 30
0.0
 11
149.0
 21
48.34435
 31
0.0
  0
LINE
  5
17E
330
1D
100
AcDbEntity
  8
0
100
AcDbLine
 10
135.0961
 20
179.61135
 30
0.0
 11
135.0961
 21
174.11835
 31
0.0
  0
LINE
  5
17F
330
1D
100
AcDbEntity
  8
0
100
AcDbLine
 10
135.0961
 20
179.61135
 30
0.0
 11
135.0961
 21
184.44235
 31
0.0
  0
LINE
  5
180
330
1D
100
AcDbEntity
  8
0
100
AcDbLine
 10
135.0961
 20
174.11835
 30
0.0
 11
135.0961
 21
168.06335
 31
0.0
  0
LINE
  5
181
330
1D
100
AcDbEntity
  8
0
100
AcDbLine
 10
135.0961
 20
174.11835
 30
0.0
 11
135.0961
 21
179.61135
 31
0.0
  0
LINE
  5
182
330
1D
100
AcDbEntity
  8
0
100
AcDbLine
 10
135.0961
 20
168.06335
 30
0.0
 11
135.0961
 21
161.55335
 31
0.0
  0
LINE
  5
183
330
1D
100
AcDbEntity
  8
0
100
AcDbLine
 10
135.0961
 20
168.06335
 30
0.0
 11
135.0961
 21
174.11835
 31
0.0
  0
LINE
  5
184
330
1D
100
AcDbEntity
  8
0
100
AcDbLine
 10
135.0961
 20
161.55335
 30
0.0
 11
135.0961
 21
154.71135
 31
0.0
  0
LINE
  5
185
330
1D
100
AcDbEntity
  8
0
100
AcDbLine
 10
135.0961
 20
161.55335
 30
0.0
 11
135.0961
 21
168.06335
 31
0.0
  0
LINE
  5
186
330
1D
100
AcDbEntity
  8
0
100
AcDbLine
 10
135.0961
 20
184.44235
 30
0.0
 11
135.0961
 21
179.61135
 31
0.0
  0
LINE
  5
187
330
1D
100
AcDbEntity
  8
0
100
AcDbLine
 10
135.0961
 20
184.44235
 30
0.0
 11
135.0961
 21
188.52035
 31
0.0
  0
LINE
  5
188
330
1D
100
AcDbEntity
  8
0
100
AcDbLine
 10
134.0007
 20
180.03935
 30
0.0
 11
135.0961
 21
179.196131238811
 31
0.0
  0
LINE
  5
189
330
1D
100
AcDbEntity
  8
0
100
AcDbLine
 10
131.0263
 20
183.53235
 30
0.0
 11
134.0007
 21
180.03935
 31
0.0
  0
LINE
  5
18A
330
1D
100
AcDbEntity
  8
0
100
AcDbLine
 10
135.0961
 20
195.57535
 30
0.0
 11
135.0961
 21
194.13835
 31
0.0
  0
LINE
  5
18B
330
1D
100
AcDbEntity
  8
0
100
AcDbLine
 10
135.0961
 20
195.57535
 30
0.0
 11
135.0961
 21
196.05635
 31
0.0
  0
LINE
  5
18C
330
1D
100
AcDbEntity
  8
0
100
AcDbLine
 10
135.0961
 20
194.13835
 30
0.0
 11
135.0961
 21
191.77135
 31
0.0
  0
LINE
  5
18D
330
1D
100
AcDbEntity
  8
0
100
AcDbLine
 10
135.0961
 20
194.13835
 30
0.0
 11
135.0961
 21
195.57535
 31
0.0
  0
LINE
  5
18E
330
1D
100
AcDbEntity
  8
0
100
AcDbLine
 10
135.0961
 20
191.77135
 30
0.0
 11
135.0961
 21
188.52035
 31
0.0
  0
LINE
  5
18F
330
1D
100
AcDbEntity
  8
0
100
AcDbLine
 10
135.0961
 20
191.77135
 30
0.0
 11
135.0961
 21
194.13835
 31
0.0
  0
LINE
  5
190
330
1D
100
AcDbEntity
  8
0
100
AcDbLine
 10
135.0961
 20
188.52035
 30
0.0
 11
135.0961
 21
184.44235
 31
0.0
  0
LINE
  5
191
330
1D
100
AcDbEntity
  8
0
100
AcDbLine
 10
135.0961
 20
188.52035
 30
0.0
 11
135.0961
 21
191.77135
 31
0.0
  0
LINE
  5
192
330
1D
100
AcDbEntity
  8
0
100
AcDbLine
 10
135.0961
 20
196.05635
 30
0.0
 11
135.5699
 21
199.68535
 31
0.0
  0
LINE
  5
193
330
1D
100
AcDbEntity
  8
0
100
AcDbLine
 10
135.0961
 20
196.05635
 30
0.0
 11
135.0961
 21
195.57535
 31
0.0
  0
LINE
  5
194
330
1D
100
AcDbEntity
  8
0
100
AcDbLine
 10
128.8354
 20
187.57435
 30
0.0
 11
131.0263
 21
183.53235
 31
0.0
  0
LINE
  5
195
330
1D
100
AcDbEntity
  8
0
100
AcDbLine
 10
127.5275
 20
191.98635
 30
0.0
 11
128.8354
 21
187.57435
 31
0.0
  0
LINE
  5
196
330
1D
100
AcDbEntity
  8
0
100
AcDbLine
 10
127.742
 20
201.14435
 30
0.0
 11
129.2555
 21
205.48935
 31
0.0
  0
LINE
  5
197
330
1D
100
AcDbEntity
  8
0
100
AcDbLine
 10
129.2555
 20
205.48935
 30
0.0
 11
131.6321
 21
209.42235
 31
0.0
  0
LINE
  5
199
330
1D
100
AcDbEntity
  8
0
100
AcDbLine
 10
146.269
 20
209.80135
 30
0.0
 11
146.527
 21
209.85037
 31
0.0
  0
LINE
  5
19A
330
1D
100
AcDbEntity
  8
0
100
AcDbLine
 10
145.402
 20
209.59735
 30
0.0
 11
146.269
 21
209.80135
 31
0.0
  0
LINE
  5
19B
330
1D
100
AcDbEntity
  8
0
100
AcDbLine
 10
146.569
 20
209.85835
 30
0.0
 11
147.404
 21
209.98135
 31
0.0
  0
LINE
  5
19E
330
1D
100
AcDbEntity
  8
0
100
AcDbLine
 10
147.404
 20
209.98135
 30
0.0
 11
148.592
 21
210.06935
 31
0.0
  0
LINE
  5
19F
330
1D
100
AcDbEntity
  8
0
100
AcDbLine
 10
146.527
 20
209.85037
 30
0.0
 11
146.527
 21
211.67735
 31
0.0
  0
LINE
  5
1A0
330
1D
100
AcDbEntity
  8
0
100
AcDbLine
 10
142.048
 20
208.19635
 30
0.0
 11
145.402
 21
209.59735
 31
0.0
  0
LINE
  5
1A1
330
1D
100
AcDbEntity
  8
0
100
AcDbLine
 10
139.168
 20
205.96835
 30
0.0
 11
142.048
 21
208.19635
 31
0.0
  0
LINE
  5
1A2
330
1D
100
AcDbEntity
  8
0
100
AcDbLine
 10
136.9593
 20
203.06635
 30
0.0
 11
139.168
 21
205.96835
 31
0.0
  0
LINE
  5
1A3
330
1D
100
AcDbEntity
  8
0
100
AcDbLine
 10
135.5699
 20
199.68535
 30
0.0
 11
136.9593
 21
203.06635
 31
0.0
  0
LINE
  5
1A4
330
1D
100
AcDbEntity
  8
0
100
AcDbLine
 10
146.052
 20
211.67735
 30
0.0
 11
146.183
 21
211.67735
 31
0.0
  0
LINE
  5
1A5
330
1D
100
AcDbEntity
  8
0
100
AcDbLine
 10
146.023
 20
211.67735
 30
0.0
 11
146.094
 21
211.67735
 31
0.0
  0
LINE
  5
1A6
330
1D
100
AcDbEntity
  8
0
100
AcDbLine
 10
146.409
 20
211.67735
 30
0.0
 11
146.724
 21
211.67735
 31
0.0
  0
LINE
  5
1A7
330
1D
100
AcDbEntity
  8
0
100
AcDbLine
 10
146.183
 20
211.67735
 30
0.0
 11
146.409
 21
211.67735
 31
0.0
  0
LINE
  5
1A8
330
1D
100
AcDbEntity
  8
0
100
AcDbLine
 10
146.094
 20
211.67735
 30
0.0
 11
146.265
 21
211.67735
 31
0.0
  0
LINE
  5
1A9
330
1D
100
AcDbEntity
  8
0
100
AcDbLine
 10
146.265
 20
211.67735
 30
0.0
 11
146.527
 21
211.67735
 31
0.0
  0
LINE
  5
1AA
330
1D
100
AcDbEntity
  8
0
100
AcDbLine
 10
146.724
 20
211.67735
 30
0.0
 11
147.115
 21
211.67735
 31
0.0
  0
LINE
  5
1AB
330
1D
100
AcDbEntity
  8
0
100
AcDbLine
 10
146.527
 20
211.67735
 30
0.0
 11
146.527
 21
209.85037
 31
0.0
  0
LINE
  5
1AC
330
1D
100
AcDbEntity
  8
0
100
AcDbLine
 10
146.527
 20
211.67735
 30
0.0
 11
146.618
 21
211.67735
 31
0.0
  0
LINE
  5
1AD
330
1D
100
AcDbEntity
  8
0
100
AcDbLine
 10
146.618
 20
211.67735
 30
0.0
 11
146.8
 21
211.67735
 31
0.0
  0
LINE
  5
1AE
330
1D
100
AcDbEntity
  8
0
100
AcDbLine
 10
147.115
 20
211.67735
 30
0.0
 11
147.572
 21
211.67735
 31
0.0
  0
LINE
  5
1AF
330
1D
100
AcDbEntity
  8
0
100
AcDbLine
 10
146.8
 20
211.67735
 30
0.0
 11
147.066
 21
211.67735
 31
0.0
  0
LINE
  5
1B1
330
1D
100
AcDbEntity
  8
0
100
AcDbLine
 10
131.6321
 20
209.42235
 30
0.0
 11
134.7674
 21
212.77035
 31
0.0
  0
LINE
  5
1B2
330
1D
100
AcDbEntity
  8
0
100
AcDbLine
 10
127.157
 20
196.57635
 30
0.0
 11
127.5275
 21
191.98635
 31
0.0
  0
LINE
  5
1B3
330
1D
100
AcDbEntity
  8
0
100
AcDbLine
 10
127.157
 20
196.57635
 30
0.0
 11
127.742
 21
201.14435
 31
0.0
  0
LINE
  5
1B6
330
1D
100
AcDbEntity
  8
0
100
AcDbLine
 10
123.9234
 20
160.76935
 30
0.0
 11
135.0961
 21
160.76935
 31
0.0
  0
LINE
  5
1B7
330
1D
100
AcDbEntity
  8
0
100
AcDbLine
 10
122.2003
 20
160.92135
 30
0.0
 11
123.9234
 21
160.76935
 31
0.0
  0
LINE
  5
1C2
330
1D
100
AcDbEntity
  8
0
100
AcDbLine
 10
16.9497
 20
218.11435
 30
0.0
 11
20.281
 21
220.92335
 31
0.0
  0
LINE
  5
1C6
330
1D
100
AcDbEntity
  8
0
100
AcDbLine
 10
14.9517
 20
215.98235
 30
0.0
 11
16.9497
 21
218.11435
 31
0.0
  0
LINE
  5
1CB
330
1D
100
AcDbEntity
  8
0
100
AcDbLine
 10
32.0919
 20
215.17535
 30
0.0
 11
32.9175
 21
233.74435
 31
0.0
  0
LINE
  5
1CC
330
1D
100
AcDbEntity
  8
0
100
AcDbLine
 10
20.281
 20
220.92335
 30
0.0
 11
23.727
 21
223.07435
 31
0.0
  0
LINE
  5
1D1
330
1D
100
AcDbEntity
  8
0
100
AcDbLine
 10
13.2447
 20
213.71135
 30
0.0
 11
14.9517
 21
215.98235
 31
0.0
  0
LINE
  5
1E5
330
1D
100
AcDbEntity
  8
0
100
AcDbLine
 10
2.8815
 20
223.92935
 30
0.0
 11
3.3328
 21
225.60735
 31
0.0
  0
LINE
  5
1E9
330
1D
100
AcDbEntity
  8
0
100
AcDbLine
 10
23.727
 20
223.07435
 30
0.0
 11
27.6027
 21
224.82035
 31
0.0
  0
LINE
  5
1ED
330
1D
100
AcDbEntity
  8
0
100
AcDbLine
 10
27.6027
 20
224.82035
 30
0.0
 11
31.6975
 21
225.91335
 31
0.0
  0
LINE
  5
1EE
330
1D
100
AcDbEntity
  8
0
100
AcDbLine
 10
27.6027
 20
224.82035
 30
0.0
 11
31.6945
 21
225.92035
 31
0.0
  0
LINE
  5
1F2
330
1D
100
AcDbEntity
  8
0
100
AcDbLine
 10
31.6945
 20
225.92035
 30
0.0
 11
32.576103730835
 21
226.065828534242
 31
0.0
  0
LINE
  5
1F4
330
1D
100
AcDbEntity
  8
0
100
AcDbLine
 10
31.6975
 20
225.91335
 30
0.0
 11
32.575831839999
 21
226.059713295706
 31
0.0
  0
LINE
  5
1F8
330
1D
100
AcDbEntity
  8
0
100
AcDbLine
 10
3.3328
 20
225.60735
 30
0.0
 11
4.0694
 21
227.18335
 31
0.0
  0
LINE
  5
1FB
330
1D
100
AcDbEntity
  8
0
100
AcDbLine
 10
2.7294
 20
222.19735
 30
0.0
 11
2.8815
 21
223.92935
 31
0.0
  0
LINE
  5
215
330
1D
100
AcDbEntity
  8
0
100
AcDbLine
 10
4.0694
 20
227.18335
 30
0.0
 11
5.0691
 21
228.60735
 31
0.0
  0
LINE
  5
219
330
1D
100
AcDbEntity
  8
0
100
AcDbLine
 10
32.9175
 20
233.74435
 30
0.0
 11
33.2667
 21
235.88135
 31
0.0
  0
LINE
  5
21A
330
1D
100
AcDbEntity
  8
0
100
AcDbLine
 10
33.2667
 20
235.88135
 30
0.0
 11
33.6606
 21
236.95835
 31
0.0
  0
LINE
  5
21B
330
1D
100
AcDbEntity
  8
0
100
AcDbLine
 10
33.6606
 20
236.95835
 30
0.0
 11
34.2659
 21
238.01435
 31
0.0
  0
LINE
  5
21C
330
1D
100
AcDbEntity
  8
0
100
AcDbLine
 10
34.2659
 20
238.01435
 30
0.0
 11
35.1287
 21
239.01935
 31
0.0
  0
LINE
  5
21D
330
1D
100
AcDbEntity
  8
0
100
AcDbLine
 10
36.5196
 20
239.77535
 30
0.0
 11
37.1481
 21
239.86835
 31
0.0
  0
LINE
  5
21E
330
1D
100
AcDbEntity
  8
0
100
AcDbLine
 10
36.0423
 20
239.58335
 30
0.0
 11
36.5196
 21
239.77535
 31
0.0
  0
LINE
  5
21F
330
1D
100
AcDbEntity
  8
0
100
AcDbLine
 10
35.8001
 20
239.44935
 30
0.0
 11
36.0423
 21
239.58335
 31
0.0
  0
LINE
  5
220
330
1D
100
AcDbEntity
  8
0
100
AcDbLine
 10
35.1287
 20
239.01935
 30
0.0
 11
35.8001
 21
239.44935
 31
0.0
  0
LINE
  5
224
330
1D
100
AcDbEntity
  8
0
100
AcDbLine
 10
37.1481
 20
239.86835
 30
0.0
 11
38.0071
 21
239.90835
 31
0.0
  0
LINE
  5
225
330
1D
100
AcDbEntity
  8
0
100
AcDbLine
 10
38.0071
 20
239.90835
 30
0.0
 11
39.0124
 21
239.83535
 31
0.0
  0
LINE
  5
230
330
1D
100
AcDbEntity
  8
0
100
AcDbLine
 10
12.729
 20
232.16835
 30
0.0
 11
32.847429150735
 21
232.16835
 31
0.0
  0
LINE
  5
231
330
1D
100
AcDbEntity
  8
0
100
AcDbLine
 10
10.9926
 20
232.01735
 30
0.0
 11
12.729
 21
232.16835
 31
0.0
  0
LINE
  5
232
330
1D
100
AcDbEntity
  8
0
100
AcDbLine
 10
9.3094
 20
231.56735
 30
0.0
 11
10.9926
 21
232.01735
 31
0.0
  0
LINE
  5
234
330
1D
100
AcDbEntity
  8
0
100
AcDbLine
 10
7.7292
 20
230.83235
 30
0.0
 11
9.3094
 21
231.56735
 31
0.0
  0
LINE
  5
236
330
1D
100
AcDbEntity
  8
0
100
AcDbLine
 10
6.3011
 20
229.83535
 30
0.0
 11
7.7292
 21
230.83235
 31
0.0
  0
LINE
  5
238
330
1D
100
AcDbEntity
  8
0
100
AcDbLine
 10
5.0691
 20
228.60735
 30
0.0
 11
6.3011
 21
229.83535
 31
0.0
  0
LINE
  5
252
330
1D
100
AcDbEntity
  8
0
100
AcDbLine
 10
122.2003
 20
231.19235
 30
0.0
 11
123.9234
 21
231.34435
 31
0.0
  0
LINE
  5
253
330
1D
100
AcDbEntity
  8
0
100
AcDbLine
 10
120.5298
 20
230.74035
 30
0.0
 11
122.2003
 21
231.19235
 31
0.0
  0
LINE
  5
254
330
1D
100
AcDbEntity
  8
0
100
AcDbLine
 10
118.9617
 20
230.00335
 30
0.0
 11
120.5298
 21
230.74035
 31
0.0
  0
LINE
  5
255
330
1D
100
AcDbEntity
  8
0
100
AcDbLine
 10
117.5445
 20
229.00335
 30
0.0
 11
118.9617
 21
230.00335
 31
0.0
  0
LINE
  5
256
330
1D
100
AcDbEntity
  8
0
100
AcDbLine
 10
116.3219
 20
227.77035
 30
0.0
 11
117.5445
 21
229.00335
 31
0.0
  0
LINE
  5
257
330
1D
100
AcDbEntity
  8
0
100
AcDbLine
 10
115.3298
 20
226.34235
 30
0.0
 11
116.3219
 21
227.77035
 31
0.0
  0
LINE
  5
258
330
1D
100
AcDbEntity
  8
0
100
AcDbLine
 10
114.5989
 20
224.76135
 30
0.0
 11
115.3298
 21
226.34235
 31
0.0
  0
LINE
  5
259
330
1D
100
AcDbEntity
  8
0
100
AcDbLine
 10
114.151
 20
223.07635
 30
0.0
 11
114.5989
 21
224.76135
 31
0.0
  0
LINE
  5
25A
330
1D
100
AcDbEntity
  8
0
100
AcDbLine
 10
114.0
 20
221.33935
 30
0.0
 11
114.151
 21
223.07635
 31
0.0
  0
LINE
  5
25B
330
1D
100
AcDbEntity
  8
0
100
AcDbLine
 10
114.0
 20
221.33935
 30
0.0
 11
114.0
 21
170.77435
 31
0.0
  0
LINE
  5
25C
330
1D
100
AcDbEntity
  8
0
100
AcDbLine
 10
145.56835483871
 20
212.145091935484
 30
0.0
 11
146.023
 21
211.67735
 31
0.0
  0
LINE
  5
25D
330
1D
100
AcDbEntity
  8
0
100
AcDbLine
 10
145.535
 20
212.17735
 30
0.0
 11
145.627
 21
212.17735
 31
0.0
  0
LINE
  5
25E
330
1D
100
AcDbEntity
  8
0
100
AcDbLine
 10
145.535
 20
212.17735
 30
0.0
 11
145.535
 21
223.19135
 31
0.0
  0
LINE
  5
25F
330
1D
100
AcDbEntity
  8
0
100
AcDbLine
 10
145.627
 20
212.17735
 30
0.0
 11
145.811
 21
212.17735
 31
0.0
  0
LINE
  5
260
330
1D
100
AcDbEntity
  8
0
100
AcDbLine
 10
145.811
 20
212.17735
 30
0.0
 11
146.082
 21
212.17735
 31
0.0
  0
LINE
  5
261
330
1D
100
AcDbEntity
  8
0
100
AcDbLine
 10
146.082
 20
212.17735
 30
0.0
 11
146.434
 21
212.17735
 31
0.0
  0
LINE
  5
262
330
1D
100
AcDbEntity
  8
0
100
AcDbLine
 10
146.434
 20
212.17735
 30
0.0
 11
146.854
 21
212.17735
 31
0.0
  0
LINE
  5
263
330
1D
100
AcDbEntity
  8
0
100
AcDbLine
 10
146.854
 20
212.17735
 30
0.0
 11
147.334
 21
212.17735
 31
0.0
  0
LINE
  5
264
330
1D
100
AcDbEntity
  8
0
100
AcDbLine
 10
147.334
 20
212.17735
 30
0.0
 11
147.858
 21
212.17735
 31
0.0
  0
LINE
  5
26A
330
1D
100
AcDbEntity
  8
0
100
AcDbLine
 10
138.5254
 20
215.38835
 30
0.0
 11
142.74
 21
217.16235
 31
0.0
  0
LINE
  5
26D
330
1D
100
AcDbEntity
  8
0
100
AcDbLine
 10
145.535
 20
223.19135
 30
0.0
 11
145.535
 21
212.17735
 31
0.0
  0
LINE
  5
26E
330
1D
100
AcDbEntity
  8
0
100
AcDbLine
 10
145.535
 20
223.19135
 30
0.0
 11
145.627
 21
223.19135
 31
0.0
  0
LINE
  5
26F
330
1D
100
AcDbEntity
  8
0
100
AcDbLine
 10
145.627
 20
223.19135
 30
0.0
 11
145.811
 21
223.19135
 31
0.0
  0
LINE
  5
270
330
1D
100
AcDbEntity
  8
0
100
AcDbLine
 10
145.811
 20
223.19135
 30
0.0
 11
146.082
 21
223.19135
 31
0.0
  0
LINE
  5
271
330
1D
100
AcDbEntity
  8
0
100
AcDbLine
 10
146.082
 20
223.19135
 30
0.0
 11
146.434
 21
223.19135
 31
0.0
  0
LINE
  5
272
330
1D
100
AcDbEntity
  8
0
100
AcDbLine
 10
146.434
 20
223.19135
 30
0.0
 11
146.854
 21
223.19135
 31
0.0
  0
LINE
  5
273
330
1D
100
AcDbEntity
  8
0
100
AcDbLine
 10
146.854
 20
223.19135
 30
0.0
 11
147.334
 21
223.19135
 31
0.0
  0
LINE
  5
274
330
1D
100
AcDbEntity
  8
0
100
AcDbLine
 10
145.56835483871
 20
223.223672580645
 30
0.0
 11
146.023
 21
223.69235
 31
0.0
  0
LINE
  5
275
330
1D
100
AcDbEntity
  8
0
100
AcDbLine
 10
146.052
 20
223.69235
 30
0.0
 11
146.183
 21
223.69235
 31
0.0
  0
LINE
  5
276
330
1D
100
AcDbEntity
  8
0
100
AcDbLine
 10
146.183
 20
223.69235
 30
0.0
 11
146.409
 21
223.69235
 31
0.0
  0
LINE
  5
277
330
1D
100
AcDbEntity
  8
0
100
AcDbLine
 10
146.409
 20
223.69235
 30
0.0
 11
146.724
 21
223.69235
 31
0.0
  0
LINE
  5
278
330
1D
100
AcDbEntity
  8
0
100
AcDbLine
 10
146.724
 20
223.69235
 30
0.0
 11
147.115
 21
223.69235
 31
0.0
  0
LINE
  5
279
330
1D
100
AcDbEntity
  8
0
100
AcDbLine
 10
147.115
 20
223.69235
 30
0.0
 11
147.572
 21
223.69235
 31
0.0
  0
LINE
  5
27A
330
1D
100
AcDbEntity
  8
0
100
AcDbLine
 10
147.334
 20
223.19135
 30
0.0
 11
147.858
 21
223.19135
 31
0.0
  0
LINE
  5
27C
330
1D
100
AcDbEntity
  8
0
100
AcDbLine
 10
142.74
 20
217.16235
 30
0.0
 11
145.535
 21
217.736715183246
 31
0.0
  0
LINE
  5
27D
330
1D
100
AcDbEntity
  8
0
100
AcDbLine
 10
134.7674
 20
212.77035
 30
0.0
 11
138.5254
 21
215.38835
 31
0.0
  0
LINE
  5
27E
330
1D
100
AcDbEntity
  8
0
100
AcDbLine
 10
123.9234
 20
231.34435
 30
0.0
 11
149.0
 21
231.34435
 31
0.0
  0
LINE
  5
27F
330
1D
100
AcDbEntity
  8
0
100
AcDbLine
 10
147.066
 20
211.67735
 30
0.0
 11
147.407
 21
211.67735
 31
0.0
  0
LINE
  5
2EB
330
1D
100
AcDbEntity
  8
0
100
AcDbLine
 10
148.076
 20
211.67735
 30
0.0
 11
148.613
 21
211.67735
 31
0.0
  0
LINE
  5
2EC
330
1D
100
AcDbEntity
  8
0
100
AcDbLine
 10
147.572
 20
211.67735
 30
0.0
 11
148.076
 21
211.67735
 31
0.0
  0
LINE
  5
2ED
330
1D
100
AcDbEntity
  8
0
100
AcDbLine
 10
147.809
 20
211.67735
 30
0.0
 11
148.257
 21
211.67735
 31
0.0
  0
LINE
  5
2F4
330
1D
100
AcDbEntity
  8
0
100
AcDbLine
 10
149.0
 20
211.67735
 30
0.0
 11
149.266
 21
211.67735
 31
0.0
  0
LINE
  5
2F6
330
1D
100
AcDbEntity
  8
0
100
AcDbLine
 10
148.613
 20
211.67735
 30
0.0
 11
149.0
 21
211.67735
 31
0.0
  0
LINE
  5
2F8
330
1D
100
AcDbEntity
  8
0
100
AcDbLine
 10
148.592
 20
210.06935
 30
0.0
 11
149.0
 21
210.07535
 31
0.0
  0
LINE
  5
2F9
330
1D
100
AcDbEntity
  8
0
100
AcDbLine
 10
148.257
 20
211.67735
 30
0.0
 11
148.734
 21
211.67735
 31
0.0
  0
LINE
  5
2FA
330
1D
100
AcDbEntity
  8
0
100
AcDbLine
 10
147.858
 20
223.19135
 30
0.0
 11
148.414
 21
223.19135
 31
0.0
  0
LINE
  5
2FB
330
1D
100
AcDbEntity
  8
0
100
AcDbLine
 10
147.858
 20
212.17735
 30
0.0
 11
148.414
 21
212.17735
 31
0.0
  0
LINE
  5
2FC
330
1D
100
AcDbEntity
  8
0
100
AcDbLine
 10
148.414
 20
223.19135
 30
0.0
 11
148.986
 21
223.19135
 31
0.0
  0
LINE
  5
2FE
330
1D
100
AcDbEntity
  8
0
100
AcDbLine
 10
148.414
 20
212.17735
 30
0.0
 11
148.986
 21
212.17735
 31
0.0
  0
LINE
  5
300
330
1D
100
AcDbEntity
  8
0
100
AcDbLine
 10
147.572
 20
223.69235
 30
0.0
 11
148.076
 21
223.69235
 31
0.0
  0
LINE
  5
301
330
1D
100
AcDbEntity
  8
0
100
AcDbLine
 10
148.613
 20
223.69235
 30
0.0
 11
149.0
 21
223.69235
 31
0.0
  0
LINE
  5
302
330
1D
100
AcDbEntity
  8
0
100
AcDbLine
 10
148.076
 20
223.69235
 30
0.0
 11
148.613
 21
223.69235
 31
0.0
  0
LINE
  5
30D
330
1D
100
AcDbEntity
  8
0
100
AcDbLine
 10
148.734
 20
211.67735
 30
0.0
 11
149.0
 21
211.67735
 31
0.0
  0
LINE
  5
37F
330
1D
100
AcDbEntity
  8
0
100
AcDbLine
 10
393.99
 20
160.76935
 30
0.0
 11
395.725
 21
160.92235
 31
0.0
  0
LINE
  5
380
330
1D
100
AcDbEntity
  8
0
100
AcDbLine
 10
395.725
 20
160.92235
 30
0.0
 11
397.408
 21
161.37535
 31
0.0
  0
LINE
  5
381
330
1D
100
AcDbEntity
  8
0
100
AcDbLine
 10
384.899534930885
 20
160.76935
 30
0.0
 11
393.99
 21
160.76935
 31
0.0
  0
LINE
  5
382
330
1D
100
AcDbEntity
  8
0
100
AcDbLine
 10
343.978
 20
160.76935
 30
0.0
 11
352.924947395293
 21
160.76935
 31
0.0
  0
LINE
  5
3B4
330
1D
100
AcDbEntity
  8
0
100
AcDbLine
 10
335.323
 20
165.78735
 30
0.0
 11
336.323
 21
164.35435
 31
0.0
  0
LINE
  5
3B5
330
1D
100
AcDbEntity
  8
0
100
AcDbLine
 10
336.323
 20
164.35435
 30
0.0
 11
337.554
 21
163.11735
 31
0.0
  0
LINE
  5
3B6
330
1D
100
AcDbEntity
  8
0
100
AcDbLine
 10
337.554
 20
163.11735
 30
0.0
 11
338.981
 21
162.11435
 31
0.0
  0
LINE
  5
3B7
330
1D
100
AcDbEntity
  8
0
100
AcDbLine
 10
338.981
 20
162.11435
 30
0.0
 11
340.56
 21
161.37535
 31
0.0
  0
LINE
  5
3B9
330
1D
100
AcDbEntity
  8
0
100
AcDbLine
 10
397.408
 20
161.37535
 30
0.0
 11
398.987
 21
162.11435
 31
0.0
  0
LINE
  5
3C6
330
1D
100
AcDbEntity
  8
0
100
AcDbLine
 10
398.987
 20
162.11435
 30
0.0
 11
400.414
 21
163.11735
 31
0.0
  0
LINE
  5
3C7
330
1D
100
AcDbEntity
  8
0
100
AcDbLine
 10
400.414
 20
163.11735
 30
0.0
 11
401.646
 21
164.35435
 31
0.0
  0
LINE
  5
3CE
330
1D
100
AcDbEntity
  8
0
100
AcDbLine
 10
401.646
 20
164.35435
 30
0.0
 11
402.645
 21
165.78735
 31
0.0
  0
LINE
  5
3D4
330
1D
100
AcDbEntity
  8
0
100
AcDbLine
 10
402.645
 20
165.78735
 30
0.0
 11
403.381
 21
167.37335
 31
0.0
  0
LINE
  5
3DE
330
1D
100
AcDbEntity
  8
0
100
AcDbLine
 10
340.56
 20
161.37535
 30
0.0
 11
342.243
 21
160.92235
 31
0.0
  0
LINE
  5
3DF
330
1D
100
AcDbEntity
  8
0
100
AcDbLine
 10
342.243
 20
160.92235
 30
0.0
 11
343.978
 21
160.76935
 31
0.0
  0
LINE
  5
3E1
330
1D
100
AcDbEntity
  8
0
100
AcDbLine
 10
403.381
 20
167.37335
 30
0.0
 11
403.832
 21
169.06235
 31
0.0
  0
LINE
  5
423
330
1D
100
AcDbEntity
  8
0
100
AcDbLine
 10
403.832
 20
169.06235
 30
0.0
 11
403.984
 21
170.80535
 31
0.0
  0
LINE
  5
429
330
1D
100
AcDbEntity
  8
0
100
AcDbLine
 10
334.136
 20
169.06235
 30
0.0
 11
334.587
 21
167.37335
 31
0.0
  0
LINE
  5
42A
330
1D
100
AcDbEntity
  8
0
100
AcDbLine
 10
334.587
 20
167.37335
 30
0.0
 11
335.323
 21
165.78735
 31
0.0
  0
LINE
  5
436
330
1D
100
AcDbEntity
  8
0
100
AcDbLine
 10
403.984
 20
170.80535
 30
0.0
 11
403.984
 21
221.52535
 31
0.0
  0
LINE
  5
43F
330
1D
100
AcDbEntity
  8
0
100
AcDbLine
 10
333.984
 20
170.80535
 30
0.0
 11
334.136
 21
169.06235
 31
0.0
  0
LINE
  5
684
330
1D
100
AcDbEntity
  8
0
100
AcDbLine
 10
333.984
 20
221.52535
 30
0.0
 11
333.984
 21
170.80535
 31
0.0
  0
LINE
  5
685
330
1D
100
AcDbEntity
  8
0
100
AcDbLine
 10
333.984
 20
221.52535
 30
0.0
 11
334.136
 21
223.26835
 31
0.0
  0
LINE
  5
69B
330
1D
100
AcDbEntity
  8
0
100
AcDbLine
 10
334.136
 20
223.26835
 30
0.0
 11
334.587
 21
224.95735
 31
0.0
  0
LINE
  5
6A6
330
1D
100
AcDbEntity
  8
0
100
AcDbLine
 10
334.587
 20
224.95735
 30
0.0
 11
335.323
 21
226.54335
 31
0.0
  0
LINE
  5
6C6
330
1D
100
AcDbEntity
  8
0
100
AcDbLine
 10
403.832
 20
223.26835
 30
0.0
 11
403.984
 21
221.52535
 31
0.0
  0
LINE
  5
6CB
330
1D
100
AcDbEntity
  8
0
100
AcDbLine
 10
403.381
 20
224.95735
 30
0.0
 11
403.832
 21
223.26835
 31
0.0
  0
LINE
  5
711
330
1D
100
AcDbEntity
  8
0
100
AcDbLine
 10
401.646
 20
227.97635
 30
0.0
 11
402.645
 21
226.54335
 31
0.0
  0
LINE
  5
712
330
1D
100
AcDbEntity
  8
0
100
AcDbLine
 10
402.645
 20
226.54335
 30
0.0
 11
403.381
 21
224.95735
 31
0.0
  0
LINE
  5
715
330
1D
100
AcDbEntity
  8
0
100
AcDbLine
 10
398.987
 20
230.21635
 30
0.0
 11
400.414
 21
229.21335
 31
0.0
  0
LINE
  5
716
330
1D
100
AcDbEntity
  8
0
100
AcDbLine
 10
400.414
 20
229.21335
 30
0.0
 11
401.646
 21
227.97635
 31
0.0
  0
LINE
  5
717
330
1D
100
AcDbEntity
  8
0
100
AcDbLine
 10
397.408
 20
230.95535
 30
0.0
 11
398.987
 21
230.21635
 31
0.0
  0
LINE
  5
718
330
1D
100
AcDbEntity
  8
0
100
AcDbLine
 10
395.725
 20
231.40835
 30
0.0
 11
397.408
 21
230.95535
 31
0.0
  0
LINE
  5
719
330
1D
100
AcDbEntity
  8
0
100
AcDbLine
 10
393.99
 20
231.56135
 30
0.0
 11
395.725
 21
231.40835
 31
0.0
  0
LINE
  5
71A
330
1D
100
AcDbEntity
  8
0
100
AcDbLine
 10
368.984
 20
231.56135
 30
0.0
 11
393.99
 21
231.56135
 31
0.0
  0
LINE
  5
71B
330
1D
100
AcDbEntity
  8
0
100
AcDbLine
 10
343.978
 20
231.56135
 30
0.0
 11
368.984
 21
231.56135
 31
0.0
  0
LINE
  5
71C
330
1D
100
AcDbEntity
  8
0
100
AcDbLine
 10
342.243
 20
231.40835
 30
0.0
 11
343.978
 21
231.56135
 31
0.0
  0
LINE
  5
71D
330
1D
100
AcDbEntity
  8
0
100
AcDbLine
 10
340.56
 20
230.95535
 30
0.0
 11
342.243
 21
231.40835
 31
0.0
  0
LINE
  5
71E
330
1D
100
AcDbEntity
  8
0
100
AcDbLine
 10
338.981
 20
230.21635
 30
0.0
 11
340.56
 21
230.95535
 31
0.0
  0
LINE
  5
71F
330
1D
100
AcDbEntity
  8
0
100
AcDbLine
 10
337.554
 20
229.21335
 30
0.0
 11
338.981
 21
230.21635
 31
0.0
  0
LINE
  5
720
330
1D
100
AcDbEntity
  8
0
100
AcDbLine
 10
336.323
 20
227.97635
 30
0.0
 11
337.554
 21
229.21335
 31
0.0
  0
LINE
  5
721
330
1D
100
AcDbEntity
  8
0
100
AcDbLine
 10
335.323
 20
226.54335
 30
0.0
 11
336.323
 21
227.97635
 31
0.0
  0
LINE
  5
72C
330
1D
100
AcDbEntity
  8
0
100
AcDbLine
 10
147.407
 20
211.67735
 30
0.0
 11
147.809
 21
211.67735
 31
0.0
  0
LINE
  5
827
330
1D
100
AcDbEntity
  8
0
100
AcDbLine
 10
22.4185
 20
196.43435
 30
0.0
 11
22.597520082298
 21
196.997129679268
 31
0.0
  0
LINE
  5
828
330
1D
100
AcDbEntity
  8
0
100
AcDbLine
 10
27.779454691196
 20
183.843978917723
 30
0.0
 11
27.01035292613
 21
183.685196803823
 31
0.0
  0
LINE
  5
829
330
1D
100
AcDbEntity
  8
0
100
AcDbLine
 10
27.01035292613
 20
183.685196803823
 30
0.0
 11
26.4271
 21
183.44035
 31
0.0
  0
LINE
  5
82A
330
1D
100
AcDbEntity
  8
0
100
AcDbLine
 10
28.5674
 20
183.92935
 30
0.0
 11
29.43081641583
 21
183.884300708763
 31
0.0
  0
LINE
  5
82B
330
1D
100
AcDbEntity
  8
0
100
AcDbLine
 10
29.7165
 20
183.83035
 30
0.0
 11
30.550511868094
 21
183.639281988982
 31
0.0
  0
LINE
  5
82C
330
1D
100
AcDbEntity
  8
0
100
AcDbLine
 10
30.368903073502
 20
210.352393193095
 30
0.0
 11
31.1551
 21
211.27635
 31
0.0
  0
LINE
  5
82D
330
1D
100
AcDbEntity
  8
0
100
AcDbLine
 10
31.640789432049
 20
212.278155259709
 30
0.0
 11
32.014024791452
 21
213.642117919225
 31
0.0
  0
LINE
  5
82E
330
1D
100
AcDbEntity
  8
0
100
AcDbLine
 10
32.014024791452
 20
213.642117919225
 30
0.0
 11
32.0919
 21
215.17535
 31
0.0
  0
LINE
  5
82F
330
1D
100
AcDbEntity
  8
0
100
AcDbLine
 10
75.2706
 20
182.345039982913
 30
0.0
 11
75.2706
 21
222.19735
 31
0.0
  0
LINE
  5
830
330
1D
100
AcDbEntity
  8
0
100
AcDbLine
 10
67.4776
 20
208.73835
 30
0.0
 11
66.1849
 21
211.30435
 31
0.0
  0
LINE
  5
831
330
1D
100
AcDbEntity
  8
0
100
AcDbLine
 10
49.9691
 20
208.27035
 30
0.0
 11
48.412
 21
209.61035
 31
0.0
  0
LINE
  5
832
330
1D
100
AcDbEntity
  8
0
100
AcDbLine
 10
53.1036
 20
170.12135
 30
0.0
 11
50.4897
 21
168.97835
 31
0.0
  0
LINE
  5
833
330
1D
100
AcDbEntity
  8
0
100
AcDbLine
 10
52.12786330623
 20
183.200189845475
 30
0.0
 11
51.5729
 21
183.44035
 31
0.0
  0
LINE
  5
834
330
1D
100
AcDbEntity
  8
0
100
AcDbLine
 10
52.12786330623
 20
183.200189845475
 30
0.0
 11
51.5729
 21
183.44035
 31
0.0
  0
LINE
  5
835
330
1D
100
AcDbEntity
  8
0
100
AcDbLine
 10
52.6639
 20
205.11335
 30
0.0
 11
51.29
 21
206.95335
 31
0.0
  0
LINE
  5
836
330
1D
100
AcDbEntity
  8
0
100
AcDbLine
 10
74.4725
 20
182.99535
 30
0.0
 11
73.7878
 21
183.43235
 31
0.0
  0
LINE
  5
837
330
1D
100
AcDbEntity
  8
0
100
AcDbLine
 10
68.988
 20
174.44535
 30
0.0
 11
52.0563
 21
183.23735
 31
0.0
  0
LINE
  5
838
330
1D
100
AcDbEntity
  8
0
100
AcDbLine
 10
75.2706
 20
171.80435
 30
0.0
 11
75.1185
 21
170.07335
 31
0.0
  0
LINE
  5
839
330
1D
100
AcDbEntity
  8
0
100
AcDbLine
 10
68.6906
 20
162.43535
 30
0.0
 11
66.6296
 21
161.90935
 31
0.0
  0
LINE
  5
83A
330
1D
100
AcDbEntity
  8
0
100
AcDbLine
 10
70.2708
 20
163.16935
 30
0.0
 11
68.6906
 21
162.43535
 31
0.0
  0
LINE
  5
83B
330
1D
100
AcDbEntity
  8
0
100
AcDbLine
 10
71.6989
 20
164.16635
 30
0.0
 11
70.2708
 21
163.16935
 31
0.0
  0
LINE
  5
83C
330
1D
100
AcDbEntity
  8
0
100
AcDbLine
 10
72.9309
 20
165.39535
 30
0.0
 11
71.6989
 21
164.16635
 31
0.0
  0
LINE
  5
83D
330
1D
100
AcDbEntity
  8
0
100
AcDbLine
 10
73.9306
 20
166.81935
 30
0.0
 11
72.9309
 21
165.39535
 31
0.0
  0
LINE
  5
83E
330
1D
100
AcDbEntity
  8
0
100
AcDbLine
 10
74.6672
 20
168.39435
 30
0.0
 11
73.9306
 21
166.81935
 31
0.0
  0
LINE
  5
83F
330
1D
100
AcDbEntity
  8
0
100
AcDbLine
 10
75.1185
 20
170.07335
 30
0.0
 11
74.6672
 21
168.39435
 31
0.0
  0
LINE
  5
840
330
1D
100
AcDbEntity
  8
0
100
AcDbLine
 10
77.7456
 20
176.45835
 30
0.0
 11
77.3211
 21
175.64235
 31
0.0
  0
LINE
  5
841
330
1D
100
AcDbEntity
  8
0
100
AcDbLine
 10
77.8909
 20
178.61835
 30
0.0
 11
77.5276
 21
179.63835
 31
0.0
  0
LINE
  5
842
330
1D
100
AcDbEntity
  8
0
100
AcDbLine
 10
78.0
 20
177.47235
 30
0.0
 11
77.7456
 21
176.45835
 31
0.0
  0
LINE
  5
843
330
1D
100
AcDbEntity
  8
0
100
AcDbLine
 10
78.0
 20
177.47235
 30
0.0
 11
77.8909
 21
178.61835
 31
0.0
  0
LINE
  5
844
330
1D
100
AcDbEntity
  8
0
100
AcDbLine
 10
75.9586
 20
173.95735
 30
0.0
 11
75.4541
 21
173.71035
 31
0.0
  0
LINE
  5
845
330
1D
100
AcDbEntity
  8
0
100
AcDbLine
 10
76.7584
 20
174.74135
 30
0.0
 11
75.9586
 21
173.95735
 31
0.0
  0
LINE
  5
846
330
1D
100
AcDbEntity
  8
0
100
AcDbLine
 10
75.4541
 20
173.71035
 30
0.0
 11
74.6311
 21
173.40135
 31
0.0
  0
LINE
  5
847
330
1D
100
AcDbEntity
  8
0
100
AcDbLine
 10
77.3211
 20
175.64235
 30
0.0
 11
76.7584
 21
174.74135
 31
0.0
  0
LINE
  5
848
330
1D
100
AcDbEntity
  8
0
100
AcDbLine
 10
77.5276
 20
179.63835
 30
0.0
 11
77.0804
 21
180.45635
 31
0.0
  0
LINE
  5
849
330
1D
100
AcDbEntity
  8
0
100
AcDbLine
 10
75.4089
 20
182.23235
 30
0.0
 11
74.4725
 21
182.99535
 31
0.0
  0
LINE
  5
84A
330
1D
100
AcDbEntity
  8
0
100
AcDbLine
 10
76.3115
 20
181.44735
 30
0.0
 11
75.4089
 21
182.23235
 31
0.0
  0
LINE
  5
84B
330
1D
100
AcDbEntity
  8
0
100
AcDbLine
 10
77.0804
 20
180.45635
 30
0.0
 11
76.3115
 21
181.44735
 31
0.0
  0
LINE
  5
84C
330
1D
100
AcDbEntity
  8
0
100
AcDbLine
 10
74.6311
 20
173.40135
 30
0.0
 11
73.7397
 21
173.25135
 31
0.0
  0
LINE
  5
84D
330
1D
100
AcDbEntity
  8
0
100
AcDbLine
 10
73.7397
 20
173.25135
 30
0.0
 11
72.9651
 21
173.24235
 31
0.0
  0
LINE
  5
84E
330
1D
100
AcDbEntity
  8
0
100
AcDbLine
 10
72.9651
 20
173.24235
 30
0.0
 11
71.5427
 21
173.42835
 31
0.0
  0
LINE
  5
84F
330
1D
100
AcDbEntity
  8
0
100
AcDbLine
 10
75.2706
 20
171.80435
 30
0.0
 11
75.2706
 21
173.641453888214
 31
0.0
  0
LINE
  5
850
330
1D
100
AcDbEntity
  8
0
100
AcDbLine
 10
71.5427
 20
173.42835
 30
0.0
 11
68.988
 21
174.44535
 31
0.0
  0
LINE
  5
851
330
1D
100
AcDbEntity
  8
0
100
AcDbLine
 10
62.2018
 20
176.88635
 30
0.0
 11
60.168
 21
174.89035
 31
0.0
  0
LINE
  5
852
330
1D
100
AcDbEntity
  8
0
100
AcDbLine
 10
62.821364087405
 20
177.647453920075
 30
0.0
 11
62.2018
 21
176.88635
 31
0.0
  0
LINE
  5
853
330
1D
100
AcDbEntity
  8
0
100
AcDbLine
 10
55.6066
 20
171.48435
 30
0.0
 11
53.1036
 21
170.12135
 31
0.0
  0
LINE
  5
854
330
1D
100
AcDbEntity
  8
0
100
AcDbLine
 10
57.9823
 20
173.06035
 30
0.0
 11
55.6066
 21
171.48435
 31
0.0
  0
LINE
  5
855
330
1D
100
AcDbEntity
  8
0
100
AcDbLine
 10
60.168
 20
174.89035
 30
0.0
 11
57.9823
 21
173.06035
 31
0.0
  0
LINE
  5
856
330
1D
100
AcDbEntity
  8
0
100
AcDbLine
 10
73.7878
 20
183.43235
 30
0.0
 11
58.1423
 21
193.36335
 31
0.0
  0
LINE
  5
857
330
1D
100
AcDbEntity
  8
0
100
AcDbLine
 10
69.8845
 20
197.71535
 30
0.0
 11
69.7805
 21
194.85435
 31
0.0
  0
LINE
  5
858
330
1D
100
AcDbEntity
  8
0
100
AcDbLine
 10
69.7805
 20
194.85435
 30
0.0
 11
69.481
 21
192.06435
 31
0.0
  0
LINE
  5
859
330
1D
100
AcDbEntity
  8
0
100
AcDbLine
 10
68.8759
 20
189.29135
 30
0.0
 11
68.121534791872
 21
187.029018676739
 31
0.0
  0
LINE
  5
85A
330
1D
100
AcDbEntity
  8
0
100
AcDbLine
 10
69.481
 20
192.06435
 30
0.0
 11
68.8759
 21
189.29135
 31
0.0
  0
LINE
  5
85B
330
1D
100
AcDbEntity
  8
0
100
AcDbLine
 10
69.8845
 20
197.71535
 30
0.0
 11
69.6361
 21
200.63035
 31
0.0
  0
LINE
  5
85C
330
1D
100
AcDbEntity
  8
0
100
AcDbLine
 10
69.6361
 20
200.63035
 30
0.0
 11
69.1086
 21
203.31935
 31
0.0
  0
LINE
  5
85D
330
1D
100
AcDbEntity
  8
0
100
AcDbLine
 10
69.1086
 20
203.31935
 30
0.0
 11
68.4625
 21
205.99635
 31
0.0
  0
LINE
  5
85E
330
1D
100
AcDbEntity
  8
0
100
AcDbLine
 10
68.4625
 20
205.99635
 30
0.0
 11
67.4776
 21
208.73835
 31
0.0
  0
LINE
  5
85F
330
1D
100
AcDbEntity
  8
0
100
AcDbLine
 10
56.449293883838
 20
194.854836738298
 30
0.0
 11
56.0696
 21
195.39535
 31
0.0
  0
LINE
  5
860
330
1D
100
AcDbEntity
  8
0
100
AcDbLine
 10
56.0696
 20
195.39535
 30
0.0
 11
55.8187
 21
195.87535
 31
0.0
  0
LINE
  5
861
330
1D
100
AcDbEntity
  8
0
100
AcDbLine
 10
54.5725
 20
200.86935
 30
0.0
 11
53.7713
 21
203.04935
 31
0.0
  0
LINE
  5
862
330
1D
100
AcDbEntity
  8
0
100
AcDbLine
 10
55.0029
 20
198.78835
 30
0.0
 11
54.5725
 21
200.86935
 31
0.0
  0
LINE
  5
863
330
1D
100
AcDbEntity
  8
0
100
AcDbLine
 10
55.402479917702
 20
196.997129679268
 30
0.0
 11
55.0029
 21
198.78835
 31
0.0
  0
LINE
  5
864
330
1D
100
AcDbEntity
  8
0
100
AcDbLine
 10
55.8187
 20
195.87535
 30
0.0
 11
55.5815
 21
196.43435
 31
0.0
  0
LINE
  5
865
330
1D
100
AcDbEntity
  8
0
100
AcDbLine
 10
53.7713
 20
203.04935
 30
0.0
 11
53.2242
 21
204.13535
 31
0.0
  0
LINE
  5
866
330
1D
100
AcDbEntity
  8
0
100
AcDbLine
 10
53.2242
 20
204.13535
 30
0.0
 11
52.6639
 21
205.11335
 31
0.0
  0
LINE
  5
867
330
1D
100
AcDbEntity
  8
0
100
AcDbLine
 10
58.1423
 20
193.36335
 30
0.0
 11
56.449293883838
 21
194.854836738298
 31
0.0
  0
LINE
  5
868
330
1D
100
AcDbEntity
  8
0
100
AcDbLine
 10
55.5815
 20
196.43435
 30
0.0
 11
55.402479917702
 21
196.997129679268
 31
0.0
  0
LINE
  5
869
330
1D
100
AcDbEntity
  8
0
100
AcDbLine
 10
47.449488131905
 20
183.639281988982
 30
0.0
 11
45.139
 21
182.85835
 31
0.0
  0
LINE
  5
86A
330
1D
100
AcDbEntity
  8
0
100
AcDbLine
 10
42.1453
 20
167.19135
 30
0.0
 11
39.1767
 21
167.10635
 31
0.0
  0
LINE
  5
86B
330
1D
100
AcDbEntity
  8
0
100
AcDbLine
 10
44.9821
 20
167.50635
 30
0.0
 11
42.1453
 21
167.19135
 31
0.0
  0
LINE
  5
86C
330
1D
100
AcDbEntity
  8
0
100
AcDbLine
 10
47.7712
 20
168.11135
 30
0.0
 11
44.9821
 21
167.50635
 31
0.0
  0
LINE
  5
86D
330
1D
100
AcDbEntity
  8
0
100
AcDbLine
 10
50.4897
 20
168.97835
 30
0.0
 11
47.7712
 21
168.11135
 31
0.0
  0
LINE
  5
86E
330
1D
100
AcDbEntity
  8
0
100
AcDbLine
 10
42.2161
 20
182.15335
 30
0.0
 11
40.1477
 21
182.00435
 31
0.0
  0
LINE
  5
86F
330
1D
100
AcDbEntity
  8
0
100
AcDbLine
 10
43.6227
 20
182.46235
 30
0.0
 11
42.2161
 21
182.15335
 31
0.0
  0
LINE
  5
870
330
1D
100
AcDbEntity
  8
0
100
AcDbLine
 10
45.139
 20
182.85835
 30
0.0
 11
43.6227
 21
182.46235
 31
0.0
  0
LINE
  5
871
330
1D
100
AcDbEntity
  8
0
100
AcDbLine
 10
48.56918358417
 20
183.884300708763
 30
0.0
 11
48.2835
 21
183.83035
 31
0.0
  0
LINE
  5
872
330
1D
100
AcDbEntity
  8
0
100
AcDbLine
 10
50.220545308804
 20
183.843978917723
 30
0.0
 11
49.4326
 21
183.92935
 31
0.0
  0
LINE
  5
873
330
1D
100
AcDbEntity
  8
0
100
AcDbLine
 10
51.29
 20
206.95335
 30
0.0
 11
50.8153
 21
207.34435
 31
0.0
  0
LINE
  5
874
330
1D
100
AcDbEntity
  8
0
100
AcDbLine
 10
50.8153
 20
207.34435
 30
0.0
 11
49.9691
 21
208.27035
 31
0.0
  0
LINE
  5
875
330
1D
100
AcDbEntity
  8
0
100
AcDbLine
 10
50.220545308804
 20
183.843978917723
 30
0.0
 11
50.98964707387
 21
183.685196803823
 31
0.0
  0
LINE
  5
876
330
1D
100
AcDbEntity
  8
0
100
AcDbLine
 10
50.98964707387
 20
183.685196803823
 30
0.0
 11
51.5729
 21
183.44035
 31
0.0
  0
LINE
  5
877
330
1D
100
AcDbEntity
  8
0
100
AcDbLine
 10
49.4326
 20
183.92935
 30
0.0
 11
48.56918358417
 21
183.884300708763
 31
0.0
  0
LINE
  5
878
330
1D
100
AcDbEntity
  8
0
100
AcDbLine
 10
48.2835
 20
183.83035
 30
0.0
 11
47.449488131905
 21
183.639281988982
 31
0.0
  0
LINE
  5
879
330
1D
100
AcDbEntity
  8
0
100
AcDbLine
 10
54.273
 20
223.07435
 30
0.0
 11
50.3973
 21
224.82035
 31
0.0
  0
LINE
  5
87A
330
1D
100
AcDbEntity
  8
0
100
AcDbLine
 10
65.271
 20
232.16835
 30
0.0
 11
45.152570849265
 21
232.16835
 31
0.0
  0
LINE
  5
87B
330
1D
100
AcDbEntity
  8
0
100
AcDbLine
 10
66.1849
 20
211.30435
 30
0.0
 11
64.7553
 21
213.71135
 31
0.0
  0
LINE
  5
87C
330
1D
100
AcDbEntity
  8
0
100
AcDbLine
 10
75.2706
 20
222.19735
 30
0.0
 11
75.1185
 21
223.92935
 31
0.0
  0
LINE
  5
87D
330
1D
100
AcDbEntity
  8
0
100
AcDbLine
 10
75.1185
 20
223.92935
 30
0.0
 11
74.6672
 21
225.60735
 31
0.0
  0
LINE
  5
87E
330
1D
100
AcDbEntity
  8
0
100
AcDbLine
 10
74.6672
 20
225.60735
 30
0.0
 11
73.9306
 21
227.18335
 31
0.0
  0
LINE
  5
87F
330
1D
100
AcDbEntity
  8
0
100
AcDbLine
 10
73.9306
 20
227.18335
 30
0.0
 11
72.9309
 21
228.60735
 31
0.0
  0
LINE
  5
880
330
1D
100
AcDbEntity
  8
0
100
AcDbLine
 10
67.0074
 20
232.01735
 30
0.0
 11
65.271
 21
232.16835
 31
0.0
  0
LINE
  5
881
330
1D
100
AcDbEntity
  8
0
100
AcDbLine
 10
68.6906
 20
231.56735
 30
0.0
 11
67.0074
 21
232.01735
 31
0.0
  0
LINE
  5
882
330
1D
100
AcDbEntity
  8
0
100
AcDbLine
 10
70.2708
 20
230.83235
 30
0.0
 11
68.6906
 21
231.56735
 31
0.0
  0
LINE
  5
883
330
1D
100
AcDbEntity
  8
0
100
AcDbLine
 10
71.6989
 20
229.83535
 30
0.0
 11
70.2708
 21
230.83235
 31
0.0
  0
LINE
  5
884
330
1D
100
AcDbEntity
  8
0
100
AcDbLine
 10
72.9309
 20
228.60735
 30
0.0
 11
71.6989
 21
229.83535
 31
0.0
  0
LINE
  5
885
330
1D
100
AcDbEntity
  8
0
100
AcDbLine
 10
61.0503
 20
218.11435
 30
0.0
 11
57.719
 21
220.92335
 31
0.0
  0
LINE
  5
886
330
1D
100
AcDbEntity
  8
0
100
AcDbLine
 10
63.0483
 20
215.98235
 30
0.0
 11
61.0503
 21
218.11435
 31
0.0
  0
LINE
  5
887
330
1D
100
AcDbEntity
  8
0
100
AcDbLine
 10
57.719
 20
220.92335
 30
0.0
 11
54.273
 21
223.07435
 31
0.0
  0
LINE
  5
888
330
1D
100
AcDbEntity
  8
0
100
AcDbLine
 10
64.7553
 20
213.71135
 30
0.0
 11
63.0483
 21
215.98235
 31
0.0
  0
LINE
  5
889
330
1D
100
AcDbEntity
  8
0
100
AcDbLine
 10
45.0825
 20
233.74435
 30
0.0
 11
44.7333
 21
235.88135
 31
0.0
  0
LINE
  5
88A
330
1D
100
AcDbEntity
  8
0
100
AcDbLine
 10
45.9081
 20
215.17535
 30
0.0
 11
45.0825
 21
233.74435
 31
0.0
  0
LINE
  5
88B
330
1D
100
AcDbEntity
  8
0
100
AcDbLine
 10
48.412
 20
209.61035
 30
0.0
 11
47.631096926498
 21
210.352393193095
 31
0.0
  0
LINE
  5
88C
330
1D
100
AcDbEntity
  8
0
100
AcDbLine
 10
46.8449
 20
211.27635
 30
0.0
 11
46.359210567951
 21
212.278155259709
 31
0.0
  0
LINE
  5
88D
330
1D
100
AcDbEntity
  8
0
100
AcDbLine
 10
47.631096926498
 20
210.352393193095
 30
0.0
 11
46.8449
 21
211.27635
 31
0.0
  0
LINE
  5
88E
330
1D
100
AcDbEntity
  8
0
100
AcDbLine
 10
46.359210567951
 20
212.278155259709
 30
0.0
 11
45.985975208548
 21
213.642117919225
 31
0.0
  0
LINE
  5
88F
330
1D
100
AcDbEntity
  8
0
100
AcDbLine
 10
45.985975208548
 20
213.642117919225
 30
0.0
 11
45.9081
 21
215.17535
 31
0.0
  0
LINE
  5
890
330
1D
100
AcDbEntity
  8
0
100
AcDbLine
 10
50.3973
 20
224.82035
 30
0.0
 11
46.3025
 21
225.91335
 31
0.0
  0
LINE
  5
891
330
1D
100
AcDbEntity
  8
0
100
AcDbLine
 10
50.3973
 20
224.82035
 30
0.0
 11
46.3055
 21
225.92035
 31
0.0
  0
LINE
  5
892
330
1D
100
AcDbEntity
  8
0
100
AcDbLine
 10
46.3055
 20
225.92035
 30
0.0
 11
45.423896269165
 21
226.065828534242
 31
0.0
  0
LINE
  5
893
330
1D
100
AcDbEntity
  8
0
100
AcDbLine
 10
46.3025
 20
225.91335
 30
0.0
 11
45.424168160001
 21
226.059713295706
 31
0.0
  0
LINE
  5
894
330
1D
100
AcDbEntity
  8
0
100
AcDbLine
 10
44.7333
 20
235.88135
 30
0.0
 11
44.3394
 21
236.95835
 31
0.0
  0
LINE
  5
895
330
1D
100
AcDbEntity
  8
0
100
AcDbLine
 10
44.3394
 20
236.95835
 30
0.0
 11
43.7341
 21
238.01435
 31
0.0
  0
LINE
  5
896
330
1D
100
AcDbEntity
  8
0
100
AcDbLine
 10
43.7341
 20
238.01435
 30
0.0
 11
42.8713
 21
239.01935
 31
0.0
  0
LINE
  5
897
330
1D
100
AcDbEntity
  8
0
100
AcDbLine
 10
41.4804
 20
239.77535
 30
0.0
 11
40.8519
 21
239.86835
 31
0.0
  0
LINE
  5
898
330
1D
100
AcDbEntity
  8
0
100
AcDbLine
 10
41.9577
 20
239.58335
 30
0.0
 11
41.4804
 21
239.77535
 31
0.0
  0
LINE
  5
899
330
1D
100
AcDbEntity
  8
0
100
AcDbLine
 10
42.1999
 20
239.44935
 30
0.0
 11
41.9577
 21
239.58335
 31
0.0
  0
LINE
  5
89A
330
1D
100
AcDbEntity
  8
0
100
AcDbLine
 10
42.8713
 20
239.01935
 30
0.0
 11
42.1999
 21
239.44935
 31
0.0
  0
LINE
  5
89B
330
1D
100
AcDbEntity
  8
0
100
AcDbLine
 10
40.8519
 20
239.86835
 30
0.0
 11
39.9929
 21
239.90835
 31
0.0
  0
LINE
  5
89C
330
1D
100
AcDbEntity
  8
0
100
AcDbLine
 10
39.9929
 20
239.90835
 30
0.0
 11
38.9876
 21
239.83535
 31
0.0
  0
LINE
  5
89D
330
1D
100
AcDbEntity
  8
0
100
AcDbLine
 10
38.8233
 20
167.10635
 30
0.0
 11
39.1767
 21
167.10635
 31
0.0
  0
LINE
  5
89E
330
1D
100
AcDbEntity
  8
0
100
AcDbLine
 10
11.3704
 20
161.90935
 30
0.0
 11
66.6296
 21
161.90935
 31
0.0
  0
LINE
  5
89F
330
1D
100
AcDbEntity
  8
0
100
AcDbLine
 10
37.8523
 20
182.00435
 30
0.0
 11
40.1477
 21
182.00435
 31
0.0
  0
LINE
  5
8A0
330
1D
100
AcDbEntity
  8
0
100
AcDbLine
 10
295.2706
 20
182.345039982913
 30
0.0
 11
295.2706
 21
222.19735
 31
0.0
  0
LINE
  5
8A1
330
1D
100
AcDbEntity
  8
0
100
AcDbLine
 10
287.4776
 20
208.73835
 30
0.0
 11
286.1849
 21
211.30435
 31
0.0
  0
LINE
  5
8A2
330
1D
100
AcDbEntity
  8
0
100
AcDbLine
 10
269.9691
 20
208.27035
 30
0.0
 11
268.412
 21
209.61035
 31
0.0
  0
LINE
  5
8A3
330
1D
100
AcDbEntity
  8
0
100
AcDbLine
 10
155.952
 20
208.19635
 30
0.0
 11
152.598
 21
209.59735
 31
0.0
  0
LINE
  5
8A4
330
1D
100
AcDbEntity
  8
0
100
AcDbLine
 10
166.3679
 20
209.42235
 30
0.0
 11
163.2326
 21
212.77035
 31
0.0
  0
LINE
  5
8A5
330
1D
100
AcDbEntity
  8
0
100
AcDbLine
 10
184.0
 20
221.33935
 30
0.0
 11
184.0
 21
170.77435
 31
0.0
  0
LINE
  5
8A6
330
1D
100
AcDbEntity
  8
0
100
AcDbLine
 10
248.0309
 20
208.27035
 30
0.0
 11
249.588
 21
209.61035
 31
0.0
  0
LINE
  5
8A7
330
1D
100
AcDbEntity
  8
0
100
AcDbLine
 10
230.5224
 20
208.73835
 30
0.0
 11
231.8151
 21
211.30435
 31
0.0
  0
LINE
  5
8A8
330
1D
100
AcDbEntity
  8
0
100
AcDbLine
 10
222.7294
 20
182.345039982913
 30
0.0
 11
222.7294
 21
222.19735
 31
0.0
  0
LINE
  5
8A9
330
1D
100
AcDbEntity
  8
0
100
AcDbLine
 10
229.012
 20
174.44535
 30
0.0
 11
245.9437
 21
183.23735
 31
0.0
  0
LINE
  5
8AA
330
1D
100
AcDbEntity
  8
0
100
AcDbLine
 10
245.3361
 20
205.11335
 30
0.0
 11
246.71
 21
206.95335
 31
0.0
  0
LINE
  5
8AB
330
1D
100
AcDbEntity
  8
0
100
AcDbLine
 10
244.8964
 20
170.12135
 30
0.0
 11
247.5103
 21
168.97835
 31
0.0
  0
LINE
  5
8AC
330
1D
100
AcDbEntity
  8
0
100
AcDbLine
 10
286.6296
 20
161.90935
 30
0.0
 11
231.3704
 21
161.90935
 31
0.0
  0
LINE
  5
8AD
330
1D
100
AcDbEntity
  8
0
100
AcDbLine
 10
273.1036
 20
170.12135
 30
0.0
 11
270.4897
 21
168.97835
 31
0.0
  0
LINE
  5
8AE
330
1D
100
AcDbEntity
  8
0
100
AcDbLine
 10
272.12786330623
 20
183.200189845475
 30
0.0
 11
271.5729
 21
183.44035
 31
0.0
  0
LINE
  5
8AF
330
1D
100
AcDbEntity
  8
0
100
AcDbLine
 10
272.12786330623
 20
183.200189845475
 30
0.0
 11
271.5729
 21
183.44035
 31
0.0
  0
LINE
  5
8B0
330
1D
100
AcDbEntity
  8
0
100
AcDbLine
 10
272.6639
 20
205.11335
 30
0.0
 11
271.29
 21
206.95335
 31
0.0
  0
LINE
  5
8B1
330
1D
100
AcDbEntity
  8
0
100
AcDbLine
 10
294.4725
 20
182.99535
 30
0.0
 11
293.7878
 21
183.43235
 31
0.0
  0
LINE
  5
8B2
330
1D
100
AcDbEntity
  8
0
100
AcDbLine
 10
288.988
 20
174.44535
 30
0.0
 11
272.0563
 21
183.23735
 31
0.0
  0
LINE
  5
8B3
330
1D
100
AcDbEntity
  8
0
100
AcDbLine
 10
295.2706
 20
171.80435
 30
0.0
 11
295.1185
 21
170.07335
 31
0.0
  0
LINE
  5
8B4
330
1D
100
AcDbEntity
  8
0
100
AcDbLine
 10
288.6906
 20
162.43535
 30
0.0
 11
286.6296
 21
161.90935
 31
0.0
  0
LINE
  5
8B5
330
1D
100
AcDbEntity
  8
0
100
AcDbLine
 10
290.2708
 20
163.16935
 30
0.0
 11
288.6906
 21
162.43535
 31
0.0
  0
LINE
  5
8B6
330
1D
100
AcDbEntity
  8
0
100
AcDbLine
 10
291.6989
 20
164.16635
 30
0.0
 11
290.2708
 21
163.16935
 31
0.0
  0
LINE
  5
8B7
330
1D
100
AcDbEntity
  8
0
100
AcDbLine
 10
292.9309
 20
165.39535
 30
0.0
 11
291.6989
 21
164.16635
 31
0.0
  0
LINE
  5
8B8
330
1D
100
AcDbEntity
  8
0
100
AcDbLine
 10
293.9306
 20
166.81935
 30
0.0
 11
292.9309
 21
165.39535
 31
0.0
  0
LINE
  5
8B9
330
1D
100
AcDbEntity
  8
0
100
AcDbLine
 10
294.6672
 20
168.39435
 30
0.0
 11
293.9306
 21
166.81935
 31
0.0
  0
LINE
  5
8BA
330
1D
100
AcDbEntity
  8
0
100
AcDbLine
 10
295.1185
 20
170.07335
 30
0.0
 11
294.6672
 21
168.39435
 31
0.0
  0
LINE
  5
8BB
330
1D
100
AcDbEntity
  8
0
100
AcDbLine
 10
297.7456
 20
176.45835
 30
0.0
 11
297.3211
 21
175.64235
 31
0.0
  0
LINE
  5
8BC
330
1D
100
AcDbEntity
  8
0
100
AcDbLine
 10
297.8909
 20
178.61835
 30
0.0
 11
297.5276
 21
179.63835
 31
0.0
  0
LINE
  5
8BD
330
1D
100
AcDbEntity
  8
0
100
AcDbLine
 10
298.0
 20
177.47235
 30
0.0
 11
297.7456
 21
176.45835
 31
0.0
  0
LINE
  5
8BE
330
1D
100
AcDbEntity
  8
0
100
AcDbLine
 10
298.0
 20
177.47235
 30
0.0
 11
297.8909
 21
178.61835
 31
0.0
  0
LINE
  5
8BF
330
1D
100
AcDbEntity
  8
0
100
AcDbLine
 10
295.9586
 20
173.95735
 30
0.0
 11
295.4541
 21
173.71035
 31
0.0
  0
LINE
  5
8C0
330
1D
100
AcDbEntity
  8
0
100
AcDbLine
 10
296.7584
 20
174.74135
 30
0.0
 11
295.9586
 21
173.95735
 31
0.0
  0
LINE
  5
8C1
330
1D
100
AcDbEntity
  8
0
100
AcDbLine
 10
295.4541
 20
173.71035
 30
0.0
 11
294.6311
 21
173.40135
 31
0.0
  0
LINE
  5
8C2
330
1D
100
AcDbEntity
  8
0
100
AcDbLine
 10
297.3211
 20
175.64235
 30
0.0
 11
296.7584
 21
174.74135
 31
0.0
  0
LINE
  5
8C3
330
1D
100
AcDbEntity
  8
0
100
AcDbLine
 10
297.5276
 20
179.63835
 30
0.0
 11
297.0804
 21
180.45635
 31
0.0
  0
LINE
  5
8C4
330
1D
100
AcDbEntity
  8
0
100
AcDbLine
 10
295.4089
 20
182.23235
 30
0.0
 11
294.4725
 21
182.99535
 31
0.0
  0
LINE
  5
8C5
330
1D
100
AcDbEntity
  8
0
100
AcDbLine
 10
296.3115
 20
181.44735
 30
0.0
 11
295.4089
 21
182.23235
 31
0.0
  0
LINE
  5
8C6
330
1D
100
AcDbEntity
  8
0
100
AcDbLine
 10
297.0804
 20
180.45635
 30
0.0
 11
296.3115
 21
181.44735
 31
0.0
  0
LINE
  5
8C7
330
1D
100
AcDbEntity
  8
0
100
AcDbLine
 10
294.6311
 20
173.40135
 30
0.0
 11
293.7397
 21
173.25135
 31
0.0
  0
LINE
  5
8C8
330
1D
100
AcDbEntity
  8
0
100
AcDbLine
 10
293.7397
 20
173.25135
 30
0.0
 11
292.9651
 21
173.24235
 31
0.0
  0
LINE
  5
8C9
330
1D
100
AcDbEntity
  8
0
100
AcDbLine
 10
292.9651
 20
173.24235
 30
0.0
 11
291.5427
 21
173.42835
 31
0.0
  0
LINE
  5
8CA
330
1D
100
AcDbEntity
  8
0
100
AcDbLine
 10
295.2706
 20
171.80435
 30
0.0
 11
295.2706
 21
173.641453888214
 31
0.0
  0
LINE
  5
8CB
330
1D
100
AcDbEntity
  8
0
100
AcDbLine
 10
291.5427
 20
173.42835
 30
0.0
 11
288.988
 21
174.44535
 31
0.0
  0
LINE
  5
8CC
330
1D
100
AcDbEntity
  8
0
100
AcDbLine
 10
282.2018
 20
176.88635
 30
0.0
 11
280.168
 21
174.89035
 31
0.0
  0
LINE
  5
8CD
330
1D
100
AcDbEntity
  8
0
100
AcDbLine
 10
282.821364087405
 20
177.647453920075
 30
0.0
 11
282.2018
 21
176.88635
 31
0.0
  0
LINE
  5
8CE
330
1D
100
AcDbEntity
  8
0
100
AcDbLine
 10
275.6066
 20
171.48435
 30
0.0
 11
273.1036
 21
170.12135
 31
0.0
  0
LINE
  5
8CF
330
1D
100
AcDbEntity
  8
0
100
AcDbLine
 10
277.9823
 20
173.06035
 30
0.0
 11
275.6066
 21
171.48435
 31
0.0
  0
LINE
  5
8D0
330
1D
100
AcDbEntity
  8
0
100
AcDbLine
 10
280.168
 20
174.89035
 30
0.0
 11
277.9823
 21
173.06035
 31
0.0
  0
LINE
  5
8D1
330
1D
100
AcDbEntity
  8
0
100
AcDbLine
 10
293.7878
 20
183.43235
 30
0.0
 11
278.1423
 21
193.36335
 31
0.0
  0
LINE
  5
8D2
330
1D
100
AcDbEntity
  8
0
100
AcDbLine
 10
289.8845
 20
197.71535
 30
0.0
 11
289.7805
 21
194.85435
 31
0.0
  0
LINE
  5
8D3
330
1D
100
AcDbEntity
  8
0
100
AcDbLine
 10
289.7805
 20
194.85435
 30
0.0
 11
289.481
 21
192.06435
 31
0.0
  0
LINE
  5
8D4
330
1D
100
AcDbEntity
  8
0
100
AcDbLine
 10
288.8759
 20
189.29135
 30
0.0
 11
288.121534791872
 21
187.029018676739
 31
0.0
  0
LINE
  5
8D5
330
1D
100
AcDbEntity
  8
0
100
AcDbLine
 10
289.481
 20
192.06435
 30
0.0
 11
288.8759
 21
189.29135
 31
0.0
  0
LINE
  5
8D6
330
1D
100
AcDbEntity
  8
0
100
AcDbLine
 10
289.8845
 20
197.71535
 30
0.0
 11
289.6361
 21
200.63035
 31
0.0
  0
LINE
  5
8D7
330
1D
100
AcDbEntity
  8
0
100
AcDbLine
 10
289.6361
 20
200.63035
 30
0.0
 11
289.1086
 21
203.31935
 31
0.0
  0
LINE
  5
8D8
330
1D
100
AcDbEntity
  8
0
100
AcDbLine
 10
289.1086
 20
203.31935
 30
0.0
 11
288.4625
 21
205.99635
 31
0.0
  0
LINE
  5
8D9
330
1D
100
AcDbEntity
  8
0
100
AcDbLine
 10
288.4625
 20
205.99635
 30
0.0
 11
287.4776
 21
208.73835
 31
0.0
  0
LINE
  5
8DA
330
1D
100
AcDbEntity
  8
0
100
AcDbLine
 10
276.449293883838
 20
194.854836738298
 30
0.0
 11
276.0696
 21
195.39535
 31
0.0
  0
LINE
  5
8DB
330
1D
100
AcDbEntity
  8
0
100
AcDbLine
 10
276.0696
 20
195.39535
 30
0.0
 11
275.8187
 21
195.87535
 31
0.0
  0
LINE
  5
8DC
330
1D
100
AcDbEntity
  8
0
100
AcDbLine
 10
274.5725
 20
200.86935
 30
0.0
 11
273.7713
 21
203.04935
 31
0.0
  0
LINE
  5
8DD
330
1D
100
AcDbEntity
  8
0
100
AcDbLine
 10
275.0029
 20
198.78835
 30
0.0
 11
274.5725
 21
200.86935
 31
0.0
  0
LINE
  5
8DE
330
1D
100
AcDbEntity
  8
0
100
AcDbLine
 10
275.402479917702
 20
196.997129679268
 30
0.0
 11
275.0029
 21
198.78835
 31
0.0
  0
LINE
  5
8DF
330
1D
100
AcDbEntity
  8
0
100
AcDbLine
 10
275.8187
 20
195.87535
 30
0.0
 11
275.5815
 21
196.43435
 31
0.0
  0
LINE
  5
8E0
330
1D
100
AcDbEntity
  8
0
100
AcDbLine
 10
273.7713
 20
203.04935
 30
0.0
 11
273.2242
 21
204.13535
 31
0.0
  0
LINE
  5
8E1
330
1D
100
AcDbEntity
  8
0
100
AcDbLine
 10
273.2242
 20
204.13535
 30
0.0
 11
272.6639
 21
205.11335
 31
0.0
  0
LINE
  5
8E2
330
1D
100
AcDbEntity
  8
0
100
AcDbLine
 10
278.1423
 20
193.36335
 30
0.0
 11
276.449293883838
 21
194.854836738298
 31
0.0
  0
LINE
  5
8E3
330
1D
100
AcDbEntity
  8
0
100
AcDbLine
 10
275.5815
 20
196.43435
 30
0.0
 11
275.402479917702
 21
196.997129679268
 31
0.0
  0
LINE
  5
8E4
330
1D
100
AcDbEntity
  8
0
100
AcDbLine
 10
267.449488131906
 20
183.639281988982
 30
0.0
 11
265.139
 21
182.85835
 31
0.0
  0
LINE
  5
8E5
330
1D
100
AcDbEntity
  8
0
100
AcDbLine
 10
250.550511868095
 20
183.639281988982
 30
0.0
 11
252.861
 21
182.85835
 31
0.0
  0
LINE
  5
8E6
330
1D
100
AcDbEntity
  8
0
100
AcDbLine
 10
245.87213669377
 20
183.200189845475
 30
0.0
 11
246.4271
 21
183.44035
 31
0.0
  0
LINE
  5
8E7
330
1D
100
AcDbEntity
  8
0
100
AcDbLine
 10
245.87213669377
 20
183.200189845475
 30
0.0
 11
246.4271
 21
183.44035
 31
0.0
  0
LINE
  5
8E8
330
1D
100
AcDbEntity
  8
0
100
AcDbLine
 10
255.8547
 20
167.19135
 30
0.0
 11
258.8233
 21
167.10635
 31
0.0
  0
LINE
  5
8E9
330
1D
100
AcDbEntity
  8
0
100
AcDbLine
 10
260.1477
 20
182.00435
 30
0.0
 11
257.8523
 21
182.00435
 31
0.0
  0
LINE
  5
8EA
330
1D
100
AcDbEntity
  8
0
100
AcDbLine
 10
262.1453
 20
167.19135
 30
0.0
 11
259.1767
 21
167.10635
 31
0.0
  0
LINE
  5
8EB
330
1D
100
AcDbEntity
  8
0
100
AcDbLine
 10
264.9821
 20
167.50635
 30
0.0
 11
262.1453
 21
167.19135
 31
0.0
  0
LINE
  5
8EC
330
1D
100
AcDbEntity
  8
0
100
AcDbLine
 10
267.7712
 20
168.11135
 30
0.0
 11
264.9821
 21
167.50635
 31
0.0
  0
LINE
  5
8ED
330
1D
100
AcDbEntity
  8
0
100
AcDbLine
 10
270.4897
 20
168.97835
 30
0.0
 11
267.7712
 21
168.11135
 31
0.0
  0
LINE
  5
8EE
330
1D
100
AcDbEntity
  8
0
100
AcDbLine
 10
259.1767
 20
167.10635
 30
0.0
 11
258.8233
 21
167.10635
 31
0.0
  0
LINE
  5
8EF
330
1D
100
AcDbEntity
  8
0
100
AcDbLine
 10
262.2161
 20
182.15335
 30
0.0
 11
260.1477
 21
182.00435
 31
0.0
  0
LINE
  5
8F0
330
1D
100
AcDbEntity
  8
0
100
AcDbLine
 10
263.6227
 20
182.46235
 30
0.0
 11
262.2161
 21
182.15335
 31
0.0
  0
LINE
  5
8F1
330
1D
100
AcDbEntity
  8
0
100
AcDbLine
 10
265.139
 20
182.85835
 30
0.0
 11
263.6227
 21
182.46235
 31
0.0
  0
LINE
  5
8F2
330
1D
100
AcDbEntity
  8
0
100
AcDbLine
 10
252.861
 20
182.85835
 30
0.0
 11
254.3773
 21
182.46235
 31
0.0
  0
LINE
  5
8F3
330
1D
100
AcDbEntity
  8
0
100
AcDbLine
 10
254.3773
 20
182.46235
 30
0.0
 11
255.7839
 21
182.15335
 31
0.0
  0
LINE
  5
8F4
330
1D
100
AcDbEntity
  8
0
100
AcDbLine
 10
255.7839
 20
182.15335
 30
0.0
 11
257.8523
 21
182.00435
 31
0.0
  0
LINE
  5
8F5
330
1D
100
AcDbEntity
  8
0
100
AcDbLine
 10
247.5103
 20
168.97835
 30
0.0
 11
250.2288
 21
168.11135
 31
0.0
  0
LINE
  5
8F6
330
1D
100
AcDbEntity
  8
0
100
AcDbLine
 10
250.2288
 20
168.11135
 30
0.0
 11
253.0179
 21
167.50635
 31
0.0
  0
LINE
  5
8F7
330
1D
100
AcDbEntity
  8
0
100
AcDbLine
 10
253.0179
 20
167.50635
 30
0.0
 11
255.8547
 21
167.19135
 31
0.0
  0
LINE
  5
8F8
330
1D
100
AcDbEntity
  8
0
100
AcDbLine
 10
268.56918358417
 20
183.884300708763
 30
0.0
 11
268.2835
 21
183.83035
 31
0.0
  0
LINE
  5
8F9
330
1D
100
AcDbEntity
  8
0
100
AcDbLine
 10
270.220545308804
 20
183.843978917723
 30
0.0
 11
269.4326
 21
183.92935
 31
0.0
  0
LINE
  5
8FA
330
1D
100
AcDbEntity
  8
0
100
AcDbLine
 10
271.29
 20
206.95335
 30
0.0
 11
270.8153
 21
207.34435
 31
0.0
  0
LINE
  5
8FB
330
1D
100
AcDbEntity
  8
0
100
AcDbLine
 10
270.8153
 20
207.34435
 30
0.0
 11
269.9691
 21
208.27035
 31
0.0
  0
LINE
  5
8FC
330
1D
100
AcDbEntity
  8
0
100
AcDbLine
 10
270.220545308804
 20
183.843978917723
 30
0.0
 11
270.989647073869
 21
183.685196803823
 31
0.0
  0
LINE
  5
8FD
330
1D
100
AcDbEntity
  8
0
100
AcDbLine
 10
270.989647073869
 20
183.685196803823
 30
0.0
 11
271.5729
 21
183.44035
 31
0.0
  0
LINE
  5
8FE
330
1D
100
AcDbEntity
  8
0
100
AcDbLine
 10
269.4326
 20
183.92935
 30
0.0
 11
268.56918358417
 21
183.884300708763
 31
0.0
  0
LINE
  5
8FF
330
1D
100
AcDbEntity
  8
0
100
AcDbLine
 10
268.2835
 20
183.83035
 30
0.0
 11
267.449488131906
 21
183.639281988982
 31
0.0
  0
LINE
  5
900
330
1D
100
AcDbEntity
  8
0
100
AcDbLine
 10
249.7165
 20
183.83035
 30
0.0
 11
250.550511868095
 21
183.639281988982
 31
0.0
  0
LINE
  5
901
330
1D
100
AcDbEntity
  8
0
100
AcDbLine
 10
248.5674
 20
183.92935
 30
0.0
 11
249.43081641583
 21
183.884300708763
 31
0.0
  0
LINE
  5
902
330
1D
100
AcDbEntity
  8
0
100
AcDbLine
 10
247.01035292613
 20
183.685196803823
 30
0.0
 11
246.4271
 21
183.44035
 31
0.0
  0
LINE
  5
903
330
1D
100
AcDbEntity
  8
0
100
AcDbLine
 10
247.779454691196
 20
183.843978917723
 30
0.0
 11
247.01035292613
 21
183.685196803823
 31
0.0
  0
LINE
  5
904
330
1D
100
AcDbEntity
  8
0
100
AcDbLine
 10
247.1847
 20
207.34435
 30
0.0
 11
248.0309
 21
208.27035
 31
0.0
  0
LINE
  5
905
330
1D
100
AcDbEntity
  8
0
100
AcDbLine
 10
246.71
 20
206.95335
 30
0.0
 11
247.1847
 21
207.34435
 31
0.0
  0
LINE
  5
906
330
1D
100
AcDbEntity
  8
0
100
AcDbLine
 10
247.779454691196
 20
183.843978917723
 30
0.0
 11
248.5674
 21
183.92935
 31
0.0
  0
LINE
  5
907
330
1D
100
AcDbEntity
  8
0
100
AcDbLine
 10
249.43081641583
 20
183.884300708763
 30
0.0
 11
249.7165
 21
183.83035
 31
0.0
  0
LINE
  5
908
330
1D
100
AcDbEntity
  8
0
100
AcDbLine
 10
223.5275
 20
182.99535
 30
0.0
 11
224.2122
 21
183.43235
 31
0.0
  0
LINE
  5
909
330
1D
100
AcDbEntity
  8
0
100
AcDbLine
 10
237.832
 20
174.89035
 30
0.0
 11
240.0177
 21
173.06035
 31
0.0
  0
LINE
  5
90A
330
1D
100
AcDbEntity
  8
0
100
AcDbLine
 10
240.0177
 20
173.06035
 30
0.0
 11
242.3934
 21
171.48435
 31
0.0
  0
LINE
  5
90B
330
1D
100
AcDbEntity
  8
0
100
AcDbLine
 10
242.3934
 20
171.48435
 30
0.0
 11
244.8964
 21
170.12135
 31
0.0
  0
LINE
  5
90C
330
1D
100
AcDbEntity
  8
0
100
AcDbLine
 10
235.178635912595
 20
177.647453920075
 30
0.0
 11
235.7982
 21
176.88635
 31
0.0
  0
LINE
  5
90D
330
1D
100
AcDbEntity
  8
0
100
AcDbLine
 10
235.7982
 20
176.88635
 30
0.0
 11
237.832
 21
174.89035
 31
0.0
  0
LINE
  5
90E
330
1D
100
AcDbEntity
  8
0
100
AcDbLine
 10
222.7294
 20
171.80435
 30
0.0
 11
222.8815
 21
170.07335
 31
0.0
  0
LINE
  5
90F
330
1D
100
AcDbEntity
  8
0
100
AcDbLine
 10
222.8815
 20
170.07335
 30
0.0
 11
223.3328
 21
168.39435
 31
0.0
  0
LINE
  5
910
330
1D
100
AcDbEntity
  8
0
100
AcDbLine
 10
223.3328
 20
168.39435
 30
0.0
 11
224.0694
 21
166.81935
 31
0.0
  0
LINE
  5
911
330
1D
100
AcDbEntity
  8
0
100
AcDbLine
 10
224.0694
 20
166.81935
 30
0.0
 11
225.0691
 21
165.39535
 31
0.0
  0
LINE
  5
912
330
1D
100
AcDbEntity
  8
0
100
AcDbLine
 10
225.0691
 20
165.39535
 30
0.0
 11
226.3011
 21
164.16635
 31
0.0
  0
LINE
  5
913
330
1D
100
AcDbEntity
  8
0
100
AcDbLine
 10
226.3011
 20
164.16635
 30
0.0
 11
227.7292
 21
163.16935
 31
0.0
  0
LINE
  5
914
330
1D
100
AcDbEntity
  8
0
100
AcDbLine
 10
227.7292
 20
163.16935
 30
0.0
 11
229.3094
 21
162.43535
 31
0.0
  0
LINE
  5
915
330
1D
100
AcDbEntity
  8
0
100
AcDbLine
 10
229.3094
 20
162.43535
 30
0.0
 11
231.3704
 21
161.90935
 31
0.0
  0
LINE
  5
916
330
1D
100
AcDbEntity
  8
0
100
AcDbLine
 10
226.4573
 20
173.42835
 30
0.0
 11
229.012
 21
174.44535
 31
0.0
  0
LINE
  5
917
330
1D
100
AcDbEntity
  8
0
100
AcDbLine
 10
222.7294
 20
171.80435
 30
0.0
 11
222.7294
 21
173.641453888214
 31
0.0
  0
LINE
  5
918
330
1D
100
AcDbEntity
  8
0
100
AcDbLine
 10
225.0349
 20
173.24235
 30
0.0
 11
226.4573
 21
173.42835
 31
0.0
  0
LINE
  5
919
330
1D
100
AcDbEntity
  8
0
100
AcDbLine
 10
224.2603
 20
173.25135
 30
0.0
 11
225.0349
 21
173.24235
 31
0.0
  0
LINE
  5
91A
330
1D
100
AcDbEntity
  8
0
100
AcDbLine
 10
223.3689
 20
173.40135
 30
0.0
 11
224.2603
 21
173.25135
 31
0.0
  0
LINE
  5
91B
330
1D
100
AcDbEntity
  8
0
100
AcDbLine
 10
220.9196
 20
180.45635
 30
0.0
 11
221.6885
 21
181.44735
 31
0.0
  0
LINE
  5
91C
330
1D
100
AcDbEntity
  8
0
100
AcDbLine
 10
221.6885
 20
181.44735
 30
0.0
 11
222.5911
 21
182.23235
 31
0.0
  0
LINE
  5
91D
330
1D
100
AcDbEntity
  8
0
100
AcDbLine
 10
222.5911
 20
182.23235
 30
0.0
 11
223.5275
 21
182.99535
 31
0.0
  0
LINE
  5
91E
330
1D
100
AcDbEntity
  8
0
100
AcDbLine
 10
220.4724
 20
179.63835
 30
0.0
 11
220.9196
 21
180.45635
 31
0.0
  0
LINE
  5
91F
330
1D
100
AcDbEntity
  8
0
100
AcDbLine
 10
220.6789
 20
175.64235
 30
0.0
 11
221.2416
 21
174.74135
 31
0.0
  0
LINE
  5
920
330
1D
100
AcDbEntity
  8
0
100
AcDbLine
 10
222.5459
 20
173.71035
 30
0.0
 11
223.3689
 21
173.40135
 31
0.0
  0
LINE
  5
921
330
1D
100
AcDbEntity
  8
0
100
AcDbLine
 10
221.2416
 20
174.74135
 30
0.0
 11
222.0414
 21
173.95735
 31
0.0
  0
LINE
  5
922
330
1D
100
AcDbEntity
  8
0
100
AcDbLine
 10
222.0414
 20
173.95735
 30
0.0
 11
222.5459
 21
173.71035
 31
0.0
  0
LINE
  5
923
330
1D
100
AcDbEntity
  8
0
100
AcDbLine
 10
220.0
 20
177.47235
 30
0.0
 11
220.1091
 21
178.61835
 31
0.0
  0
LINE
  5
924
330
1D
100
AcDbEntity
  8
0
100
AcDbLine
 10
220.0
 20
177.47235
 30
0.0
 11
220.2544
 21
176.45835
 31
0.0
  0
LINE
  5
925
330
1D
100
AcDbEntity
  8
0
100
AcDbLine
 10
220.1091
 20
178.61835
 30
0.0
 11
220.4724
 21
179.63835
 31
0.0
  0
LINE
  5
926
330
1D
100
AcDbEntity
  8
0
100
AcDbLine
 10
220.2544
 20
176.45835
 30
0.0
 11
220.6789
 21
175.64235
 31
0.0
  0
LINE
  5
927
330
1D
100
AcDbEntity
  8
0
100
AcDbLine
 10
242.4185
 20
196.43435
 30
0.0
 11
242.597520082298
 21
196.997129679268
 31
0.0
  0
LINE
  5
928
330
1D
100
AcDbEntity
  8
0
100
AcDbLine
 10
239.8577
 20
193.36335
 30
0.0
 11
241.550706116162
 21
194.854836738298
 31
0.0
  0
LINE
  5
929
330
1D
100
AcDbEntity
  8
0
100
AcDbLine
 10
244.7758
 20
204.13535
 30
0.0
 11
245.3361
 21
205.11335
 31
0.0
  0
LINE
  5
92A
330
1D
100
AcDbEntity
  8
0
100
AcDbLine
 10
244.2287
 20
203.04935
 30
0.0
 11
244.7758
 21
204.13535
 31
0.0
  0
LINE
  5
92B
330
1D
100
AcDbEntity
  8
0
100
AcDbLine
 10
242.1813
 20
195.87535
 30
0.0
 11
242.4185
 21
196.43435
 31
0.0
  0
LINE
  5
92C
330
1D
100
AcDbEntity
  8
0
100
AcDbLine
 10
242.597520082298
 20
196.997129679268
 30
0.0
 11
242.9971
 21
198.78835
 31
0.0
  0
LINE
  5
92D
330
1D
100
AcDbEntity
  8
0
100
AcDbLine
 10
242.9971
 20
198.78835
 30
0.0
 11
243.4275
 21
200.86935
 31
0.0
  0
LINE
  5
92E
330
1D
100
AcDbEntity
  8
0
100
AcDbLine
 10
243.4275
 20
200.86935
 30
0.0
 11
244.2287
 21
203.04935
 31
0.0
  0
LINE
  5
92F
330
1D
100
AcDbEntity
  8
0
100
AcDbLine
 10
241.9304
 20
195.39535
 30
0.0
 11
242.1813
 21
195.87535
 31
0.0
  0
LINE
  5
930
330
1D
100
AcDbEntity
  8
0
100
AcDbLine
 10
241.550706116162
 20
194.854836738298
 30
0.0
 11
241.9304
 21
195.39535
 31
0.0
  0
LINE
  5
931
330
1D
100
AcDbEntity
  8
0
100
AcDbLine
 10
229.5375
 20
205.99635
 30
0.0
 11
230.5224
 21
208.73835
 31
0.0
  0
LINE
  5
932
330
1D
100
AcDbEntity
  8
0
100
AcDbLine
 10
228.8914
 20
203.31935
 30
0.0
 11
229.5375
 21
205.99635
 31
0.0
  0
LINE
  5
933
330
1D
100
AcDbEntity
  8
0
100
AcDbLine
 10
228.3639
 20
200.63035
 30
0.0
 11
228.8914
 21
203.31935
 31
0.0
  0
LINE
  5
934
330
1D
100
AcDbEntity
  8
0
100
AcDbLine
 10
228.1155
 20
197.71535
 30
0.0
 11
228.3639
 21
200.63035
 31
0.0
  0
LINE
  5
935
330
1D
100
AcDbEntity
  8
0
100
AcDbLine
 10
228.519
 20
192.06435
 30
0.0
 11
229.1241
 21
189.29135
 31
0.0
  0
LINE
  5
936
330
1D
100
AcDbEntity
  8
0
100
AcDbLine
 10
229.1241
 20
189.29135
 30
0.0
 11
229.878465208128
 21
187.029018676739
 31
0.0
  0
LINE
  5
937
330
1D
100
AcDbEntity
  8
0
100
AcDbLine
 10
228.2195
 20
194.85435
 30
0.0
 11
228.519
 21
192.06435
 31
0.0
  0
LINE
  5
938
330
1D
100
AcDbEntity
  8
0
100
AcDbLine
 10
228.1155
 20
197.71535
 30
0.0
 11
228.2195
 21
194.85435
 31
0.0
  0
LINE
  5
939
330
1D
100
AcDbEntity
  8
0
100
AcDbLine
 10
224.2122
 20
183.43235
 30
0.0
 11
239.8577
 21
193.36335
 31
0.0
  0
LINE
  5
93A
330
1D
100
AcDbEntity
  8
0
100
AcDbLine
 10
162.9039
 20
103.16635
 30
0.0
 11
162.9039
 21
108.15335
 31
0.0
  0
LINE
  5
93B
330
1D
100
AcDbEntity
  8
0
100
AcDbLine
 10
162.9039
 20
108.15335
 30
0.0
 11
162.9039
 21
103.16635
 31
0.0
  0
LINE
  5
93C
330
1D
100
AcDbEntity
  8
0
100
AcDbLine
 10
160.9831
 20
54.66645
 30
0.0
 11
158.784
 21
52.04815
 31
0.0
  0
LINE
  5
93D
330
1D
100
AcDbEntity
  8
0
100
AcDbLine
 10
158.784
 20
52.04815
 30
0.0
 11
155.918
 21
50.03855
 31
0.0
  0
LINE
  5
93E
330
1D
100
AcDbEntity
  8
0
100
AcDbLine
 10
155.918
 20
50.03855
 30
0.0
 11
152.581
 21
48.77495
 31
0.0
  0
LINE
  5
93F
330
1D
100
AcDbEntity
  8
0
100
AcDbLine
 10
152.581
 20
48.77495
 30
0.0
 11
149.0
 21
48.34435
 31
0.0
  0
LINE
  5
940
330
1D
100
AcDbEntity
  8
0
100
AcDbLine
 10
162.9039
 20
61.09335
 30
0.0
 11
162.9039
 21
95.46735
 31
0.0
  0
LINE
  5
941
330
1D
100
AcDbEntity
  8
0
100
AcDbLine
 10
162.9039
 20
95.46735
 30
0.0
 11
162.9039
 21
61.09335
 31
0.0
  0
LINE
  5
942
330
1D
100
AcDbEntity
  8
0
100
AcDbLine
 10
161.0407
 20
54.74165
 30
0.0
 11
160.9831
 21
54.66645
 31
0.0
  0
LINE
  5
943
330
1D
100
AcDbEntity
  8
0
100
AcDbLine
 10
162.9039
 20
61.09335
 30
0.0
 11
162.4301
 21
57.80555
 31
0.0
  0
LINE
  5
944
330
1D
100
AcDbEntity
  8
0
100
AcDbLine
 10
162.4301
 20
57.80555
 30
0.0
 11
161.0407
 21
54.74165
 31
0.0
  0
LINE
  5
945
330
1D
100
AcDbEntity
  8
0
100
AcDbLine
 10
162.9039
 20
98.91135
 30
0.0
 11
162.9039
 21
95.46735
 31
0.0
  0
LINE
  5
946
330
1D
100
AcDbEntity
  8
0
100
AcDbLine
 10
162.9039
 20
98.91135
 30
0.0
 11
162.9039
 21
103.16635
 31
0.0
  0
LINE
  5
947
330
1D
100
AcDbEntity
  8
0
100
AcDbLine
 10
162.9039
 20
103.16635
 30
0.0
 11
162.9039
 21
98.91135
 31
0.0
  0
LINE
  5
948
330
1D
100
AcDbEntity
  8
0
100
AcDbLine
 10
162.9039
 20
95.46735
 30
0.0
 11
162.9039
 21
98.91135
 31
0.0
  0
LINE
  5
949
330
1D
100
AcDbEntity
  8
0
100
AcDbLine
 10
162.9039
 20
154.71135
 30
0.0
 11
162.9039
 21
161.55335
 31
0.0
  0
LINE
  5
94A
330
1D
100
AcDbEntity
  8
0
100
AcDbLine
 10
162.9039
 20
161.55335
 30
0.0
 11
162.9039
 21
154.71135
 31
0.0
  0
LINE
  5
94B
330
1D
100
AcDbEntity
  8
0
100
AcDbLine
 10
162.9039
 20
108.15335
 30
0.0
 11
162.9039
 21
113.78235
 31
0.0
  0
LINE
  5
94C
330
1D
100
AcDbEntity
  8
0
100
AcDbLine
 10
162.9039
 20
113.78235
 30
0.0
 11
162.9039
 21
108.15335
 31
0.0
  0
LINE
  5
94D
330
1D
100
AcDbEntity
  8
0
100
AcDbLine
 10
162.9039
 20
113.78235
 30
0.0
 11
162.9039
 21
119.95135
 31
0.0
  0
LINE
  5
94E
330
1D
100
AcDbEntity
  8
0
100
AcDbLine
 10
162.9039
 20
119.95135
 30
0.0
 11
162.9039
 21
113.78235
 31
0.0
  0
LINE
  5
94F
330
1D
100
AcDbEntity
  8
0
100
AcDbLine
 10
162.9039
 20
119.95135
 30
0.0
 11
162.9039
 21
126.54635
 31
0.0
  0
LINE
  5
950
330
1D
100
AcDbEntity
  8
0
100
AcDbLine
 10
162.9039
 20
126.54635
 30
0.0
 11
162.9039
 21
119.95135
 31
0.0
  0
LINE
  5
951
330
1D
100
AcDbEntity
  8
0
100
AcDbLine
 10
162.9039
 20
126.54635
 30
0.0
 11
162.9039
 21
133.44835
 31
0.0
  0
LINE
  5
952
330
1D
100
AcDbEntity
  8
0
100
AcDbLine
 10
162.9039
 20
133.44835
 30
0.0
 11
162.9039
 21
126.54635
 31
0.0
  0
LINE
  5
953
330
1D
100
AcDbEntity
  8
0
100
AcDbLine
 10
162.9039
 20
133.44835
 30
0.0
 11
162.9039
 21
140.52935
 31
0.0
  0
LINE
  5
954
330
1D
100
AcDbEntity
  8
0
100
AcDbLine
 10
162.9039
 20
140.52935
 30
0.0
 11
162.9039
 21
133.44835
 31
0.0
  0
LINE
  5
955
330
1D
100
AcDbEntity
  8
0
100
AcDbLine
 10
162.9039
 20
140.52935
 30
0.0
 11
162.9039
 21
147.65935
 31
0.0
  0
LINE
  5
956
330
1D
100
AcDbEntity
  8
0
100
AcDbLine
 10
162.9039
 20
147.65935
 30
0.0
 11
162.9039
 21
140.52935
 31
0.0
  0
LINE
  5
957
330
1D
100
AcDbEntity
  8
0
100
AcDbLine
 10
162.9039
 20
147.65935
 30
0.0
 11
162.9039
 21
154.71135
 31
0.0
  0
LINE
  5
958
330
1D
100
AcDbEntity
  8
0
100
AcDbLine
 10
162.9039
 20
154.71135
 30
0.0
 11
162.9039
 21
147.65935
 31
0.0
  0
LINE
  5
959
330
1D
100
AcDbEntity
  8
0
100
AcDbLine
 10
169.1646
 20
187.57435
 30
0.0
 11
166.9737
 21
183.53235
 31
0.0
  0
LINE
  5
95A
330
1D
100
AcDbEntity
  8
0
100
AcDbLine
 10
168.7445
 20
205.48935
 30
0.0
 11
166.3679
 21
209.42235
 31
0.0
  0
LINE
  5
95B
330
1D
100
AcDbEntity
  8
0
100
AcDbLine
 10
174.0766
 20
160.76935
 30
0.0
 11
162.9039
 21
160.76935
 31
0.0
  0
LINE
  5
95C
330
1D
100
AcDbEntity
  8
0
100
AcDbLine
 10
184.0
 20
170.77435
 30
0.0
 11
183.849
 21
169.03735
 31
0.0
  0
LINE
  5
95D
330
1D
100
AcDbEntity
  8
0
100
AcDbLine
 10
183.849
 20
169.03735
 30
0.0
 11
183.4011
 21
167.35235
 31
0.0
  0
LINE
  5
95E
330
1D
100
AcDbEntity
  8
0
100
AcDbLine
 10
183.4011
 20
167.35235
 30
0.0
 11
182.6702
 21
165.77135
 31
0.0
  0
LINE
  5
95F
330
1D
100
AcDbEntity
  8
0
100
AcDbLine
 10
182.6702
 20
165.77135
 30
0.0
 11
181.6781
 21
164.34335
 31
0.0
  0
LINE
  5
960
330
1D
100
AcDbEntity
  8
0
100
AcDbLine
 10
181.6781
 20
164.34335
 30
0.0
 11
180.4555
 21
163.11035
 31
0.0
  0
LINE
  5
961
330
1D
100
AcDbEntity
  8
0
100
AcDbLine
 10
180.4555
 20
163.11035
 30
0.0
 11
179.0383
 21
162.11035
 31
0.0
  0
LINE
  5
962
330
1D
100
AcDbEntity
  8
0
100
AcDbLine
 10
179.0383
 20
162.11035
 30
0.0
 11
177.4702
 21
161.37335
 31
0.0
  0
LINE
  5
963
330
1D
100
AcDbEntity
  8
0
100
AcDbLine
 10
177.4702
 20
161.37335
 30
0.0
 11
175.7997
 21
160.92135
 31
0.0
  0
LINE
  5
964
330
1D
100
AcDbEntity
  8
0
100
AcDbLine
 10
170.4725
 20
191.98635
 30
0.0
 11
169.1646
 21
187.57435
 31
0.0
  0
LINE
  5
965
330
1D
100
AcDbEntity
  8
0
100
AcDbLine
 10
170.258
 20
201.14435
 30
0.0
 11
168.7445
 21
205.48935
 31
0.0
  0
LINE
  5
966
330
1D
100
AcDbEntity
  8
0
100
AcDbLine
 10
170.843
 20
196.57635
 30
0.0
 11
170.4725
 21
191.98635
 31
0.0
  0
LINE
  5
967
330
1D
100
AcDbEntity
  8
0
100
AcDbLine
 10
170.843
 20
196.57635
 30
0.0
 11
170.258
 21
201.14435
 31
0.0
  0
LINE
  5
968
330
1D
100
AcDbEntity
  8
0
100
AcDbLine
 10
175.7997
 20
160.92135
 30
0.0
 11
174.0766
 21
160.76935
 31
0.0
  0
LINE
  5
969
330
1D
100
AcDbEntity
  8
0
100
AcDbLine
 10
162.9039
 20
179.61135
 30
0.0
 11
162.9039
 21
184.44235
 31
0.0
  0
LINE
  5
96A
330
1D
100
AcDbEntity
  8
0
100
AcDbLine
 10
162.9039
 20
184.44235
 30
0.0
 11
162.9039
 21
179.61135
 31
0.0
  0
LINE
  5
96B
330
1D
100
AcDbEntity
  8
0
100
AcDbLine
 10
166.9737
 20
183.53235
 30
0.0
 11
163.9993
 21
180.03935
 31
0.0
  0
LINE
  5
96C
330
1D
100
AcDbEntity
  8
0
100
AcDbLine
 10
162.9039
 20
179.61135
 30
0.0
 11
162.9039
 21
174.11835
 31
0.0
  0
LINE
  5
96D
330
1D
100
AcDbEntity
  8
0
100
AcDbLine
 10
162.9039
 20
174.11835
 30
0.0
 11
162.9039
 21
168.06335
 31
0.0
  0
LINE
  5
96E
330
1D
100
AcDbEntity
  8
0
100
AcDbLine
 10
162.9039
 20
174.11835
 30
0.0
 11
162.9039
 21
179.61135
 31
0.0
  0
LINE
  5
96F
330
1D
100
AcDbEntity
  8
0
100
AcDbLine
 10
162.9039
 20
168.06335
 30
0.0
 11
162.9039
 21
161.55335
 31
0.0
  0
LINE
  5
970
330
1D
100
AcDbEntity
  8
0
100
AcDbLine
 10
162.9039
 20
168.06335
 30
0.0
 11
162.9039
 21
174.11835
 31
0.0
  0
LINE
  5
971
330
1D
100
AcDbEntity
  8
0
100
AcDbLine
 10
162.9039
 20
161.55335
 30
0.0
 11
162.9039
 21
168.06335
 31
0.0
  0
LINE
  5
972
330
1D
100
AcDbEntity
  8
0
100
AcDbLine
 10
163.9993
 20
180.03935
 30
0.0
 11
162.9039
 21
179.196131238811
 31
0.0
  0
LINE
  5
973
330
1D
100
AcDbEntity
  8
0
100
AcDbLine
 10
162.9039
 20
184.44235
 30
0.0
 11
162.9039
 21
188.52035
 31
0.0
  0
LINE
  5
974
330
1D
100
AcDbEntity
  8
0
100
AcDbLine
 10
162.9039
 20
195.57535
 30
0.0
 11
162.9039
 21
194.13835
 31
0.0
  0
LINE
  5
975
330
1D
100
AcDbEntity
  8
0
100
AcDbLine
 10
162.9039
 20
195.57535
 30
0.0
 11
162.9039
 21
196.05635
 31
0.0
  0
LINE
  5
976
330
1D
100
AcDbEntity
  8
0
100
AcDbLine
 10
162.9039
 20
194.13835
 30
0.0
 11
162.9039
 21
191.77135
 31
0.0
  0
LINE
  5
977
330
1D
100
AcDbEntity
  8
0
100
AcDbLine
 10
162.9039
 20
194.13835
 30
0.0
 11
162.9039
 21
195.57535
 31
0.0
  0
LINE
  5
978
330
1D
100
AcDbEntity
  8
0
100
AcDbLine
 10
162.9039
 20
191.77135
 30
0.0
 11
162.9039
 21
188.52035
 31
0.0
  0
LINE
  5
979
330
1D
100
AcDbEntity
  8
0
100
AcDbLine
 10
162.9039
 20
191.77135
 30
0.0
 11
162.9039
 21
194.13835
 31
0.0
  0
LINE
  5
97A
330
1D
100
AcDbEntity
  8
0
100
AcDbLine
 10
162.9039
 20
188.52035
 30
0.0
 11
162.9039
 21
184.44235
 31
0.0
  0
LINE
  5
97B
330
1D
100
AcDbEntity
  8
0
100
AcDbLine
 10
162.9039
 20
188.52035
 30
0.0
 11
162.9039
 21
191.77135
 31
0.0
  0
LINE
  5
97C
330
1D
100
AcDbEntity
  8
0
100
AcDbLine
 10
162.9039
 20
196.05635
 30
0.0
 11
162.4301
 21
199.68535
 31
0.0
  0
LINE
  5
97D
330
1D
100
AcDbEntity
  8
0
100
AcDbLine
 10
162.9039
 20
196.05635
 30
0.0
 11
162.9039
 21
195.57535
 31
0.0
  0
LINE
  5
97E
330
1D
100
AcDbEntity
  8
0
100
AcDbLine
 10
158.832
 20
205.96835
 30
0.0
 11
155.952
 21
208.19635
 31
0.0
  0
LINE
  5
97F
330
1D
100
AcDbEntity
  8
0
100
AcDbLine
 10
161.0407
 20
203.06635
 30
0.0
 11
158.832
 21
205.96835
 31
0.0
  0
LINE
  5
980
330
1D
100
AcDbEntity
  8
0
100
AcDbLine
 10
162.4301
 20
199.68535
 30
0.0
 11
161.0407
 21
203.06635
 31
0.0
  0
LINE
  5
981
330
1D
100
AcDbEntity
  8
0
100
AcDbLine
 10
232.729
 20
232.16835
 30
0.0
 11
252.847429150735
 21
232.16835
 31
0.0
  0
LINE
  5
982
330
1D
100
AcDbEntity
  8
0
100
AcDbLine
 10
243.727
 20
223.07435
 30
0.0
 11
247.6027
 21
224.82035
 31
0.0
  0
LINE
  5
983
330
1D
100
AcDbEntity
  8
0
100
AcDbLine
 10
274.273
 20
223.07435
 30
0.0
 11
270.3973
 21
224.82035
 31
0.0
  0
LINE
  5
984
330
1D
100
AcDbEntity
  8
0
100
AcDbLine
 10
285.271
 20
232.16835
 30
0.0
 11
265.152570849265
 21
232.16835
 31
0.0
  0
LINE
  5
985
330
1D
100
AcDbEntity
  8
0
100
AcDbLine
 10
286.1849
 20
211.30435
 30
0.0
 11
284.7553
 21
213.71135
 31
0.0
  0
LINE
  5
986
330
1D
100
AcDbEntity
  8
0
100
AcDbLine
 10
295.2706
 20
222.19735
 30
0.0
 11
295.1185
 21
223.92935
 31
0.0
  0
LINE
  5
987
330
1D
100
AcDbEntity
  8
0
100
AcDbLine
 10
295.1185
 20
223.92935
 30
0.0
 11
294.6672
 21
225.60735
 31
0.0
  0
LINE
  5
988
330
1D
100
AcDbEntity
  8
0
100
AcDbLine
 10
294.6672
 20
225.60735
 30
0.0
 11
293.9306
 21
227.18335
 31
0.0
  0
LINE
  5
989
330
1D
100
AcDbEntity
  8
0
100
AcDbLine
 10
293.9306
 20
227.18335
 30
0.0
 11
292.9309
 21
228.60735
 31
0.0
  0
LINE
  5
98A
330
1D
100
AcDbEntity
  8
0
100
AcDbLine
 10
287.0074
 20
232.01735
 30
0.0
 11
285.271
 21
232.16835
 31
0.0
  0
LINE
  5
98B
330
1D
100
AcDbEntity
  8
0
100
AcDbLine
 10
288.6906
 20
231.56735
 30
0.0
 11
287.0074
 21
232.01735
 31
0.0
  0
LINE
  5
98C
330
1D
100
AcDbEntity
  8
0
100
AcDbLine
 10
290.2708
 20
230.83235
 30
0.0
 11
288.6906
 21
231.56735
 31
0.0
  0
LINE
  5
98D
330
1D
100
AcDbEntity
  8
0
100
AcDbLine
 10
291.6989
 20
229.83535
 30
0.0
 11
290.2708
 21
230.83235
 31
0.0
  0
LINE
  5
98E
330
1D
100
AcDbEntity
  8
0
100
AcDbLine
 10
292.9309
 20
228.60735
 30
0.0
 11
291.6989
 21
229.83535
 31
0.0
  0
LINE
  5
98F
330
1D
100
AcDbEntity
  8
0
100
AcDbLine
 10
281.0503
 20
218.11435
 30
0.0
 11
277.719
 21
220.92335
 31
0.0
  0
LINE
  5
990
330
1D
100
AcDbEntity
  8
0
100
AcDbLine
 10
283.0483
 20
215.98235
 30
0.0
 11
281.0503
 21
218.11435
 31
0.0
  0
LINE
  5
991
330
1D
100
AcDbEntity
  8
0
100
AcDbLine
 10
277.719
 20
220.92335
 30
0.0
 11
274.273
 21
223.07435
 31
0.0
  0
LINE
  5
992
330
1D
100
AcDbEntity
  8
0
100
AcDbLine
 10
284.7553
 20
213.71135
 30
0.0
 11
283.0483
 21
215.98235
 31
0.0
  0
LINE
  5
993
330
1D
100
AcDbEntity
  8
0
100
AcDbLine
 10
265.0825
 20
233.74435
 30
0.0
 11
264.7333
 21
235.88135
 31
0.0
  0
LINE
  5
994
330
1D
100
AcDbEntity
  8
0
100
AcDbLine
 10
252.9175
 20
233.74435
 30
0.0
 11
253.2667
 21
235.88135
 31
0.0
  0
LINE
  5
995
330
1D
100
AcDbEntity
  8
0
100
AcDbLine
 10
265.9081
 20
215.17535
 30
0.0
 11
265.0825
 21
233.74435
 31
0.0
  0
LINE
  5
996
330
1D
100
AcDbEntity
  8
0
100
AcDbLine
 10
268.412
 20
209.61035
 30
0.0
 11
267.631096926498
 21
210.352393193095
 31
0.0
  0
LINE
  5
997
330
1D
100
AcDbEntity
  8
0
100
AcDbLine
 10
266.8449
 20
211.27635
 30
0.0
 11
266.359210567951
 21
212.278155259709
 31
0.0
  0
LINE
  5
998
330
1D
100
AcDbEntity
  8
0
100
AcDbLine
 10
267.631096926498
 20
210.352393193095
 30
0.0
 11
266.8449
 21
211.27635
 31
0.0
  0
LINE
  5
999
330
1D
100
AcDbEntity
  8
0
100
AcDbLine
 10
266.359210567951
 20
212.278155259709
 30
0.0
 11
265.985975208548
 21
213.642117919225
 31
0.0
  0
LINE
  5
99A
330
1D
100
AcDbEntity
  8
0
100
AcDbLine
 10
265.985975208548
 20
213.642117919225
 30
0.0
 11
265.9081
 21
215.17535
 31
0.0
  0
LINE
  5
99B
330
1D
100
AcDbEntity
  8
0
100
AcDbLine
 10
270.3973
 20
224.82035
 30
0.0
 11
266.3025
 21
225.91335
 31
0.0
  0
LINE
  5
99C
330
1D
100
AcDbEntity
  8
0
100
AcDbLine
 10
270.3973
 20
224.82035
 30
0.0
 11
266.3055
 21
225.92035
 31
0.0
  0
LINE
  5
99D
330
1D
100
AcDbEntity
  8
0
100
AcDbLine
 10
266.3055
 20
225.92035
 30
0.0
 11
265.423896269165
 21
226.065828534242
 31
0.0
  0
LINE
  5
99E
330
1D
100
AcDbEntity
  8
0
100
AcDbLine
 10
266.3025
 20
225.91335
 30
0.0
 11
265.424168160001
 21
226.059713295706
 31
0.0
  0
LINE
  5
99F
330
1D
100
AcDbEntity
  8
0
100
AcDbLine
 10
251.6975
 20
225.91335
 30
0.0
 11
252.575831839999
 21
226.059713295706
 31
0.0
  0
LINE
  5
9A0
330
1D
100
AcDbEntity
  8
0
100
AcDbLine
 10
251.6945
 20
225.92035
 30
0.0
 11
252.576103730835
 21
226.065828534242
 31
0.0
  0
LINE
  5
9A1
330
1D
100
AcDbEntity
  8
0
100
AcDbLine
 10
247.6027
 20
224.82035
 30
0.0
 11
251.6945
 21
225.92035
 31
0.0
  0
LINE
  5
9A2
330
1D
100
AcDbEntity
  8
0
100
AcDbLine
 10
247.6027
 20
224.82035
 30
0.0
 11
251.6975
 21
225.91335
 31
0.0
  0
LINE
  5
9A3
330
1D
100
AcDbEntity
  8
0
100
AcDbLine
 10
252.014024791452
 20
213.642117919225
 30
0.0
 11
252.0919
 21
215.17535
 31
0.0
  0
LINE
  5
9A4
330
1D
100
AcDbEntity
  8
0
100
AcDbLine
 10
251.640789432049
 20
212.278155259709
 30
0.0
 11
252.014024791452
 21
213.642117919225
 31
0.0
  0
LINE
  5
9A5
330
1D
100
AcDbEntity
  8
0
100
AcDbLine
 10
250.368903073502
 20
210.352393193095
 30
0.0
 11
251.1551
 21
211.27635
 31
0.0
  0
LINE
  5
9A6
330
1D
100
AcDbEntity
  8
0
100
AcDbLine
 10
251.1551
 20
211.27635
 30
0.0
 11
251.640789432049
 21
212.278155259709
 31
0.0
  0
LINE
  5
9A7
330
1D
100
AcDbEntity
  8
0
100
AcDbLine
 10
249.588
 20
209.61035
 30
0.0
 11
250.368903073502
 21
210.352393193095
 31
0.0
  0
LINE
  5
9A8
330
1D
100
AcDbEntity
  8
0
100
AcDbLine
 10
252.0919
 20
215.17535
 30
0.0
 11
252.9175
 21
233.74435
 31
0.0
  0
LINE
  5
9A9
330
1D
100
AcDbEntity
  8
0
100
AcDbLine
 10
264.7333
 20
235.88135
 30
0.0
 11
264.3394
 21
236.95835
 31
0.0
  0
LINE
  5
9AA
330
1D
100
AcDbEntity
  8
0
100
AcDbLine
 10
264.3394
 20
236.95835
 30
0.0
 11
263.7341
 21
238.01435
 31
0.0
  0
LINE
  5
9AB
330
1D
100
AcDbEntity
  8
0
100
AcDbLine
 10
263.7341
 20
238.01435
 30
0.0
 11
262.8713
 21
239.01935
 31
0.0
  0
LINE
  5
9AC
330
1D
100
AcDbEntity
  8
0
100
AcDbLine
 10
261.4804
 20
239.77535
 30
0.0
 11
260.8519
 21
239.86835
 31
0.0
  0
LINE
  5
9AD
330
1D
100
AcDbEntity
  8
0
100
AcDbLine
 10
261.9577
 20
239.58335
 30
0.0
 11
261.4804
 21
239.77535
 31
0.0
  0
LINE
  5
9AE
330
1D
100
AcDbEntity
  8
0
100
AcDbLine
 10
262.1999
 20
239.44935
 30
0.0
 11
261.9577
 21
239.58335
 31
0.0
  0
LINE
  5
9AF
330
1D
100
AcDbEntity
  8
0
100
AcDbLine
 10
262.8713
 20
239.01935
 30
0.0
 11
262.1999
 21
239.44935
 31
0.0
  0
LINE
  5
9B0
330
1D
100
AcDbEntity
  8
0
100
AcDbLine
 10
260.8519
 20
239.86835
 30
0.0
 11
259.9929
 21
239.90835
 31
0.0
  0
LINE
  5
9B1
330
1D
100
AcDbEntity
  8
0
100
AcDbLine
 10
259.9929
 20
239.90835
 30
0.0
 11
258.9876
 21
239.83535
 31
0.0
  0
LINE
  5
9B2
330
1D
100
AcDbEntity
  8
0
100
AcDbLine
 10
258.0071
 20
239.90835
 30
0.0
 11
259.0124
 21
239.83535
 31
0.0
  0
LINE
  5
9B3
330
1D
100
AcDbEntity
  8
0
100
AcDbLine
 10
257.1481
 20
239.86835
 30
0.0
 11
258.0071
 21
239.90835
 31
0.0
  0
LINE
  5
9B4
330
1D
100
AcDbEntity
  8
0
100
AcDbLine
 10
255.1287
 20
239.01935
 30
0.0
 11
255.8001
 21
239.44935
 31
0.0
  0
LINE
  5
9B5
330
1D
100
AcDbEntity
  8
0
100
AcDbLine
 10
255.8001
 20
239.44935
 30
0.0
 11
256.0423
 21
239.58335
 31
0.0
  0
LINE
  5
9B6
330
1D
100
AcDbEntity
  8
0
100
AcDbLine
 10
256.0423
 20
239.58335
 30
0.0
 11
256.5196
 21
239.77535
 31
0.0
  0
LINE
  5
9B7
330
1D
100
AcDbEntity
  8
0
100
AcDbLine
 10
256.5196
 20
239.77535
 30
0.0
 11
257.1481
 21
239.86835
 31
0.0
  0
LINE
  5
9B8
330
1D
100
AcDbEntity
  8
0
100
AcDbLine
 10
254.2659
 20
238.01435
 30
0.0
 11
255.1287
 21
239.01935
 31
0.0
  0
LINE
  5
9B9
330
1D
100
AcDbEntity
  8
0
100
AcDbLine
 10
253.6606
 20
236.95835
 30
0.0
 11
254.2659
 21
238.01435
 31
0.0
  0
LINE
  5
9BA
330
1D
100
AcDbEntity
  8
0
100
AcDbLine
 10
253.2667
 20
235.88135
 30
0.0
 11
253.6606
 21
236.95835
 31
0.0
  0
LINE
  5
9BB
330
1D
100
AcDbEntity
  8
0
100
AcDbLine
 10
233.2447
 20
213.71135
 30
0.0
 11
234.9517
 21
215.98235
 31
0.0
  0
LINE
  5
9BC
330
1D
100
AcDbEntity
  8
0
100
AcDbLine
 10
240.281
 20
220.92335
 30
0.0
 11
243.727
 21
223.07435
 31
0.0
  0
LINE
  5
9BD
330
1D
100
AcDbEntity
  8
0
100
AcDbLine
 10
234.9517
 20
215.98235
 30
0.0
 11
236.9497
 21
218.11435
 31
0.0
  0
LINE
  5
9BE
330
1D
100
AcDbEntity
  8
0
100
AcDbLine
 10
236.9497
 20
218.11435
 30
0.0
 11
240.281
 21
220.92335
 31
0.0
  0
LINE
  5
9BF
330
1D
100
AcDbEntity
  8
0
100
AcDbLine
 10
225.0691
 20
228.60735
 30
0.0
 11
226.3011
 21
229.83535
 31
0.0
  0
LINE
  5
9C0
330
1D
100
AcDbEntity
  8
0
100
AcDbLine
 10
226.3011
 20
229.83535
 30
0.0
 11
227.7292
 21
230.83235
 31
0.0
  0
LINE
  5
9C1
330
1D
100
AcDbEntity
  8
0
100
AcDbLine
 10
227.7292
 20
230.83235
 30
0.0
 11
229.3094
 21
231.56735
 31
0.0
  0
LINE
  5
9C2
330
1D
100
AcDbEntity
  8
0
100
AcDbLine
 10
229.3094
 20
231.56735
 30
0.0
 11
230.9926
 21
232.01735
 31
0.0
  0
LINE
  5
9C3
330
1D
100
AcDbEntity
  8
0
100
AcDbLine
 10
230.9926
 20
232.01735
 30
0.0
 11
232.729
 21
232.16835
 31
0.0
  0
LINE
  5
9C4
330
1D
100
AcDbEntity
  8
0
100
AcDbLine
 10
224.0694
 20
227.18335
 30
0.0
 11
225.0691
 21
228.60735
 31
0.0
  0
LINE
  5
9C5
330
1D
100
AcDbEntity
  8
0
100
AcDbLine
 10
223.3328
 20
225.60735
 30
0.0
 11
224.0694
 21
227.18335
 31
0.0
  0
LINE
  5
9C6
330
1D
100
AcDbEntity
  8
0
100
AcDbLine
 10
222.8815
 20
223.92935
 30
0.0
 11
223.3328
 21
225.60735
 31
0.0
  0
LINE
  5
9C7
330
1D
100
AcDbEntity
  8
0
100
AcDbLine
 10
222.7294
 20
222.19735
 30
0.0
 11
222.8815
 21
223.92935
 31
0.0
  0
LINE
  5
9C8
330
1D
100
AcDbEntity
  8
0
100
AcDbLine
 10
231.8151
 20
211.30435
 30
0.0
 11
233.2447
 21
213.71135
 31
0.0
  0
LINE
  5
9C9
330
1D
100
AcDbEntity
  8
0
100
AcDbLine
 10
174.0766
 20
231.34435
 30
0.0
 11
149.0
 21
231.34435
 31
0.0
  0
LINE
  5
9CA
330
1D
100
AcDbEntity
  8
0
100
AcDbLine
 10
175.7997
 20
231.19235
 30
0.0
 11
174.0766
 21
231.34435
 31
0.0
  0
LINE
  5
9CB
330
1D
100
AcDbEntity
  8
0
100
AcDbLine
 10
177.4702
 20
230.74035
 30
0.0
 11
175.7997
 21
231.19235
 31
0.0
  0
LINE
  5
9CC
330
1D
100
AcDbEntity
  8
0
100
AcDbLine
 10
179.0383
 20
230.00335
 30
0.0
 11
177.4702
 21
230.74035
 31
0.0
  0
LINE
  5
9CD
330
1D
100
AcDbEntity
  8
0
100
AcDbLine
 10
180.4555
 20
229.00335
 30
0.0
 11
179.0383
 21
230.00335
 31
0.0
  0
LINE
  5
9CE
330
1D
100
AcDbEntity
  8
0
100
AcDbLine
 10
181.6781
 20
227.77035
 30
0.0
 11
180.4555
 21
229.00335
 31
0.0
  0
LINE
  5
9CF
330
1D
100
AcDbEntity
  8
0
100
AcDbLine
 10
182.6702
 20
226.34235
 30
0.0
 11
181.6781
 21
227.77035
 31
0.0
  0
LINE
  5
9D0
330
1D
100
AcDbEntity
  8
0
100
AcDbLine
 10
183.4011
 20
224.76135
 30
0.0
 11
182.6702
 21
226.34235
 31
0.0
  0
LINE
  5
9D1
330
1D
100
AcDbEntity
  8
0
100
AcDbLine
 10
183.849
 20
223.07635
 30
0.0
 11
183.4011
 21
224.76135
 31
0.0
  0
LINE
  5
9D2
330
1D
100
AcDbEntity
  8
0
100
AcDbLine
 10
184.0
 20
221.33935
 30
0.0
 11
183.849
 21
223.07635
 31
0.0
  0
LINE
  5
9D3
330
1D
100
AcDbEntity
  8
0
100
AcDbLine
 10
155.26
 20
217.16235
 30
0.0
 11
152.465
 21
217.736715183246
 31
0.0
  0
LINE
  5
9D4
330
1D
100
AcDbEntity
  8
0
100
AcDbLine
 10
159.4746
 20
215.38835
 30
0.0
 11
155.26
 21
217.16235
 31
0.0
  0
LINE
  5
9D5
330
1D
100
AcDbEntity
  8
0
100
AcDbLine
 10
163.2326
 20
212.77035
 30
0.0
 11
159.4746
 21
215.38835
 31
0.0
  0
LINE
  5
9D6
330
1D
100
AcDbEntity
  8
0
100
AcDbLine
 10
152.465
 20
212.17735
 30
0.0
 11
152.465
 21
223.19135
 31
0.0
  0
LINE
  5
9D7
330
1D
100
AcDbEntity
  8
0
100
AcDbLine
 10
152.465
 20
223.19135
 30
0.0
 11
152.465
 21
212.17735
 31
0.0
  0
LINE
  5
9D8
330
1D
100
AcDbEntity
  8
0
100
AcDbLine
 10
151.431
 20
209.85835
 30
0.0
 11
150.596
 21
209.98135
 31
0.0
  0
LINE
  5
9D9
330
1D
100
AcDbEntity
  8
0
100
AcDbLine
 10
150.885
 20
211.67735
 30
0.0
 11
150.428
 21
211.67735
 31
0.0
  0
LINE
  5
9DA
330
1D
100
AcDbEntity
  8
0
100
AcDbLine
 10
151.146
 20
212.17735
 30
0.0
 11
150.666
 21
212.17735
 31
0.0
  0
LINE
  5
9DB
330
1D
100
AcDbEntity
  8
0
100
AcDbLine
 10
150.934
 20
211.67735
 30
0.0
 11
150.593
 21
211.67735
 31
0.0
  0
LINE
  5
9DC
330
1D
100
AcDbEntity
  8
0
100
AcDbLine
 10
151.731
 20
209.80135
 30
0.0
 11
151.473
 21
209.85037
 31
0.0
  0
LINE
  5
9DD
330
1D
100
AcDbEntity
  8
0
100
AcDbLine
 10
152.598
 20
209.59735
 30
0.0
 11
151.731
 21
209.80135
 31
0.0
  0
LINE
  5
9DE
330
1D
100
AcDbEntity
  8
0
100
AcDbLine
 10
151.473
 20
209.85037
 30
0.0
 11
151.473
 21
211.67735
 31
0.0
  0
LINE
  5
9DF
330
1D
100
AcDbEntity
  8
0
100
AcDbLine
 10
151.948
 20
211.67735
 30
0.0
 11
151.817
 21
211.67735
 31
0.0
  0
LINE
  5
9E0
330
1D
100
AcDbEntity
  8
0
100
AcDbLine
 10
151.977
 20
211.67735
 30
0.0
 11
151.906
 21
211.67735
 31
0.0
  0
LINE
  5
9E1
330
1D
100
AcDbEntity
  8
0
100
AcDbLine
 10
151.591
 20
211.67735
 30
0.0
 11
151.276
 21
211.67735
 31
0.0
  0
LINE
  5
9E2
330
1D
100
AcDbEntity
  8
0
100
AcDbLine
 10
151.817
 20
211.67735
 30
0.0
 11
151.591
 21
211.67735
 31
0.0
  0
LINE
  5
9E3
330
1D
100
AcDbEntity
  8
0
100
AcDbLine
 10
151.906
 20
211.67735
 30
0.0
 11
151.735
 21
211.67735
 31
0.0
  0
LINE
  5
9E4
330
1D
100
AcDbEntity
  8
0
100
AcDbLine
 10
151.735
 20
211.67735
 30
0.0
 11
151.473
 21
211.67735
 31
0.0
  0
LINE
  5
9E5
330
1D
100
AcDbEntity
  8
0
100
AcDbLine
 10
151.276
 20
211.67735
 30
0.0
 11
150.885
 21
211.67735
 31
0.0
  0
LINE
  5
9E6
330
1D
100
AcDbEntity
  8
0
100
AcDbLine
 10
151.473
 20
211.67735
 30
0.0
 11
151.473
 21
209.85037
 31
0.0
  0
LINE
  5
9E7
330
1D
100
AcDbEntity
  8
0
100
AcDbLine
 10
151.473
 20
211.67735
 30
0.0
 11
151.382
 21
211.67735
 31
0.0
  0
LINE
  5
9E8
330
1D
100
AcDbEntity
  8
0
100
AcDbLine
 10
151.382
 20
211.67735
 30
0.0
 11
151.2
 21
211.67735
 31
0.0
  0
LINE
  5
9E9
330
1D
100
AcDbEntity
  8
0
100
AcDbLine
 10
151.2
 20
211.67735
 30
0.0
 11
150.934
 21
211.67735
 31
0.0
  0
LINE
  5
9EA
330
1D
100
AcDbEntity
  8
0
100
AcDbLine
 10
152.43164516129
 20
212.145091935484
 30
0.0
 11
151.977
 21
211.67735
 31
0.0
  0
LINE
  5
9EB
330
1D
100
AcDbEntity
  8
0
100
AcDbLine
 10
152.465
 20
212.17735
 30
0.0
 11
152.373
 21
212.17735
 31
0.0
  0
LINE
  5
9EC
330
1D
100
AcDbEntity
  8
0
100
AcDbLine
 10
152.373
 20
212.17735
 30
0.0
 11
152.189
 21
212.17735
 31
0.0
  0
LINE
  5
9ED
330
1D
100
AcDbEntity
  8
0
100
AcDbLine
 10
152.189
 20
212.17735
 30
0.0
 11
151.918
 21
212.17735
 31
0.0
  0
LINE
  5
9EE
330
1D
100
AcDbEntity
  8
0
100
AcDbLine
 10
151.918
 20
212.17735
 30
0.0
 11
151.566
 21
212.17735
 31
0.0
  0
LINE
  5
9EF
330
1D
100
AcDbEntity
  8
0
100
AcDbLine
 10
151.566
 20
212.17735
 30
0.0
 11
151.146
 21
212.17735
 31
0.0
  0
LINE
  5
9F0
330
1D
100
AcDbEntity
  8
0
100
AcDbLine
 10
149.387
 20
211.67735
 30
0.0
 11
149.0
 21
211.67735
 31
0.0
  0
LINE
  5
9F1
330
1D
100
AcDbEntity
  8
0
100
AcDbLine
 10
149.408
 20
210.06935
 30
0.0
 11
149.0
 21
210.07535
 31
0.0
  0
LINE
  5
9F2
330
1D
100
AcDbEntity
  8
0
100
AcDbLine
 10
149.586
 20
212.17735
 30
0.0
 11
149.014
 21
212.17735
 31
0.0
  0
LINE
  5
9F3
330
1D
100
AcDbEntity
  8
0
100
AcDbLine
 10
149.266
 20
211.67735
 30
0.0
 11
149.0
 21
211.67735
 31
0.0
  0
LINE
  5
9F4
330
1D
100
AcDbEntity
  8
0
100
AcDbLine
 10
150.596
 20
209.98135
 30
0.0
 11
149.408
 21
210.06935
 31
0.0
  0
LINE
  5
9F5
330
1D
100
AcDbEntity
  8
0
100
AcDbLine
 10
150.666
 20
212.17735
 30
0.0
 11
150.142
 21
212.17735
 31
0.0
  0
LINE
  5
9F6
330
1D
100
AcDbEntity
  8
0
100
AcDbLine
 10
149.924
 20
211.67735
 30
0.0
 11
149.387
 21
211.67735
 31
0.0
  0
LINE
  5
9F7
330
1D
100
AcDbEntity
  8
0
100
AcDbLine
 10
150.428
 20
211.67735
 30
0.0
 11
149.924
 21
211.67735
 31
0.0
  0
LINE
  5
9F8
330
1D
100
AcDbEntity
  8
0
100
AcDbLine
 10
150.191
 20
211.67735
 30
0.0
 11
149.743
 21
211.67735
 31
0.0
  0
LINE
  5
9F9
330
1D
100
AcDbEntity
  8
0
100
AcDbLine
 10
149.743
 20
211.67735
 30
0.0
 11
149.266
 21
211.67735
 31
0.0
  0
LINE
  5
9FA
330
1D
100
AcDbEntity
  8
0
100
AcDbLine
 10
150.142
 20
212.17735
 30
0.0
 11
149.586
 21
212.17735
 31
0.0
  0
LINE
  5
9FB
330
1D
100
AcDbEntity
  8
0
100
AcDbLine
 10
150.593
 20
211.67735
 30
0.0
 11
150.191
 21
211.67735
 31
0.0
  0
LINE
  5
9FC
330
1D
100
AcDbEntity
  8
0
100
AcDbLine
 10
149.0
 20
211.67735
 30
0.0
 11
148.734
 21
211.67735
 31
0.0
  0
LINE
  5
9FD
330
1D
100
AcDbEntity
  8
0
100
AcDbLine
 10
151.146
 20
223.19135
 30
0.0
 11
150.666
 21
223.19135
 31
0.0
  0
LINE
  5
9FE
330
1D
100
AcDbEntity
  8
0
100
AcDbLine
 10
150.885
 20
223.69235
 30
0.0
 11
150.428
 21
223.69235
 31
0.0
  0
LINE
  5
9FF
330
1D
100
AcDbEntity
  8
0
100
AcDbLine
 10
152.465
 20
223.19135
 30
0.0
 11
152.373
 21
223.19135
 31
0.0
  0
LINE
  5
A00
330
1D
100
AcDbEntity
  8
0
100
AcDbLine
 10
152.373
 20
223.19135
 30
0.0
 11
152.189
 21
223.19135
 31
0.0
  0
LINE
  5
A01
330
1D
100
AcDbEntity
  8
0
100
AcDbLine
 10
152.189
 20
223.19135
 30
0.0
 11
151.918
 21
223.19135
 31
0.0
  0
LINE
  5
A02
330
1D
100
AcDbEntity
  8
0
100
AcDbLine
 10
151.918
 20
223.19135
 30
0.0
 11
151.566
 21
223.19135
 31
0.0
  0
LINE
  5
A03
330
1D
100
AcDbEntity
  8
0
100
AcDbLine
 10
151.566
 20
223.19135
 30
0.0
 11
151.146
 21
223.19135
 31
0.0
  0
LINE
  5
A04
330
1D
100
AcDbEntity
  8
0
100
AcDbLine
 10
152.43164516129
 20
223.223672580645
 30
0.0
 11
151.977
 21
223.69235
 31
0.0
  0
LINE
  5
A05
330
1D
100
AcDbEntity
  8
0
100
AcDbLine
 10
151.948
 20
223.69235
 30
0.0
 11
151.817
 21
223.69235
 31
0.0
  0
LINE
  5
A06
330
1D
100
AcDbEntity
  8
0
100
AcDbLine
 10
151.817
 20
223.69235
 30
0.0
 11
151.591
 21
223.69235
 31
0.0
  0
LINE
  5
A07
330
1D
100
AcDbEntity
  8
0
100
AcDbLine
 10
151.591
 20
223.69235
 30
0.0
 11
151.276
 21
223.69235
 31
0.0
  0
LINE
  5
A08
330
1D
100
AcDbEntity
  8
0
100
AcDbLine
 10
151.276
 20
223.69235
 30
0.0
 11
150.885
 21
223.69235
 31
0.0
  0
LINE
  5
A09
330
1D
100
AcDbEntity
  8
0
100
AcDbLine
 10
150.666
 20
223.19135
 30
0.0
 11
150.142
 21
223.19135
 31
0.0
  0
LINE
  5
A0A
330
1D
100
AcDbEntity
  8
0
100
AcDbLine
 10
150.142
 20
223.19135
 30
0.0
 11
149.586
 21
223.19135
 31
0.0
  0
LINE
  5
A0B
330
1D
100
AcDbEntity
  8
0
100
AcDbLine
 10
149.586
 20
223.19135
 30
0.0
 11
149.014
 21
223.19135
 31
0.0
  0
LINE
  5
A0C
330
1D
100
AcDbEntity
  8
0
100
AcDbLine
 10
150.428
 20
223.69235
 30
0.0
 11
149.924
 21
223.69235
 31
0.0
  0
LINE
  5
A0D
330
1D
100
AcDbEntity
  8
0
100
AcDbLine
 10
149.387
 20
223.69235
 30
0.0
 11
149.0
 21
223.69235
 31
0.0
  0
LINE
  5
A0E
330
1D
100
AcDbEntity
  8
0
100
AcDbLine
 10
149.924
 20
223.69235
 30
0.0
 11
149.387
 21
223.69235
 31
0.0
  0
LINE
  5
BC5
330
1D
100
AcDbEntity
  8
0
100
AcDbLine
 10
338.567538159769
 20
-8.383270559471
 30
0.0
 11
344.041538159769
 21
-11.691310559471
 31
0.0
  0
LINE
  5
BC6
330
1D
100
AcDbEntity
  8
0
100
AcDbLine
 10
344.041538159769
 20
-11.691310559471
 30
0.0
 11
349.808538159769
 21
-14.270990559471
 31
0.0
  0
LINE
  5
BC7
330
1D
100
AcDbEntity
  8
0
100
AcDbLine
 10
349.808538159769
 20
-14.270990559471
 30
0.0
 11
356.012538159769
 21
-16.123290559471
 31
0.0
  0
LINE
  5
BC8
330
1D
100
AcDbEntity
  8
0
100
AcDbLine
 10
356.012538159769
 20
-16.123290559471
 30
0.0
 11
362.509538159769
 21
-17.314190559471
 31
0.0
  0
LINE
  5
BC9
330
1D
100
AcDbEntity
  8
0
100
AcDbLine
 10
362.509538159769
 20
-17.314190559471
 30
0.0
 11
368.932538159769
 21
-17.776890559471
 31
0.0
  0
LINE
  5
BCA
330
1D
100
AcDbEntity
  8
0
100
AcDbLine
 10
362.509538159769
 20
-8.439270559471
 30
0.0
 11
368.932538159769
 21
-8.901820559471
 31
0.0
  0
LINE
  5
BCB
330
1D
100
AcDbEntity
  8
0
100
AcDbLine
 10
368.932538159769
 20
-17.776890559471
 30
0.0
 11
375.355538159769
 21
-17.314190559471
 31
0.0
  0
LINE
  5
BCC
330
1D
100
AcDbEntity
  8
0
100
AcDbLine
 10
393.82353815977
 20
-11.691310559471
 30
0.0
 11
399.297538159769
 21
-8.383270559471
 31
0.0
  0
LINE
  5
BCD
330
1D
100
AcDbEntity
  8
0
100
AcDbLine
 10
388.05653815977
 20
-14.270990559471
 30
0.0
 11
393.82353815977
 21
-11.691310559471
 31
0.0
  0
LINE
  5
BCE
330
1D
100
AcDbEntity
  8
0
100
AcDbLine
 10
381.85253815977
 20
-16.123290559471
 30
0.0
 11
388.05653815977
 21
-14.270990559471
 31
0.0
  0
LINE
  5
BCF
330
1D
100
AcDbEntity
  8
0
100
AcDbLine
 10
375.355538159769
 20
-17.314190559471
 30
0.0
 11
381.85253815977
 21
-16.123290559471
 31
0.0
  0
LINE
  5
BD0
330
1D
100
AcDbEntity
  8
0
100
AcDbLine
 10
399.297538159769
 20
-8.383270559471
 30
0.0
 11
404.260538159769
 21
-4.479820559471
 31
0.0
  0
LINE
  5
BD1
330
1D
100
AcDbEntity
  8
0
100
AcDbLine
 10
375.355538159769
 20
-8.439270559471
 30
0.0
 11
381.85253815977
 21
-7.248340559471
 31
0.0
  0
LINE
  5
BD2
330
1D
100
AcDbEntity
  8
0
100
AcDbLine
 10
368.932538159769
 20
-8.901820559471
 30
0.0
 11
375.355538159769
 21
-8.439270559471
 31
0.0
  0
LINE
  5
BD3
330
1D
100
AcDbEntity
  8
0
100
AcDbLine
 10
319.44353815977
 20
21.716609440529
 30
0.0
 11
320.757538159769
 21
15.828909440529
 31
0.0
  0
LINE
  5
BD4
330
1D
100
AcDbEntity
  8
0
100
AcDbLine
 10
319.44353815977
 20
30.591509440529
 30
0.0
 11
320.757538159769
 21
24.703809440529
 31
0.0
  0
LINE
  5
BD5
330
1D
100
AcDbEntity
  8
0
100
AcDbLine
 10
318.932538159769
 20
27.538309440529
 30
0.0
 11
318.932538159769
 21
36.413309440529
 31
0.0
  0
LINE
  5
BD6
330
1D
100
AcDbEntity
  8
0
100
AcDbLine
 10
318.932538159769
 20
27.538309440529
 30
0.0
 11
319.44353815977
 21
21.716609440529
 31
0.0
  0
LINE
  5
BD7
330
1D
100
AcDbEntity
  8
0
100
AcDbLine
 10
319.44353815977
 20
42.234809440529
 30
0.0
 11
320.757538159769
 21
48.122409440529
 31
0.0
  0
LINE
  5
BD8
330
1D
100
AcDbEntity
  8
0
100
AcDbLine
 10
318.932538159769
 20
36.413309440529
 30
0.0
 11
319.44353815977
 21
42.234809440529
 31
0.0
  0
LINE
  5
BD9
330
1D
100
AcDbEntity
  8
0
100
AcDbLine
 10
318.932538159769
 20
36.413309440529
 30
0.0
 11
319.44353815977
 21
30.591509440529
 31
0.0
  0
LINE
  5
BDA
330
1D
100
AcDbEntity
  8
0
100
AcDbLine
 10
318.932538159769
 20
36.413309440529
 30
0.0
 11
318.932538159769
 21
27.538309440529
 31
0.0
  0
LINE
  5
BDB
330
1D
100
AcDbEntity
  8
0
100
AcDbLine
 10
322.80153815977
 20
10.205909440529
 30
0.0
 11
325.647538159769
 21
4.979609440529
 31
0.0
  0
LINE
  5
BDC
330
1D
100
AcDbEntity
  8
0
100
AcDbLine
 10
320.757538159769
 20
15.828909440529
 30
0.0
 11
322.80153815977
 21
10.205909440529
 31
0.0
  0
LINE
  5
BDD
330
1D
100
AcDbEntity
  8
0
100
AcDbLine
 10
322.80153815977
 20
19.080909440529
 30
0.0
 11
325.647538159769
 21
13.854709440529
 31
0.0
  0
LINE
  5
BDE
330
1D
100
AcDbEntity
  8
0
100
AcDbLine
 10
320.757538159769
 20
24.703809440529
 30
0.0
 11
322.80153815977
 21
19.080909440529
 31
0.0
  0
LINE
  5
BDF
330
1D
100
AcDbEntity
  8
0
100
AcDbLine
 10
329.297538159769
 20
0.018109440529
 30
0.0
 11
333.60453815977
 21
-4.479820559471
 31
0.0
  0
LINE
  5
BE0
330
1D
100
AcDbEntity
  8
0
100
AcDbLine
 10
325.647538159769
 20
4.979609440529
 30
0.0
 11
329.297538159769
 21
0.018109440529
 31
0.0
  0
LINE
  5
BE1
330
1D
100
AcDbEntity
  8
0
100
AcDbLine
 10
329.297538159769
 20
8.893109440529
 30
0.0
 11
333.60453815977
 21
4.395209440529
 31
0.0
  0
LINE
  5
BE2
330
1D
100
AcDbEntity
  8
0
100
AcDbLine
 10
325.647538159769
 20
13.854709440529
 30
0.0
 11
329.297538159769
 21
8.893109440529
 31
0.0
  0
LINE
  5
BE3
330
1D
100
AcDbEntity
  8
0
100
AcDbLine
 10
333.60453815977
 20
-4.479820559471
 30
0.0
 11
338.567538159769
 21
-8.383270559471
 31
0.0
  0
LINE
  5
BE4
330
1D
100
AcDbEntity
  8
0
100
AcDbLine
 10
333.60453815977
 20
4.395209440529
 30
0.0
 11
338.567538159769
 21
0.491709440529
 31
0.0
  0
LINE
  5
BE5
330
1D
100
AcDbEntity
  8
0
100
AcDbLine
 10
334.114538159769
 20
5.280409440529
 30
0.0
 11
339.005538159769
 21
1.443809440529
 31
0.0
  0
LINE
  5
BE6
330
1D
100
AcDbEntity
  8
0
100
AcDbLine
 10
329.881538159769
 20
9.712309440529
 30
0.0
 11
334.114538159769
 21
5.280409440529
 31
0.0
  0
LINE
  5
BE7
330
1D
100
AcDbEntity
  8
0
100
AcDbLine
 10
326.231538159769
 20
14.607909440529
 30
0.0
 11
329.881538159769
 21
9.712309440529
 31
0.0
  0
LINE
  5
BE8
330
1D
100
AcDbEntity
  8
0
100
AcDbLine
 10
323.531538159769
 20
19.768309440529
 30
0.0
 11
326.231538159769
 21
14.607909440529
 31
0.0
  0
LINE
  5
BE9
330
1D
100
AcDbEntity
  8
0
100
AcDbLine
 10
321.41453815977
 20
25.590009440529
 30
0.0
 11
323.531538159769
 21
19.768309440529
 31
0.0
  0
LINE
  5
BEA
330
1D
100
AcDbEntity
  8
0
100
AcDbLine
 10
320.173538159769
 20
31.080109440529
 30
0.0
 11
321.41453815977
 21
25.590009440529
 31
0.0
  0
LINE
  5
BEB
330
1D
100
AcDbEntity
  8
0
100
AcDbLine
 10
320.757538159769
 20
48.122409440529
 30
0.0
 11
322.80153815977
 21
53.745609440529
 31
0.0
  0
LINE
  5
BEC
330
1D
100
AcDbEntity
  8
0
100
AcDbLine
 10
322.80153815977
 20
53.745609440529
 30
0.0
 11
325.647538159769
 21
58.971609440529
 31
0.0
  0
LINE
  5
BED
330
1D
100
AcDbEntity
  8
0
100
AcDbLine
 10
325.647538159769
 20
58.971609440529
 30
0.0
 11
329.297538159769
 21
63.933209440529
 31
0.0
  0
LINE
  5
BEE
330
1D
100
AcDbEntity
  8
0
100
AcDbLine
 10
329.297538159769
 20
63.933209440529
 30
0.0
 11
333.60453815977
 21
68.431709440529
 31
0.0
  0
LINE
  5
BEF
330
1D
100
AcDbEntity
  8
0
100
AcDbLine
 10
329.881538159769
 20
63.958809440529
 30
0.0
 11
334.114538159769
 21
68.391209440529
 31
0.0
  0
LINE
  5
BF0
330
1D
100
AcDbEntity
  8
0
100
AcDbLine
 10
326.231538159769
 20
59.063509440529
 30
0.0
 11
329.881538159769
 21
63.958809440529
 31
0.0
  0
LINE
  5
BF1
330
1D
100
AcDbEntity
  8
0
100
AcDbLine
 10
323.531538159769
 20
53.903509440529
 30
0.0
 11
326.231538159769
 21
59.063509440529
 31
0.0
  0
LINE
  5
BF2
330
1D
100
AcDbEntity
  8
0
100
AcDbLine
 10
321.41453815977
 20
48.081909440529
 30
0.0
 11
323.531538159769
 21
53.903509440529
 31
0.0
  0
LINE
  5
BF3
330
1D
100
AcDbEntity
  8
0
100
AcDbLine
 10
320.173538159769
 20
42.591209440529
 30
0.0
 11
321.41453815977
 21
48.081909440529
 31
0.0
  0
LINE
  5
BF4
330
1D
100
AcDbEntity
  8
0
100
AcDbLine
 10
319.662538159769
 20
36.835909440529
 30
0.0
 11
320.173538159769
 21
42.591209440529
 31
0.0
  0
LINE
  5
BF5
330
1D
100
AcDbEntity
  8
0
100
AcDbLine
 10
319.662538159769
 20
36.835909440529
 30
0.0
 11
320.173538159769
 21
31.080109440529
 31
0.0
  0
LINE
  5
BF6
330
1D
100
AcDbEntity
  8
0
100
AcDbLine
 10
333.60453815977
 20
68.431709440529
 30
0.0
 11
338.567538159769
 21
72.334609440529
 31
0.0
  0
LINE
  5
BF7
330
1D
100
AcDbEntity
  8
0
100
AcDbLine
 10
338.567538159769
 20
0.491709440529
 30
0.0
 11
344.041538159769
 21
-2.816360559471
 31
0.0
  0
LINE
  5
BF8
330
1D
100
AcDbEntity
  8
0
100
AcDbLine
 10
344.041538159769
 20
-2.816360559471
 30
0.0
 11
349.808538159769
 21
-5.396000559471
 31
0.0
  0
LINE
  5
BF9
330
1D
100
AcDbEntity
  8
0
100
AcDbLine
 10
339.005538159769
 20
1.443809440529
 30
0.0
 11
344.406538159769
 21
-1.864190559471
 31
0.0
  0
LINE
  5
BFA
330
1D
100
AcDbEntity
  8
0
100
AcDbLine
 10
344.406538159769
 20
-1.864190559471
 30
0.0
 11
350.100538159769
 21
-4.311980559471
 31
0.0
  0
LINE
  5
BFB
330
1D
100
AcDbEntity
  8
0
100
AcDbLine
 10
334.114538159769
 20
68.391209440529
 30
0.0
 11
339.005538159769
 21
72.228009440529
 31
0.0
  0
LINE
  5
BFC
330
1D
100
AcDbEntity
  8
0
100
AcDbLine
 10
338.567538159769
 20
72.334609440529
 30
0.0
 11
344.041538159769
 21
75.642409440529
 31
0.0
  0
LINE
  5
BFD
330
1D
100
AcDbEntity
  8
0
100
AcDbLine
 10
344.041538159769
 20
75.642409440529
 30
0.0
 11
349.808538159769
 21
78.222409440529
 31
0.0
  0
LINE
  5
BFE
330
1D
100
AcDbEntity
  8
0
100
AcDbLine
 10
339.005538159769
 20
72.228009440529
 30
0.0
 11
344.406538159769
 21
75.535809440529
 31
0.0
  0
LINE
  5
BFF
330
1D
100
AcDbEntity
  8
0
100
AcDbLine
 10
349.808538159769
 20
-5.396000559471
 30
0.0
 11
356.012538159769
 21
-7.248340559471
 31
0.0
  0
LINE
  5
C00
330
1D
100
AcDbEntity
  8
0
100
AcDbLine
 10
356.012538159769
 20
-7.248340559471
 30
0.0
 11
362.509538159769
 21
-8.439270559471
 31
0.0
  0
LINE
  5
C01
330
1D
100
AcDbEntity
  8
0
100
AcDbLine
 10
350.100538159769
 20
-4.311980559471
 30
0.0
 11
356.523538159769
 21
-6.230210559471
 31
0.0
  0
LINE
  5
C02
330
1D
100
AcDbEntity
  8
0
100
AcDbLine
 10
356.523538159769
 20
-6.230210559471
 30
0.0
 11
362.582538159769
 21
-7.355250559471
 31
0.0
  0
LINE
  5
C03
330
1D
100
AcDbEntity
  8
0
100
AcDbLine
 10
344.406538159769
 20
75.535809440529
 30
0.0
 11
350.100538159769
 21
77.983509440529
 31
0.0
  0
LINE
  5
C04
330
1D
100
AcDbEntity
  8
0
100
AcDbLine
 10
349.808538159769
 20
78.222409440529
 30
0.0
 11
356.012538159769
 21
80.074709440529
 31
0.0
  0
LINE
  5
C05
330
1D
100
AcDbEntity
  8
0
100
AcDbLine
 10
356.012538159769
 20
80.074709440529
 30
0.0
 11
362.509538159769
 21
81.265509440529
 31
0.0
  0
LINE
  5
C06
330
1D
100
AcDbEntity
  8
0
100
AcDbLine
 10
350.100538159769
 20
77.983509440529
 30
0.0
 11
356.523538159769
 21
79.902009440529
 31
0.0
  0
LINE
  5
C07
330
1D
100
AcDbEntity
  8
0
100
AcDbLine
 10
360.292538159769
 20
80.859167498094
 30
0.0
 11
360.292538159769
 21
90.368409440529
 31
0.0
  0
LINE
  5
C08
330
1D
100
AcDbEntity
  8
0
100
AcDbLine
 10
362.582538159769
 20
-7.355250559471
 30
0.0
 11
368.932538159769
 21
-7.817790559471
 31
0.0
  0
LINE
  5
C09
330
1D
100
AcDbEntity
  8
0
100
AcDbLine
 10
356.523538159769
 20
79.902009440529
 30
0.0
 11
362.582538159769
 21
81.026509440529
 31
0.0
  0
LINE
  5
C0A
330
1D
100
AcDbEntity
  8
0
100
AcDbLine
 10
362.509538159769
 20
81.265509440529
 30
0.0
 11
368.932538159769
 21
81.728609440529
 31
0.0
  0
LINE
  5
C0B
330
1D
100
AcDbEntity
  8
0
100
AcDbLine
 10
362.582538159769
 20
81.026509440529
 30
0.0
 11
368.932538159769
 21
81.489609440529
 31
0.0
  0
LINE
  5
C0C
330
1D
100
AcDbEntity
  8
0
100
AcDbLine
 10
375.28253815977
 20
81.026509440529
 30
0.0
 11
381.341538159769
 21
79.902009440529
 31
0.0
  0
LINE
  5
C0D
330
1D
100
AcDbEntity
  8
0
100
AcDbLine
 10
357.316538159769
 20
88.988409440529
 30
0.0
 11
358.564538159769
 21
87.686409440529
 31
0.0
  0
LINE
  5
C0E
330
1D
100
AcDbEntity
  8
0
100
AcDbLine
 10
356.932538159769
 20
90.368409440529
 30
0.0
 11
357.316538159769
 21
91.788409440529
 31
0.0
  0
LINE
  5
C0F
330
1D
100
AcDbEntity
  8
0
100
AcDbLine
 10
356.932538159769
 20
90.368409440529
 30
0.0
 11
357.316538159769
 21
88.988409440529
 31
0.0
  0
LINE
  5
C10
330
1D
100
AcDbEntity
  8
0
100
AcDbLine
 10
356.932538159769
 20
90.368409440529
 30
0.0
 11
356.932538159769
 21
150.849409440529
 31
0.0
  0
LINE
  5
C11
330
1D
100
AcDbEntity
  8
0
100
AcDbLine
 10
358.564538159769
 20
87.686409440529
 30
0.0
 11
360.292538159769
 21
86.657169440529
 31
0.0
  0
LINE
  5
C12
330
1D
100
AcDbEntity
  8
0
100
AcDbLine
 10
357.316538159769
 20
91.788409440529
 30
0.0
 11
358.564538159769
 21
93.090409440529
 31
0.0
  0
LINE
  5
C13
330
1D
100
AcDbEntity
  8
0
100
AcDbLine
 10
358.564538159769
 20
93.090409440529
 30
0.0
 11
360.484538159769
 21
94.233409440529
 31
0.0
  0
LINE
  5
C14
330
1D
100
AcDbEntity
  8
0
100
AcDbLine
 10
360.484538159769
 20
94.233409440529
 30
0.0
 11
362.980538159769
 21
95.101409440529
 31
0.0
  0
LINE
  5
C15
330
1D
100
AcDbEntity
  8
0
100
AcDbLine
 10
366.724538159769
 20
94.154409440529
 30
0.0
 11
368.932538159769
 21
94.312409440529
 31
0.0
  0
LINE
  5
C16
330
1D
100
AcDbEntity
  8
0
100
AcDbLine
 10
364.612538159769
 20
93.759409440529
 30
0.0
 11
366.724538159769
 21
94.154409440529
 31
0.0
  0
LINE
  5
C17
330
1D
100
AcDbEntity
  8
0
100
AcDbLine
 10
362.788538159769
 20
93.129409440529
 30
0.0
 11
364.612538159769
 21
93.759409440529
 31
0.0
  0
LINE
  5
C18
330
1D
100
AcDbEntity
  8
0
100
AcDbLine
 10
361.444538159769
 20
92.340409440529
 30
0.0
 11
362.788538159769
 21
93.129409440529
 31
0.0
  0
LINE
  5
C19
330
1D
100
AcDbEntity
  8
0
100
AcDbLine
 10
360.58053815977
 20
91.393409440529
 30
0.0
 11
361.444538159769
 21
92.340409440529
 31
0.0
  0
LINE
  5
C1A
330
1D
100
AcDbEntity
  8
0
100
AcDbLine
 10
360.292538159769
 20
90.368409440529
 30
0.0
 11
360.292538159769
 21
80.859167498094
 31
0.0
  0
LINE
  5
C1B
330
1D
100
AcDbEntity
  8
0
100
AcDbLine
 10
360.292538159769
 20
90.368409440529
 30
0.0
 11
360.58053815977
 21
91.393409440529
 31
0.0
  0
LINE
  5
C1C
330
1D
100
AcDbEntity
  8
0
100
AcDbLine
 10
353.535538159769
 20
149.884409440529
 30
0.0
 11
354.997538159769
 21
147.029409440529
 31
0.0
  0
LINE
  5
C1D
330
1D
100
AcDbEntity
  8
0
100
AcDbLine
 10
356.581538159769
 20
145.255409440529
 30
0.0
 11
356.932538159769
 21
144.980651243808
 31
0.0
  0
LINE
  5
C1E
330
1D
100
AcDbEntity
  8
0
100
AcDbLine
 10
354.997538159769
 20
147.029409440529
 30
0.0
 11
355.454538159769
 21
146.824409440529
 31
0.0
  0
LINE
  5
C1F
330
1D
100
AcDbEntity
  8
0
100
AcDbLine
 10
355.106587768253
 20
146.980492220093
 30
0.0
 11
356.581538159769
 21
145.255409440529
 31
0.0
  0
LINE
  5
C20
330
1D
100
AcDbEntity
  8
0
100
AcDbLine
 10
355.454538159769
 20
146.824409440529
 30
0.0
 11
356.932538159769
 21
145.244768282308
 31
0.0
  0
LINE
  5
C21
330
1D
100
AcDbEntity
  8
0
100
AcDbLine
 10
353.872538159769
 20
149.208409440529
 30
0.0
 11
353.93230520083
 21
149.109601025872
 31
0.0
  0
LINE
  5
C22
330
1D
100
AcDbEntity
  8
0
100
AcDbLine
 10
352.899538159769
 20
153.935409440529
 30
0.0
 11
353.422538159769
 21
156.607409440529
 31
0.0
  0
LINE
  5
C23
330
1D
100
AcDbEntity
  8
0
100
AcDbLine
 10
352.899538159769
 20
153.935409440529
 30
0.0
 11
353.082538159769
 21
151.533409440529
 31
0.0
  0
LINE
  5
C24
330
1D
100
AcDbEntity
  8
0
100
AcDbLine
 10
353.082538159769
 20
151.533409440529
 30
0.0
 11
353.535538159769
 21
149.884409440529
 31
0.0
  0
LINE
  5
C25
330
1D
100
AcDbEntity
  8
0
100
AcDbLine
 10
356.932538159769
 20
150.849409440529
 30
0.0
 11
356.932538159769
 21
90.368409440529
 31
0.0
  0
LINE
  5
C26
330
1D
100
AcDbEntity
  8
0
100
AcDbLine
 10
356.932538159769
 20
150.849409440529
 30
0.0
 11
357.316538159769
 21
153.243409440529
 31
0.0
  0
LINE
  5
C27
330
1D
100
AcDbEntity
  8
0
100
AcDbLine
 10
357.316538159769
 20
153.243409440529
 30
0.0
 11
358.564538159769
 21
155.469409440529
 31
0.0
  0
LINE
  5
C28
330
1D
100
AcDbEntity
  8
0
100
AcDbLine
 10
353.422538159769
 20
156.607409440529
 30
0.0
 11
354.727538159769
 21
159.123409440529
 31
0.0
  0
LINE
  5
C29
330
1D
100
AcDbEntity
  8
0
100
AcDbLine
 10
358.564538159769
 20
155.469409440529
 30
0.0
 11
360.484538159769
 21
157.399409440529
 31
0.0
  0
LINE
  5
C2A
330
1D
100
AcDbEntity
  8
0
100
AcDbLine
 10
360.484538159769
 20
157.399409440529
 30
0.0
 11
362.980538159769
 21
158.823409440529
 31
0.0
  0
LINE
  5
C2B
330
1D
100
AcDbEntity
  8
0
100
AcDbLine
 10
354.727538159769
 20
159.123409440529
 30
0.0
 11
356.661538159769
 21
161.389409440529
 31
0.0
  0
LINE
  5
C2C
330
1D
100
AcDbEntity
  8
0
100
AcDbLine
 10
362.980538159769
 20
158.823409440529
 30
0.0
 11
365.860538159769
 21
159.703409440529
 31
0.0
  0
LINE
  5
C2D
330
1D
100
AcDbEntity
  8
0
100
AcDbLine
 10
362.980538159769
 20
95.101409440529
 30
0.0
 11
365.860538159769
 21
95.613409440529
 31
0.0
  0
LINE
  5
C2E
330
1D
100
AcDbEntity
  8
0
100
AcDbLine
 10
365.860538159769
 20
159.703409440529
 30
0.0
 11
368.932538159769
 21
160.040409440529
 31
0.0
  0
LINE
  5
C2F
330
1D
100
AcDbEntity
  8
0
100
AcDbLine
 10
365.860538159769
 20
95.613409440529
 30
0.0
 11
368.932538159769
 21
95.810409440529
 31
0.0
  0
LINE
  5
C30
330
1D
100
AcDbEntity
  8
0
100
AcDbLine
 10
356.661538159769
 20
161.389409440529
 30
0.0
 11
359.546538159769
 21
163.426409440529
 31
0.0
  0
LINE
  5
C31
330
1D
100
AcDbEntity
  8
0
100
AcDbLine
 10
359.546538159769
 20
163.426409440529
 30
0.0
 11
363.360538159769
 21
164.979409440529
 31
0.0
  0
LINE
  5
C32
330
1D
100
AcDbEntity
  8
0
100
AcDbLine
 10
368.932538159769
 20
160.040409440529
 30
0.0
 11
372.004538159769
 21
159.703409440529
 31
0.0
  0
LINE
  5
C33
330
1D
100
AcDbEntity
  8
0
100
AcDbLine
 10
368.932538159769
 20
95.810409440529
 30
0.0
 11
372.004538159769
 21
95.613409440529
 31
0.0
  0
LINE
  5
C34
330
1D
100
AcDbEntity
  8
0
100
AcDbLine
 10
368.932538159769
 20
94.312409440529
 30
0.0
 11
371.14053815977
 21
94.154409440529
 31
0.0
  0
LINE
  5
C35
330
1D
100
AcDbEntity
  8
0
100
AcDbLine
 10
375.076538159769
 20
93.129409440529
 30
0.0
 11
376.420538159769
 21
92.340409440529
 31
0.0
  0
LINE
  5
C36
330
1D
100
AcDbEntity
  8
0
100
AcDbLine
 10
373.252538159769
 20
93.759409440529
 30
0.0
 11
375.076538159769
 21
93.129409440529
 31
0.0
  0
LINE
  5
C37
330
1D
100
AcDbEntity
  8
0
100
AcDbLine
 10
372.004538159769
 20
159.703409440529
 30
0.0
 11
374.884538159769
 21
158.823409440529
 31
0.0
  0
LINE
  5
C38
330
1D
100
AcDbEntity
  8
0
100
AcDbLine
 10
374.884538159769
 20
158.823409440529
 30
0.0
 11
377.380538159769
 21
157.399409440529
 31
0.0
  0
LINE
  5
C39
330
1D
100
AcDbEntity
  8
0
100
AcDbLine
 10
374.884538159769
 20
95.101409440529
 30
0.0
 11
377.380538159769
 21
94.233409440529
 31
0.0
  0
LINE
  5
C3A
330
1D
100
AcDbEntity
  8
0
100
AcDbLine
 10
372.004538159769
 20
95.613409440529
 30
0.0
 11
374.884538159769
 21
95.101409440529
 31
0.0
  0
LINE
  5
C3B
330
1D
100
AcDbEntity
  8
0
100
AcDbLine
 10
371.14053815977
 20
94.154409440529
 30
0.0
 11
373.252538159769
 21
93.759409440529
 31
0.0
  0
LINE
  5
C3C
330
1D
100
AcDbEntity
  8
0
100
AcDbLine
 10
368.932538159769
 20
81.728609440529
 30
0.0
 11
375.355538159769
 21
81.265509440529
 31
0.0
  0
LINE
  5
C3D
330
1D
100
AcDbEntity
  8
0
100
AcDbLine
 10
368.932538159769
 20
81.489609440529
 30
0.0
 11
375.28253815977
 21
81.026509440529
 31
0.0
  0
LINE
  5
C3E
330
1D
100
AcDbEntity
  8
0
100
AcDbLine
 10
381.85253815977
 20
-7.248340559471
 30
0.0
 11
388.05653815977
 21
-5.396000559471
 31
0.0
  0
LINE
  5
C3F
330
1D
100
AcDbEntity
  8
0
100
AcDbLine
 10
387.764538159769
 20
77.983509440529
 30
0.0
 11
393.45853815977
 21
75.535809440529
 31
0.0
  0
LINE
  5
C40
330
1D
100
AcDbEntity
  8
0
100
AcDbLine
 10
377.572538159769
 20
86.657169440529
 30
0.0
 11
379.300538159769
 21
87.686409440529
 31
0.0
  0
LINE
  5
C41
330
1D
100
AcDbEntity
  8
0
100
AcDbLine
 10
379.300538159769
 20
87.686409440529
 30
0.0
 11
380.548538159769
 21
88.988409440529
 31
0.0
  0
LINE
  5
C42
330
1D
100
AcDbEntity
  8
0
100
AcDbLine
 10
380.932538159769
 20
90.368409440529
 30
0.0
 11
380.932538159769
 21
150.849409440529
 31
0.0
  0
LINE
  5
C43
330
1D
100
AcDbEntity
  8
0
100
AcDbLine
 10
380.548538159769
 20
88.988409440529
 30
0.0
 11
380.932538159769
 21
90.368409440529
 31
0.0
  0
LINE
  5
C44
330
1D
100
AcDbEntity
  8
0
100
AcDbLine
 10
377.380538159769
 20
157.399409440529
 30
0.0
 11
379.300538159769
 21
155.469409440529
 31
0.0
  0
LINE
  5
C45
330
1D
100
AcDbEntity
  8
0
100
AcDbLine
 10
380.548538159769
 20
91.788409440529
 30
0.0
 11
380.932538159769
 21
90.368409440529
 31
0.0
  0
LINE
  5
C46
330
1D
100
AcDbEntity
  8
0
100
AcDbLine
 10
380.932538159769
 20
145.027972932592
 30
0.0
 11
381.653538159769
 21
145.769409440529
 31
0.0
  0
LINE
  5
C47
330
1D
100
AcDbEntity
  8
0
100
AcDbLine
 10
380.932538159769
 20
145.715738714322
 30
0.0
 11
381.156538159769
 21
145.917409440529
 31
0.0
  0
LINE
  5
C48
330
1D
100
AcDbEntity
  8
0
100
AcDbLine
 10
381.653538159769
 20
145.769409440529
 30
0.0
 11
383.543538159769
 21
148.182409440529
 31
0.0
  0
LINE
  5
C49
330
1D
100
AcDbEntity
  8
0
100
AcDbLine
 10
384.531538159769
 20
150.561409440529
 30
0.0
 11
384.91953815977
 21
152.651409440529
 31
0.0
  0
LINE
  5
C4A
330
1D
100
AcDbEntity
  8
0
100
AcDbLine
 10
383.543538159769
 20
148.182409440529
 30
0.0
 11
384.531538159769
 21
150.561409440529
 31
0.0
  0
LINE
  5
C4B
330
1D
100
AcDbEntity
  8
0
100
AcDbLine
 10
380.932538159769
 20
150.849409440529
 30
0.0
 11
380.932538159769
 21
90.368409440529
 31
0.0
  0
LINE
  5
C4C
330
1D
100
AcDbEntity
  8
0
100
AcDbLine
 10
379.86353815977
 20
162.424409440529
 30
0.0
 11
381.71853815977
 21
160.861409440529
 31
0.0
  0
LINE
  5
C4D
330
1D
100
AcDbEntity
  8
0
100
AcDbLine
 10
381.71853815977
 20
160.861409440529
 30
0.0
 11
382.947538159769
 21
159.321409440529
 31
0.0
  0
LINE
  5
C4E
330
1D
100
AcDbEntity
  8
0
100
AcDbLine
 10
384.69053815977
 20
155.653409440529
 30
0.0
 11
384.91953815977
 21
152.651409440529
 31
0.0
  0
LINE
  5
C4F
330
1D
100
AcDbEntity
  8
0
100
AcDbLine
 10
383.94053815977
 20
157.681409440529
 30
0.0
 11
384.000527820035
 21
157.504705719722
 31
0.0
  0
LINE
  5
C50
330
1D
100
AcDbEntity
  8
0
100
AcDbLine
 10
384.11353815977
 20
157.410409440529
 30
0.0
 11
384.69053815977
 21
155.653409440529
 31
0.0
  0
LINE
  5
C51
330
1D
100
AcDbEntity
  8
0
100
AcDbLine
 10
382.947538159769
 20
159.321409440529
 30
0.0
 11
383.94053815977
 21
157.681409440529
 31
0.0
  0
LINE
  5
C52
330
1D
100
AcDbEntity
  8
0
100
AcDbLine
 10
380.548538159769
 20
153.243409440529
 30
0.0
 11
380.932538159769
 21
150.849409440529
 31
0.0
  0
LINE
  5
C53
330
1D
100
AcDbEntity
  8
0
100
AcDbLine
 10
379.300538159769
 20
155.469409440529
 30
0.0
 11
380.548538159769
 21
153.243409440529
 31
0.0
  0
LINE
  5
C54
330
1D
100
AcDbEntity
  8
0
100
AcDbLine
 10
379.300538159769
 20
93.090409440529
 30
0.0
 11
380.548538159769
 21
91.788409440529
 31
0.0
  0
LINE
  5
C55
330
1D
100
AcDbEntity
  8
0
100
AcDbLine
 10
377.380538159769
 20
94.233409440529
 30
0.0
 11
379.300538159769
 21
93.090409440529
 31
0.0
  0
LINE
  5
C56
330
1D
100
AcDbEntity
  8
0
100
AcDbLine
 10
377.572538159769
 20
90.368409440529
 30
0.0
 11
377.572538159769
 21
80.859167498094
 31
0.0
  0
LINE
  5
C57
330
1D
100
AcDbEntity
  8
0
100
AcDbLine
 10
377.284538159769
 20
91.393409440529
 30
0.0
 11
377.572538159769
 21
90.368409440529
 31
0.0
  0
LINE
  5
C58
330
1D
100
AcDbEntity
  8
0
100
AcDbLine
 10
377.572538159769
 20
80.859167498094
 30
0.0
 11
377.572538159769
 21
90.368409440529
 31
0.0
  0
LINE
  5
C59
330
1D
100
AcDbEntity
  8
0
100
AcDbLine
 10
376.420538159769
 20
92.340409440529
 30
0.0
 11
377.284538159769
 21
91.393409440529
 31
0.0
  0
LINE
  5
C5A
330
1D
100
AcDbEntity
  8
0
100
AcDbLine
 10
381.85253815977
 20
80.074709440529
 30
0.0
 11
388.05653815977
 21
78.222409440529
 31
0.0
  0
LINE
  5
C5B
330
1D
100
AcDbEntity
  8
0
100
AcDbLine
 10
375.355538159769
 20
81.265509440529
 30
0.0
 11
381.85253815977
 21
80.074709440529
 31
0.0
  0
LINE
  5
C5C
330
1D
100
AcDbEntity
  8
0
100
AcDbLine
 10
381.341538159769
 20
79.902009440529
 30
0.0
 11
387.764538159769
 21
77.983509440529
 31
0.0
  0
LINE
  5
C5D
330
1D
100
AcDbEntity
  8
0
100
AcDbLine
 10
404.260538159769
 20
-4.479820559471
 30
0.0
 11
408.567538159769
 21
0.018109440529
 31
0.0
  0
LINE
  5
C5E
330
1D
100
AcDbEntity
  8
0
100
AcDbLine
 10
393.82353815977
 20
-2.816360559471
 30
0.0
 11
399.297538159769
 21
0.491709440529
 31
0.0
  0
LINE
  5
C5F
330
1D
100
AcDbEntity
  8
0
100
AcDbLine
 10
388.05653815977
 20
-5.396000559471
 30
0.0
 11
393.82353815977
 21
-2.816360559471
 31
0.0
  0
LINE
  5
C60
330
1D
100
AcDbEntity
  8
0
100
AcDbLine
 10
398.859538159769
 20
72.228009440529
 30
0.0
 11
403.750538159769
 21
68.391209440529
 31
0.0
  0
LINE
  5
C61
330
1D
100
AcDbEntity
  8
0
100
AcDbLine
 10
393.82353815977
 20
75.642409440529
 30
0.0
 11
399.297538159769
 21
72.334609440529
 31
0.0
  0
LINE
  5
C62
330
1D
100
AcDbEntity
  8
0
100
AcDbLine
 10
388.05653815977
 20
78.222409440529
 30
0.0
 11
393.82353815977
 21
75.642409440529
 31
0.0
  0
LINE
  5
C63
330
1D
100
AcDbEntity
  8
0
100
AcDbLine
 10
393.45853815977
 20
75.535809440529
 30
0.0
 11
398.859538159769
 21
72.228009440529
 31
0.0
  0
LINE
  5
C64
330
1D
100
AcDbEntity
  8
0
100
AcDbLine
 10
408.567538159769
 20
0.018109440529
 30
0.0
 11
412.21753815977
 21
4.979609440529
 31
0.0
  0
LINE
  5
C65
330
1D
100
AcDbEntity
  8
0
100
AcDbLine
 10
404.260538159769
 20
4.395209440529
 30
0.0
 11
408.567538159769
 21
8.893109440529
 31
0.0
  0
LINE
  5
C66
330
1D
100
AcDbEntity
  8
0
100
AcDbLine
 10
403.750538159769
 20
5.280409440529
 30
0.0
 11
407.983538159769
 21
9.712309440529
 31
0.0
  0
LINE
  5
C67
330
1D
100
AcDbEntity
  8
0
100
AcDbLine
 10
412.21753815977
 20
4.979609440529
 30
0.0
 11
415.063538159769
 21
10.205909440529
 31
0.0
  0
LINE
  5
C68
330
1D
100
AcDbEntity
  8
0
100
AcDbLine
 10
408.567538159769
 20
8.893109440529
 30
0.0
 11
412.21753815977
 21
13.854709440529
 31
0.0
  0
LINE
  5
C69
330
1D
100
AcDbEntity
  8
0
100
AcDbLine
 10
412.21753815977
 20
13.854709440529
 30
0.0
 11
415.063538159769
 21
19.080909440529
 31
0.0
  0
LINE
  5
C6A
330
1D
100
AcDbEntity
  8
0
100
AcDbLine
 10
407.983538159769
 20
9.712309440529
 30
0.0
 11
411.63353815977
 21
14.607909440529
 31
0.0
  0
LINE
  5
C6B
330
1D
100
AcDbEntity
  8
0
100
AcDbLine
 10
411.63353815977
 20
14.607909440529
 30
0.0
 11
414.33353815977
 21
19.768309440529
 31
0.0
  0
LINE
  5
C6C
330
1D
100
AcDbEntity
  8
0
100
AcDbLine
 10
415.063538159769
 20
10.205909440529
 30
0.0
 11
417.107538159769
 21
15.828909440529
 31
0.0
  0
LINE
  5
C6D
330
1D
100
AcDbEntity
  8
0
100
AcDbLine
 10
417.107538159769
 20
15.828909440529
 30
0.0
 11
418.42153815977
 21
21.716609440529
 31
0.0
  0
LINE
  5
C6E
330
1D
100
AcDbEntity
  8
0
100
AcDbLine
 10
415.063538159769
 20
19.080909440529
 30
0.0
 11
417.107538159769
 21
24.703809440529
 31
0.0
  0
LINE
  5
C6F
330
1D
100
AcDbEntity
  8
0
100
AcDbLine
 10
417.107538159769
 20
24.703809440529
 30
0.0
 11
418.42153815977
 21
30.591509440529
 31
0.0
  0
LINE
  5
C70
330
1D
100
AcDbEntity
  8
0
100
AcDbLine
 10
414.33353815977
 20
19.768309440529
 30
0.0
 11
416.45053815977
 21
25.590009440529
 31
0.0
  0
LINE
  5
C71
330
1D
100
AcDbEntity
  8
0
100
AcDbLine
 10
412.21753815977
 20
58.971609440529
 30
0.0
 11
415.063538159769
 21
53.745609440529
 31
0.0
  0
LINE
  5
C72
330
1D
100
AcDbEntity
  8
0
100
AcDbLine
 10
399.297538159769
 20
72.334609440529
 30
0.0
 11
404.260538159769
 21
68.431709440529
 31
0.0
  0
LINE
  5
C73
330
1D
100
AcDbEntity
  8
0
100
AcDbLine
 10
404.260538159769
 20
68.431709440529
 30
0.0
 11
408.567538159769
 21
63.933209440529
 31
0.0
  0
LINE
  5
C74
330
1D
100
AcDbEntity
  8
0
100
AcDbLine
 10
403.750538159769
 20
68.391209440529
 30
0.0
 11
407.983538159769
 21
63.958809440529
 31
0.0
  0
LINE
  5
C75
330
1D
100
AcDbEntity
  8
0
100
AcDbLine
 10
408.567538159769
 20
63.933209440529
 30
0.0
 11
412.21753815977
 21
58.971609440529
 31
0.0
  0
LINE
  5
C76
330
1D
100
AcDbEntity
  8
0
100
AcDbLine
 10
407.983538159769
 20
63.958809440529
 30
0.0
 11
411.63353815977
 21
59.063509440529
 31
0.0
  0
LINE
  5
C77
330
1D
100
AcDbEntity
  8
0
100
AcDbLine
 10
411.63353815977
 20
59.063509440529
 30
0.0
 11
414.33353815977
 21
53.903509440529
 31
0.0
  0
LINE
  5
C78
330
1D
100
AcDbEntity
  8
0
100
AcDbLine
 10
415.063538159769
 20
53.745609440529
 30
0.0
 11
417.107538159769
 21
48.122409440529
 31
0.0
  0
LINE
  5
C79
330
1D
100
AcDbEntity
  8
0
100
AcDbLine
 10
417.107538159769
 20
48.122409440529
 30
0.0
 11
418.42153815977
 21
42.234809440529
 31
0.0
  0
LINE
  5
C7A
330
1D
100
AcDbEntity
  8
0
100
AcDbLine
 10
414.33353815977
 20
53.903509440529
 30
0.0
 11
416.45053815977
 21
48.081909440529
 31
0.0
  0
LINE
  5
C7B
330
1D
100
AcDbEntity
  8
0
100
AcDbLine
 10
416.45053815977
 20
48.081909440529
 30
0.0
 11
417.691538159769
 21
42.591209440529
 31
0.0
  0
LINE
  5
C7C
330
1D
100
AcDbEntity
  8
0
100
AcDbLine
 10
417.691538159769
 20
42.591209440529
 30
0.0
 11
418.202538159769
 21
36.835909440529
 31
0.0
  0
LINE
  5
C7D
330
1D
100
AcDbEntity
  8
0
100
AcDbLine
 10
416.45053815977
 20
25.590009440529
 30
0.0
 11
417.691538159769
 21
31.080109440529
 31
0.0
  0
LINE
  5
C7E
330
1D
100
AcDbEntity
  8
0
100
AcDbLine
 10
418.932538159769
 20
27.538309440529
 30
0.0
 11
418.932538159769
 21
36.413309440529
 31
0.0
  0
LINE
  5
C7F
330
1D
100
AcDbEntity
  8
0
100
AcDbLine
 10
418.42153815977
 20
21.716609440529
 30
0.0
 11
418.932538159769
 21
27.538309440529
 31
0.0
  0
LINE
  5
C80
330
1D
100
AcDbEntity
  8
0
100
AcDbLine
 10
418.932538159769
 20
36.413309440529
 30
0.0
 11
418.932538159769
 21
27.538309440529
 31
0.0
  0
LINE
  5
C81
330
1D
100
AcDbEntity
  8
0
100
AcDbLine
 10
418.42153815977
 20
42.234809440529
 30
0.0
 11
418.932538159769
 21
36.413309440529
 31
0.0
  0
LINE
  5
C82
330
1D
100
AcDbEntity
  8
0
100
AcDbLine
 10
418.42153815977
 20
30.591509440529
 30
0.0
 11
418.932538159769
 21
36.413309440529
 31
0.0
  0
LINE
  5
C83
330
1D
100
AcDbEntity
  8
0
100
AcDbLine
 10
417.691538159769
 20
31.080109440529
 30
0.0
 11
418.202538159769
 21
36.835909440529
 31
0.0
  0
LINE
  5
C84
330
1D
100
AcDbEntity
  8
0
100
AcDbLine
 10
399.297538159769
 20
0.491709440529
 30
0.0
 11
404.260538159769
 21
4.395209440529
 31
0.0
  0
LINE
  5
C85
330
1D
100
AcDbEntity
  8
0
100
AcDbLine
 10
398.859538159769
 20
1.443809440529
 30
0.0
 11
403.750538159769
 21
5.280409440529
 31
0.0
  0
LINE
  5
C86
330
1D
100
AcDbEntity
  8
0
100
AcDbLine
 10
393.45853815977
 20
-1.864190559471
 30
0.0
 11
398.859538159769
 21
1.443809440529
 31
0.0
  0
LINE
  5
C87
330
1D
100
AcDbEntity
  8
0
100
AcDbLine
 10
387.764538159769
 20
-4.311980559471
 30
0.0
 11
393.45853815977
 21
-1.864190559471
 31
0.0
  0
LINE
  5
C88
330
1D
100
AcDbEntity
  8
0
100
AcDbLine
 10
381.341538159769
 20
-6.230210559471
 30
0.0
 11
387.764538159769
 21
-4.311980559471
 31
0.0
  0
LINE
  5
C89
330
1D
100
AcDbEntity
  8
0
100
AcDbLine
 10
375.28253815977
 20
-7.355250559471
 30
0.0
 11
381.341538159769
 21
-6.230210559471
 31
0.0
  0
LINE
  5
C8A
330
1D
100
AcDbEntity
  8
0
100
AcDbLine
 10
368.932538159769
 20
-7.817790559471
 30
0.0
 11
375.28253815977
 21
-7.355250559471
 31
0.0
  0
LINE
  5
C8F
330
1D
100
AcDbEntity
  8
0
100
AcDbLine
 10
352.91453815977
 20
164.750409440529
 30
0.0
 11
352.942245527238
 21
154.153600809321
 31
0.0
  0
LINE
  5
C90
330
1D
100
AcDbEntity
  8
0
100
AcDbLine
 10
352.91453815977
 20
164.750409440529
 30
0.0
 11
353.136538159769
 21
167.755409440529
 31
0.0
  0
LINE
  5
C91
330
1D
100
AcDbEntity
  8
0
100
AcDbLine
 10
353.156156652181
 20
167.801052789731
 30
0.0
 11
353.299538159769
 21
168.847409440529
 31
0.0
  0
LINE
  5
C92
330
1D
100
AcDbEntity
  8
0
100
AcDbLine
 10
353.136538159769
 20
167.755409440529
 30
0.0
 11
354.364538159769
 21
170.612409440529
 31
0.0
  0
LINE
  5
C93
330
1D
100
AcDbEntity
  8
0
100
AcDbLine
 10
363.360538159769
 20
164.979409440529
 30
0.0
 11
367.185538159769
 21
165.673409440529
 31
0.0
  0
LINE
  5
C94
330
1D
100
AcDbEntity
  8
0
100
AcDbLine
 10
376.356538159769
 20
164.369409440529
 30
0.0
 11
379.86353815977
 21
162.424409440529
 31
0.0
  0
LINE
  5
C95
330
1D
100
AcDbEntity
  8
0
100
AcDbLine
 10
367.185538159769
 20
165.673409440529
 30
0.0
 11
372.278538159769
 21
165.471409440529
 31
0.0
  0
LINE
  5
C96
330
1D
100
AcDbEntity
  8
0
100
AcDbLine
 10
372.278538159769
 20
165.471409440529
 30
0.0
 11
376.356538159769
 21
164.369409440529
 31
0.0
  0
LINE
  5
C98
330
1D
100
AcDbEntity
  8
0
100
AcDbLine
 10
384.70953815977
 20
167.896409440529
 30
0.0
 11
384.906538159769
 21
165.979409440529
 31
0.0
  0
LINE
  5
C99
330
1D
100
AcDbEntity
  8
0
100
AcDbLine
 10
384.619538159769
 20
167.974409440529
 30
0.0
 11
384.893538159769
 21
164.373409440529
 31
0.0
  0
LINE
  5
C9A
330
1D
100
AcDbEntity
  8
0
100
AcDbLine
 10
384.906538159769
 20
165.788004388864
 30
0.0
 11
384.906538159769
 21
191.798409440529
 31
0.0
  0
LINE
  5
C9B
330
1D
100
AcDbEntity
  8
0
100
AcDbLine
 10
384.893538159769
 20
164.373409440529
 30
0.0
 11
384.912538159769
 21
152.954409440529
 31
0.0
  0
LINE
  5
C9C
330
1D
100
AcDbEntity
  8
0
100
AcDbLine
 10
353.299538159769
 20
168.847409440529
 30
0.0
 11
354.649538159769
 21
171.544409440529
 31
0.0
  0
LINE
  5
C9D
330
1D
100
AcDbEntity
  8
0
100
AcDbLine
 10
354.364538159769
 20
170.612409440529
 30
0.0
 11
356.405538159769
 21
173.177409440529
 31
0.0
  0
LINE
  5
C9E
330
1D
100
AcDbEntity
  8
0
100
AcDbLine
 10
383.954538159769
 20
169.712409440529
 30
0.0
 11
384.619538159769
 21
167.974409440529
 31
0.0
  0
LINE
  5
CA0
330
1D
100
AcDbEntity
  8
0
100
AcDbLine
 10
383.731538159769
 20
170.687409440529
 30
0.0
 11
384.70953815977
 21
167.896409440529
 31
0.0
  0
LINE
  5
CA1
330
1D
100
AcDbEntity
  8
0
100
AcDbLine
 10
354.649538159769
 20
171.543409440529
 30
0.0
 11
355.961538159769
 21
173.183409440529
 31
0.0
  0
LINE
  5
CA3
330
1D
100
AcDbEntity
  8
0
100
AcDbLine
 10
382.990538159769
 20
171.361409440529
 30
0.0
 11
383.954538159769
 21
169.712409440529
 31
0.0
  0
LINE
  5
CA5
330
1D
100
AcDbEntity
  8
0
100
AcDbLine
 10
350.49153815977
 20
175.145409440529
 30
0.0
 11
352.795538159769
 21
173.384409440529
 31
0.0
  0
LINE
  5
CA7
330
1D
100
AcDbEntity
  8
0
100
AcDbLine
 10
356.405538159769
 20
173.177409440529
 30
0.0
 11
359.867538159769
 21
175.626409440529
 31
0.0
  0
LINE
  5
CA8
330
1D
100
AcDbEntity
  8
0
100
AcDbLine
 10
384.906538159769
 20
173.316789043928
 30
0.0
 11
385.01653815977
 21
173.384409440529
 31
0.0
  0
LINE
  5
CA9
330
1D
100
AcDbEntity
  8
0
100
AcDbLine
 10
385.01653815977
 20
173.384409440529
 30
0.0
 11
387.320538159769
 21
175.146409440529
 31
0.0
  0
LINE
  5
CAA
330
1D
100
AcDbEntity
  8
0
100
AcDbLine
 10
355.961538159769
 20
173.183409440529
 30
0.0
 11
357.59253815977
 21
174.646409440529
 31
0.0
  0
LINE
  5
CAC
330
1D
100
AcDbEntity
  8
0
100
AcDbLine
 10
357.59253815977
 20
174.646409440529
 30
0.0
 11
359.501538159769
 21
175.895409440529
 31
0.0
  0
LINE
  5
CAD
330
1D
100
AcDbEntity
  8
0
100
AcDbLine
 10
381.108538159769
 20
173.964409440529
 30
0.0
 11
383.731538159769
 21
170.687409440529
 31
0.0
  0
LINE
  5
CAE
330
1D
100
AcDbEntity
  8
0
100
AcDbLine
 10
378.331538159769
 20
175.387409440529
 30
0.0
 11
380.678538159769
 21
173.787409440529
 31
0.0
  0
LINE
  5
CAF
330
1D
100
AcDbEntity
  8
0
100
AcDbLine
 10
387.320538159769
 20
175.146409440529
 30
0.0
 11
389.432538159769
 21
177.133409440529
 31
0.0
  0
LINE
  5
CB1
330
1D
100
AcDbEntity
  8
0
100
AcDbLine
 10
380.678538159769
 20
173.787409440529
 30
0.0
 11
382.990538159769
 21
171.361409440529
 31
0.0
  0
LINE
  5
CB2
330
1D
100
AcDbEntity
  8
0
100
AcDbLine
 10
352.795538159769
 20
173.384409440529
 30
0.0
 11
352.906538159769
 21
173.31617431305
 31
0.0
  0
LINE
  5
CB3
330
1D
100
AcDbEntity
  8
0
100
AcDbLine
 10
359.867538159769
 20
175.626409440529
 30
0.0
 11
363.371538159769
 21
176.980409440529
 31
0.0
  0
LINE
  5
CB4
330
1D
100
AcDbEntity
  8
0
100
AcDbLine
 10
361.379538159769
 20
176.212409440529
 30
0.0
 11
361.491315902268
 21
176.253862369565
 31
0.0
  0
LINE
  5
CB5
330
1D
100
AcDbEntity
  8
0
100
AcDbLine
 10
359.501538159769
 20
175.895409440529
 30
0.0
 11
361.642538159769
 21
176.900409440529
 31
0.0
  0
LINE
  5
CB6
330
1D
100
AcDbEntity
  8
0
100
AcDbLine
 10
375.622538159769
 20
176.606409440529
 30
0.0
 11
378.331538159769
 21
175.387409440529
 31
0.0
  0
LINE
  5
CB7
330
1D
100
AcDbEntity
  8
0
100
AcDbLine
 10
363.371538159769
 20
176.980409440529
 30
0.0
 11
366.410538159769
 21
177.586409440529
 31
0.0
  0
LINE
  5
CB8
330
1D
100
AcDbEntity
  8
0
100
AcDbLine
 10
361.642538159769
 20
176.900409440529
 30
0.0
 11
363.962538159769
 21
177.636409440529
 31
0.0
  0
LINE
  5
CB9
330
1D
100
AcDbEntity
  8
0
100
AcDbLine
 10
377.293538159769
 20
176.460409440529
 30
0.0
 11
381.108538159769
 21
173.964409440529
 31
0.0
  0
LINE
  5
CBA
330
1D
100
AcDbEntity
  8
0
100
AcDbLine
 10
348.379538159769
 20
177.133409440529
 30
0.0
 11
350.49153815977
 21
175.145409440529
 31
0.0
  0
LINE
  5
CBB
330
1D
100
AcDbEntity
  8
0
100
AcDbLine
 10
389.432538159769
 20
177.133409440529
 30
0.0
 11
391.331538159769
 21
179.325409440529
 31
0.0
  0
LINE
  5
CBD
330
1D
100
AcDbEntity
  8
0
100
AcDbLine
 10
372.655538159769
 20
177.395409440529
 30
0.0
 11
375.622538159769
 21
176.606409440529
 31
0.0
  0
LINE
  5
CBE
330
1D
100
AcDbEntity
  8
0
100
AcDbLine
 10
366.410538159769
 20
177.586409440529
 30
0.0
 11
369.54453815977
 21
177.726409440529
 31
0.0
  0
LINE
  5
CBF
330
1D
100
AcDbEntity
  8
0
100
AcDbLine
 10
363.962538159769
 20
177.636409440529
 30
0.0
 11
366.403538159769
 21
178.085409440529
 31
0.0
  0
LINE
  5
CC0
330
1D
100
AcDbEntity
  8
0
100
AcDbLine
 10
369.54453815977
 20
177.726409440529
 30
0.0
 11
372.655538159769
 21
177.395409440529
 31
0.0
  0
LINE
  5
CC1
330
1D
100
AcDbEntity
  8
0
100
AcDbLine
 10
371.408538159769
 20
178.085409440529
 30
0.0
 11
373.850538159769
 21
177.636409440529
 31
0.0
  0
LINE
  5
CC2
330
1D
100
AcDbEntity
  8
0
100
AcDbLine
 10
373.850538159769
 20
177.636409440529
 30
0.0
 11
377.293538159769
 21
176.460409440529
 31
0.0
  0
LINE
  5
CC3
330
1D
100
AcDbEntity
  8
0
100
AcDbLine
 10
368.906538159769
 20
178.236409440529
 30
0.0
 11
371.408538159769
 21
178.085409440529
 31
0.0
  0
LINE
  5
CC4
330
1D
100
AcDbEntity
  8
0
100
AcDbLine
 10
384.906538159769
 20
178.367739283461
 30
0.0
 11
385.773538159769
 21
179.543409440529
 31
0.0
  0
LINE
  5
CC5
330
1D
100
AcDbEntity
  8
0
100
AcDbLine
 10
366.403538159769
 20
178.085409440529
 30
0.0
 11
368.906538159769
 21
178.236409440529
 31
0.0
  0
LINE
  5
CC6
330
1D
100
AcDbEntity
  8
0
100
AcDbLine
 10
352.246538159769
 20
179.251409440529
 30
0.0
 11
352.906538159769
 21
178.317416766536
 31
0.0
  0
LINE
  5
CC7
330
1D
100
AcDbEntity
  8
0
100
AcDbLine
 10
346.480538159769
 20
179.324409440529
 30
0.0
 11
348.379538159769
 21
177.133409440529
 31
0.0
  0
LINE
  5
CC8
330
1D
100
AcDbEntity
  8
0
100
AcDbLine
 10
391.331538159769
 20
179.325409440529
 30
0.0
 11
392.99753815977
 21
181.699409440529
 31
0.0
  0
LINE
  5
CC9
330
1D
100
AcDbEntity
  8
0
100
AcDbLine
 10
385.773538159769
 20
179.543409440529
 30
0.0
 11
387.224538159769
 21
182.118409440529
 31
0.0
  0
LINE
  5
CCC
330
1D
100
AcDbEntity
  8
0
100
AcDbLine
 10
344.815538159769
 20
181.699409440529
 30
0.0
 11
346.480538159769
 21
179.324409440529
 31
0.0
  0
LINE
  5
CCD
330
1D
100
AcDbEntity
  8
0
100
AcDbLine
 10
350.836538159769
 20
181.634409440529
 30
0.0
 11
352.246538159769
 21
179.251409440529
 31
0.0
  0
LINE
  5
CCE
330
1D
100
AcDbEntity
  8
0
100
AcDbLine
 10
392.99753815977
 20
181.699409440529
 30
0.0
 11
394.412538159769
 21
184.230409440529
 31
0.0
  0
LINE
  5
CCF
330
1D
100
AcDbEntity
  8
0
100
AcDbLine
 10
387.224538159769
 20
182.118409440529
 30
0.0
 11
388.230538159769
 21
184.338409440529
 31
0.0
  0
LINE
  5
CD0
330
1D
100
AcDbEntity
  8
0
100
AcDbLine
 10
343.399538159769
 20
184.229409440529
 30
0.0
 11
344.815538159769
 21
181.699409440529
 31
0.0
  0
LINE
  5
CD1
330
1D
100
AcDbEntity
  8
0
100
AcDbLine
 10
349.661538159769
 20
184.171409440529
 30
0.0
 11
350.836538159769
 21
181.634409440529
 31
0.0
  0
LINE
  5
CD2
330
1D
100
AcDbEntity
  8
0
100
AcDbLine
 10
394.412538159769
 20
184.230409440529
 30
0.0
 11
395.562538159769
 21
186.892409440529
 31
0.0
  0
LINE
  5
CD3
330
1D
100
AcDbEntity
  8
0
100
AcDbLine
 10
388.230538159769
 20
184.338409440529
 30
0.0
 11
389.625538159769
 21
188.703409440529
 31
0.0
  0
LINE
  5
CD7
330
1D
100
AcDbEntity
  8
0
100
AcDbLine
 10
348.827538159769
 20
186.511409440529
 30
0.0
 11
349.661538159769
 21
184.171409440529
 31
0.0
  0
LINE
  5
CD8
330
1D
100
AcDbEntity
  8
0
100
AcDbLine
 10
342.249538159769
 20
186.892409440529
 30
0.0
 11
343.399538159769
 21
184.229409440529
 31
0.0
  0
LINE
  5
CD9
330
1D
100
AcDbEntity
  8
0
100
AcDbLine
 10
395.562538159769
 20
186.892409440529
 30
0.0
 11
396.436538159769
 21
189.658409440529
 31
0.0
  0
LINE
  5
CDA
330
1D
100
AcDbEntity
  8
0
100
AcDbLine
 10
389.625538159769
 20
188.703409440529
 30
0.0
 11
390.20953815977
 21
192.411409440529
 31
0.0
  0
LINE
  5
CDB
330
1D
100
AcDbEntity
  8
0
100
AcDbLine
 10
348.187538159769
 20
188.911409440529
 30
0.0
 11
348.827538159769
 21
186.511409440529
 31
0.0
  0
LINE
  5
CDD
330
1D
100
AcDbEntity
  8
0
100
AcDbLine
 10
341.375538159769
 20
189.657409440529
 30
0.0
 11
342.249538159769
 21
186.892409440529
 31
0.0
  0
LINE
  5
CDE
330
1D
100
AcDbEntity
  8
0
100
AcDbLine
 10
396.436538159769
 20
189.658409440529
 30
0.0
 11
397.023538159769
 21
192.498409440529
 31
0.0
  0
LINE
  5
CDF
330
1D
100
AcDbEntity
  8
0
100
AcDbLine
 10
347.738538159769
 20
191.343409440529
 30
0.0
 11
348.187538159769
 21
188.908409440529
 31
0.0
  0
LINE
  5
CE0
330
1D
100
AcDbEntity
  8
0
100
AcDbLine
 10
347.739538159769
 20
191.344409440529
 30
0.0
 11
348.187538159769
 21
188.911409440529
 31
0.0
  0
LINE
  5
CE2
330
1D
100
AcDbEntity
  8
0
100
AcDbLine
 10
340.788538159769
 20
192.498409440529
 30
0.0
 11
341.375538159769
 21
189.657409440529
 31
0.0
  0
LINE
  5
CE3
330
1D
100
AcDbEntity
  8
0
100
AcDbLine
 10
390.20953815977
 20
192.411409440529
 30
0.0
 11
390.356538159769
 21
194.199409440529
 31
0.0
  0
LINE
  5
CE4
330
1D
100
AcDbEntity
  8
0
100
AcDbLine
 10
397.023538159769
 20
192.498409440529
 30
0.0
 11
397.319538159769
 21
195.382409440529
 31
0.0
  0
LINE
  5
CE5
330
1D
100
AcDbEntity
  8
0
100
AcDbLine
 10
352.906538159769
 20
191.798409440529
 30
0.0
 11
352.915538159769
 21
192.537409440529
 31
0.0
  0
LINE
  5
CE6
330
1D
100
AcDbEntity
  8
0
100
AcDbLine
 10
352.906538159769
 20
191.798409440529
 30
0.0
 11
352.925626494986
 21
165.788811686908
 31
0.0
  0
LINE
  5
CE7
330
1D
100
AcDbEntity
  8
0
100
AcDbLine
 10
347.52753815977
 20
193.186409440529
 30
0.0
 11
347.739538159769
 21
191.344409440529
 31
0.0
  0
LINE
  5
CE8
330
1D
100
AcDbEntity
  8
0
100
AcDbLine
 10
347.52753815977
 20
193.186409440529
 30
0.0
 11
347.738538159769
 21
191.343409440529
 31
0.0
  0
LINE
  5
CE9
330
1D
100
AcDbEntity
  8
0
100
AcDbLine
 10
352.997538159769
 20
194.020409440529
 30
0.0
 11
353.690538159769
 21
198.561409440529
 31
0.0
  0
LINE
  5
CEA
330
1D
100
AcDbEntity
  8
0
100
AcDbLine
 10
390.356538159769
 20
194.199409440529
 30
0.0
 11
390.406538159769
 21
195.994409440529
 31
0.0
  0
LINE
  5
CEC
330
1D
100
AcDbEntity
  8
0
100
AcDbLine
 10
352.915538159769
 20
192.537409440529
 30
0.0
 11
352.997538159769
 21
194.020409440529
 31
0.0
  0
LINE
  5
CED
330
1D
100
AcDbEntity
  8
0
100
AcDbLine
 10
347.41953815977
 20
195.036409440529
 30
0.0
 11
347.52753815977
 21
193.186409440529
 31
0.0
  0
LINE
  5
CEE
330
1D
100
AcDbEntity
  8
0
100
AcDbLine
 10
347.420538159769
 20
195.036409440529
 30
0.0
 11
347.52753815977
 21
193.186409440529
 31
0.0
  0
LINE
  5
CEF
330
1D
100
AcDbEntity
  8
0
100
AcDbLine
 10
340.492538159769
 20
195.383409440529
 30
0.0
 11
340.788538159769
 21
192.498409440529
 31
0.0
  0
LINE
  5
CF0
330
1D
100
AcDbEntity
  8
0
100
AcDbLine
 10
340.492538159769
 20
195.383409440529
 30
0.0
 11
340.492538159769
 21
198.283409440529
 31
0.0
  0
LINE
  5
CF1
330
1D
100
AcDbEntity
  8
0
100
AcDbLine
 10
397.319538159769
 20
195.382409440529
 30
0.0
 11
397.319538159769
 21
198.282409440529
 31
0.0
  0
LINE
  5
CF2
330
1D
100
AcDbEntity
  8
0
100
AcDbLine
 10
384.605538159769
 20
196.001409440529
 30
0.0
 11
384.906538159769
 21
191.798409440529
 31
0.0
  0
LINE
  5
CF3
330
1D
100
AcDbEntity
  8
0
100
AcDbLine
 10
347.406538159769
 20
195.994409440529
 30
0.0
 11
347.448538159769
 21
197.649409440529
 31
0.0
  0
LINE
  5
CF4
330
1D
100
AcDbEntity
  8
0
100
AcDbLine
 10
347.406538159769
 20
195.994409440529
 30
0.0
 11
347.420538159769
 21
195.036409440529
 31
0.0
  0
LINE
  5
CF5
330
1D
100
AcDbEntity
  8
0
100
AcDbLine
 10
347.406538159769
 20
195.994409440529
 30
0.0
 11
347.41953815977
 21
195.036409440529
 31
0.0
  0
LINE
  5
CF6
330
1D
100
AcDbEntity
  8
0
100
AcDbLine
 10
347.406538159769
 20
195.994409440529
 30
0.0
 11
347.447538159769
 21
197.649409440529
 31
0.0
  0
LINE
  5
CFA
330
1D
100
AcDbEntity
  8
0
100
AcDbLine
 10
347.447538159769
 20
197.649409440529
 30
0.0
 11
347.573538159769
 21
199.301409440529
 31
0.0
  0
LINE
  5
CFB
330
1D
100
AcDbEntity
  8
0
100
AcDbLine
 10
340.492538159769
 20
198.283409440529
 30
0.0
 11
340.788538159769
 21
201.167409440529
 31
0.0
  0
LINE
  5
CFC
330
1D
100
AcDbEntity
  8
0
100
AcDbLine
 10
347.573538159769
 20
199.301409440529
 30
0.0
 11
347.779538159769
 21
200.917409440529
 31
0.0
  0
LINE
  5
CFD
330
1D
100
AcDbEntity
  8
0
100
AcDbLine
 10
390.39253815977
 20
196.951409440529
 30
0.0
 11
390.406538159769
 21
195.994409440529
 31
0.0
  0
LINE
  5
CFE
330
1D
100
AcDbEntity
  8
0
100
AcDbLine
 10
353.690538159769
 20
198.561409440529
 30
0.0
 11
355.214538159769
 21
202.607409440529
 31
0.0
  0
LINE
  5
CFF
330
1D
100
AcDbEntity
  8
0
100
AcDbLine
 10
347.779538159769
 20
200.917409440529
 30
0.0
 11
348.067538159769
 21
202.522409440529
 31
0.0
  0
LINE
  5
D00
330
1D
100
AcDbEntity
  8
0
100
AcDbLine
 10
348.067538159769
 20
202.522409440529
 30
0.0
 11
349.348538159769
 21
207.141409440529
 31
0.0
  0
LINE
  5
D01
330
1D
100
AcDbEntity
  8
0
100
AcDbLine
 10
340.788538159769
 20
201.167409440529
 30
0.0
 11
341.375538159769
 21
204.007409440529
 31
0.0
  0
LINE
  5
D02
330
1D
100
AcDbEntity
  8
0
100
AcDbLine
 10
390.07353815977
 20
200.643409440529
 30
0.0
 11
390.28553815977
 21
198.801409440529
 31
0.0
  0
LINE
  5
D03
330
1D
100
AcDbEntity
  8
0
100
AcDbLine
 10
397.023538159769
 20
201.167409440529
 30
0.0
 11
397.319538159769
 21
198.282409440529
 31
0.0
  0
LINE
  5
D04
330
1D
100
AcDbEntity
  8
0
100
AcDbLine
 10
390.013058239433
 20
200.937449437842
 30
0.0
 11
390.082538159769
 21
200.553409440529
 31
0.0
  0
LINE
  5
D05
330
1D
100
AcDbEntity
  8
0
100
AcDbLine
 10
382.648538159769
 20
202.557409440529
 30
0.0
 11
383.797538159769
 21
199.436409440529
 31
0.0
  0
LINE
  5
D06
330
1D
100
AcDbEntity
  8
0
100
AcDbLine
 10
383.797538159769
 20
199.437409440529
 30
0.0
 11
384.605538159769
 21
196.001409440529
 31
0.0
  0
LINE
  5
D08
330
1D
100
AcDbEntity
  8
0
100
AcDbLine
 10
341.375538159769
 20
204.007409440529
 30
0.0
 11
342.249538159769
 21
206.773409440529
 31
0.0
  0
LINE
  5
D09
330
1D
100
AcDbEntity
  8
0
100
AcDbLine
 10
355.214538159769
 20
202.607409440529
 30
0.0
 11
356.248538159769
 21
204.574409440529
 31
0.0
  0
LINE
  5
D0A
330
1D
100
AcDbEntity
  8
0
100
AcDbLine
 10
396.436538159769
 20
204.008409440529
 30
0.0
 11
397.023538159769
 21
201.167409440529
 31
0.0
  0
LINE
  5
D0C
330
1D
100
AcDbEntity
  8
0
100
AcDbLine
 10
342.249538159769
 20
206.773409440529
 30
0.0
 11
343.399538159769
 21
209.435409440529
 31
0.0
  0
LINE
  5
D0E
330
1D
100
AcDbEntity
  8
0
100
AcDbLine
 10
349.348538159769
 20
207.141409440529
 30
0.0
 11
351.238538159769
 21
211.143409440529
 31
0.0
  0
LINE
  5
D0F
330
1D
100
AcDbEntity
  8
0
100
AcDbLine
 10
356.248538159769
 20
204.574409440529
 30
0.0
 11
357.348538159769
 21
206.241409440529
 31
0.0
  0
LINE
  5
D10
330
1D
100
AcDbEntity
  8
0
100
AcDbLine
 10
379.906538159769
 20
206.965409440529
 30
0.0
 11
380.800538159769
 21
205.767409440529
 31
0.0
  0
LINE
  5
D11
330
1D
100
AcDbEntity
  8
0
100
AcDbLine
 10
381.216538159769
 20
205.146409440529
 30
0.0
 11
382.648538159769
 21
202.557409440529
 31
0.0
  0
LINE
  5
D12
330
1D
100
AcDbEntity
  8
0
100
AcDbLine
 10
388.985538159769
 20
205.475409440529
 30
0.0
 11
389.625538159769
 21
203.079409440529
 31
0.0
  0
LINE
  5
D13
330
1D
100
AcDbEntity
  8
0
100
AcDbLine
 10
380.801162129785
 20
205.702980484658
 30
0.0
 11
381.216538159769
 21
205.146409440529
 31
0.0
  0
LINE
  5
D14
330
1D
100
AcDbEntity
  8
0
100
AcDbLine
 10
358.610538159769
 20
207.785409440529
 30
0.0
 11
360.033538159769
 21
209.179409440529
 31
0.0
  0
LINE
  5
D15
330
1D
100
AcDbEntity
  8
0
100
AcDbLine
 10
358.609538159769
 20
207.785409440529
 30
0.0
 11
360.033538159769
 21
209.179409440529
 31
0.0
  0
LINE
  5
D16
330
1D
100
AcDbEntity
  8
0
100
AcDbLine
 10
357.348538159769
 20
206.241409440529
 30
0.0
 11
358.610538159769
 21
207.785409440529
 31
0.0
  0
LINE
  5
D17
330
1D
100
AcDbEntity
  8
0
100
AcDbLine
 10
357.348538159769
 20
206.241409440529
 30
0.0
 11
358.609538159769
 21
207.785409440529
 31
0.0
  0
LINE
  5
D18
330
1D
100
AcDbEntity
  8
0
100
AcDbLine
 10
343.399538159769
 20
209.435409440529
 30
0.0
 11
344.815538159769
 21
211.966409440529
 31
0.0
  0
LINE
  5
D19
330
1D
100
AcDbEntity
  8
0
100
AcDbLine
 10
377.067538159769
 20
209.764409440529
 30
0.0
 11
377.925538159769
 21
209.050409440529
 31
0.0
  0
LINE
  5
D1A
330
1D
100
AcDbEntity
  8
0
100
AcDbLine
 10
361.574538159769
 20
210.363409440529
 30
0.0
 11
362.477297714521
 21
210.887766786702
 31
0.0
  0
LINE
  5
D1B
330
1D
100
AcDbEntity
  8
0
100
AcDbLine
 10
360.033538159769
 20
209.179409440529
 30
0.0
 11
361.574538159769
 21
210.363409440529
 31
0.0
  0
LINE
  5
D1C
330
1D
100
AcDbEntity
  8
0
100
AcDbLine
 10
386.97853815977
 20
210.351409440529
 30
0.0
 11
388.15053815977
 21
207.815409440529
 31
0.0
  0
LINE
  5
D1D
330
1D
100
AcDbEntity
  8
0
100
AcDbLine
 10
377.925538159769
 20
209.050409440529
 30
0.0
 11
378.957538159769
 21
208.048409440529
 31
0.0
  0
LINE
  5
D1E
330
1D
100
AcDbEntity
  8
0
100
AcDbLine
 10
386.97753815977
 20
210.351409440529
 30
0.0
 11
388.15053815977
 21
207.815409440529
 31
0.0
  0
LINE
  5
D1F
330
1D
100
AcDbEntity
  8
0
100
AcDbLine
 10
378.957538159769
 20
208.048409440529
 30
0.0
 11
379.906538159769
 21
206.965409440529
 31
0.0
  0
LINE
  5
D20
330
1D
100
AcDbEntity
  8
0
100
AcDbLine
 10
395.562538159769
 20
206.773409440529
 30
0.0
 11
396.436538159769
 21
204.008409440529
 31
0.0
  0
LINE
  5
D21
330
1D
100
AcDbEntity
  8
0
100
AcDbLine
 10
394.412538159769
 20
209.436409440529
 30
0.0
 11
395.562538159769
 21
206.773409440529
 31
0.0
  0
LINE
  5
D23
330
1D
100
AcDbEntity
  8
0
100
AcDbLine
 10
351.238538159769
 20
211.143409440529
 30
0.0
 11
352.989538159769
 21
213.794409440529
 31
0.0
  0
LINE
  5
D24
330
1D
100
AcDbEntity
  8
0
100
AcDbLine
 10
344.815538159769
 20
211.966409440529
 30
0.0
 11
346.480538159769
 21
214.340409440529
 31
0.0
  0
LINE
  5
D25
330
1D
100
AcDbEntity
  8
0
100
AcDbLine
 10
373.423538159769
 20
211.834409440529
 30
0.0
 11
374.369538159769
 21
211.429409440529
 31
0.0
  0
LINE
  5
D26
330
1D
100
AcDbEntity
  8
0
100
AcDbLine
 10
372.450538159769
 20
212.165409440529
 30
0.0
 11
373.423538159769
 21
211.834409440529
 31
0.0
  0
LINE
  5
D27
330
1D
100
AcDbEntity
  8
0
100
AcDbLine
 10
374.369538159769
 20
211.429409440529
 30
0.0
 11
375.28253815977
 21
210.954409440529
 31
0.0
  0
LINE
  5
D28
330
1D
100
AcDbEntity
  8
0
100
AcDbLine
 10
365.033538159769
 20
212.063409440529
 30
0.0
 11
366.62853815977
 21
212.472409440529
 31
0.0
  0
LINE
  5
D29
330
1D
100
AcDbEntity
  8
0
100
AcDbLine
 10
363.244538159769
 20
211.333409440529
 30
0.0
 11
365.033538159769
 21
212.063409440529
 31
0.0
  0
LINE
  5
D2A
330
1D
100
AcDbEntity
  8
0
100
AcDbLine
 10
362.487133427764
 20
210.893479745891
 30
0.0
 11
363.244538159769
 21
211.333409440529
 31
0.0
  0
LINE
  5
D2B
330
1D
100
AcDbEntity
  8
0
100
AcDbLine
 10
376.160538159769
 20
210.414409440529
 30
0.0
 11
377.067538159769
 21
209.764409440529
 31
0.0
  0
LINE
  5
D2C
330
1D
100
AcDbEntity
  8
0
100
AcDbLine
 10
375.28253815977
 20
210.954409440529
 30
0.0
 11
376.160538159769
 21
210.414409440529
 31
0.0
  0
LINE
  5
D2D
330
1D
100
AcDbEntity
  8
0
100
AcDbLine
 10
352.989538159769
 20
213.794409440529
 30
0.0
 11
354.64053815977
 21
215.789409440529
 31
0.0
  0
LINE
  5
D2E
330
1D
100
AcDbEntity
  8
0
100
AcDbLine
 10
352.990538159769
 20
213.794409440529
 30
0.0
 11
354.64053815977
 21
215.790409440529
 31
0.0
  0
LINE
  5
D2F
330
1D
100
AcDbEntity
  8
0
100
AcDbLine
 10
370.440538159769
 20
212.588409440529
 30
0.0
 11
371.454538159769
 21
212.418409440529
 31
0.0
  0
LINE
  5
D30
330
1D
100
AcDbEntity
  8
0
100
AcDbLine
 10
368.531538159769
 20
212.679409440529
 30
0.0
 11
370.440538159769
 21
212.588409440529
 31
0.0
  0
LINE
  5
D31
330
1D
100
AcDbEntity
  8
0
100
AcDbLine
 10
366.62853815977
 20
212.472409440529
 30
0.0
 11
368.531538159769
 21
212.679409440529
 31
0.0
  0
LINE
  5
D32
330
1D
100
AcDbEntity
  8
0
100
AcDbLine
 10
385.55453815977
 20
212.753409440529
 30
0.0
 11
386.97753815977
 21
210.351409440529
 31
0.0
  0
LINE
  5
D33
330
1D
100
AcDbEntity
  8
0
100
AcDbLine
 10
384.749538159769
 20
213.892409440529
 30
0.0
 11
385.55453815977
 21
212.753409440529
 31
0.0
  0
LINE
  5
D34
330
1D
100
AcDbEntity
  8
0
100
AcDbLine
 10
371.454538159769
 20
212.418409440529
 30
0.0
 11
372.450538159769
 21
212.165409440529
 31
0.0
  0
LINE
  5
D35
330
1D
100
AcDbEntity
  8
0
100
AcDbLine
 10
392.99753815977
 20
211.966409440529
 30
0.0
 11
394.412538159769
 21
209.436409440529
 31
0.0
  0
LINE
  5
D38
330
1D
100
AcDbEntity
  8
0
100
AcDbLine
 10
346.480538159769
 20
214.340409440529
 30
0.0
 11
348.379538159769
 21
216.532409440529
 31
0.0
  0
LINE
  5
D39
330
1D
100
AcDbEntity
  8
0
100
AcDbLine
 10
354.64053815977
 20
215.790409440529
 30
0.0
 11
356.498538159769
 21
217.589409440529
 31
0.0
  0
LINE
  5
D3A
330
1D
100
AcDbEntity
  8
0
100
AcDbLine
 10
382.954538159769
 20
216.022409440529
 30
0.0
 11
383.88253815977
 21
214.984409440529
 31
0.0
  0
LINE
  5
D3B
330
1D
100
AcDbEntity
  8
0
100
AcDbLine
 10
391.331538159769
 20
214.341409440529
 30
0.0
 11
392.99753815977
 21
211.966409440529
 31
0.0
  0
LINE
  5
D3D
330
1D
100
AcDbEntity
  8
0
100
AcDbLine
 10
383.88253815977
 20
214.984409440529
 30
0.0
 11
384.749538159769
 21
213.892409440529
 31
0.0
  0
LINE
  5
D3E
330
1D
100
AcDbEntity
  8
0
100
AcDbLine
 10
348.379538159769
 20
216.532409440529
 30
0.0
 11
350.49153815977
 21
218.519409440529
 31
0.0
  0
LINE
  5
D3F
330
1D
100
AcDbEntity
  8
0
100
AcDbLine
 10
389.432538159769
 20
216.533409440529
 30
0.0
 11
391.331538159769
 21
214.341409440529
 31
0.0
  0
LINE
  5
D41
330
1D
100
AcDbEntity
  8
0
100
AcDbLine
 10
352.795538159769
 20
220.281409440529
 30
0.0
 11
355.266538159769
 21
221.800409440529
 31
0.0
  0
LINE
  5
D42
330
1D
100
AcDbEntity
  8
0
100
AcDbLine
 10
350.49153815977
 20
218.519409440529
 30
0.0
 11
352.795538159769
 21
220.281409440529
 31
0.0
  0
LINE
  5
D43
330
1D
100
AcDbEntity
  8
0
100
AcDbLine
 10
358.78253815977
 20
219.305409440529
 30
0.0
 11
360.603538159769
 21
220.361409440529
 31
0.0
  0
LINE
  5
D44
330
1D
100
AcDbEntity
  8
0
100
AcDbLine
 10
357.611538159769
 20
218.486409440529
 30
0.0
 11
358.78253815977
 21
219.305409440529
 31
0.0
  0
LINE
  5
D45
330
1D
100
AcDbEntity
  8
0
100
AcDbLine
 10
356.498538159769
 20
217.589409440529
 30
0.0
 11
357.611538159769
 21
218.486409440529
 31
0.0
  0
LINE
  5
D46
330
1D
100
AcDbEntity
  8
0
100
AcDbLine
 10
355.266538159769
 20
221.800409440529
 30
0.0
 11
357.827538159769
 21
223.037409440529
 31
0.0
  0
LINE
  5
D47
330
1D
100
AcDbEntity
  8
0
100
AcDbLine
 10
360.603538159769
 20
220.361409440529
 30
0.0
 11
362.602538159769
 21
221.235409440529
 31
0.0
  0
LINE
  5
D48
330
1D
100
AcDbEntity
  8
0
100
AcDbLine
 10
374.153538159769
 20
221.592409440529
 30
0.0
 11
375.40253815977
 21
221.162409440529
 31
0.0
  0
LINE
  5
D49
330
1D
100
AcDbEntity
  8
0
100
AcDbLine
 10
365.009538159769
 20
221.949409440529
 30
0.0
 11
366.311538159769
 21
222.190409440529
 31
0.0
  0
LINE
  5
D4A
330
1D
100
AcDbEntity
  8
0
100
AcDbLine
 10
367.626538159769
 20
222.334409440529
 30
0.0
 11
368.948538159769
 21
222.380409440529
 31
0.0
  0
LINE
  5
D4B
330
1D
100
AcDbEntity
  8
0
100
AcDbLine
 10
366.311538159769
 20
222.190409440529
 30
0.0
 11
367.626538159769
 21
222.334409440529
 31
0.0
  0
LINE
  5
D4C
330
1D
100
AcDbEntity
  8
0
100
AcDbLine
 10
372.877538159769
 20
221.932409440529
 30
0.0
 11
374.153538159769
 21
221.592409440529
 31
0.0
  0
LINE
  5
D4D
330
1D
100
AcDbEntity
  8
0
100
AcDbLine
 10
371.621856131018
 20
222.147188964535
 30
0.0
 11
372.877538159769
 21
221.932409440529
 31
0.0
  0
LINE
  5
D4E
330
1D
100
AcDbEntity
  8
0
100
AcDbLine
 10
363.959538159769
 20
221.682409440529
 30
0.0
 11
365.009538159769
 21
221.949409440529
 31
0.0
  0
LINE
  5
D4F
330
1D
100
AcDbEntity
  8
0
100
AcDbLine
 10
362.602538159769
 20
221.235409440529
 30
0.0
 11
363.959538159769
 21
221.682409440529
 31
0.0
  0
LINE
  5
D50
330
1D
100
AcDbEntity
  8
0
100
AcDbLine
 10
375.40253815977
 20
221.162409440529
 30
0.0
 11
376.619538159769
 21
220.645409440529
 31
0.0
  0
LINE
  5
D51
330
1D
100
AcDbEntity
  8
0
100
AcDbLine
 10
376.619538159769
 20
220.645409440529
 30
0.0
 11
377.679744395569
 21
220.08714556155
 31
0.0
  0
LINE
  5
D52
330
1D
100
AcDbEntity
  8
0
100
AcDbLine
 10
377.679744395569
 20
220.08714556155
 30
0.0
 11
380.02653815977
 21
218.616409440529
 31
0.0
  0
LINE
  5
D53
330
1D
100
AcDbEntity
  8
0
100
AcDbLine
 10
381.96753815977
 20
217.002409440529
 30
0.0
 11
382.954538159769
 21
216.022409440529
 31
0.0
  0
LINE
  5
D54
330
1D
100
AcDbEntity
  8
0
100
AcDbLine
 10
380.02653815977
 20
218.616409440529
 30
0.0
 11
381.96753815977
 21
217.002409440529
 31
0.0
  0
LINE
  5
D55
330
1D
100
AcDbEntity
  8
0
100
AcDbLine
 10
368.948538159769
 20
222.380409440529
 30
0.0
 11
371.621856131018
 21
222.147188964535
 31
0.0
  0
LINE
  5
D56
330
1D
100
AcDbEntity
  8
0
100
AcDbLine
 10
357.827538159769
 20
223.037409440529
 30
0.0
 11
360.498538159769
 21
224.011409440529
 31
0.0
  0
LINE
  5
D58
330
1D
100
AcDbEntity
  8
0
100
AcDbLine
 10
360.498538159769
 20
224.011409440529
 30
0.0
 11
363.25353815977
 21
224.716409440529
 31
0.0
  0
LINE
  5
D59
330
1D
100
AcDbEntity
  8
0
100
AcDbLine
 10
366.066538159769
 20
225.141409440529
 30
0.0
 11
368.905538159769
 21
225.282409440529
 31
0.0
  0
LINE
  5
D5A
330
1D
100
AcDbEntity
  8
0
100
AcDbLine
 10
363.25353815977
 20
224.716409440529
 30
0.0
 11
366.066538159769
 21
225.141409440529
 31
0.0
  0
LINE
  5
D5B
330
1D
100
AcDbEntity
  8
0
100
AcDbLine
 10
377.313538159769
 20
224.011409440529
 30
0.0
 11
379.984538159769
 21
223.037409440529
 31
0.0
  0
LINE
  5
D5C
330
1D
100
AcDbEntity
  8
0
100
AcDbLine
 10
374.558538159769
 20
224.716409440529
 30
0.0
 11
377.313538159769
 21
224.011409440529
 31
0.0
  0
LINE
  5
D5D
330
1D
100
AcDbEntity
  8
0
100
AcDbLine
 10
368.905538159769
 20
225.282409440529
 30
0.0
 11
371.745538159769
 21
225.141409440529
 31
0.0
  0
LINE
  5
D5F
330
1D
100
AcDbEntity
  8
0
100
AcDbLine
 10
371.745538159769
 20
225.141409440529
 30
0.0
 11
374.558538159769
 21
224.716409440529
 31
0.0
  0
LINE
  5
D60
330
1D
100
AcDbEntity
  8
0
100
AcDbLine
 10
379.984538159769
 20
223.037409440529
 30
0.0
 11
382.54553815977
 21
221.800409440529
 31
0.0
  0
LINE
  5
D61
330
1D
100
AcDbEntity
  8
0
100
AcDbLine
 10
387.320538159769
 20
218.520409440529
 30
0.0
 11
389.432538159769
 21
216.533409440529
 31
0.0
  0
LINE
  5
D63
330
1D
100
AcDbEntity
  8
0
100
AcDbLine
 10
385.01653815977
 20
220.281409440529
 30
0.0
 11
387.320538159769
 21
218.520409440529
 31
0.0
  0
LINE
  5
D66
330
1D
100
AcDbEntity
  8
0
100
AcDbLine
 10
382.54553815977
 20
221.800409440529
 30
0.0
 11
385.01653815977
 21
220.281409440529
 31
0.0
  0
LINE
  5
D6F
330
1D
100
AcDbEntity
  8
0
100
AcDbLine
 10
388.15053815977
 20
207.815409440529
 30
0.0
 11
388.985538159769
 21
205.475409440529
 31
0.0
  0
LINE
  5
D70
330
1D
100
AcDbEntity
  8
0
100
AcDbLine
 10
389.625538159769
 20
203.079409440529
 30
0.0
 11
390.013058239433
 21
200.937449437842
 31
0.0
  0
LINE
  5
D71
330
1D
100
AcDbEntity
  8
0
100
AcDbLine
 10
390.28553815977
 20
198.801409440529
 30
0.0
 11
390.39253815977
 21
196.951409440529
 31
0.0
  0
ENDSEC
  0
SECTION
  2
OBJECTS
  0
DICTIONARY
  5
C
330
0
100
AcDbDictionary
281
     1
  3
ACAD_GROUP
350
D
  3
ACAD_LAYOUT
350
1A
  3
ACAD_MLEADERSTYLE
350
A11
  3
ACAD_MLINESTYLE
350
17
  3
ACAD_PLOTSETTINGS
350
19
  3
ACAD_PLOTSTYLENAME
350
E
  3
ACAD_SCALELIST
350
732
  3
AcDbVariableDictionary
350
A0F
  3
DWGPROPS
350
D76
  0
DICTIONARY
  5
D
102
{ACAD_REACTORS
330
C
102
}
330
C
100
AcDbDictionary
281
     1
  0
DICTIONARY
  5
1A
102
{ACAD_REACTORS
330
C
102
}
330
C
100
AcDbDictionary
281
     1
  3
Layout1
350
1C
  3
Model
350
1E
  0
DICTIONARY
  5
A11
102
{ACAD_REACTORS
330
C
102
}
330
C
100
AcDbDictionary
281
     1
  0
DICTIONARY
  5
17
102
{ACAD_REACTORS
330
C
102
}
330
C
100
AcDbDictionary
281
     1
  3
Standard
350
18
  0
DICTIONARY
  5
19
102
{ACAD_REACTORS
330
C
102
}
330
C
100
AcDbDictionary
281
     1
  0
ACDBDICTIONARYWDFLT
  5
E
102
{ACAD_REACTORS
330
C
102
}
330
C
100
AcDbDictionary
281
     1
  3
Normal
350
F
100
AcDbDictionaryWithDefault
340
F
  0
DICTIONARY
  5
732
102
{ACAD_REACTORS
330
C
102
}
330
C
100
AcDbDictionary
281
     1
  3
A0
350
733
  3
A1
350
734
  3
A2
350
735
  3
A3
350
736
  3
A4
350
737
  3
A5
350
738
  3
A6
350
739
  3
A7
350
73A
  3
A8
350
73B
  3
A9
350
73C
  3
B0
350
73D
  3
B1
350
73E
  3
B2
350
73F
  3
B3
350
740
  3
B4
350
741
  3
B5
350
742
  3
B6
350
743
  3
B7
350
744
  3
B8
350
745
  3
B9
350
746
  3
C0
350
747
  3
C1
350
748
  3
C2
350
749
  3
C3
350
74A
  3
C4
350
74B
  3
C5
350
74C
  3
C6
350
74D
  3
C7
350
74E
  3
C8
350
74F
  3
C9
350
750
  3
D0
350
751
  3
D1
350
752
  3
D2
350
753
  0
DICTIONARY
  5
A0F
102
{ACAD_REACTORS
330
C
102
}
330
C
100
AcDbDictionary
281
     1
  3
CANNOSCALE
350
D74
  0
XRECORD
  5
D76
102
{ACAD_REACTORS
330
C
102
}
330
C
100
AcDbXrecord
280
     1
  1
DWGPROPS COOKIE
  2

  3

  4

  6

  7

  8
MARTIN
  9

300
=
301
=
302
=
303
=
304
=
305
=
306
=
307
=
308
=
309
=
 40
0.0
 41
2455824.851529942
 42
2456209.747442489
  1

 90
        0
  0
LAYOUT
  5
1C
102
{ACAD_REACTORS
330
1A
102
}
330
1A
100
AcDbPlotSettings
  1

  2
none_device
  4

  6

 40
0.0
 41
0.0
 42
0.0
 43
0.0
 44
0.0
 45
0.0
 46
0.0
 47
0.0
 48
0.0
 49
0.0
140
0.0
141
0.0
142
1.0
143
1.0
 70
   688
 72
     0
 73
     0
 74
     5
  7

 75
    16
147
1.0
148
0.0
149
0.0
100
AcDbLayout
  1
Layout1
 70
     1
 71
     1
 10
0.0
 20
0.0
 11
12.0
 21
9.0
 12
0.0
 22
0.0
 32
0.0
 14
1.000000000000E+20
 24
1.000000000000E+20
 34
1.000000000000E+20
 15
-1.000000000000E+20
 25
-1.000000000000E+20
 35
-1.000000000000E+20
146
0.0
 13
0.0
 23
0.0
 33
0.0
 16
1.0
 26
0.0
 36
0.0
 17
0.0
 27
1.0
 37
0.0
 76
     0
330
1B
  0
LAYOUT
  5
1E
102
{ACAD_REACTORS
330
1A
102
}
330
1A
100
AcDbPlotSettings
  1

  2
none_device
  4

  6

 40
0.0
 41
0.0
 42
0.0
 43
0.0
 44
0.0
 45
0.0
 46
0.0
 47
0.0
 48
0.0
 49
0.0
140
0.0
141
0.0
142
1.0
143
1.0
 70
  1712
 72
     0
 73
     0
 74
     0
  7

 75
     0
147
1.0
148
0.0
149
0.0
100
AcDbLayout
  1
Model
 70
     1
 71
     0
 10
0.0
 20
0.0
 11
12.0
 21
9.0
 12
0.0
 22
0.0
 32
0.0
 14
0.0
 24
-17.776890559471
 34
0.0
 15
418.932538159769
 25
239.90835
 35
0.0
146
0.0
 13
0.0
 23
0.0
 33
0.0
 16
1.0
 26
0.0
 36
0.0
 17
0.0
 27
1.0
 37
0.0
 76
     0
330
1D
331
72D
  0
MLINESTYLE
  5
18
102
{ACAD_REACTORS
330
17
102
}
330
17
100
AcDbMlineStyle
  2
Standard
 70
     0
  3

 62
   256
 51
90.0
 52
90.0
 71
     2
 49
0.5
 62
   256
  6
BYLAYER
 49
-0.5
 62
   256
  6
BYLAYER
  0
ACDBPLACEHOLDER
  5
F
102
{ACAD_REACTORS
330
E
102
}
330
E
  0
SCALE
  5
733
102
{ACAD_REACTORS
330
732
102
}
330
732
100
AcDbScale
 70
     0
300
1:1
140
1.0
141
1.0
290
     1
  0
SCALE
  5
734
102
{ACAD_REACTORS
330
732
102
}
330
732
100
AcDbScale
 70
     0
300
1:2
140
1.0
141
2.0
290
     0
  0
SCALE
  5
735
102
{ACAD_REACTORS
330
732
102
}
330
732
100
AcDbScale
 70
     0
300
1:4
140
1.0
141
4.0
290
     0
  0
SCALE
  5
736
102
{ACAD_REACTORS
330
732
102
}
330
732
100
AcDbScale
 70
     0
300
1:5
140
1.0
141
5.0
290
     0
  0
SCALE
  5
737
102
{ACAD_REACTORS
330
732
102
}
330
732
100
AcDbScale
 70
     0
300
1:8
140
1.0
141
8.0
290
     0
  0
SCALE
  5
738
102
{ACAD_REACTORS
330
732
102
}
330
732
100
AcDbScale
 70
     0
300
1:10
140
1.0
141
10.0
290
     0
  0
SCALE
  5
739
102
{ACAD_REACTORS
330
732
102
}
330
732
100
AcDbScale
 70
     0
300
1:16
140
1.0
141
16.0
290
     0
  0
SCALE
  5
73A
102
{ACAD_REACTORS
330
732
102
}
330
732
100
AcDbScale
 70
     0
300
1:20
140
1.0
141
20.0
290
     0
  0
SCALE
  5
73B
102
{ACAD_REACTORS
330
732
102
}
330
732
100
AcDbScale
 70
     0
300
1:30
140
1.0
141
30.0
290
     0
  0
SCALE
  5
73C
102
{ACAD_REACTORS
330
732
102
}
330
732
100
AcDbScale
 70
     0
300
1:40
140
1.0
141
40.0
290
     0
  0
SCALE
  5
73D
102
{ACAD_REACTORS
330
732
102
}
330
732
100
AcDbScale
 70
     0
300
1:50
140
1.0
141
50.0
290
     0
  0
SCALE
  5
73E
102
{ACAD_REACTORS
330
732
102
}
330
732
100
AcDbScale
 70
     0
300
1:100
140
1.0
141
100.0
290
     0
  0
SCALE
  5
73F
102
{ACAD_REACTORS
330
732
102
}
330
732
100
AcDbScale
 70
     0
300
2:1
140
2.0
141
1.0
290
     0
  0
SCALE
  5
740
102
{ACAD_REACTORS
330
732
102
}
330
732
100
AcDbScale
 70
     0
300
4:1
140
4.0
141
1.0
290
     0
  0
SCALE
  5
741
102
{ACAD_REACTORS
330
732
102
}
330
732
100
AcDbScale
 70
     0
300
8:1
140
8.0
141
1.0
290
     0
  0
SCALE
  5
742
102
{ACAD_REACTORS
330
732
102
}
330
732
100
AcDbScale
 70
     0
300
10:1
140
10.0
141
1.0
290
     0
  0
SCALE
  5
743
102
{ACAD_REACTORS
330
732
102
}
330
732
100
AcDbScale
 70
     0
300
100:1
140
100.0
141
1.0
290
     0
  0
SCALE
  5
744
102
{ACAD_REACTORS
330
732
102
}
330
732
100
AcDbScale
 70
     0
300
1/128" = 1'-0"
140
0.0078125
141
12.0
290
     0
  0
SCALE
  5
745
102
{ACAD_REACTORS
330
732
102
}
330
732
100
AcDbScale
 70
     0
300
1/64" = 1'-0"
140
0.015625
141
12.0
290
     0
  0
SCALE
  5
746
102
{ACAD_REACTORS
330
732
102
}
330
732
100
AcDbScale
 70
     0
300
1/32" = 1'-0"
140
0.03125
141
12.0
290
     0
  0
SCALE
  5
747
102
{ACAD_REACTORS
330
732
102
}
330
732
100
AcDbScale
 70
     0
300
1/16" = 1'-0"
140
0.0625
141
12.0
290
     0
  0
SCALE
  5
748
102
{ACAD_REACTORS
330
732
102
}
330
732
100
AcDbScale
 70
     0
300
3/32" = 1'-0"
140
0.09375
141
12.0
290
     0
  0
SCALE
  5
749
102
{ACAD_REACTORS
330
732
102
}
330
732
100
AcDbScale
 70
     0
300
1/8" = 1'-0"
140
0.125
141
12.0
290
     0
  0
SCALE
  5
74A
102
{ACAD_REACTORS
330
732
102
}
330
732
100
AcDbScale
 70
     0
300
3/16" = 1'-0"
140
0.1875
141
12.0
290
     0
  0
SCALE
  5
74B
102
{ACAD_REACTORS
330
732
102
}
330
732
100
AcDbScale
 70
     0
300
1/4" = 1'-0"
140
0.25
141
12.0
290
     0
  0
SCALE
  5
74C
102
{ACAD_REACTORS
330
732
102
}
330
732
100
AcDbScale
 70
     0
300
3/8" = 1'-0"
140
0.375
141
12.0
290
     0
  0
SCALE
  5
74D
102
{ACAD_REACTORS
330
732
102
}
330
732
100
AcDbScale
 70
     0
300
1/2" = 1'-0"
140
0.5
141
12.0
290
     0
  0
SCALE
  5
74E
102
{ACAD_REACTORS
330
732
102
}
330
732
100
AcDbScale
 70
     0
300
3/4" = 1'-0"
140
0.75
141
12.0
290
     0
  0
SCALE
  5
74F
102
{ACAD_REACTORS
330
732
102
}
330
732
100
AcDbScale
 70
     0
300
1" = 1'-0"
140
1.0
141
12.0
290
     0
  0
SCALE
  5
750
102
{ACAD_REACTORS
330
732
102
}
330
732
100
AcDbScale
 70
     0
300
1-1/2" = 1'-0"
140
1.5
141
12.0
290
     0
  0
SCALE
  5
751
102
{ACAD_REACTORS
330
732
102
}
330
732
100
AcDbScale
 70
     0
300
3" = 1'-0"
140
3.0
141
12.0
290
     0
  0
SCALE
  5
752
102
{ACAD_REACTORS
330
732
102
}
330
732
100
AcDbScale
 70
     0
300
6" = 1'-0"
140
6.0
141
12.0
290
     0
  0
SCALE
  5
753
102
{ACAD_REACTORS
330
732
102
}
330
732
100
AcDbScale
 70
     0
300
1'-0" = 1'-0"
140
12.0
141
12.0
290
     0
  0
DICTIONARYVAR
  5
D74
102
{ACAD_REACTORS
330
A0F
102
}
330
A0F
100
DictionaryVariables
280
     0
  1
1:1
  0
ENDSEC
  0
SECTION
  2
THUMBNAILIMAGE
 90
    16364
310
28000000B40000005500000001000800000000000000000000000000000000000000000000000000FFFFFF000000FF0000FFFF0000FF0000FFFF0000FF000000FF00FF000000000080808000C0C0C0000000FF007F7FFF000000A5005252A50000007F003F3F7F0000004C0026264C000000260013132600003FFF007F9FFF
310
000029A5005267A500001F7F003F4F7F0000134C00262F4C000009260013172600007FFF007FBFFF000052A500527CA500003F7F003F5F7F0000264C0026394C0000132600131C260000BFFF007FDFFF00007CA5005291A500005F7F003F6F7F0000394C0026424C00001C26001321260000FFFF007FFFFF0000A5A50052A5
310
A500007F7F003F7F7F00004C4C00264C4C00002626001326260000FFBF007FFFDF0000A57C0052A59100007F5F003F7F6F00004C3900264C420000261C001326210000FF7F007FFFBF0000A5520052A57C00007F3F003F7F5F00004C2600264C39000026130013261C0000FF3F007FFF9F0000A5290052A56700007F1F003F
310
7F4F00004C1300264C2F00002609001326170000FF00007FFF7F0000A5000052A55200007F00003F7F3F00004C0000264C260000260000132613003FFF00009FFF7F0029A5000067A552001F7F00004F7F3F00134C00002F4C260009260000172613007FFF0000BFFF7F0052A500007CA552003F7F00005F7F3F00264C0000
310
394C2600132600001C261300BFFF0000DFFF7F007CA5000091A552005F7F00006F7F3F00394C0000424C26001C26000021261300FFFF0000FFFF7F00A5A50000A5A552007F7F00007F7F3F004C4C00004C4C26002626000026261300FFBF0000FFDF7F00A57C0000A59152007F5F00007F6F3F004C3900004C422600261C00
310
0026211300FF7F0000FFBF7F00A5520000A57C52007F3F00007F5F3F004C2600004C39260026130000261C1300FF3F0000FF9F7F00A5290000A56752007F1F00007F4F3F004C1300004C2F26002609000026171300FF000000FF7F7F00A5000000A55252007F0000007F3F3F004C0000004C2626002600000026131300FF00
310
3F00FF7F9F00A5002900A55267007F001F007F3F4F004C0013004C262F002600090026131700FF007F00FF7FBF00A5005200A5527C007F003F007F3F5F004C0026004C2639002600130026131C00FF00BF00FF7FDF00A5007C00A55291007F005F007F3F6F004C0039004C26420026001C0026132100FF00FF00FF7FFF00A5
310
00A500A552A5007F007F007F3F7F004C004C004C264C002600260026132600BF00FF00DF7FFF007C00A5009152A5005F007F006F3F7F0039004C0042264C001C002600211326007F00FF00BF7FFF005200A5007C52A5003F007F005F3F7F0026004C0039264C00130026001C1326003F00FF009F7FFF002900A5006752A500
310
1F007F004F3F7F0013004C002F264C000900260017132600000000002D2D2D005B5B5B0089898900B7B7B700B3B3B30000000000000000000000000000000000000000000000000000000000000000000000000000000000000000000000000000000000000000000000000000000000000000000000000000000000000000
310
00000000000000000000000000000000000000000000000000000000000000000000000000000000000000000000000000000000000000000000000000000000000000000000000000000000000000000000000000000000000000000000000000000000000000000000000000000000000000000000000000000000000000
310
00000000000000000000000000000000000000000000000000000000000000000000000000000000000000000000000000000000000000000000000000000000000000000000000000000000000000000000000000000000000000000000000000000000000000000000000000000000000000000000000000000000000000
310
00000000000000000000000000000000000000000000000000000000000000000000000000000000000000000000000000000000000000000000000000000000000000000000000000000000000000000000000000000000000000000000000000000000000000000000000000000000000000000000000000000000000000
310
00000000000000000000000000000000000000000000000000000000000000000000000000000000000000000000000000000000000000000000000000000000000000000000000000000000000000000000000000000000000000000000000000000000000000000000000000000000000000000000000000000000000000
310
00000000000000000000000000000000000000000000000000000000000000000000000000000000000000000000000000000000000000000000000000000000000000000000000000000000000000000000000000000007070707070707070700000000000000000000000000000000000000000000000000000000000000
310
00000000000000000000000000000000000000000000000000000000000000000000000000000000000000000000000000000000000000000000000000000000000000000000000000000000000000000000000000000000000000000000000000000000000000000000000000000000000000000000000000000000000000
310
00000000000000000000070707000000000000000000070707070000000000000000000000000000000000000000000000000000000000000000000000000000000000000000000000000000000000000000000000000000000000000000000000000000000000000000000000000000000000000000000000000000000000
310
00000000000000000000000000000000000000000000000000000000000000000000000000000000000000000000000000000000000000000000000000070700000000000707070707000000000000070000000000000000000000000000000000000000000000000000000000000000000000000000000000000000000000
310
00000000000000000000000000000000000000000000000000000000000000000000000000000000000000000000000000000000000000000000000000000000000000000000000000000000000000000000000000000000000000000000000000000000000000000000000000000000000700000007070707070707070707
310
07070700000007000000000000000000000000000000000000000000000000000000000000000000000000000000000000000000000000000000000000000000000000000000000000000000000000000000000000000000000000000000000000000000000000000000000000000000000000000000000000000000000000
310
00000000000000000000000000000000000000000000000000000000000000000000000000000700000007070700000000000000000007070707000007000000000000000000000000000000000000000000000000000000000000000000000000000000000000000000000000000000000000000000000000000000000000
310
00000000000000000000000000000000000000000000000000000000000000000000000000000000000000000000000000000000000000000000000000000000000000000000000000000000000000000000000000000000000007000007070000000000000000000000000000000707000007000000000000000000000000
310
00000000000000000000000000000000000000000000000000000000000000000000000000000000000000000000000000000000000000000000000000000000000000000000000000000000000000000000000000000000000000000000000000000000000000000000000000000000000000000000000000000000000000
310
00000000000000000000000000000007000707000000000000000000000000000000000000000707070000000000000000000000000000000000000000000000000000000000000000000000000000000000000000000000000000000000000000000000000000000000000000000000000000000000000000000000000000
310
00000000000000000000000000000000000000000000000000000000000000000000000000000000000000000000000000000000000000000000000000000000000000000707000700000000000000000000000000000000000000000700070000000000000000000000000000000000000000000000000000000000000000
310
00000000000000000000000000000000000000000000000000000000000000000000000000000000000000000000000000000000000000000000000000000000000000000000000000000000000000000000000000000000000000000000000000000000000000000000000000000000000000000000000007000707000000
310
00000000000000000000000000000000000000070007000000000000000000000000000000000000000000000000000000000000000000000000000000000000000000000000000000000000000000000000000000000000000000000000000000000000000000000000000000000000000000000000000000000000000000
310
00000000000000000000000000000000000000000000000000000000000000000000000000000000000000000000070700000000000000000000000000000000000000000000000000070700000000000000000000000000000000000000000000000000000000000000000000000000000000000000000000000000000000
310
00000000000000000000000000000000000000000000000000000000000000000000000000000000000000000000000000000000000000000000000000000000000000000000000000000000000000000000000000000000000000000000000000000007000000000000000000000000000000000000000000000000000007
310
00070000000000000000000000000000000000000000000000000000000000000000000000000000000000000000000000000000000000000000000000000000000000000000000000000000000000000000000000000000000000000000000000000000000000000000000000000000000000000000000000000000000000
310
00000000000000000000000000000000000000000000000007070000000000000000000000000000000000000000000000000000000707000000000000000000000000000000000000000000000000000000000000000000000000000000000000000000000000000000000000000000000000000000000000000000000000
310
00000000000000000000000000000000000000000000000000000000000000000000000000000000000000000000000000000000000000000000000000000000000000000000000000000000000707000000000000000000000000000000000000000000000000000000070700000000000000000000000000000000000000
310
00000000000000000000000000000000000000000000000000000000000000000000000000000000000000000000000000000000000000000000000000000000000000000000000000000000000000000000000000000000000000000000000000000000000000000000000000000000000000000000000000000000000000
310
00000007070000000000000000000000000000000000000000000000000000000707000000000000000000000000000000000000000000000000000000000000000000000000000000000000000000000000000000000000000000000000000000000000000000000000000000000000000000000000000000000000000000
310
00000000000000000000000000000000000000000000000000000000000000000000000000000000000000000000000000000000000000000700000000000000000000000000000000000000000000000000000000000700000000000000000000000000000000000000000000000000000000000000000000000000000000
310
00000000000000000000000000000000000000000000000000000000000000000000000000000000000000000000000000000000000000000000000000000000000000000000000000000000000000000000000000000000000000000000000000000000000000000000000000070000000000000000000000000000000000
310
00000000000000000000000007000000000000000000000000000000000000000000000000000000000000000000000000000000000000000000000000000000000000000000000000000000000000000000000000000000000000000000000000000000000000000000000000000000000000000000000000000000000000
310
00000000000000000000000000000000000000000000000000000000000000000000000700000000000000000000000000000000000000000000000000000000000700000000000000000000000000000000000000000000000000000000000000000000000000000000000000000000000000000000000000000000000000
310
00000000000000000000000000000000000000000000000000000000000000000000000000000000000000000000000000000000000000000000000000000000000000000000000000000000000000000000000000000000070000000000000000000000000000000000000000000000000000000000070000000000000000
310
00000000000000000000000000000000000000000000000000000000000000000000000000000000000000000000000000000000000000000000000000000000000000000000000000000000000000000000000000000000000000000000000000000000000000000000000000000000000000000000000000000000000000
310
00000000000000000000000000000700000000000000000000000000000000000000000000000000000000000700000000000000000000000000000000000000000000000000000000000000000000000000000000000000000000000000000000000000000000000000000000000000000000000000000000000000000000
310
00000000000000000000000000000000000000000000000000000000000000000000000000000000000000000000000000000000000000000000000000000000000000070000000000000000000000000000000000000000000000000000000007070000000000000000000000000000000000000000000000000000000000
310
00000000000000000000000000000000000000000000000000000000000000000000000000000000000000000000000000000000000000000000000000000000000000070700070700000000000000000000000000000000000000000000000000000000000000000000000000000000000000000000000000070000000000
310
00000000000000000000000000000000000000000000070700000000000000000000000000000000000000000000000000000000000000000000000000000000000000000000000000000000000000000000000000000000000000000000000000000000000000000000000000000000000000000000070700000000000700
310
00000000000000000000000000000000000000000000000000000000000000000000000000000000000000000000000700000000000000000000000000000000000000000000000000000007000000000000000000000000000000000000000000000000000000000000000000000000000000000000000000000000000000
310
00000000000000000000000000000000000000000000000000000000000000000000000000000000000000000700000000000007070000000000000000000000000000000000000000000000000000000000000000000000000000000000000000000000070000000000000000000000000000000000000000000000000000
310
07000000000000000000000000000000000000000000000000000000000000000000000000000000000000000000000000000000000000000000000000000000000000000000000000000000000000000000000000000000000000000000000000070000000000000007000000000000000000000000000000000000000000
310
00000000000000000000000000000000000000000000000000000007000000000000000000000000000000000000000000000000000700000000000000000000000000000000000000000000000000000000000000000000000000000000000000000000000000000000000000000000000000000000000000000000000000
310
00000000000000000000000000000000000000000000000700000000000000070000000000000000000000000000000000000000000000000000000000000000000000000000000000000000000000000007000000000000000000000000000000000000000000000007000000000000000000000000000000000000000000
310
00000000000000000000000000000000000000000000000000000000000000000000000000000000000000000000000000000000000000000000000000000000000000000000000000000000070000000000000007000000000000000000000000000000000000000000000000000000000000000000000000000000000000
310
00000000000000070700000000000000000000000000000000000000000007000000000000000000000000000000000000000000000000000000000000000000000000000000000000000000000000000000000000000000000000000000000000000000000000000000000000000000000000000000000000000000000000
310
00000700000000000000070000000000000000000000000000000000000000000000000000000000000000000000000000000000000000000000000000070700000000000000000000000000000000000000000700000000000000000000000000000000000000000000000000000000000000000000000000000000000000
310
00000000000000000000000000000000000000000000000000000000000000000000000000000000000000000000000000000000000000070000000000000007000000000000000000000000000000000000000000000000000000000000000000000000000000000000000000000000000000070700000000000000000000
310
00000000000000070700000000000000000000000000000000000000000000000000000000000000000000000000000000000000000000000000000000000000000000000000000000000000000000000000000000000000000000000000000000000000000000000000000007000000000000000700000000000000000000
310
00000000000000000000000000000000000000000000000000000000000000000000000000000000000000070700000000000000000000000000070700000000000000000000000000000000000000000000000000000000000000000000000000000000000000000000000000000000000000000000000000000000000000
310
00000000000000000000000000000000000000000000000000000000000000000000070000000000000007000000000000000000000000000000000000000000000000000000000000000000000000000000000000000000000000000000000000000707070707000000070707070707000000000000000000000000000000
310
00000000000000000000000000000000000000000000000000000000000000000000000000000000000000000000000000000000000000000000000000000000000000000000000000000000000000000000000000000007000000000000000700000000000000000000000000000000000000000000000000000000000000
310
00000000000000000000000000000000000000000000000000000007070707070707000000000000000000000000000000000000000000000000000000000000000000000000000000000000000000000000000000000000000000000000000000000000000000000000000000000000000000000000000000000000000000
310
00000000000000000000000000070000000000000007000000000000000000000000000000000000000000000000000000000000000000000000000000000000000000000000000000000000000000000700000000000700000000000000000000000000000000000000000000000000000000000000000000000000000000
310
00000000000000000000000000000000000000000000000000000000000000000000000000000000000000000000000000000000000000000000000000000000000007000000000000000700000000000000000000000000000000000000000000000000000000000000000000000000000000000000000000000000000000
310
00000000000707000000000007070000000000000000000000000000000000000000000000000000000000000000000000000000000000000000000000000000000000000000000000000000000000000000000000000000000000000000000000000000000000000000000000000000000000000000000700000000000000
310
07000000000000000000000000000000000000000000000000000000000000000000000000000000000000000000000000000000000000000000070707070707070707000000000000000000000000000000000000000000000000000000000000000000000000000000000000000000000000000000000000000000000000
310
00000000000000000000000000000000000000000000000000000000000000000000000000000000000000000007000000000000000700000000000000000000000000000000000000000000000000000000000000000000000000000000000000000000000000000000000000000007000707070707000700000000000000
310
00000000000000000000000000000000000000000000000000000000000000000000000000000000000000000000000000000000000000000000000000000000000000000000000000000000000000000000000000000000000000000000000000000700000000000000070000000000000000000000000000000000000000
310
00000000000000000000000000000000000000000000000000000000000000000000000000070000000000000007000000000000000000000000000000000000000000000000000000000000000000000000000000000000000000000000000000000000000000000000000000000000000000000000000000000000000000
310
00000000000000000000000000000000000000000000000007000000000000000700000000000000000000000000000000000000000000000000000000000000000000000000000000000000000000000000000000000000000007000000000000000700000000000000000000000000000000000000000000000000000000
310
00000000000000000000000000000000000000000000000000000000000000000000000000000000000000000000000000000000000000000000000000000000000000000000000000000000000700000000000000070000000000000000000000000000000000000000000000000000000000000000000000000000000000
310
00000000000000000000000000000000070000000000000007000000000000000000000000000000000000000000000000000000000000000000000000000000000000000000000000000000000000000000000000000000000000000000000000000000000000000000000000000000000000000000000000000000000000
310
00000007000000000000000700000000000000000000000000000000000000000000000000000000000000000000000000000000000000000000000000000000000000000007000000000000000700000000000000000000000000000000000000000000000000000000000000000000000000000000000000000000000000
310
00000000000000000000000000000000000000000000000000000000000000000000000000000000000000000000000000000000000000000700000000000000070000000000000000000000000000000000000000000000000000000000000000000000000000000000000000000000000000000000000000000700000000
310
00000007000000000000000000000000000000000000000000000000000000000000000000000000000000000000000000000000000000000000000000000000000000000000000000000000000000000000000000000000000000000000000000000000000000000000000000070000000000000007000000000000000000
310
00000000000000000000000000000000000000000000000000000000000000000000000000000000000000000000000007000000000000000700000000000000000000000000000000000000000000000000000000000000000000000000000000000000000000000000000000000000000000000000000000000000000000
310
00000000000000000000000000000000000000000000000000000000000000000000000700000000000000070000000000000000000000000000000000000000000000000000000000000000000000000000000000000000000000000000000000000000000700000000000000070000000000000000000000000000000000
310
00000000000000000000000000000000000000000000000000000000000000000000000000000000000000000000000000000000000000000000000000000000000000000000000000000000000000000000000000000000070000000000000007000000000000000000000000000000000000000000000000000000000000
310
00000000000000000000000000000000000000000000000000000007000000000000000700000000000000000000000000000000000000000000000000000000000000000000000000000000000000000000000000000000000000000000000000000000000000000000000000000000000000000000000000000000000000
310
00000000000000000000000000000700000000000000070000000000000000000000000000000000000000000000000000000000000000000000000000000000000000000000000000000000000000000700000000000000070000000000000000000000000000000000000000000000000000000000000000000000000000
310
00000000000000000000000000000000000000000000000000000000000000000000000000000000000000000000000000000000000000000000000000000000000000070000000000000007000000000000000000000000000000000000000000000000000000000000000000000000000000000000000000000000000000
310
00000000000007000000000000000700000000000000000000000000000000000000000000000000000000000000000000000000000000000000000000000000000000000000000000000000000000000000000000000000000000000000000000000000000000000000000000000000000000000000000007000000000000
310
00070000000000000000000000000000000000000000000000000000000000000000000000000000000000000000000000000000000000000000000700000000000000070000000000000000000000000000000000000000000000000000000000000000000000000000000000000000000000000000000000000000000000
310
00000000000000000000000000000000000000000000000000000000000000000000000000000000000000000000070000000000000007000000000000000000000000000000000000000000000000000000000000000000000000000000000000000000000000000000000000000000070000000000000007000000000000
310
00000000000000000000000000000000000000000000000000000000000000000000000000000000000000000000000000000000000000000000000000000000000000000000000000000000000000000000000000000000000000000000000000000007000000000000000700000000000000000000000000000000000000
310
00000000000000000000000000000000000000000000000000000000000000000000000000000700000000000000070000000000000000000000000000000000000000000000000000000000000000000000000000000000000000000000000000000000000000000000000000000000000000000000000000000000000000
310
00000000000000000000000000000000000000000000000000070000000000000007000000000000000000000000000000000000000000000000000000000000000000000000000000000000000000000000000000000000000000070000000000000007000000000000000000000000000000000000000000000000000000
310
00000000000000000000000000000000000000000000000000000000000000000000000000000000000000000000000000000000000000000000000000000000000000000000000000000000000007000000000000000700000000000000000000000000000000000000000000000000000000000000000000000000000000
310
00000000000000000000000000000000000700000000000000070000000000000000000000000000000000000000000000000000000000000000000000000000000000000000000000000000000000000000000000000000000000000000000000000000000000000000000000000000000000000000000000000000000000
310
00000000070000000000000007000000000000000000000000000000000000000000000000000000000000000000000000000000000000000000000000000000000000000007070000000000000007070000000000000000000000000000000000000000000000000000000000000000000000000000000000000000000000
310
00000000000000000000000000000000000000000000000000000000000000000000000000000000000000000000000000000000000000000007000000000000000700000000000000000000000000000000000000000000000000000000000000000000000000000000000000000000000000000000000000000700070000
310
00000000070000000000000000000000000000000000000000000000000000000000000000000000000000000000000000000000000000000000000000000000000000000000000000000000000000000000000000000000000000000000000000000000000000000000000000000700000000000000070000000000000000
310
00000000000000000000000000000000000000000000000000000000000000000000000000000000000000000000000007000707000000000700070000000000000000000000000000000000000000000000000000000000000000000000000000000000000000000000000000000000000000000000000000000000000000
310
00000000000000000000000000000000000000000000000000000000000000000707070707000000000000000707070700000000000000000000000000000000000000000000000000000000000000000000000000000000000000000000000000000007070707000707070707000707070707000000000000000000000000
310
00000000000000000000000000000000000000000000000000000000000000000000000000000000000000000000000000000707070707070707070707070707070707070007000000000000000000000000000707070000000700000000000000070000000707000000000000000000000000000007000707070707070707
310
07070707070707070700000000000000000000000000000707000007070700000000000707070000070707000000000000000000000000000000000000000000000000000000000000000000000000000000000000000000000000000000000000000000000007070000000000000000070707000000000000000707000000
310
00000000000000000707000000000007000000000000000700000000000700000000000000000000000707000000000000000007070700000000000000000700000000000000000000000007000000000700000707070707000007000000000700000000000000000000000000000000000000000000000000000000000000
310
00000000000000000000000000000000000000000000000000000000070000000000070707070000070707070000000000070000000000000000000000070000000000000700000000000000070000000000070000000000000000000000070000000000000707070000000707070000000000000700000000000000000000
310
00070000000007070000000000000000070000000000070000000000000000000000000000000000000000000000000000000000000000000000000000000000000000000000000000000000000000000707070000000707000000000000000000070000000707070000000000000000000007000000000000070000000000
310
00000700000000000700000000000000000000000707000000070700000000000000000007070000000707000000000000000000000007000000000707000000000000000707000000000007000000000000000000000000000000000000000000000000000000000000000000000000000000000000000000000000000000
310
00000000000007000007070700000000000000000000000007070707000700000000000000000000070000000000000700000000000000070000000000070000000000000000000007070007070707000000000000000000000007070707000707000000000000000000000700000007070007070000070707000707000000
310
00070000000000000000000000000000000000000000000000000000000000000000000000000000000000000000000000000000000000000000000700000007070700000000000000000000000707000000070000000000000000000007000000000007070000000000000007000000000007000000000000000000000700
310
00000007070000000000000000000000070700000007070000000000000000000007000007000700000007070707000007000700000007000000000000000000000000000000000000000000000000000000000000000000000000000000000000000000000000000000000000000000070700000000000707070707000707
310
07070700000000070700000000000000000000070000000007000700000000000000070700000000070000000000000000000000070000000000070707070707070707070700000000070700000000000000000000000700000700070000000000000000000707070000000700000000000000000000000000000000000000
310
00000000000000000000000000000000000000000000000000000000000000000000000000000007070700000000000000000000000000000000070700070000000000000000000007000000000700070000000000000007070000000007000000000000000000000007070700000000000000000000000000000000000700
310
07000000000000000000000007000700070700000000000000000007070007000007000000000000000000000000000000000000000000000000000000000000000000000000000000000000000000000000000000000000000000000700070707000000000000000000000000070700070007000000000000000000000700
310
00000007000700000000000000070007000000070000000000000000000000070007070700000000000000000000000000070707000700000000000000000000000700070007070000000000000000000707000700000700000000000000000000000000000000000000000000000000000000000000000000000000000000
310
00000000000000000000000000000000000007070000000700000000000000000000070000000700070000000000000000000007000000070000070000000000000007000700000007000000000000000000000007000700000700000000000000000000000700000700070000000000000000000000070007000707000000
310
00000000000000070000070007000000000000000000000000000000000000000000000000000000000000000000000000000000000000000000000000000000000000000000000707000000070700000000000000000007000000070007000000000000000000000700000007000007000000000000000700070000000700
310
00000000000000000000070007000000070000000000000000000700000007000700000000000000000000000707000007070000000000000000000700070007000700000000000000000000000000000000000000000000000000000000000000000000000000000000000000000000000000000000000000000000070700
310
00000007000000000000000007000000000700070000000000000000000007000000070000070000000000000007000700000007000000000000000000000007000700000007000000000000000000070000000700070000000000000000000000070700000707000000000000000000070007000000070000000000000000
310
00000000000000000000000000000000000000000000000000000000000000000000000000000000000000000000000000000700070000000700000000000000000700000000070007000000000000000000000700000007000007000000000000070000070000000700000000000000000000000700070000000700000000
310
00000000070700000007000700000000000000000000000700070007000700000000000000070007000007000700000000000000000000000000000000000000000000000000000000000000000000000000000000000000000000000000000000000000000000070007000000070700000000000007070000000700000700
310
00000000000000000007000000000700000700000000000700000700000007000000000000000000000007000700000000070000000000000007000000000700070000000000000000000000070007000700070700000000000707000700070000070000000000000000000000000000000000000000000000000000000000
310
00000000000000000000000000000000000000000000000000000000000700070000000007070000000007070000000007000007000000000000000000000700000000000700000707070707000007000000000700000000000000000000000700070000000007070000000000070000000000070007000000000000000000
310
00000700070007000007070000000707000007000700000700000000000000000000000000000000000000000000000000000000000000000000000000000000000000000000000000000000000000000000070007070000000007070000000700000000070700000700000000000000000000070000000000070000000707
310
07000007000000000007000000000000000000000007000007000000000007000000070000000000070000070000000000000000000000070000070007000007070707070000070007000000070000000000000000000000000000000000000000000000000000000000000000000000000000000000000000000000000000
310
00000000000000000700000700000000000700000007000000000700000007000000000000000000000700000000000007070707000707070000000000000700000000000000000000000700000007000000000700000007000000000700000007000000000000000000000007000007070007000000000000000707070700
310
00000700000000000000000000000000000000000000000000000000000000000000000000000000000000000000000000000000000000000000000000070000000700000000070000000700000007000000000700000000000000000000070000000000000000000700070000000000000000070000000000000000000000
310
07000000070000000007000000070000000007000000070000000000000000000000070000000007070707000000000700070700000000070000000000000000000000000000000000000000000000000000000000000000000000000000000000000000000000000000000000000000000007000000000707000007000000
310
07000707000000000007000000000000000000000700000000000000000007070700000000000000000700000000000000000000000700000000070700000700000007000007070000000007000000000000000000000007000000000007070707070707070700000000000007000000000000000000000000000000000000
310
00000000000000000000000000000000000000000000000000000000000000000000000000000000070000000000000707070000070707000000000000070000000000000000000000070700000000000000000000000000000000000000070000000000000000000000070000000000000707070000000707070000000000
310
00070000000000000000000000070000000000000007070707070700000000000007000000000000000000000000000000000000000000000000000000000000000000000000000000000000000000000000000000000000000000000007070000000000000007000007000000000000000707000000000000000000000000
310
07070000000000000000000000000000000000070700000000000000000000000707000000000000000700000007000000000000000700000000000000000000000007070000000000000000000000000000000000070700000000000000000000000000000000000000000000000000000000000000000000000000000000
310
00000000000000000000000000000000000000000707070707070707070000070707070707070707000000000000000000000000000007070707070707070700070707070707070700000000000000000000000000000007070707070707070000000707070707070707000000000000000000000000000000070707070707
310
07070707070707070707070700000000000000000000000000000000000000000000000000000000000000000000000000000000000000000000000000000000000000000000000000000000000000000007000007000000000000000000000000000000000000000000000000000000000000000000000000000000000000
310
00000000000000000000000000000000000000000700000007000000000000000000000000000000000000000000000000000000000000000000000000000000000000000000000000000000000000000000000000000000000000000000000000000000000000000000000000000000000000000000000000000000000000
310
00000000000000070707070000000000000000000000000000000000000000000000000000000000000000000000000000000000000000000000000000000000000000000000000000000707070000000000000000000000000000000000000000000000000000000000000000000000000000000000000000000000000000
310
00000000000000000000000000000000000000000000000000000000000000000000000000000000000000000000000000000000000000000000000000000000000000000000000000000000000000000000000000000000000000000000000000000000000000000000000000000000000000000000000000000000000000
310
00000000000000000000000000000000000000000000000000000000000000000000000000000000000000000000000000000000000000000000000000000000000000000000000000000000000000000000000000000000000000000000000000000000000000000000000000000000000000000000000000000000000000
310
00000000000000000000000000000000000000000000000000000000000000000000000000000000000000000000000000000000000000000000000000000000000000000000000000000000000000000000000000000000000000000000000000000000000000000000000000000000000000000000000000000000000000
310
00000000000000000000000000000000000000000000000000000000000000000000000000000000000000000000000000000000000000000000000000000000000000000000000000000000000000000000000000000000000000000000000000000000000000000000000000000000000000000000000000000000000000
310
00000000000000000000000000000000000000000000000000000000000000000000000000000000000000000000000000000000000000000000000000000000000000000000000000000000000000000000000000000000000000000000000000000000000000000000000000000000000000000000000000000000000000
310
000000000000000000000000000000000000000000000000000000000000000000000000000000000000000000000000000000000000000000000000000000000000000000000000000000000000000000000000000000000000000000000000000000000000000000000000
  0
ENDSEC
  0
EOF
