  0
SECTION
  2
HEADER
  9
$ACADVER
  1
AC1015
  9
$ACADMAINTVER
 70
     6
  9
$DWGCODEPAGE
  3
ANSI_1252
  9
$INSBASE
 10
0.0
 20
0.0
 30
0.0
  9
$EXTMIN
 10
121.0
 20
0.0
 30
0.0
  9
$EXTMAX
 10
565.0
 20
284.0
 30
0.0
  9
$LIMMIN
 10
0.0
 20
0.0
  9
$LIMMAX
 10
12.0
 20
9.0
  9
$ORTHOMODE
 70
     0
  9
$REGENMODE
 70
     1
  9
$FILLMODE
 70
     1
  9
$QTEXTMODE
 70
     0
  9
$MIRRTEXT
 70
     1
  9
$LTSCALE
 40
1.0
  9
$ATTMODE
 70
     1
  9
$TEXTSIZE
 40
0.2
  9
$TRACEWID
 40
0.05
  9
$TEXTSTYLE
  7
STANDARD
  9
$CLAYER
  8
0
  9
$CELTYPE
  6
CONTINUOUS
  9
$CECOLOR
 62
   256
  9
$CELTSCALE
 40
1.0
  9
$DISPSILH
 70
     0
  9
$DIMSCALE
 40
1.0
  9
$DIMASZ
 40
0.18
  9
$DIMEXO
 40
0.0625
  9
$DIMDLI
 40
0.38
  9
$DIMRND
 40
0.0
  9
$DIMDLE
 40
0.0
  9
$DIMEXE
 40
0.18
  9
$DIMTP
 40
0.0
  9
$DIMTM
 40
0.0
  9
$DIMTXT
 40
0.18
  9
$DIMCEN
 40
0.09
  9
$DIMTSZ
 40
0.0
  9
$DIMTOL
 70
     0
  9
$DIMLIM
 70
     0
  9
$DIMTIH
 70
     1
  9
$DIMTOH
 70
     1
  9
$DIMSE1
 70
     0
  9
$DIMSE2
 70
     0
  9
$DIMTAD
 70
     0
  9
$DIMZIN
 70
     0
  9
$DIMBLK
  1

  9
$DIMASO
 70
     1
  9
$DIMSHO
 70
     1
  9
$DIMPOST
  1

  9
$DIMAPOST
  1

  9
$DIMALT
 70
     0
  9
$DIMALTD
 70
     2
  9
$DIMALTF
 40
25.4
  9
$DIMLFAC
 40
1.0
  9
$DIMTOFL
 70
     0
  9
$DIMTVP
 40
0.0
  9
$DIMTIX
 70
     0
  9
$DIMSOXD
 70
     0
  9
$DIMSAH
 70
     0
  9
$DIMBLK1
  1

  9
$DIMBLK2
  1

  9
$DIMSTYLE
  2
STANDARD
  9
$DIMCLRD
 70
     0
  9
$DIMCLRE
 70
     0
  9
$DIMCLRT
 70
     0
  9
$DIMTFAC
 40
1.0
  9
$DIMGAP
 40
0.09
  9
$DIMJUST
 70
     0
  9
$DIMSD1
 70
     0
  9
$DIMSD2
 70
     0
  9
$DIMTOLJ
 70
     1
  9
$DIMTZIN
 70
     0
  9
$DIMALTZ
 70
     0
  9
$DIMALTTZ
 70
     0
  9
$DIMUPT
 70
     0
  9
$DIMDEC
 70
     4
  9
$DIMTDEC
 70
     4
  9
$DIMALTU
 70
     2
  9
$DIMALTTD
 70
     2
  9
$DIMTXSTY
  7
STANDARD
  9
$DIMAUNIT
 70
     0
  9
$DIMADEC
 70
     0
  9
$DIMALTRND
 40
0.0
  9
$DIMAZIN
 70
     0
  9
$DIMDSEP
 70
    46
  9
$DIMATFIT
 70
     3
  9
$DIMFRAC
 70
     0
  9
$DIMLDRBLK
  1

  9
$DIMLUNIT
 70
     2
  9
$DIMLWD
 70
    -2
  9
$DIMLWE
 70
    -2
  9
$DIMTMOVE
 70
     2
  9
$LUNITS
 70
     2
  9
$LUPREC
 70
     4
  9
$SKETCHINC
 40
0.1
  9
$FILLETRAD
 40
0.0
  9
$AUNITS
 70
     0
  9
$AUPREC
 70
     0
  9
$MENU
  1
.
  9
$ELEVATION
 40
0.0
  9
$PELEVATION
 40
0.0
  9
$THICKNESS
 40
0.0
  9
$LIMCHECK
 70
     0
  9
$CHAMFERA
 40
0.0
  9
$CHAMFERB
 40
0.0
  9
$CHAMFERC
 40
0.0
  9
$CHAMFERD
 40
0.0
  9
$SKPOLY
 70
     0
  9
$TDCREATE
 40
2454638.728196065
  9
$TDUCREATE
 40
2454638.644862731
  9
$TDUPDATE
 40
2456209.808895752
  9
$TDUUPDATE
 40
2456209.725562419
  9
$TDINDWG
 40
0.0606796181
  9
$TDUSRTIMER
 40
0.0606796181
  9
$USRTIMER
 70
     1
  9
$ANGBASE
 50
0.0
  9
$ANGDIR
 70
     0
  9
$PDMODE
 70
     0
  9
$PDSIZE
 40
0.0
  9
$PLINEWID
 40
0.0
  9
$SPLFRAME
 70
     0
  9
$SPLINETYPE
 70
     6
  9
$SPLINESEGS
 70
     8
  9
$HANDSEED
  5
1C19
  9
$SURFTAB1
 70
     6
  9
$SURFTAB2
 70
     6
  9
$SURFTYPE
 70
     6
  9
$SURFU
 70
     6
  9
$SURFV
 70
     6
  9
$UCSBASE
  2

  9
$UCSNAME
  2

  9
$UCSORG
 10
0.0
 20
0.0
 30
0.0
  9
$UCSXDIR
 10
1.0
 20
0.0
 30
0.0
  9
$UCSYDIR
 10
0.0
 20
1.0
 30
0.0
  9
$UCSORTHOREF
  2

  9
$UCSORTHOVIEW
 70
     0
  9
$UCSORGTOP
 10
0.0
 20
0.0
 30
0.0
  9
$UCSORGBOTTOM
 10
0.0
 20
0.0
 30
0.0
  9
$UCSORGLEFT
 10
0.0
 20
0.0
 30
0.0
  9
$UCSORGRIGHT
 10
0.0
 20
0.0
 30
0.0
  9
$UCSORGFRONT
 10
0.0
 20
0.0
 30
0.0
  9
$UCSORGBACK
 10
0.0
 20
0.0
 30
0.0
  9
$PUCSBASE
  2

  9
$PUCSNAME
  2

  9
$PUCSORG
 10
0.0
 20
0.0
 30
0.0
  9
$PUCSXDIR
 10
1.0
 20
0.0
 30
0.0
  9
$PUCSYDIR
 10
0.0
 20
1.0
 30
0.0
  9
$PUCSORTHOREF
  2

  9
$PUCSORTHOVIEW
 70
     0
  9
$PUCSORGTOP
 10
0.0
 20
0.0
 30
0.0
  9
$PUCSORGBOTTOM
 10
0.0
 20
0.0
 30
0.0
  9
$PUCSORGLEFT
 10
0.0
 20
0.0
 30
0.0
  9
$PUCSORGRIGHT
 10
0.0
 20
0.0
 30
0.0
  9
$PUCSORGFRONT
 10
0.0
 20
0.0
 30
0.0
  9
$PUCSORGBACK
 10
0.0
 20
0.0
 30
0.0
  9
$USERI1
 70
     0
  9
$USERI2
 70
     0
  9
$USERI3
 70
     0
  9
$USERI4
 70
     0
  9
$USERI5
 70
     0
  9
$USERR1
 40
0.0
  9
$USERR2
 40
0.0
  9
$USERR3
 40
0.0
  9
$USERR4
 40
0.0
  9
$USERR5
 40
0.0
  9
$WORLDVIEW
 70
     1
  9
$SHADEDGE
 70
     3
  9
$SHADEDIF
 70
    70
  9
$TILEMODE
 70
     1
  9
$MAXACTVP
 70
    64
  9
$PINSBASE
 10
0.0
 20
0.0
 30
0.0
  9
$PLIMCHECK
 70
     0
  9
$PEXTMIN
 10
1.000000000000E+20
 20
1.000000000000E+20
 30
1.000000000000E+20
  9
$PEXTMAX
 10
-1.000000000000E+20
 20
-1.000000000000E+20
 30
-1.000000000000E+20
  9
$PLIMMIN
 10
0.0
 20
0.0
  9
$PLIMMAX
 10
12.0
 20
9.0
  9
$UNITMODE
 70
     0
  9
$VISRETAIN
 70
     1
  9
$PLINEGEN
 70
     0
  9
$PSLTSCALE
 70
     1
  9
$TREEDEPTH
 70
  3020
  9
$CMLSTYLE
  2
STANDARD
  9
$CMLJUST
 70
     0
  9
$CMLSCALE
 40
1.0
  9
$PROXYGRAPHICS
 70
     1
  9
$MEASUREMENT
 70
     0
  9
$CELWEIGHT
370
    -1
  9
$ENDCAPS
280
     0
  9
$JOINSTYLE
280
     0
  9
$LWDISPLAY
290
     0
  9
$INSUNITS
 70
     0
  9
$HYPERLINKBASE
  1

  9
$STYLESHEET
  1

  9
$XEDIT
290
     1
  9
$CEPSNTYPE
380
     0
  9
$PSTYLEMODE
290
     1
  9
$FINGERPRINTGUID
  2
{CDA47E34-4BA6-4C3F-89B5-F2D54E7BF048}
  9
$VERSIONGUID
  2
{3CDEB784-15DA-49D6-A581-F0A4BB749947}
  9
$EXTNAMES
290
     1
  9
$PSVPSCALE
 40
0.0
  9
$OLESTARTUP
290
     0
  0
ENDSEC
  0
SECTION
  2
CLASSES
  0
CLASS
  1
ACDBDICTIONARYWDFLT
  2
AcDbDictionaryWithDefault
  3
ObjectDBX Classes
 90
        0
280
     0
281
     0
  0
CLASS
  1
ACDBPLACEHOLDER
  2
AcDbPlaceHolder
  3
ObjectDBX Classes
 90
        0
280
     0
281
     0
  0
CLASS
  1
LAYOUT
  2
AcDbLayout
  3
ObjectDBX Classes
 90
        0
280
     0
281
     0
  0
CLASS
  1
DICTIONARYVAR
  2
AcDbDictionaryVar
  3
ObjectDBX Classes
 90
        0
280
     0
281
     0
  0
CLASS
  1
DUMMY
  2
AcDbLongTransaction
  3
DUMMY
 90
        0
280
     0
281
     0
  0
CLASS
  1
LWPOLYLINE
  2
AcDbPolyline
  3
AutoCAD 2000
 90
        0
280
     0
281
     1
  0
CLASS
  1
HATCH
  2
AcDbHatch
  3
AutoCAD 2000
 90
        0
280
     0
281
     1
  0
CLASS
  1
XRECORD
  2
AcDbXrecord
  3
AutoCAD 2000
 90
        0
280
     0
281
     0
  0
CLASS
  1
SCALE
  2
AcDbScale
  3
ObjectDBX Classes
 90
     1153
280
     0
281
     0
  0
ENDSEC
  0
SECTION
  2
TABLES
  0
TABLE
  2
VPORT
  5
8
330
0
100
AcDbSymbolTable
 70
     1
  0
VPORT
  5
B26
330
8
100
AcDbSymbolTableRecord
100
AcDbViewportTableRecord
  2
*ACTIVE
 70
     0
 10
0.0
 20
0.0
 11
1.0
 21
1.0
 12
282.5
 22
142.0
 13
0.0
 23
0.0
 14
1.0
 24
1.0
 15
0.0
 25
0.0
 16
0.0
 26
0.0
 36
1.0
 17
0.0
 27
0.0
 37
0.0
 40
289.68
 41
2.271724137931
 42
50.0
 43
0.0
 44
0.0
 50
0.0
 51
0.0
 71
    16
 72
   100
 73
     1
 74
     3
 75
     0
 76
     0
 77
     0
 78
     0
281
     0
 65
     1
110
0.0
120
0.0
130
0.0
111
1.0
121
0.0
131
0.0
112
0.0
122
1.0
132
0.0
 79
     0
146
0.0
  0
ENDTAB
  0
TABLE
  2
LTYPE
  5
5
330
0
100
AcDbSymbolTable
 70
     1
  0
LTYPE
  5
13
330
5
100
AcDbSymbolTableRecord
100
AcDbLinetypeTableRecord
  2
BYBLOCK
 70
     0
  3

 72
    65
 73
     0
 40
0.0
  0
LTYPE
  5
14
330
5
100
AcDbSymbolTableRecord
100
AcDbLinetypeTableRecord
  2
BYLAYER
 70
     0
  3

 72
    65
 73
     0
 40
0.0
  0
LTYPE
  5
15
330
5
100
AcDbSymbolTableRecord
100
AcDbLinetypeTableRecord
  2
CONTINUOUS
 70
     0
  3
Solid line
 72
    65
 73
     0
 40
0.0
  0
ENDTAB
  0
TABLE
  2
LAYER
  5
2
330
0
100
AcDbSymbolTable
 70
     1
  0
LAYER
  5
10
330
2
100
AcDbSymbolTableRecord
100
AcDbLayerTableRecord
  2
0
 70
     0
 62
     7
  6
CONTINUOUS
370
    -3
390
F
  0
ENDTAB
  0
TABLE
  2
STYLE
  5
3
330
0
100
AcDbSymbolTable
 70
     1
  0
STYLE
  5
11
330
3
100
AcDbSymbolTableRecord
100
AcDbTextStyleTableRecord
  2
STANDARD
 70
     0
 40
0.0
 41
1.0
 50
0.0
 71
     0
 42
0.2
  3
txt
  4

  0
ENDTAB
  0
TABLE
  2
VIEW
  5
6
330
0
100
AcDbSymbolTable
 70
     0
  0
ENDTAB
  0
TABLE
  2
UCS
  5
7
330
0
100
AcDbSymbolTable
 70
     0
  0
ENDTAB
  0
TABLE
  2
APPID
  5
9
330
0
100
AcDbSymbolTable
 70
     1
  0
APPID
  5
12
330
9
100
AcDbSymbolTableRecord
100
AcDbRegAppTableRecord
  2
ACAD
 70
     0
  0
ENDTAB
  0
TABLE
  2
DIMSTYLE
  5
A
330
0
100
AcDbSymbolTable
 70
     1
100
AcDbDimStyleTable
  0
DIMSTYLE
105
9AD
330
A
100
AcDbSymbolTableRecord
100
AcDbDimStyleTableRecord
  2
STANDARD
 70
     0
340
11
  0
ENDTAB
  0
TABLE
  2
BLOCK_RECORD
  5
1
330
0
100
AcDbSymbolTable
 70
     2
  0
BLOCK_RECORD
  5
1E
330
1
100
AcDbSymbolTableRecord
100
AcDbBlockTableRecord
  2
*MODEL_SPACE
340
B4B
  0
BLOCK_RECORD
  5
1A
330
1
100
AcDbSymbolTableRecord
100
AcDbBlockTableRecord
  2
*PAPER_SPACE
340
B4C
  0
ENDTAB
  0
ENDSEC
  0
SECTION
  2
BLOCKS
  0
BLOCK
  5
1F
330
1E
100
AcDbEntity
  8
0
100
AcDbBlockBegin
  2
*MODEL_SPACE
 70
     0
 10
0.0
 20
0.0
 30
0.0
  3
*MODEL_SPACE
  1
*MODEL_SPACE
  0
ENDBLK
  5
20
330
1E
100
AcDbEntity
  8
0
100
AcDbBlockEnd
  0
BLOCK
  5
1B
330
1A
100
AcDbEntity
 67
     1
  8
0
100
AcDbBlockBegin
  2
*PAPER_SPACE
 70
     0
 10
0.0
 20
0.0
 30
0.0
  3
*PAPER_SPACE
  1
*PAPER_SPACE
  0
ENDBLK
  5
1C
330
1A
100
AcDbEntity
 67
     1
  8
0
100
AcDbBlockEnd
  0
ENDSEC
  0
SECTION
  2
ENTITIES
  0
LINE
  5
74
330
1E
100
AcDbEntity
  8
0
100
AcDbLine
 10
150.823529
 20
0.0
 30
0.0
 11
151.85294
 21
0.0
 31
0.0
  0
LINE
  5
75
330
1E
100
AcDbEntity
  8
0
100
AcDbLine
 10
150.205882
 20
0.0
 30
0.0
 11
150.823529
 21
0.0
 31
0.0
  0
LINE
  5
76
330
1E
100
AcDbEntity
  8
0
100
AcDbLine
 10
150.0
 20
0.0
 30
0.0
 11
150.205882
 21
0.0
 31
0.0
  0
LINE
  5
77
330
1E
100
AcDbEntity
  8
0
100
AcDbLine
 10
150.0
 20
0.0
 30
0.0
 11
150.0
 21
9.0
 31
0.0
  0
LINE
  5
85
330
1E
100
AcDbEntity
  8
0
100
AcDbLine
 10
151.85294
 20
0.0
 30
0.0
 11
153.08823
 21
0.0
 31
0.0
  0
LINE
  5
86
330
1E
100
AcDbEntity
  8
0
100
AcDbLine
 10
153.08823
 20
0.0
 30
0.0
 11
154.63235
 21
0.0
 31
0.0
  0
LINE
  5
ED
330
1E
100
AcDbEntity
  8
0
100
AcDbLine
 10
202.0
 20
0.0
 30
0.0
 11
213.8235
 21
0.0
 31
0.0
  0
LINE
  5
EE
330
1E
100
AcDbEntity
  8
0
100
AcDbLine
 10
154.63235
 20
0.0
 30
0.0
 11
156.17647
 21
0.0
 31
0.0
  0
LINE
  5
EF
330
1E
100
AcDbEntity
  8
0
100
AcDbLine
 10
156.17647
 20
0.0
 30
0.0
 11
185.0
 21
0.0
 31
0.0
  0
LINE
  5
F0
330
1E
100
AcDbEntity
  8
0
100
AcDbLine
 10
156.17647
 20
0.0
 30
0.0
 11
168.0
 21
0.0
 31
0.0
  0
LINE
  5
184
330
1E
100
AcDbEntity
  8
0
100
AcDbLine
 10
218.1471
 20
0.0
 30
0.0
 11
219.1765
 21
0.0
 31
0.0
  0
LINE
  5
185
330
1E
100
AcDbEntity
  8
0
100
AcDbLine
 10
219.1765
 20
0.0
 30
0.0
 11
219.7941
 21
0.0
 31
0.0
  0
LINE
  5
1E6
330
1E
100
AcDbEntity
  8
0
100
AcDbLine
 10
219.7941
 20
0.0
 30
0.0
 11
220.0
 21
0.0
 31
0.0
  0
LINE
  5
1E7
330
1E
100
AcDbEntity
  8
0
100
AcDbLine
 10
220.0
 20
0.0
 30
0.0
 11
220.0
 21
9.0
 31
0.0
  0
LINE
  5
1E8
330
1E
100
AcDbEntity
  8
0
100
AcDbLine
 10
216.9118
 20
0.0
 30
0.0
 11
218.1471
 21
0.0
 31
0.0
  0
LINE
  5
1E9
330
1E
100
AcDbEntity
  8
0
100
AcDbLine
 10
215.3677
 20
0.0
 30
0.0
 11
216.9118
 21
0.0
 31
0.0
  0
LINE
  5
1EA
330
1E
100
AcDbEntity
  8
0
100
AcDbLine
 10
213.8235
 20
0.0
 30
0.0
 11
215.3677
 21
0.0
 31
0.0
  0
LINE
  5
1EB
330
1E
100
AcDbEntity
  8
0
100
AcDbLine
 10
185.0
 20
0.0
 30
0.0
 11
213.8235
 21
0.0
 31
0.0
  0
LINE
  5
1EE
330
1E
100
AcDbEntity
  8
0
100
AcDbLine
 10
260.824
 20
0.0
 30
0.0
 11
261.853
 21
0.0
 31
0.0
  0
LINE
  5
1EF
330
1E
100
AcDbEntity
  8
0
100
AcDbLine
 10
260.206
 20
0.0
 30
0.0
 11
260.824
 21
0.0
 31
0.0
  0
LINE
  5
1F0
330
1E
100
AcDbEntity
  8
0
100
AcDbLine
 10
150.514706
 20
9.7
 30
0.0
 11
151.13235
 21
9.7
 31
0.0
  0
LINE
  5
1F1
330
1E
100
AcDbEntity
  8
0
100
AcDbLine
 10
150.308824
 20
9.7
 30
0.0
 11
150.514706
 21
9.7
 31
0.0
  0
LINE
  5
1F2
330
1E
100
AcDbEntity
  8
0
100
AcDbLine
 10
150.308824
 20
9.7
 30
0.0
 11
151.02941
 21
10.0
 31
0.0
  0
LINE
  5
1F3
330
1E
100
AcDbEntity
  8
0
100
AcDbLine
 10
150.0
 20
9.0
 30
0.0
 11
150.0
 21
0.0
 31
0.0
  0
LINE
  5
1F4
330
1E
100
AcDbEntity
  8
0
100
AcDbLine
 10
150.0
 20
9.0
 30
0.0
 11
150.308824
 21
9.7
 31
0.0
  0
LINE
  5
1F5
330
1E
100
AcDbEntity
  8
0
100
AcDbLine
 10
151.13235
 20
9.7
 30
0.0
 11
152.05882
 21
9.7
 31
0.0
  0
LINE
  5
1F6
330
1E
100
AcDbEntity
  8
0
100
AcDbLine
 10
152.05882
 20
9.7
 30
0.0
 11
153.29412
 21
9.7
 31
0.0
  0
LINE
  5
1F7
330
1E
100
AcDbEntity
  8
0
100
AcDbLine
 10
153.29412
 20
9.7
 30
0.0
 11
154.63235
 21
9.7
 31
0.0
  0
LINE
  5
1F8
330
1E
100
AcDbEntity
  8
0
100
AcDbLine
 10
154.63235
 20
9.7
 30
0.0
 11
156.17647
 21
9.7
 31
0.0
  0
LINE
  5
1F9
330
1E
100
AcDbEntity
  8
0
100
AcDbLine
 10
156.17647
 20
9.7
 30
0.0
 11
185.0
 21
9.7
 31
0.0
  0
LINE
  5
1FB
330
1E
100
AcDbEntity
  8
0
100
AcDbLine
 10
169.375
 20
10.0
 30
0.0
 11
170.0
 21
10.5
 31
0.0
  0
LINE
  5
1FC
330
1E
100
AcDbEntity
  8
0
100
AcDbLine
 10
156.17647
 20
10.0
 30
0.0
 11
213.8235
 21
10.0
 31
0.0
  0
LINE
  5
1FD
330
1E
100
AcDbEntity
  8
0
100
AcDbLine
 10
152.57353
 20
10.0
 30
0.0
 11
156.17647
 21
10.0
 31
0.0
  0
LINE
  5
1FE
330
1E
100
AcDbEntity
  8
0
100
AcDbLine
 10
151.75
 20
10.0
 30
0.0
 11
152.57353
 21
10.0
 31
0.0
  0
LINE
  5
1FF
330
1E
100
AcDbEntity
  8
0
100
AcDbLine
 10
171.0
 20
13.0
 30
0.0
 11
171.0
 21
13.5
 31
0.0
  0
LINE
  5
200
330
1E
100
AcDbEntity
  8
0
100
AcDbLine
 10
171.1
 20
15.2
 30
0.0
 11
171.6
 21
15.2
 31
0.0
  0
LINE
  5
201
330
1E
100
AcDbEntity
  8
0
100
AcDbLine
 10
171.1
 20
15.2
 30
0.0
 11
171.1
 21
14.0
 31
0.0
  0
LINE
  5
202
330
1E
100
AcDbEntity
  8
0
100
AcDbLine
 10
171.1
 20
14.0
 30
0.0
 11
171.6
 21
14.0
 31
0.0
  0
LINE
  5
203
330
1E
100
AcDbEntity
  8
0
100
AcDbLine
 10
171.1
 20
14.0
 30
0.0
 11
171.3
 21
14.0
 31
0.0
  0
LINE
  5
204
330
1E
100
AcDbEntity
  8
0
100
AcDbLine
 10
171.1
 20
14.0
 30
0.0
 11
171.1
 21
15.2
 31
0.0
  0
LINE
  5
205
330
1E
100
AcDbEntity
  8
0
100
AcDbLine
 10
171.1
 20
15.4
 30
0.0
 11
171.3
 21
15.2
 31
0.0
  0
LINE
  5
206
330
1E
100
AcDbEntity
  8
0
100
AcDbLine
 10
171.1
 20
13.8
 30
0.0
 11
171.3
 21
14.0
 31
0.0
  0
LINE
  5
207
330
1E
100
AcDbEntity
  8
0
100
AcDbLine
 10
171.0
 20
13.5
 30
0.0
 11
171.0
 21
13.0
 31
0.0
  0
LINE
  5
208
330
1E
100
AcDbEntity
  8
0
100
AcDbLine
 10
171.0
 20
13.5
 30
0.0
 11
171.1
 21
13.8
 31
0.0
  0
LINE
  5
209
330
1E
100
AcDbEntity
  8
0
100
AcDbLine
 10
170.6
 20
11.4
 30
0.0
 11
171.0
 21
13.0
 31
0.0
  0
LINE
  5
20A
330
1E
100
AcDbEntity
  8
0
100
AcDbLine
 10
170.0
 20
10.5
 30
0.0
 11
170.6
 21
11.4
 31
0.0
  0
LINE
  5
20B
330
1E
100
AcDbEntity
  8
0
100
AcDbLine
 10
151.23529
 20
10.0
 30
0.0
 11
151.75
 21
10.0
 31
0.0
  0
LINE
  5
20C
330
1E
100
AcDbEntity
  8
0
100
AcDbLine
 10
151.02941
 20
10.0
 30
0.0
 11
151.23529
 21
10.0
 31
0.0
  0
LINE
  5
20D
330
1E
100
AcDbEntity
  8
0
100
AcDbLine
 10
171.0
 20
15.7
 30
0.0
 11
171.3182
 21
45.0
 31
0.0
  0
LINE
  5
20E
330
1E
100
AcDbEntity
  8
0
100
AcDbLine
 10
171.0
 20
15.7
 30
0.0
 11
171.1
 21
15.4
 31
0.0
  0
LINE
  5
20F
330
1E
100
AcDbEntity
  8
0
100
AcDbLine
 10
171.1864
 20
46.0
 30
0.0
 11
171.3182
 21
45.0
 31
0.0
  0
LINE
  5
210
330
1E
100
AcDbEntity
  8
0
100
AcDbLine
 10
169.7208
 20
49.9104
 30
0.0
 11
170.6591
 21
47.9
 31
0.0
  0
LINE
  5
212
330
1E
100
AcDbEntity
  8
0
100
AcDbLine
 10
170.6591
 20
47.9
 30
0.0
 11
171.1864
 21
46.0
 31
0.0
  0
LINE
  5
213
330
1E
100
AcDbEntity
  8
0
100
AcDbLine
 10
171.6
 20
14.0
 30
0.0
 11
173.0
 21
14.0
 31
0.0
  0
LINE
  5
214
330
1E
100
AcDbEntity
  8
0
100
AcDbLine
 10
171.8
 20
14.0
 30
0.0
 11
173.1
 21
14.0
 31
0.0
  0
LINE
  5
215
330
1E
100
AcDbEntity
  8
0
100
AcDbLine
 10
171.6
 20
15.2
 30
0.0
 11
173.0
 21
15.2
 31
0.0
  0
LINE
  5
216
330
1E
100
AcDbEntity
  8
0
100
AcDbLine
 10
171.3
 20
14.0
 30
0.0
 11
171.8
 21
14.0
 31
0.0
  0
LINE
  5
21F
330
1E
100
AcDbEntity
  8
0
100
AcDbLine
 10
173.0
 20
14.0
 30
0.0
 11
175.2
 21
14.0
 31
0.0
  0
LINE
  5
220
330
1E
100
AcDbEntity
  8
0
100
AcDbLine
 10
175.2
 20
14.0
 30
0.0
 11
178.1
 21
14.0
 31
0.0
  0
LINE
  5
221
330
1E
100
AcDbEntity
  8
0
100
AcDbLine
 10
178.1
 20
14.0
 30
0.0
 11
181.4
 21
14.0
 31
0.0
  0
LINE
  5
222
330
1E
100
AcDbEntity
  8
0
100
AcDbLine
 10
175.3
 20
14.0
 30
0.0
 11
178.2
 21
14.0
 31
0.0
  0
LINE
  5
223
330
1E
100
AcDbEntity
  8
0
100
AcDbLine
 10
181.4
 20
14.0
 30
0.0
 11
185.0
 21
14.0
 31
0.0
  0
LINE
  5
224
330
1E
100
AcDbEntity
  8
0
100
AcDbLine
 10
178.2
 20
14.0
 30
0.0
 11
181.5
 21
14.0
 31
0.0
  0
LINE
  5
225
330
1E
100
AcDbEntity
  8
0
100
AcDbLine
 10
181.5
 20
14.0
 30
0.0
 11
185.0
 21
14.0
 31
0.0
  0
LINE
  5
226
330
1E
100
AcDbEntity
  8
0
100
AcDbLine
 10
173.1
 20
14.0
 30
0.0
 11
175.3
 21
14.0
 31
0.0
  0
LINE
  5
227
330
1E
100
AcDbEntity
  8
0
100
AcDbLine
 10
175.2
 20
15.2
 30
0.0
 11
178.1
 21
15.2
 31
0.0
  0
LINE
  5
228
330
1E
100
AcDbEntity
  8
0
100
AcDbLine
 10
185.0
 20
15.2
 30
0.0
 11
188.6
 21
15.2
 31
0.0
  0
LINE
  5
229
330
1E
100
AcDbEntity
  8
0
100
AcDbLine
 10
178.1
 20
15.2
 30
0.0
 11
181.4
 21
15.2
 31
0.0
  0
LINE
  5
22A
330
1E
100
AcDbEntity
  8
0
100
AcDbLine
 10
181.4
 20
15.2
 30
0.0
 11
185.0
 21
15.2
 31
0.0
  0
LINE
  5
22B
330
1E
100
AcDbEntity
  8
0
100
AcDbLine
 10
173.0
 20
15.2
 30
0.0
 11
175.2
 21
15.2
 31
0.0
  0
LINE
  5
22C
330
1E
100
AcDbEntity
  8
0
100
AcDbLine
 10
185.0
 20
14.0
 30
0.0
 11
188.5
 21
14.0
 31
0.0
  0
LINE
  5
22D
330
1E
100
AcDbEntity
  8
0
100
AcDbLine
 10
185.0
 20
14.0
 30
0.0
 11
188.6
 21
14.0
 31
0.0
  0
LINE
  5
22F
330
1E
100
AcDbEntity
  8
0
100
AcDbLine
 10
217.9412
 20
9.7
 30
0.0
 11
218.8677
 21
9.7
 31
0.0
  0
LINE
  5
230
330
1E
100
AcDbEntity
  8
0
100
AcDbLine
 10
218.8677
 20
9.7
 30
0.0
 11
219.4853
 21
9.7
 31
0.0
  0
LINE
  5
231
330
1E
100
AcDbEntity
  8
0
100
AcDbLine
 10
219.4853
 20
9.7
 30
0.0
 11
219.6912
 21
9.7
 31
0.0
  0
LINE
  5
232
330
1E
100
AcDbEntity
  8
0
100
AcDbLine
 10
219.6912
 20
9.7
 30
0.0
 11
220.0
 21
9.0
 31
0.0
  0
LINE
  5
233
330
1E
100
AcDbEntity
  8
0
100
AcDbLine
 10
220.0
 20
9.0
 30
0.0
 11
220.0
 21
0.0
 31
0.0
  0
LINE
  5
234
330
1E
100
AcDbEntity
  8
0
100
AcDbLine
 10
216.7059
 20
9.7
 30
0.0
 11
217.9412
 21
9.7
 31
0.0
  0
LINE
  5
235
330
1E
100
AcDbEntity
  8
0
100
AcDbLine
 10
215.3677
 20
9.7
 30
0.0
 11
216.7059
 21
9.7
 31
0.0
  0
LINE
  5
236
330
1E
100
AcDbEntity
  8
0
100
AcDbLine
 10
188.6
 20
14.0
 30
0.0
 11
191.9
 21
14.0
 31
0.0
  0
LINE
  5
237
330
1E
100
AcDbEntity
  8
0
100
AcDbLine
 10
191.9
 20
14.0
 30
0.0
 11
194.8
 21
14.0
 31
0.0
  0
LINE
  5
238
330
1E
100
AcDbEntity
  8
0
100
AcDbLine
 10
191.8
 20
14.0
 30
0.0
 11
194.7
 21
14.0
 31
0.0
  0
LINE
  5
239
330
1E
100
AcDbEntity
  8
0
100
AcDbLine
 10
188.5
 20
14.0
 30
0.0
 11
191.8
 21
14.0
 31
0.0
  0
LINE
  5
23A
330
1E
100
AcDbEntity
  8
0
100
AcDbLine
 10
194.8
 20
14.0
 30
0.0
 11
197.0
 21
14.0
 31
0.0
  0
LINE
  5
23B
330
1E
100
AcDbEntity
  8
0
100
AcDbLine
 10
197.0
 20
14.0
 30
0.0
 11
198.4
 21
14.0
 31
0.0
  0
LINE
  5
23C
330
1E
100
AcDbEntity
  8
0
100
AcDbLine
 10
198.4
 20
14.0
 30
0.0
 11
198.9
 21
14.0
 31
0.0
  0
LINE
  5
23D
330
1E
100
AcDbEntity
  8
0
100
AcDbLine
 10
194.7
 20
14.0
 30
0.0
 11
196.9
 21
14.0
 31
0.0
  0
LINE
  5
23E
330
1E
100
AcDbEntity
  8
0
100
AcDbLine
 10
196.9
 20
14.0
 30
0.0
 11
198.2
 21
14.0
 31
0.0
  0
LINE
  5
23F
330
1E
100
AcDbEntity
  8
0
100
AcDbLine
 10
198.9
 20
14.0
 30
0.0
 11
198.9
 21
15.2
 31
0.0
  0
LINE
  5
240
330
1E
100
AcDbEntity
  8
0
100
AcDbLine
 10
198.7
 20
14.0
 30
0.0
 11
198.9
 21
13.8
 31
0.0
  0
LINE
  5
241
330
1E
100
AcDbEntity
  8
0
100
AcDbLine
 10
198.7
 20
14.0
 30
0.0
 11
198.9
 21
14.0
 31
0.0
  0
LINE
  5
242
330
1E
100
AcDbEntity
  8
0
100
AcDbLine
 10
191.9
 20
15.2
 30
0.0
 11
194.8
 21
15.2
 31
0.0
  0
LINE
  5
243
330
1E
100
AcDbEntity
  8
0
100
AcDbLine
 10
188.6
 20
15.2
 30
0.0
 11
191.9
 21
15.2
 31
0.0
  0
LINE
  5
244
330
1E
100
AcDbEntity
  8
0
100
AcDbLine
 10
194.8
 20
15.2
 30
0.0
 11
197.0
 21
15.2
 31
0.0
  0
LINE
  5
245
330
1E
100
AcDbEntity
  8
0
100
AcDbLine
 10
197.0
 20
15.2
 30
0.0
 11
198.4
 21
15.2
 31
0.0
  0
LINE
  5
246
330
1E
100
AcDbEntity
  8
0
100
AcDbLine
 10
198.4
 20
15.2
 30
0.0
 11
198.9
 21
15.2
 31
0.0
  0
LINE
  5
247
330
1E
100
AcDbEntity
  8
0
100
AcDbLine
 10
198.9
 20
15.2
 30
0.0
 11
198.9
 21
14.0
 31
0.0
  0
LINE
  5
248
330
1E
100
AcDbEntity
  8
0
100
AcDbLine
 10
198.9
 20
15.4
 30
0.0
 11
199.0
 21
15.7
 31
0.0
  0
LINE
  5
249
330
1E
100
AcDbEntity
  8
0
100
AcDbLine
 10
198.7
 20
15.2
 30
0.0
 11
198.9
 21
15.4
 31
0.0
  0
LINE
  5
24A
330
1E
100
AcDbEntity
  8
0
100
AcDbLine
 10
198.2
 20
14.0
 30
0.0
 11
198.7
 21
14.0
 31
0.0
  0
LINE
  5
24B
330
1E
100
AcDbEntity
  8
0
100
AcDbLine
 10
199.0
 20
13.5
 30
0.0
 11
199.0
 21
13.0
 31
0.0
  0
LINE
  5
24C
330
1E
100
AcDbEntity
  8
0
100
AcDbLine
 10
198.9
 20
13.8
 30
0.0
 11
199.0
 21
13.5
 31
0.0
  0
LINE
  5
24D
330
1E
100
AcDbEntity
  8
0
100
AcDbLine
 10
199.0
 20
13.0
 30
0.0
 11
199.4
 21
11.4
 31
0.0
  0
LINE
  5
24E
330
1E
100
AcDbEntity
  8
0
100
AcDbLine
 10
199.0
 20
13.0
 30
0.0
 11
199.0
 21
13.5
 31
0.0
  0
LINE
  5
24F
330
1E
100
AcDbEntity
  8
0
100
AcDbLine
 10
199.4
 20
11.4
 30
0.0
 11
200.0
 21
10.5
 31
0.0
  0
LINE
  5
250
330
1E
100
AcDbEntity
  8
0
100
AcDbLine
 10
200.0
 20
10.5
 30
0.0
 11
200.625
 21
10.0
 31
0.0
  0
LINE
  5
251
330
1E
100
AcDbEntity
  8
0
100
AcDbLine
 10
217.4265
 20
10.0
 30
0.0
 11
218.25
 21
10.0
 31
0.0
  0
LINE
  5
252
330
1E
100
AcDbEntity
  8
0
100
AcDbLine
 10
218.25
 20
10.0
 30
0.0
 11
218.7647
 21
10.0
 31
0.0
  0
LINE
  5
253
330
1E
100
AcDbEntity
  8
0
100
AcDbLine
 10
218.7647
 20
10.0
 30
0.0
 11
218.9706
 21
10.0
 31
0.0
  0
LINE
  5
254
330
1E
100
AcDbEntity
  8
0
100
AcDbLine
 10
218.9706
 20
10.0
 30
0.0
 11
219.6912
 21
9.7
 31
0.0
  0
LINE
  5
255
330
1E
100
AcDbEntity
  8
0
100
AcDbLine
 10
216.3971
 20
10.0
 30
0.0
 11
217.4265
 21
10.0
 31
0.0
  0
LINE
  5
256
330
1E
100
AcDbEntity
  8
0
100
AcDbLine
 10
215.1618
 20
10.0
 30
0.0
 11
216.3971
 21
10.0
 31
0.0
  0
LINE
  5
257
330
1E
100
AcDbEntity
  8
0
100
AcDbLine
 10
213.8235
 20
10.0
 30
0.0
 11
215.1618
 21
10.0
 31
0.0
  0
LINE
  5
258
330
1E
100
AcDbEntity
  8
0
100
AcDbLine
 10
213.8235
 20
9.7
 30
0.0
 11
215.3677
 21
9.7
 31
0.0
  0
LINE
  5
259
330
1E
100
AcDbEntity
  8
0
100
AcDbLine
 10
185.0
 20
9.7
 30
0.0
 11
213.8235
 21
9.7
 31
0.0
  0
LINE
  5
25A
330
1E
100
AcDbEntity
  8
0
100
AcDbLine
 10
199.0
 20
15.7
 30
0.0
 11
199.0
 21
58.0
 31
0.0
  0
LINE
  5
25D
330
1E
100
AcDbEntity
  8
0
100
AcDbLine
 10
168.325
 20
52.0394
 30
0.0
 11
169.7208
 21
49.9104
 31
0.0
  0
LINE
  5
25E
330
1E
100
AcDbEntity
  8
0
100
AcDbLine
 10
131.0747
 20
57.1557
 30
0.0
 11
134.5014
 21
57.0203
 31
0.0
  0
LINE
  5
25F
330
1E
100
AcDbEntity
  8
0
100
AcDbLine
 10
127.8436
 20
57.3046
 30
0.0
 11
131.0747
 21
57.1557
 31
0.0
  0
LINE
  5
260
330
1E
100
AcDbEntity
  8
0
100
AcDbLine
 10
124.8575
 20
57.4718
 30
0.0
 11
127.8436
 21
57.3046
 31
0.0
  0
LINE
  5
261
330
1E
100
AcDbEntity
  8
0
100
AcDbLine
 10
121.3858
 20
57.9232
 30
0.0
 11
124.8575
 21
57.4718
 31
0.0
  0
LINE
  5
267
330
1E
100
AcDbEntity
  8
0
100
AcDbLine
 10
121.0
 20
58.1941
 30
0.0
 11
121.3858
 21
57.9232
 31
0.0
  0
LINE
  5
268
330
1E
100
AcDbEntity
  8
0
100
AcDbLine
 10
121.0
 20
58.1941
 30
0.0
 11
121.0
 21
59.5485
 31
0.0
  0
LINE
  5
26A
330
1E
100
AcDbEntity
  8
0
100
AcDbLine
 10
166.3709
 20
53.7629
 30
0.0
 11
168.325
 21
52.0394
 31
0.0
  0
LINE
  5
26B
330
1E
100
AcDbEntity
  8
0
100
AcDbLine
 10
164.1375
 20
54.6753
 30
0.0
 11
166.3709
 21
53.7629
 31
0.0
  0
LINE
  5
26D
330
1E
100
AcDbEntity
  8
0
100
AcDbLine
 10
161.9042
 20
55.0809
 30
0.0
 11
164.1375
 21
54.6753
 31
0.0
  0
LINE
  5
270
330
1E
100
AcDbEntity
  8
0
100
AcDbLine
 10
134.5014
 20
57.0203
 30
0.0
 11
161.9042
 21
55.0809
 31
0.0
  0
LINE
  5
276
330
1E
100
AcDbEntity
  8
0
100
AcDbLine
 10
121.0
 20
59.5485
 30
0.0
 11
121.0
 21
58.1941
 31
0.0
  0
LINE
  5
278
330
1E
100
AcDbEntity
  8
0
100
AcDbLine
 10
121.0
 20
59.5485
 30
0.0
 11
121.2572
 21
59.8194
 31
0.0
  0
LINE
  5
27B
330
1E
100
AcDbEntity
  8
0
100
AcDbLine
 10
121.6429
 20
60.0
 30
0.0
 11
122.1573
 21
60.0
 31
0.0
  0
LINE
  5
27C
330
1E
100
AcDbEntity
  8
0
100
AcDbLine
 10
121.2572
 20
59.8194
 30
0.0
 11
121.6429
 21
60.0
 31
0.0
  0
LINE
  5
28B
330
1E
100
AcDbEntity
  8
0
100
AcDbLine
 10
198.3409
 20
60.0
 30
0.0
 11
198.7364
 21
59.8
 31
0.0
  0
LINE
  5
28D
330
1E
100
AcDbEntity
  8
0
100
AcDbLine
 10
199.0
 20
59.5
 30
0.0
 11
199.0
 21
58.0
 31
0.0
  0
LINE
  5
28E
330
1E
100
AcDbEntity
  8
0
100
AcDbLine
 10
198.7364
 20
59.8
 30
0.0
 11
199.0
 21
59.5
 31
0.0
  0
LINE
  5
290
330
1E
100
AcDbEntity
  8
0
100
AcDbLine
 10
199.0
 20
58.0
 30
0.0
 11
199.0
 21
59.5
 31
0.0
  0
LINE
  5
291
330
1E
100
AcDbEntity
  8
0
100
AcDbLine
 10
199.0
 20
58.0
 30
0.0
 11
199.0
 21
15.7
 31
0.0
  0
LINE
  5
296
330
1E
100
AcDbEntity
  8
0
100
AcDbLine
 10
260.515
 20
9.7
 30
0.0
 11
261.132
 21
9.7
 31
0.0
  0
LINE
  5
297
330
1E
100
AcDbEntity
  8
0
100
AcDbLine
 10
260.309
 20
9.7
 30
0.0
 11
260.515
 21
9.7
 31
0.0
  0
LINE
  5
298
330
1E
100
AcDbEntity
  8
0
100
AcDbLine
 10
260.309
 20
9.7
 30
0.0
 11
261.029
 21
10.0
 31
0.0
  0
LINE
  5
299
330
1E
100
AcDbEntity
  8
0
100
AcDbLine
 10
260.0
 20
9.0
 30
0.0
 11
260.0
 21
0.0
 31
0.0
  0
LINE
  5
29A
330
1E
100
AcDbEntity
  8
0
100
AcDbLine
 10
260.0
 20
9.0
 30
0.0
 11
260.309
 21
9.7
 31
0.0
  0
LINE
  5
29B
330
1E
100
AcDbEntity
  8
0
100
AcDbLine
 10
260.0
 20
0.0
 30
0.0
 11
260.206
 21
0.0
 31
0.0
  0
LINE
  5
29C
330
1E
100
AcDbEntity
  8
0
100
AcDbLine
 10
260.0
 20
0.0
 30
0.0
 11
260.0
 21
9.0
 31
0.0
  0
LINE
  5
29F
330
1E
100
AcDbEntity
  8
0
100
AcDbLine
 10
261.132
 20
9.7
 30
0.0
 11
262.059
 21
9.7
 31
0.0
  0
LINE
  5
2A6
330
1E
100
AcDbEntity
  8
0
100
AcDbLine
 10
261.853
 20
0.0
 30
0.0
 11
263.088
 21
0.0
 31
0.0
  0
LINE
  5
2A7
330
1E
100
AcDbEntity
  8
0
100
AcDbLine
 10
262.059
 20
9.7
 30
0.0
 11
263.294
 21
9.7
 31
0.0
  0
LINE
  5
2A8
330
1E
100
AcDbEntity
  8
0
100
AcDbLine
 10
263.294
 20
9.7
 30
0.0
 11
264.632
 21
9.7
 31
0.0
  0
LINE
  5
2A9
330
1E
100
AcDbEntity
  8
0
100
AcDbLine
 10
263.088
 20
0.0
 30
0.0
 11
264.632
 21
0.0
 31
0.0
  0
LINE
  5
310
330
1E
100
AcDbEntity
  8
0
100
AcDbLine
 10
264.632
 20
0.0
 30
0.0
 11
266.176
 21
0.0
 31
0.0
  0
LINE
  5
311
330
1E
100
AcDbEntity
  8
0
100
AcDbLine
 10
264.632
 20
9.7
 30
0.0
 11
266.176
 21
9.7
 31
0.0
  0
LINE
  5
312
330
1E
100
AcDbEntity
  8
0
100
AcDbLine
 10
266.176
 20
9.7
 30
0.0
 11
295.0
 21
9.7
 31
0.0
  0
LINE
  5
313
330
1E
100
AcDbEntity
  8
0
100
AcDbLine
 10
266.176
 20
0.0
 30
0.0
 11
295.0
 21
0.0
 31
0.0
  0
LINE
  5
314
330
1E
100
AcDbEntity
  8
0
100
AcDbLine
 10
266.176
 20
0.0
 30
0.0
 11
269.0
 21
0.0
 31
0.0
  0
LINE
  5
42D
330
1E
100
AcDbEntity
  8
0
100
AcDbLine
 10
295.0
 20
10.0
 30
0.0
 11
323.824
 21
10.0
 31
0.0
  0
LINE
  5
42F
330
1E
100
AcDbEntity
  8
0
100
AcDbLine
 10
295.0
 20
9.7
 30
0.0
 11
323.824
 21
9.7
 31
0.0
  0
LINE
  5
430
330
1E
100
AcDbEntity
  8
0
100
AcDbLine
 10
295.0
 20
0.0
 30
0.0
 11
323.824
 21
0.0
 31
0.0
  0
LINE
  5
48D
330
1E
100
AcDbEntity
  8
0
100
AcDbLine
 10
328.147
 20
0.0
 30
0.0
 11
329.176
 21
0.0
 31
0.0
  0
LINE
  5
490
330
1E
100
AcDbEntity
  8
0
100
AcDbLine
 10
329.176
 20
0.0
 30
0.0
 11
329.794
 21
0.0
 31
0.0
  0
LINE
  5
491
330
1E
100
AcDbEntity
  8
0
100
AcDbLine
 10
329.794
 20
0.0
 30
0.0
 11
330.0
 21
0.0
 31
0.0
  0
LINE
  5
56C
330
1E
100
AcDbEntity
  8
0
100
AcDbLine
 10
370.824
 20
0.0
 30
0.0
 11
371.853
 21
0.0
 31
0.0
  0
LINE
  5
56D
330
1E
100
AcDbEntity
  8
0
100
AcDbLine
 10
370.206
 20
0.0
 30
0.0
 11
370.824
 21
0.0
 31
0.0
  0
LINE
  5
56E
330
1E
100
AcDbEntity
  8
0
100
AcDbLine
 10
370.0
 20
0.0
 30
0.0
 11
370.206
 21
0.0
 31
0.0
  0
LINE
  5
56F
330
1E
100
AcDbEntity
  8
0
100
AcDbLine
 10
370.0
 20
0.0
 30
0.0
 11
370.0
 21
9.0
 31
0.0
  0
LINE
  5
570
330
1E
100
AcDbEntity
  8
0
100
AcDbLine
 10
371.853
 20
0.0
 30
0.0
 11
373.088
 21
0.0
 31
0.0
  0
LINE
  5
58D
330
1E
100
AcDbEntity
  8
0
100
AcDbLine
 10
373.088
 20
0.0
 30
0.0
 11
374.632
 21
0.0
 31
0.0
  0
LINE
  5
58E
330
1E
100
AcDbEntity
  8
0
100
AcDbLine
 10
374.632
 20
0.0
 30
0.0
 11
376.176
 21
0.0
 31
0.0
  0
LINE
  5
5EC
330
1E
100
AcDbEntity
  8
0
100
AcDbLine
 10
376.176
 20
0.0
 30
0.0
 11
388.0
 21
0.0
 31
0.0
  0
LINE
  5
5ED
330
1E
100
AcDbEntity
  8
0
100
AcDbLine
 10
376.176
 20
0.0
 30
0.0
 11
405.0
 21
0.0
 31
0.0
  0
LINE
  5
5EE
330
1E
100
AcDbEntity
  8
0
100
AcDbLine
 10
405.0
 20
0.0
 30
0.0
 11
433.824
 21
0.0
 31
0.0
  0
LINE
  5
604
330
1E
100
AcDbEntity
  8
0
100
AcDbLine
 10
438.147
 20
0.0
 30
0.0
 11
439.176
 21
0.0
 31
0.0
  0
LINE
  5
605
330
1E
100
AcDbEntity
  8
0
100
AcDbLine
 10
439.176
 20
0.0
 30
0.0
 11
439.794
 21
0.0
 31
0.0
  0
LINE
  5
625
330
1E
100
AcDbEntity
  8
0
100
AcDbLine
 10
480.824
 20
0.0
 30
0.0
 11
481.853
 21
0.0
 31
0.0
  0
LINE
  5
626
330
1E
100
AcDbEntity
  8
0
100
AcDbLine
 10
480.206
 20
0.0
 30
0.0
 11
480.824
 21
0.0
 31
0.0
  0
LINE
  5
627
330
1E
100
AcDbEntity
  8
0
100
AcDbLine
 10
480.0
 20
0.0
 30
0.0
 11
480.206
 21
0.0
 31
0.0
  0
LINE
  5
634
330
1E
100
AcDbEntity
  8
0
100
AcDbLine
 10
481.853
 20
0.0
 30
0.0
 11
483.088
 21
0.0
 31
0.0
  0
LINE
  5
635
330
1E
100
AcDbEntity
  8
0
100
AcDbLine
 10
483.088
 20
0.0
 30
0.0
 11
484.632
 21
0.0
 31
0.0
  0
LINE
  5
67F
330
1E
100
AcDbEntity
  8
0
100
AcDbLine
 10
489.0
 20
0.0
 30
0.0
 11
543.824
 21
0.0
 31
0.0
  0
LINE
  5
695
330
1E
100
AcDbEntity
  8
0
100
AcDbLine
 10
548.147
 20
0.0
 30
0.0
 11
549.176
 21
0.0
 31
0.0
  0
LINE
  5
696
330
1E
100
AcDbEntity
  8
0
100
AcDbLine
 10
549.176
 20
0.0
 30
0.0
 11
549.794
 21
0.0
 31
0.0
  0
LINE
  5
6D3
330
1E
100
AcDbEntity
  8
0
100
AcDbLine
 10
549.794
 20
0.0
 30
0.0
 11
550.0
 21
0.0
 31
0.0
  0
LINE
  5
6D5
330
1E
100
AcDbEntity
  8
0
100
AcDbLine
 10
546.912
 20
0.0
 30
0.0
 11
548.147
 21
0.0
 31
0.0
  0
LINE
  5
6D6
330
1E
100
AcDbEntity
  8
0
100
AcDbLine
 10
545.368
 20
0.0
 30
0.0
 11
546.912
 21
0.0
 31
0.0
  0
LINE
  5
6D7
330
1E
100
AcDbEntity
  8
0
100
AcDbLine
 10
543.824
 20
0.0
 30
0.0
 11
545.368
 21
0.0
 31
0.0
  0
LINE
  5
6D9
330
1E
100
AcDbEntity
  8
0
100
AcDbLine
 10
484.632
 20
0.0
 30
0.0
 11
486.176
 21
0.0
 31
0.0
  0
LINE
  5
6DB
330
1E
100
AcDbEntity
  8
0
100
AcDbLine
 10
486.176
 20
0.0
 30
0.0
 11
489.0
 21
0.0
 31
0.0
  0
LINE
  5
6DC
330
1E
100
AcDbEntity
  8
0
100
AcDbLine
 10
439.794
 20
0.0
 30
0.0
 11
440.0
 21
0.0
 31
0.0
  0
LINE
  5
6DD
330
1E
100
AcDbEntity
  8
0
100
AcDbLine
 10
440.0
 20
0.0
 30
0.0
 11
440.0
 21
9.0
 31
0.0
  0
LINE
  5
6DE
330
1E
100
AcDbEntity
  8
0
100
AcDbLine
 10
436.912
 20
0.0
 30
0.0
 11
438.147
 21
0.0
 31
0.0
  0
LINE
  5
6DF
330
1E
100
AcDbEntity
  8
0
100
AcDbLine
 10
435.368
 20
0.0
 30
0.0
 11
436.912
 21
0.0
 31
0.0
  0
LINE
  5
6E0
330
1E
100
AcDbEntity
  8
0
100
AcDbLine
 10
433.824
 20
0.0
 30
0.0
 11
435.368
 21
0.0
 31
0.0
  0
LINE
  5
6E1
330
1E
100
AcDbEntity
  8
0
100
AcDbLine
 10
422.0
 20
0.0
 30
0.0
 11
433.824
 21
0.0
 31
0.0
  0
LINE
  5
6E2
330
1E
100
AcDbEntity
  8
0
100
AcDbLine
 10
330.0
 20
0.0
 30
0.0
 11
330.0
 21
9.0
 31
0.0
  0
LINE
  5
6E3
330
1E
100
AcDbEntity
  8
0
100
AcDbLine
 10
326.912
 20
0.0
 30
0.0
 11
328.147
 21
0.0
 31
0.0
  0
LINE
  5
6E4
330
1E
100
AcDbEntity
  8
0
100
AcDbLine
 10
325.368
 20
0.0
 30
0.0
 11
326.912
 21
0.0
 31
0.0
  0
LINE
  5
6E5
330
1E
100
AcDbEntity
  8
0
100
AcDbLine
 10
323.824
 20
10.0
 30
0.0
 11
325.162
 21
10.0
 31
0.0
  0
LINE
  5
6E8
330
1E
100
AcDbEntity
  8
0
100
AcDbLine
 10
370.0
 20
9.0
 30
0.0
 11
370.0
 21
0.0
 31
0.0
  0
LINE
  5
6E9
330
1E
100
AcDbEntity
  8
0
100
AcDbLine
 10
370.0
 20
9.0
 30
0.0
 11
370.309
 21
9.7
 31
0.0
  0
LINE
  5
6EF
330
1E
100
AcDbEntity
  8
0
100
AcDbLine
 10
440.0
 20
9.0
 30
0.0
 11
440.0
 21
0.0
 31
0.0
  0
LINE
  5
6F0
330
1E
100
AcDbEntity
  8
0
100
AcDbLine
 10
327.941
 20
9.7
 30
0.0
 11
328.868
 21
9.7
 31
0.0
  0
LINE
  5
6F1
330
1E
100
AcDbEntity
  8
0
100
AcDbLine
 10
328.868
 20
9.7
 30
0.0
 11
329.485
 21
9.7
 31
0.0
  0
LINE
  5
6F2
330
1E
100
AcDbEntity
  8
0
100
AcDbLine
 10
329.485
 20
9.7
 30
0.0
 11
329.691
 21
9.7
 31
0.0
  0
LINE
  5
6F3
330
1E
100
AcDbEntity
  8
0
100
AcDbLine
 10
371.132
 20
9.7
 30
0.0
 11
372.059
 21
9.7
 31
0.0
  0
LINE
  5
6F4
330
1E
100
AcDbEntity
  8
0
100
AcDbLine
 10
370.515
 20
9.7
 30
0.0
 11
371.132
 21
9.7
 31
0.0
  0
LINE
  5
6F5
330
1E
100
AcDbEntity
  8
0
100
AcDbLine
 10
372.059
 20
9.7
 30
0.0
 11
373.294
 21
9.7
 31
0.0
  0
LINE
  5
6F6
330
1E
100
AcDbEntity
  8
0
100
AcDbLine
 10
373.294
 20
9.7
 30
0.0
 11
374.632
 21
9.7
 31
0.0
  0
LINE
  5
6F7
330
1E
100
AcDbEntity
  8
0
100
AcDbLine
 10
374.632
 20
9.7
 30
0.0
 11
376.176
 21
9.7
 31
0.0
  0
LINE
  5
6F8
330
1E
100
AcDbEntity
  8
0
100
AcDbLine
 10
376.176
 20
9.7
 30
0.0
 11
405.0
 21
9.7
 31
0.0
  0
LINE
  5
6F9
330
1E
100
AcDbEntity
  8
0
100
AcDbLine
 10
370.309
 20
9.7
 30
0.0
 11
370.515
 21
9.7
 31
0.0
  0
LINE
  5
6FA
330
1E
100
AcDbEntity
  8
0
100
AcDbLine
 10
370.309
 20
9.7
 30
0.0
 11
371.029
 21
10.0
 31
0.0
  0
LINE
  5
6FB
330
1E
100
AcDbEntity
  8
0
100
AcDbLine
 10
437.941
 20
9.7
 30
0.0
 11
438.868
 21
9.7
 31
0.0
  0
LINE
  5
6FC
330
1E
100
AcDbEntity
  8
0
100
AcDbLine
 10
438.868
 20
9.7
 30
0.0
 11
439.485
 21
9.7
 31
0.0
  0
LINE
  5
70D
330
1E
100
AcDbEntity
  8
0
100
AcDbLine
 10
439.485
 20
9.7
 30
0.0
 11
439.691
 21
9.7
 31
0.0
  0
LINE
  5
70E
330
1E
100
AcDbEntity
  8
0
100
AcDbLine
 10
439.691
 20
9.7
 30
0.0
 11
440.0
 21
9.0
 31
0.0
  0
LINE
  5
70F
330
1E
100
AcDbEntity
  8
0
100
AcDbLine
 10
436.706
 20
9.7
 30
0.0
 11
437.941
 21
9.7
 31
0.0
  0
LINE
  5
710
330
1E
100
AcDbEntity
  8
0
100
AcDbLine
 10
435.368
 20
9.7
 30
0.0
 11
436.706
 21
9.7
 31
0.0
  0
LINE
  5
711
330
1E
100
AcDbEntity
  8
0
100
AcDbLine
 10
433.824
 20
9.7
 30
0.0
 11
435.368
 21
9.7
 31
0.0
  0
LINE
  5
712
330
1E
100
AcDbEntity
  8
0
100
AcDbLine
 10
405.0
 20
9.7
 30
0.0
 11
433.824
 21
9.7
 31
0.0
  0
LINE
  5
713
330
1E
100
AcDbEntity
  8
0
100
AcDbLine
 10
329.691
 20
9.7
 30
0.0
 11
330.0
 21
9.0
 31
0.0
  0
LINE
  5
714
330
1E
100
AcDbEntity
  8
0
100
AcDbLine
 10
330.0
 20
9.0
 30
0.0
 11
330.0
 21
0.0
 31
0.0
  0
LINE
  5
715
330
1E
100
AcDbEntity
  8
0
100
AcDbLine
 10
326.706
 20
9.7
 30
0.0
 11
327.941
 21
9.7
 31
0.0
  0
LINE
  5
716
330
1E
100
AcDbEntity
  8
0
100
AcDbLine
 10
327.426
 20
10.0
 30
0.0
 11
328.25
 21
10.0
 31
0.0
  0
LINE
  5
717
330
1E
100
AcDbEntity
  8
0
100
AcDbLine
 10
328.25
 20
10.0
 30
0.0
 11
328.765
 21
10.0
 31
0.0
  0
LINE
  5
718
330
1E
100
AcDbEntity
  8
0
100
AcDbLine
 10
328.765
 20
10.0
 30
0.0
 11
328.971
 21
10.0
 31
0.0
  0
LINE
  5
719
330
1E
100
AcDbEntity
  8
0
100
AcDbLine
 10
376.176
 20
10.0
 30
0.0
 11
405.0
 21
10.0
 31
0.0
  0
LINE
  5
71A
330
1E
100
AcDbEntity
  8
0
100
AcDbLine
 10
374.838
 20
10.0
 30
0.0
 11
376.176
 21
10.0
 31
0.0
  0
LINE
  5
71B
330
1E
100
AcDbEntity
  8
0
100
AcDbLine
 10
373.603
 20
10.0
 30
0.0
 11
374.838
 21
10.0
 31
0.0
  0
LINE
  5
71C
330
1E
100
AcDbEntity
  8
0
100
AcDbLine
 10
372.574
 20
10.0
 30
0.0
 11
373.603
 21
10.0
 31
0.0
  0
LINE
  5
71D
330
1E
100
AcDbEntity
  8
0
100
AcDbLine
 10
371.75
 20
10.0
 30
0.0
 11
372.574
 21
10.0
 31
0.0
  0
LINE
  5
71E
330
1E
100
AcDbEntity
  8
0
100
AcDbLine
 10
371.235
 20
10.0
 30
0.0
 11
371.75
 21
10.0
 31
0.0
  0
LINE
  5
71F
330
1E
100
AcDbEntity
  8
0
100
AcDbLine
 10
371.029
 20
10.0
 30
0.0
 11
371.235
 21
10.0
 31
0.0
  0
LINE
  5
720
330
1E
100
AcDbEntity
  8
0
100
AcDbLine
 10
389.375
 20
10.0
 30
0.0
 11
390.0
 21
10.5
 31
0.0
  0
LINE
  5
721
330
1E
100
AcDbEntity
  8
0
100
AcDbLine
 10
437.426
 20
10.0
 30
0.0
 11
438.25
 21
10.0
 31
0.0
  0
LINE
  5
722
330
1E
100
AcDbEntity
  8
0
100
AcDbLine
 10
438.25
 20
10.0
 30
0.0
 11
438.765
 21
10.0
 31
0.0
  0
LINE
  5
733
330
1E
100
AcDbEntity
  8
0
100
AcDbLine
 10
438.765
 20
10.0
 30
0.0
 11
438.971
 21
10.0
 31
0.0
  0
LINE
  5
734
330
1E
100
AcDbEntity
  8
0
100
AcDbLine
 10
438.971
 20
10.0
 30
0.0
 11
439.691
 21
9.7
 31
0.0
  0
LINE
  5
735
330
1E
100
AcDbEntity
  8
0
100
AcDbLine
 10
436.397
 20
10.0
 30
0.0
 11
437.426
 21
10.0
 31
0.0
  0
LINE
  5
736
330
1E
100
AcDbEntity
  8
0
100
AcDbLine
 10
435.162
 20
10.0
 30
0.0
 11
436.397
 21
10.0
 31
0.0
  0
LINE
  5
737
330
1E
100
AcDbEntity
  8
0
100
AcDbLine
 10
433.824
 20
10.0
 30
0.0
 11
435.162
 21
10.0
 31
0.0
  0
LINE
  5
738
330
1E
100
AcDbEntity
  8
0
100
AcDbLine
 10
405.0
 20
10.0
 30
0.0
 11
433.824
 21
10.0
 31
0.0
  0
LINE
  5
739
330
1E
100
AcDbEntity
  8
0
100
AcDbLine
 10
328.971
 20
10.0
 30
0.0
 11
329.691
 21
9.7
 31
0.0
  0
LINE
  5
73A
330
1E
100
AcDbEntity
  8
0
100
AcDbLine
 10
326.397
 20
10.0
 30
0.0
 11
327.426
 21
10.0
 31
0.0
  0
LINE
  5
73B
330
1E
100
AcDbEntity
  8
0
100
AcDbLine
 10
325.162
 20
10.0
 30
0.0
 11
326.397
 21
10.0
 31
0.0
  0
LINE
  5
73C
330
1E
100
AcDbEntity
  8
0
100
AcDbLine
 10
325.368
 20
9.7
 30
0.0
 11
326.706
 21
9.7
 31
0.0
  0
LINE
  5
73D
330
1E
100
AcDbEntity
  8
0
100
AcDbLine
 10
323.824
 20
9.7
 30
0.0
 11
325.368
 21
9.7
 31
0.0
  0
LINE
  5
73E
330
1E
100
AcDbEntity
  8
0
100
AcDbLine
 10
323.824
 20
0.0
 30
0.0
 11
325.368
 21
0.0
 31
0.0
  0
LINE
  5
73F
330
1E
100
AcDbEntity
  8
0
100
AcDbLine
 10
321.0
 20
0.0
 30
0.0
 11
323.824
 21
0.0
 31
0.0
  0
LINE
  5
740
330
1E
100
AcDbEntity
  8
0
100
AcDbLine
 10
271.675
 20
10.0
 30
0.0
 11
272.2
 21
10.3
 31
0.0
  0
LINE
  5
741
330
1E
100
AcDbEntity
  8
0
100
AcDbLine
 10
266.176
 20
10.0
 30
0.0
 11
295.0
 21
10.0
 31
0.0
  0
LINE
  5
742
330
1E
100
AcDbEntity
  8
0
100
AcDbLine
 10
264.838
 20
10.0
 30
0.0
 11
266.176
 21
10.0
 31
0.0
  0
LINE
  5
743
330
1E
100
AcDbEntity
  8
0
100
AcDbLine
 10
263.603
 20
10.0
 30
0.0
 11
264.838
 21
10.0
 31
0.0
  0
LINE
  5
744
330
1E
100
AcDbEntity
  8
0
100
AcDbLine
 10
262.574
 20
10.0
 30
0.0
 11
263.603
 21
10.0
 31
0.0
  0
LINE
  5
745
330
1E
100
AcDbEntity
  8
0
100
AcDbLine
 10
261.75
 20
10.0
 30
0.0
 11
262.574
 21
10.0
 31
0.0
  0
LINE
  5
746
330
1E
100
AcDbEntity
  8
0
100
AcDbLine
 10
317.3
 20
11.0
 30
0.0
 11
317.8
 21
10.3
 31
0.0
  0
LINE
  5
747
330
1E
100
AcDbEntity
  8
0
100
AcDbLine
 10
390.0
 20
10.5
 30
0.0
 11
390.6
 21
11.4
 31
0.0
  0
LINE
  5
748
330
1E
100
AcDbEntity
  8
0
100
AcDbLine
 10
420.0
 20
10.5
 30
0.0
 11
420.625
 21
10.0
 31
0.0
  0
LINE
  5
749
330
1E
100
AcDbEntity
  8
0
100
AcDbLine
 10
317.8
 20
10.3
 30
0.0
 11
318.325
 21
10.0
 31
0.0
  0
LINE
  5
74A
330
1E
100
AcDbEntity
  8
0
100
AcDbLine
 10
273.0
 20
12.0
 30
0.0
 11
273.0
 21
33.5
 31
0.0
  0
LINE
  5
74B
330
1E
100
AcDbEntity
  8
0
100
AcDbLine
 10
279.5
 20
33.5
 30
0.0
 11
284.1
 21
33.5
 31
0.0
  0
LINE
  5
74C
330
1E
100
AcDbEntity
  8
0
100
AcDbLine
 10
310.5
 20
33.5
 30
0.0
 11
314.1
 21
33.5
 31
0.0
  0
LINE
  5
74D
330
1E
100
AcDbEntity
  8
0
100
AcDbLine
 10
317.0
 20
33.5
 30
0.0
 11
317.0
 21
12.0
 31
0.0
  0
LINE
  5
74E
330
1E
100
AcDbEntity
  8
0
100
AcDbLine
 10
314.1
 20
33.5
 30
0.0
 11
316.2
 21
33.5
 31
0.0
  0
LINE
  5
74F
330
1E
100
AcDbEntity
  8
0
100
AcDbLine
 10
316.2
 20
33.5
 30
0.0
 11
317.0
 21
33.5
 31
0.0
  0
LINE
  5
750
330
1E
100
AcDbEntity
  8
0
100
AcDbLine
 10
390.6
 20
11.4
 30
0.0
 11
391.0
 21
13.0
 31
0.0
  0
LINE
  5
751
330
1E
100
AcDbEntity
  8
0
100
AcDbLine
 10
391.0
 20
13.5
 30
0.0
 11
391.1
 21
13.8
 31
0.0
  0
LINE
  5
752
330
1E
100
AcDbEntity
  8
0
100
AcDbLine
 10
391.0
 20
13.5
 30
0.0
 11
391.0
 21
13.0
 31
0.0
  0
LINE
  5
753
330
1E
100
AcDbEntity
  8
0
100
AcDbLine
 10
391.0
 20
13.0
 30
0.0
 11
391.0
 21
13.5
 31
0.0
  0
LINE
  5
754
330
1E
100
AcDbEntity
  8
0
100
AcDbLine
 10
391.1
 20
14.0
 30
0.0
 11
391.6
 21
14.0
 31
0.0
  0
LINE
  5
755
330
1E
100
AcDbEntity
  8
0
100
AcDbLine
 10
391.1
 20
14.0
 30
0.0
 11
391.3
 21
14.0
 31
0.0
  0
LINE
  5
756
330
1E
100
AcDbEntity
  8
0
100
AcDbLine
 10
391.1
 20
14.0
 30
0.0
 11
391.1
 21
15.2
 31
0.0
  0
LINE
  5
757
330
1E
100
AcDbEntity
  8
0
100
AcDbLine
 10
393.0
 20
14.0
 30
0.0
 11
395.2
 21
14.0
 31
0.0
  0
LINE
  5
758
330
1E
100
AcDbEntity
  8
0
100
AcDbLine
 10
391.6
 20
14.0
 30
0.0
 11
393.0
 21
14.0
 31
0.0
  0
LINE
  5
759
330
1E
100
AcDbEntity
  8
0
100
AcDbLine
 10
395.2
 20
14.0
 30
0.0
 11
398.1
 21
14.0
 31
0.0
  0
LINE
  5
75A
330
1E
100
AcDbEntity
  8
0
100
AcDbLine
 10
398.1
 20
14.0
 30
0.0
 11
401.4
 21
14.0
 31
0.0
  0
LINE
  5
75B
330
1E
100
AcDbEntity
  8
0
100
AcDbLine
 10
395.3
 20
14.0
 30
0.0
 11
398.2
 21
14.0
 31
0.0
  0
LINE
  5
75C
330
1E
100
AcDbEntity
  8
0
100
AcDbLine
 10
401.4
 20
14.0
 30
0.0
 11
405.0
 21
14.0
 31
0.0
  0
LINE
  5
75D
330
1E
100
AcDbEntity
  8
0
100
AcDbLine
 10
398.2
 20
14.0
 30
0.0
 11
401.5
 21
14.0
 31
0.0
  0
LINE
  5
75E
330
1E
100
AcDbEntity
  8
0
100
AcDbLine
 10
401.5
 20
14.0
 30
0.0
 11
405.0
 21
14.0
 31
0.0
  0
LINE
  5
75F
330
1E
100
AcDbEntity
  8
0
100
AcDbLine
 10
411.9
 20
14.0
 30
0.0
 11
414.8
 21
14.0
 31
0.0
  0
LINE
  5
760
330
1E
100
AcDbEntity
  8
0
100
AcDbLine
 10
408.6
 20
14.0
 30
0.0
 11
411.9
 21
14.0
 31
0.0
  0
LINE
  5
761
330
1E
100
AcDbEntity
  8
0
100
AcDbLine
 10
411.8
 20
14.0
 30
0.0
 11
414.7
 21
14.0
 31
0.0
  0
LINE
  5
762
330
1E
100
AcDbEntity
  8
0
100
AcDbLine
 10
408.5
 20
14.0
 30
0.0
 11
411.8
 21
14.0
 31
0.0
  0
LINE
  5
763
330
1E
100
AcDbEntity
  8
0
100
AcDbLine
 10
405.0
 20
14.0
 30
0.0
 11
408.5
 21
14.0
 31
0.0
  0
LINE
  5
764
330
1E
100
AcDbEntity
  8
0
100
AcDbLine
 10
405.0
 20
14.0
 30
0.0
 11
408.6
 21
14.0
 31
0.0
  0
LINE
  5
765
330
1E
100
AcDbEntity
  8
0
100
AcDbLine
 10
393.1
 20
14.0
 30
0.0
 11
395.3
 21
14.0
 31
0.0
  0
LINE
  5
766
330
1E
100
AcDbEntity
  8
0
100
AcDbLine
 10
391.8
 20
14.0
 30
0.0
 11
393.1
 21
14.0
 31
0.0
  0
LINE
  5
767
330
1E
100
AcDbEntity
  8
0
100
AcDbLine
 10
391.3
 20
14.0
 30
0.0
 11
391.8
 21
14.0
 31
0.0
  0
LINE
  5
768
330
1E
100
AcDbEntity
  8
0
100
AcDbLine
 10
391.1
 20
13.8
 30
0.0
 11
391.3
 21
14.0
 31
0.0
  0
LINE
  5
769
330
1E
100
AcDbEntity
  8
0
100
AcDbLine
 10
414.8
 20
14.0
 30
0.0
 11
417.0
 21
14.0
 31
0.0
  0
LINE
  5
76A
330
1E
100
AcDbEntity
  8
0
100
AcDbLine
 10
417.0
 20
14.0
 30
0.0
 11
418.4
 21
14.0
 31
0.0
  0
LINE
  5
76B
330
1E
100
AcDbEntity
  8
0
100
AcDbLine
 10
414.7
 20
14.0
 30
0.0
 11
416.9
 21
14.0
 31
0.0
  0
LINE
  5
76C
330
1E
100
AcDbEntity
  8
0
100
AcDbLine
 10
416.9
 20
14.0
 30
0.0
 11
418.2
 21
14.0
 31
0.0
  0
LINE
  5
76D
330
1E
100
AcDbEntity
  8
0
100
AcDbLine
 10
418.9
 20
14.0
 30
0.0
 11
418.9
 21
15.2
 31
0.0
  0
LINE
  5
76E
330
1E
100
AcDbEntity
  8
0
100
AcDbLine
 10
418.4
 20
14.0
 30
0.0
 11
418.9
 21
14.0
 31
0.0
  0
LINE
  5
76F
330
1E
100
AcDbEntity
  8
0
100
AcDbLine
 10
418.2
 20
14.0
 30
0.0
 11
418.7
 21
14.0
 31
0.0
  0
LINE
  5
770
330
1E
100
AcDbEntity
  8
0
100
AcDbLine
 10
391.1
 20
15.2
 30
0.0
 11
391.6
 21
15.2
 31
0.0
  0
LINE
  5
771
330
1E
100
AcDbEntity
  8
0
100
AcDbLine
 10
391.1
 20
15.2
 30
0.0
 11
391.1
 21
14.0
 31
0.0
  0
LINE
  5
772
330
1E
100
AcDbEntity
  8
0
100
AcDbLine
 10
395.2
 20
15.2
 30
0.0
 11
398.1
 21
15.2
 31
0.0
  0
LINE
  5
773
330
1E
100
AcDbEntity
  8
0
100
AcDbLine
 10
398.1
 20
15.2
 30
0.0
 11
401.4
 21
15.2
 31
0.0
  0
LINE
  5
774
330
1E
100
AcDbEntity
  8
0
100
AcDbLine
 10
401.4
 20
15.2
 30
0.0
 11
405.0
 21
15.2
 31
0.0
  0
LINE
  5
775
330
1E
100
AcDbEntity
  8
0
100
AcDbLine
 10
393.0
 20
15.2
 30
0.0
 11
395.2
 21
15.2
 31
0.0
  0
LINE
  5
776
330
1E
100
AcDbEntity
  8
0
100
AcDbLine
 10
391.6
 20
15.2
 30
0.0
 11
393.0
 21
15.2
 31
0.0
  0
LINE
  5
777
330
1E
100
AcDbEntity
  8
0
100
AcDbLine
 10
411.9
 20
15.2
 30
0.0
 11
414.8
 21
15.2
 31
0.0
  0
LINE
  5
778
330
1E
100
AcDbEntity
  8
0
100
AcDbLine
 10
408.6
 20
15.2
 30
0.0
 11
411.9
 21
15.2
 31
0.0
  0
LINE
  5
779
330
1E
100
AcDbEntity
  8
0
100
AcDbLine
 10
405.0
 20
15.2
 30
0.0
 11
408.6
 21
15.2
 31
0.0
  0
LINE
  5
77A
330
1E
100
AcDbEntity
  8
0
100
AcDbLine
 10
414.8
 20
15.2
 30
0.0
 11
417.0
 21
15.2
 31
0.0
  0
LINE
  5
77B
330
1E
100
AcDbEntity
  8
0
100
AcDbLine
 10
417.0
 20
15.2
 30
0.0
 11
418.4
 21
15.2
 31
0.0
  0
LINE
  5
77C
330
1E
100
AcDbEntity
  8
0
100
AcDbLine
 10
418.4
 20
15.2
 30
0.0
 11
418.9
 21
15.2
 31
0.0
  0
LINE
  5
77D
330
1E
100
AcDbEntity
  8
0
100
AcDbLine
 10
391.1
 20
15.4
 30
0.0
 11
391.3
 21
15.2
 31
0.0
  0
LINE
  5
77E
330
1E
100
AcDbEntity
  8
0
100
AcDbLine
 10
391.0
 20
15.7
 30
0.0
 11
391.0
 21
58.0
 31
0.0
  0
LINE
  5
77F
330
1E
100
AcDbEntity
  8
0
100
AcDbLine
 10
391.0
 20
15.7
 30
0.0
 11
391.1
 21
15.4
 31
0.0
  0
LINE
  5
780
330
1E
100
AcDbEntity
  8
0
100
AcDbLine
 10
418.9
 20
15.2
 30
0.0
 11
418.9
 21
14.0
 31
0.0
  0
LINE
  5
781
330
1E
100
AcDbEntity
  8
0
100
AcDbLine
 10
418.9
 20
15.4
 30
0.0
 11
419.0
 21
15.7
 31
0.0
  0
LINE
  5
782
330
1E
100
AcDbEntity
  8
0
100
AcDbLine
 10
418.7
 20
15.2
 30
0.0
 11
418.9
 21
15.4
 31
0.0
  0
LINE
  5
783
330
1E
100
AcDbEntity
  8
0
100
AcDbLine
 10
418.7
 20
14.0
 30
0.0
 11
418.9
 21
13.8
 31
0.0
  0
LINE
  5
784
330
1E
100
AcDbEntity
  8
0
100
AcDbLine
 10
418.7
 20
14.0
 30
0.0
 11
418.9
 21
14.0
 31
0.0
  0
LINE
  5
785
330
1E
100
AcDbEntity
  8
0
100
AcDbLine
 10
418.9
 20
13.8
 30
0.0
 11
419.0
 21
13.5
 31
0.0
  0
LINE
  5
786
330
1E
100
AcDbEntity
  8
0
100
AcDbLine
 10
419.0
 20
13.5
 30
0.0
 11
419.0
 21
13.0
 31
0.0
  0
LINE
  5
7B7
330
1E
100
AcDbEntity
  8
0
100
AcDbLine
 10
419.0
 20
13.0
 30
0.0
 11
419.4
 21
11.4
 31
0.0
  0
LINE
  5
7B8
330
1E
100
AcDbEntity
  8
0
100
AcDbLine
 10
419.0
 20
13.0
 30
0.0
 11
419.0
 21
13.5
 31
0.0
  0
LINE
  5
7B9
330
1E
100
AcDbEntity
  8
0
100
AcDbLine
 10
419.4
 20
11.4
 30
0.0
 11
420.0
 21
10.5
 31
0.0
  0
LINE
  5
7BA
330
1E
100
AcDbEntity
  8
0
100
AcDbLine
 10
317.0
 20
12.0
 30
0.0
 11
317.3
 21
11.0
 31
0.0
  0
LINE
  5
7BB
330
1E
100
AcDbEntity
  8
0
100
AcDbLine
 10
317.0
 20
12.0
 30
0.0
 11
317.0
 21
33.5
 31
0.0
  0
LINE
  5
7BC
330
1E
100
AcDbEntity
  8
0
100
AcDbLine
 10
305.9
 20
33.5
 30
0.0
 11
310.5
 21
33.5
 31
0.0
  0
LINE
  5
7BD
330
1E
100
AcDbEntity
  8
0
100
AcDbLine
 10
300.7
 20
33.5
 30
0.0
 11
305.9
 21
33.5
 31
0.0
  0
LINE
  5
7BE
330
1E
100
AcDbEntity
  8
0
100
AcDbLine
 10
295.0
 20
33.5
 30
0.0
 11
300.7
 21
33.5
 31
0.0
  0
LINE
  5
7BF
330
1E
100
AcDbEntity
  8
0
100
AcDbLine
 10
284.1
 20
33.5
 30
0.0
 11
289.3
 21
33.5
 31
0.0
  0
LINE
  5
7C0
330
1E
100
AcDbEntity
  8
0
100
AcDbLine
 10
289.3
 20
33.5
 30
0.0
 11
295.0
 21
33.5
 31
0.0
  0
LINE
  5
7C1
330
1E
100
AcDbEntity
  8
0
100
AcDbLine
 10
275.9
 20
33.5
 30
0.0
 11
279.5
 21
33.5
 31
0.0
  0
LINE
  5
7C2
330
1E
100
AcDbEntity
  8
0
100
AcDbLine
 10
279.8
 20
34.0
 30
0.0
 11
284.3
 21
34.0
 31
0.0
  0
LINE
  5
7C3
330
1E
100
AcDbEntity
  8
0
100
AcDbLine
 10
284.3
 20
34.0
 30
0.0
 11
289.5
 21
34.0
 31
0.0
  0
LINE
  5
7C4
330
1E
100
AcDbEntity
  8
0
100
AcDbLine
 10
310.2
 20
34.0
 30
0.0
 11
313.6
 21
34.0
 31
0.0
  0
LINE
  5
7C5
330
1E
100
AcDbEntity
  8
0
100
AcDbLine
 10
313.6
 20
34.0
 30
0.0
 11
315.7
 21
34.0
 31
0.0
  0
LINE
  5
7CB
330
1E
100
AcDbEntity
  8
0
100
AcDbLine
 10
316.5
 20
34.0
 30
0.0
 11
317.0
 21
33.5
 31
0.0
  0
LINE
  5
7CC
330
1E
100
AcDbEntity
  8
0
100
AcDbLine
 10
315.7
 20
34.0
 30
0.0
 11
316.5
 21
34.0
 31
0.0
  0
LINE
  5
7CD
330
1E
100
AcDbEntity
  8
0
100
AcDbLine
 10
305.7
 20
34.0
 30
0.0
 11
310.2
 21
34.0
 31
0.0
  0
LINE
  5
7CE
330
1E
100
AcDbEntity
  8
0
100
AcDbLine
 10
300.5
 20
34.0
 30
0.0
 11
305.7
 21
34.0
 31
0.0
  0
LINE
  5
7CF
330
1E
100
AcDbEntity
  8
0
100
AcDbLine
 10
295.0
 20
34.0
 30
0.0
 11
300.5
 21
34.0
 31
0.0
  0
LINE
  5
7D0
330
1E
100
AcDbEntity
  8
0
100
AcDbLine
 10
289.5
 20
34.0
 30
0.0
 11
295.0
 21
34.0
 31
0.0
  0
LINE
  5
7D1
330
1E
100
AcDbEntity
  8
0
100
AcDbLine
 10
278.0
 20
34.0
 30
0.0
 11
279.5
 21
34.5
 31
0.0
  0
LINE
  5
7D2
330
1E
100
AcDbEntity
  8
0
100
AcDbLine
 10
276.4
 20
34.0
 30
0.0
 11
279.8
 21
34.0
 31
0.0
  0
LINE
  5
7D5
330
1E
100
AcDbEntity
  8
0
100
AcDbLine
 10
309.5
 20
35.5
 30
0.0
 11
310.5
 21
34.5
 31
0.0
  0
LINE
  5
7D6
330
1E
100
AcDbEntity
  8
0
100
AcDbLine
 10
310.5
 20
34.5
 30
0.0
 11
312.0
 21
34.0
 31
0.0
  0
LINE
  5
7D8
330
1E
100
AcDbEntity
  8
0
100
AcDbLine
 10
280.5
 20
35.5
 30
0.0
 11
281.0
 21
37.5
 31
0.0
  0
LINE
  5
7D9
330
1E
100
AcDbEntity
  8
0
100
AcDbLine
 10
281.0
 20
230.717
 30
0.0
 11
281.0
 21
223.918
 31
0.0
  0
LINE
  5
7DA
330
1E
100
AcDbEntity
  8
0
100
AcDbLine
 10
281.0
 20
230.717
 30
0.0
 11
281.0
 21
237.282
 31
0.0
  0
LINE
  5
7DB
330
1E
100
AcDbEntity
  8
0
100
AcDbLine
 10
281.0
 20
223.918
 30
0.0
 11
281.0
 21
217.0
 31
0.0
  0
LINE
  5
7DC
330
1E
100
AcDbEntity
  8
0
100
AcDbLine
 10
281.0
 20
223.918
 30
0.0
 11
281.0
 21
230.717
 31
0.0
  0
LINE
  5
7DD
330
1E
100
AcDbEntity
  8
0
100
AcDbLine
 10
281.0
 20
243.5
 30
0.0
 11
281.0
 21
249.264
 31
0.0
  0
LINE
  5
7DE
330
1E
100
AcDbEntity
  8
0
100
AcDbLine
 10
281.0
 20
243.5
 30
0.0
 11
281.0
 21
237.282
 31
0.0
  0
LINE
  5
7DF
330
1E
100
AcDbEntity
  8
0
100
AcDbLine
 10
281.0
 20
265.966
 30
0.0
 11
281.0
 21
262.899
 31
0.0
  0
LINE
  5
7E0
330
1E
100
AcDbEntity
  8
0
100
AcDbLine
 10
281.0
 20
265.966
 30
0.0
 11
281.0
 21
268.194
 31
0.0
  0
LINE
  5
7E1
330
1E
100
AcDbEntity
  8
0
100
AcDbLine
 10
281.0
 20
262.899
 30
0.0
 11
281.0
 21
259.048
 31
0.0
  0
LINE
  5
7E2
330
1E
100
AcDbEntity
  8
0
100
AcDbLine
 10
281.0
 20
262.899
 30
0.0
 11
281.0
 21
265.966
 31
0.0
  0
LINE
  5
7E3
330
1E
100
AcDbEntity
  8
0
100
AcDbLine
 10
281.0
 20
259.048
 30
0.0
 11
281.0
 21
262.899
 31
0.0
  0
LINE
  5
7E4
330
1E
100
AcDbEntity
  8
0
100
AcDbLine
 10
281.0
 20
259.048
 30
0.0
 11
281.0
 21
254.477
 31
0.0
  0
LINE
  5
7E5
330
1E
100
AcDbEntity
  8
0
100
AcDbLine
 10
281.0
 20
268.194
 30
0.0
 11
281.0
 21
269.547
 31
0.0
  0
LINE
  5
7E6
330
1E
100
AcDbEntity
  8
0
100
AcDbLine
 10
281.0
 20
268.194
 30
0.0
 11
281.0
 21
265.966
 31
0.0
  0
LINE
  5
7E7
330
1E
100
AcDbEntity
  8
0
100
AcDbLine
 10
281.0
 20
270.0
 30
0.0
 11
281.5
 21
273.6
 31
0.0
  0
LINE
  5
7E8
330
1E
100
AcDbEntity
  8
0
100
AcDbLine
 10
281.0
 20
270.0
 30
0.0
 11
281.0
 21
269.547
 31
0.0
  0
LINE
  5
7E9
330
1E
100
AcDbEntity
  8
0
100
AcDbLine
 10
281.0
 20
270.0
 30
0.0
 11
281.031594364625
 21
269.772520574697
 31
0.0
  0
LINE
  5
7EA
330
1E
100
AcDbEntity
  8
0
100
AcDbLine
 10
281.0
 20
269.547
 30
0.0
 11
281.0
 21
270.0
 31
0.0
  0
LINE
  5
7EB
330
1E
100
AcDbEntity
  8
0
100
AcDbLine
 10
281.0
 20
269.547
 30
0.0
 11
281.0
 21
268.194
 31
0.0
  0
LINE
  5
7EC
330
1E
100
AcDbEntity
  8
0
100
AcDbLine
 10
281.0
 20
249.264
 30
0.0
 11
281.0
 21
254.477
 31
0.0
  0
LINE
  5
7ED
330
1E
100
AcDbEntity
  8
0
100
AcDbLine
 10
281.0
 20
249.264
 30
0.0
 11
281.0
 21
243.5
 31
0.0
  0
LINE
  5
7EE
330
1E
100
AcDbEntity
  8
0
100
AcDbLine
 10
281.0
 20
254.477
 30
0.0
 11
281.0
 21
249.264
 31
0.0
  0
LINE
  5
7EF
330
1E
100
AcDbEntity
  8
0
100
AcDbLine
 10
281.0
 20
254.477
 30
0.0
 11
281.0
 21
259.048
 31
0.0
  0
LINE
  5
7F0
330
1E
100
AcDbEntity
  8
0
100
AcDbLine
 10
281.0
 20
237.282
 30
0.0
 11
281.0
 21
165.515
 31
0.0
  0
LINE
  5
7F1
330
1E
100
AcDbEntity
  8
0
100
AcDbLine
 10
281.0
 20
237.282
 30
0.0
 11
281.0
 21
243.5
 31
0.0
  0
LINE
  5
7F2
330
1E
100
AcDbEntity
  8
0
100
AcDbLine
 10
281.0
 20
237.282
 30
0.0
 11
281.0
 21
230.717
 31
0.0
  0
LINE
  5
7F3
330
1E
100
AcDbEntity
  8
0
100
AcDbLine
 10
281.0
 20
165.515
 30
0.0
 11
281.533
 21
164.0
 31
0.0
  0
LINE
  5
7F4
330
1E
100
AcDbEntity
  8
0
100
AcDbLine
 10
281.0
 20
165.515
 30
0.0
 11
281.0
 21
237.282
 31
0.0
  0
LINE
  5
7F5
330
1E
100
AcDbEntity
  8
0
100
AcDbLine
 10
281.0
 20
165.515
 30
0.0
 11
281.533
 21
167.03
 31
0.0
  0
LINE
  5
7F6
330
1E
100
AcDbEntity
  8
0
100
AcDbLine
 10
281.0
 20
37.5
 30
0.0
 11
281.0
 21
217.0
 31
0.0
  0
LINE
  5
7F7
330
1E
100
AcDbEntity
  8
0
100
AcDbLine
 10
284.6
 20
162.533
 30
0.0
 11
286.467
 21
161.467
 31
0.0
  0
LINE
  5
7F8
330
1E
100
AcDbEntity
  8
0
100
AcDbLine
 10
283.4
 20
162.253
 30
0.0
 11
285.533
 21
161.074
 31
0.0
  0
LINE
  5
7F9
330
1E
100
AcDbEntity
  8
0
100
AcDbLine
 10
286.467
 20
161.467
 30
0.0
 11
289.0
 21
160.682
 31
0.0
  0
LINE
  5
7FA
330
1E
100
AcDbEntity
  8
0
100
AcDbLine
 10
289.0
 20
160.682
 30
0.0
 11
291.933
 21
160.177
 31
0.0
  0
LINE
  5
7FB
330
1E
100
AcDbEntity
  8
0
100
AcDbLine
 10
285.533
 20
161.074
 30
0.0
 11
288.333
 21
160.177
 31
0.0
  0
LINE
  5
7FC
330
1E
100
AcDbEntity
  8
0
100
AcDbLine
 10
288.333
 20
160.177
 30
0.0
 11
291.533
 21
159.672
 31
0.0
  0
LINE
  5
7FD
330
1E
100
AcDbEntity
  8
0
100
AcDbLine
 10
298.067
 20
160.177
 30
0.0
 11
301.0
 21
160.682
 31
0.0
  0
LINE
  5
7FE
330
1E
100
AcDbEntity
  8
0
100
AcDbLine
 10
295.0
 20
160.008
 30
0.0
 11
298.067
 21
160.177
 31
0.0
  0
LINE
  5
7FF
330
1E
100
AcDbEntity
  8
0
100
AcDbLine
 10
301.667
 20
160.177
 30
0.0
 11
304.467
 21
161.074
 31
0.0
  0
LINE
  5
800
330
1E
100
AcDbEntity
  8
0
100
AcDbLine
 10
298.467
 20
159.672
 30
0.0
 11
301.667
 21
160.177
 31
0.0
  0
LINE
  5
801
330
1E
100
AcDbEntity
  8
0
100
AcDbLine
 10
295.0
 20
159.447
 30
0.0
 11
298.467
 21
159.672
 31
0.0
  0
LINE
  5
802
330
1E
100
AcDbEntity
  8
0
100
AcDbLine
 10
418.682
 20
45.0
 30
0.0
 11
418.814
 21
46.0
 31
0.0
  0
LINE
  5
803
330
1E
100
AcDbEntity
  8
0
100
AcDbLine
 10
418.682
 20
45.0
 30
0.0
 11
419.0
 21
15.7
 31
0.0
  0
LINE
  5
80E
330
1E
100
AcDbEntity
  8
0
100
AcDbLine
 10
418.814
 20
46.0
 30
0.0
 11
419.341
 21
47.9
 31
0.0
  0
LINE
  5
80F
330
1E
100
AcDbEntity
  8
0
100
AcDbLine
 10
419.341
 20
47.9
 30
0.0
 11
420.279
 21
49.9104
 31
0.0
  0
LINE
  5
816
330
1E
100
AcDbEntity
  8
0
100
AcDbLine
 10
420.279
 20
49.9104
 30
0.0
 11
421.675
 21
52.0394
 31
0.0
  0
LINE
  5
817
330
1E
100
AcDbEntity
  8
0
100
AcDbLine
 10
421.675
 20
52.0394
 30
0.0
 11
423.629
 21
53.7629
 31
0.0
  0
LINE
  5
818
330
1E
100
AcDbEntity
  8
0
100
AcDbLine
 10
423.629
 20
53.7629
 30
0.0
 11
425.862
 21
54.6753
 31
0.0
  0
LINE
  5
81F
330
1E
100
AcDbEntity
  8
0
100
AcDbLine
 10
425.862
 20
54.6753
 30
0.0
 11
428.096
 21
55.0809
 31
0.0
  0
LINE
  5
820
330
1E
100
AcDbEntity
  8
0
100
AcDbLine
 10
391.0
 20
59.5
 30
0.0
 11
391.264
 21
59.8
 31
0.0
  0
LINE
  5
821
330
1E
100
AcDbEntity
  8
0
100
AcDbLine
 10
391.0
 20
59.5
 30
0.0
 11
391.0
 21
58.0
 31
0.0
  0
LINE
  5
82E
330
1E
100
AcDbEntity
  8
0
100
AcDbLine
 10
455.499
 20
57.0203
 30
0.0
 11
458.925
 21
57.1557
 31
0.0
  0
LINE
  5
82F
330
1E
100
AcDbEntity
  8
0
100
AcDbLine
 10
458.925
 20
57.1557
 30
0.0
 11
462.156
 21
57.3046
 31
0.0
  0
LINE
  5
830
330
1E
100
AcDbEntity
  8
0
100
AcDbLine
 10
462.156
 20
57.3046
 30
0.0
 11
465.142
 21
57.4718
 31
0.0
  0
LINE
  5
831
330
1E
100
AcDbEntity
  8
0
100
AcDbLine
 10
468.614
 20
57.9232
 30
0.0
 11
469.0
 21
58.1941
 31
0.0
  0
LINE
  5
83B
330
1E
100
AcDbEntity
  8
0
100
AcDbLine
 10
469.0
 20
58.1941
 30
0.0
 11
469.0
 21
59.5485
 31
0.0
  0
LINE
  5
83F
330
1E
100
AcDbEntity
  8
0
100
AcDbLine
 10
469.0
 20
59.5485
 30
0.0
 11
469.0
 21
58.1941
 31
0.0
  0
LINE
  5
840
330
1E
100
AcDbEntity
  8
0
100
AcDbLine
 10
465.142
 20
57.4718
 30
0.0
 11
468.614
 21
57.9232
 31
0.0
  0
LINE
  5
847
330
1E
100
AcDbEntity
  8
0
100
AcDbLine
 10
467.843
 20
60.0
 30
0.0
 11
468.357
 21
60.0
 31
0.0
  0
LINE
  5
848
330
1E
100
AcDbEntity
  8
0
100
AcDbLine
 10
468.357
 20
60.0
 30
0.0
 11
468.743
 21
59.8194
 31
0.0
  0
LINE
  5
849
330
1E
100
AcDbEntity
  8
0
100
AcDbLine
 10
468.743
 20
59.8194
 30
0.0
 11
469.0
 21
59.5485
 31
0.0
  0
LINE
  5
84E
330
1E
100
AcDbEntity
  8
0
100
AcDbLine
 10
393.373
 20
60.0
 30
0.0
 11
467.843
 21
60.0
 31
0.0
  0
LINE
  5
8D2
330
1E
100
AcDbEntity
  8
0
100
AcDbLine
 10
392.186
 20
60.0
 30
0.0
 11
393.373
 21
60.0
 31
0.0
  0
LINE
  5
8D3
330
1E
100
AcDbEntity
  8
0
100
AcDbLine
 10
391.659
 20
60.0
 30
0.0
 11
392.186
 21
60.0
 31
0.0
  0
LINE
  5
8D4
330
1E
100
AcDbEntity
  8
0
100
AcDbLine
 10
391.264
 20
59.8
 30
0.0
 11
391.659
 21
60.0
 31
0.0
  0
LINE
  5
8D5
330
1E
100
AcDbEntity
  8
0
100
AcDbLine
 10
391.0
 20
58.0
 30
0.0
 11
391.0
 21
59.5
 31
0.0
  0
LINE
  5
8D6
330
1E
100
AcDbEntity
  8
0
100
AcDbLine
 10
391.0
 20
58.0
 30
0.0
 11
391.0
 21
15.7
 31
0.0
  0
LINE
  5
8D7
330
1E
100
AcDbEntity
  8
0
100
AcDbLine
 10
428.096
 20
55.0809
 30
0.0
 11
455.499
 21
57.0203
 31
0.0
  0
LINE
  5
8D8
330
1E
100
AcDbEntity
  8
0
100
AcDbLine
 10
309.0
 20
37.5
 30
0.0
 11
309.0
 21
165.515
 31
0.0
  0
LINE
  5
8D9
330
1E
100
AcDbEntity
  8
0
100
AcDbLine
 10
309.0
 20
37.5
 30
0.0
 11
309.5
 21
35.5
 31
0.0
  0
LINE
  5
8DA
330
1E
100
AcDbEntity
  8
0
100
AcDbLine
 10
303.533
 20
161.467
 30
0.0
 11
305.4
 21
162.533
 31
0.0
  0
LINE
  5
8DB
330
1E
100
AcDbEntity
  8
0
100
AcDbLine
 10
301.0
 20
160.682
 30
0.0
 11
303.533
 21
161.467
 31
0.0
  0
LINE
  5
8EA
330
1E
100
AcDbEntity
  8
0
100
AcDbLine
 10
306.6
 20
162.253
 30
0.0
 11
307.133
 21
162.598
 31
0.0
  0
LINE
  5
8EB
330
1E
100
AcDbEntity
  8
0
100
AcDbLine
 10
306.6
 20
162.253
 30
0.0
 11
307.8
 21
163.599
 31
0.0
  0
LINE
  5
8EC
330
1E
100
AcDbEntity
  8
0
100
AcDbLine
 10
304.467
 20
161.074
 30
0.0
 11
306.6
 21
162.253
 31
0.0
  0
LINE
  5
8ED
330
1E
100
AcDbEntity
  8
0
100
AcDbLine
 10
295.0
 20
162.399
 30
0.0
 11
297.8
 21
162.568
 31
0.0
  0
LINE
  5
8EE
330
1E
100
AcDbEntity
  8
0
100
AcDbLine
 10
297.8
 20
162.568
 30
0.0
 11
300.333
 21
163.016
 31
0.0
  0
LINE
  5
8EF
330
1E
100
AcDbEntity
  8
0
100
AcDbLine
 10
305.4
 20
162.533
 30
0.0
 11
306.6
 21
163.767
 31
0.0
  0
LINE
  5
8F0
330
1E
100
AcDbEntity
  8
0
100
AcDbLine
 10
307.133
 20
162.598
 30
0.0
 11
308.467
 21
164.0
 31
0.0
  0
LINE
  5
8F1
330
1E
100
AcDbEntity
  8
0
100
AcDbLine
 10
306.739509076764
 20
162.383542237336
 30
0.0
 11
307.133
 21
162.598
 31
0.0
  0
LINE
  5
8F2
330
1E
100
AcDbEntity
  8
0
100
AcDbLine
 10
292.2
 20
162.568
 30
0.0
 11
295.0
 21
162.399
 31
0.0
  0
LINE
  5
8F3
330
1E
100
AcDbEntity
  8
0
100
AcDbLine
 10
291.933
 20
160.177
 30
0.0
 11
295.0
 21
160.008
 31
0.0
  0
LINE
  5
8F4
330
1E
100
AcDbEntity
  8
0
100
AcDbLine
 10
291.533
 20
159.672
 30
0.0
 11
295.0
 21
159.447
 31
0.0
  0
LINE
  5
8F5
330
1E
100
AcDbEntity
  8
0
100
AcDbLine
 10
281.5
 20
273.6
 30
0.0
 11
282.9
 21
277.0
 31
0.0
  0
LINE
  5
8F6
330
1E
100
AcDbEntity
  8
0
100
AcDbLine
 10
281.533
 20
167.03
 30
0.0
 11
282.867
 21
168.433
 31
0.0
  0
LINE
  5
8F7
330
1E
100
AcDbEntity
  8
0
100
AcDbLine
 10
300.333
 20
163.016
 30
0.0
 11
302.467
 21
163.746
 31
0.0
  0
LINE
  5
8F8
330
1E
100
AcDbEntity
  8
0
100
AcDbLine
 10
307.8
 20
163.599
 30
0.0
 11
308.333
 21
165.058
 31
0.0
  0
LINE
  5
8F9
330
1E
100
AcDbEntity
  8
0
100
AcDbLine
 10
289.667
 20
163.016
 30
0.0
 11
292.2
 21
162.568
 31
0.0
  0
LINE
  5
8FA
330
1E
100
AcDbEntity
  8
0
100
AcDbLine
 10
302.467
 20
163.746
 30
0.0
 11
304.2
 21
164.644
 31
0.0
  0
LINE
  5
8FB
330
1E
100
AcDbEntity
  8
0
100
AcDbLine
 10
306.6
 20
163.767
 30
0.0
 11
307.0
 21
165.058
 31
0.0
  0
LINE
  5
8FC
330
1E
100
AcDbEntity
  8
0
100
AcDbLine
 10
287.533
 20
163.746
 30
0.0
 11
289.667
 21
163.016
 31
0.0
  0
LINE
  5
8FD
330
1E
100
AcDbEntity
  8
0
100
AcDbLine
 10
282.2
 20
166.517
 30
0.0
 11
283.4
 21
167.863
 31
0.0
  0
LINE
  5
8FE
330
1E
100
AcDbEntity
  8
0
100
AcDbLine
 10
282.9
 20
277.0
 30
0.0
 11
285.1
 21
279.9
 31
0.0
  0
LINE
  5
8FF
330
1E
100
AcDbEntity
  8
0
100
AcDbLine
 10
282.867
 20
168.433
 30
0.0
 11
285.133
 21
169.667
 31
0.0
  0
LINE
  5
900
330
1E
100
AcDbEntity
  8
0
100
AcDbLine
 10
304.2
 20
164.644
 30
0.0
 11
305.267
 21
165.71
 31
0.0
  0
LINE
  5
908
330
1E
100
AcDbEntity
  8
0
100
AcDbLine
 10
308.467
 20
164.0
 30
0.0
 11
309.0
 21
165.515
 31
0.0
  0
LINE
  5
909
330
1E
100
AcDbEntity
  8
0
100
AcDbLine
 10
283.4
 20
166.348
 30
0.0
 11
284.6
 21
167.583
 31
0.0
  0
LINE
  5
90A
330
1E
100
AcDbEntity
  8
0
100
AcDbLine
 10
284.6
 20
167.583
 30
0.0
 11
286.467
 21
168.649
 31
0.0
  0
LINE
  5
90B
330
1E
100
AcDbEntity
  8
0
100
AcDbLine
 10
283.4
 20
167.863
 30
0.0
 11
285.533
 21
169.041
 31
0.0
  0
LINE
  5
90C
330
1E
100
AcDbEntity
  8
0
100
AcDbLine
 10
284.333
 20
166.888
 30
0.0
 11
284.733
 21
165.71
 31
0.0
  0
LINE
  5
90D
330
1E
100
AcDbEntity
  8
0
100
AcDbLine
 10
284.333
 20
166.888
 30
0.0
 11
284.552336668117
 21
167.533946487603
 31
0.0
  0
LINE
  5
90E
330
1E
100
AcDbEntity
  8
0
100
AcDbLine
 10
286.467
 20
168.649
 30
0.0
 11
289.0
 21
169.434
 31
0.0
  0
LINE
  5
90F
330
1E
100
AcDbEntity
  8
0
100
AcDbLine
 10
285.533
 20
169.041
 30
0.0
 11
288.333
 21
169.939
 31
0.0
  0
LINE
  5
910
330
1E
100
AcDbEntity
  8
0
100
AcDbLine
 10
285.133
 20
169.667
 30
0.0
 11
288.067
 21
170.621
 31
0.0
  0
LINE
  5
918
330
1E
100
AcDbEntity
  8
0
100
AcDbLine
 10
303.533
 20
168.649
 30
0.0
 11
305.4
 21
167.583
 31
0.0
  0
LINE
  5
919
330
1E
100
AcDbEntity
  8
0
100
AcDbLine
 10
301.0
 20
169.434
 30
0.0
 11
303.533
 21
168.649
 31
0.0
  0
LINE
  5
91A
330
1E
100
AcDbEntity
  8
0
100
AcDbLine
 10
304.467
 20
169.041
 30
0.0
 11
306.6
 21
167.863
 31
0.0
  0
LINE
  5
91B
330
1E
100
AcDbEntity
  8
0
100
AcDbLine
 10
298.067
 20
169.939
 30
0.0
 11
301.0
 21
169.434
 31
0.0
  0
LINE
  5
91C
330
1E
100
AcDbEntity
  8
0
100
AcDbLine
 10
301.667
 20
169.939
 30
0.0
 11
304.467
 21
169.041
 31
0.0
  0
LINE
  5
91D
330
1E
100
AcDbEntity
  8
0
100
AcDbLine
 10
304.867
 20
169.667
 30
0.0
 11
307.133
 21
168.433
 31
0.0
  0
LINE
  5
91E
330
1E
100
AcDbEntity
  8
0
100
AcDbLine
 10
305.447663331883
 20
167.533946487603
 30
0.0
 11
305.667
 21
166.888
 31
0.0
  0
LINE
  5
91F
330
1E
100
AcDbEntity
  8
0
100
AcDbLine
 10
306.6
 20
166.348
 30
0.0
 11
307.0
 21
165.058
 31
0.0
  0
LINE
  5
920
330
1E
100
AcDbEntity
  8
0
100
AcDbLine
 10
305.4
 20
167.583
 30
0.0
 11
306.6
 21
166.348
 31
0.0
  0
LINE
  5
921
330
1E
100
AcDbEntity
  8
0
100
AcDbLine
 10
307.8
 20
166.517
 30
0.0
 11
308.333
 21
165.058
 31
0.0
  0
LINE
  5
922
330
1E
100
AcDbEntity
  8
0
100
AcDbLine
 10
306.6
 20
167.863
 30
0.0
 11
307.8
 21
166.517
 31
0.0
  0
LINE
  5
926
330
1E
100
AcDbEntity
  8
0
100
AcDbLine
 10
308.467
 20
167.03
 30
0.0
 11
309.0
 21
165.515
 31
0.0
  0
LINE
  5
92B
330
1E
100
AcDbEntity
  8
0
100
AcDbLine
 10
307.133
 20
168.433
 30
0.0
 11
308.467
 21
167.03
 31
0.0
  0
LINE
  5
92C
330
1E
100
AcDbEntity
  8
0
100
AcDbLine
 10
305.267
 20
165.71
 30
0.0
 11
305.667
 21
166.888
 31
0.0
  0
LINE
  5
92D
330
1E
100
AcDbEntity
  8
0
100
AcDbLine
 10
309.0
 20
165.515
 30
0.0
 11
309.0
 21
37.5
 31
0.0
  0
LINE
  5
92E
330
1E
100
AcDbEntity
  8
0
100
AcDbLine
 10
309.0
 20
165.515
 30
0.0
 11
309.0
 21
237.282
 31
0.0
  0
LINE
  5
92F
330
1E
100
AcDbEntity
  8
0
100
AcDbLine
 10
289.0
 20
169.434
 30
0.0
 11
291.933
 21
169.939
 31
0.0
  0
LINE
  5
930
330
1E
100
AcDbEntity
  8
0
100
AcDbLine
 10
295.0
 20
170.107
 30
0.0
 11
298.067
 21
169.939
 31
0.0
  0
LINE
  5
931
330
1E
100
AcDbEntity
  8
0
100
AcDbLine
 10
298.467
 20
170.444
 30
0.0
 11
301.667
 21
169.939
 31
0.0
  0
LINE
  5
932
330
1E
100
AcDbEntity
  8
0
100
AcDbLine
 10
291.933
 20
169.939
 30
0.0
 11
295.0
 21
170.107
 31
0.0
  0
LINE
  5
933
330
1E
100
AcDbEntity
  8
0
100
AcDbLine
 10
288.333
 20
169.939
 30
0.0
 11
291.533
 21
170.444
 31
0.0
  0
LINE
  5
934
330
1E
100
AcDbEntity
  8
0
100
AcDbLine
 10
295.0
 20
170.668
 30
0.0
 11
298.467
 21
170.444
 31
0.0
  0
LINE
  5
935
330
1E
100
AcDbEntity
  8
0
100
AcDbLine
 10
301.933
 20
170.621
 30
0.0
 11
304.867
 21
169.667
 31
0.0
  0
LINE
  5
936
330
1E
100
AcDbEntity
  8
0
100
AcDbLine
 10
298.6
 20
171.182
 30
0.0
 11
301.933
 21
170.621
 31
0.0
  0
LINE
  5
937
330
1E
100
AcDbEntity
  8
0
100
AcDbLine
 10
291.533
 20
170.444
 30
0.0
 11
295.0
 21
170.668
 31
0.0
  0
LINE
  5
938
330
1E
100
AcDbEntity
  8
0
100
AcDbLine
 10
288.067
 20
170.621
 30
0.0
 11
291.4
 21
171.182
 31
0.0
  0
LINE
  5
939
330
1E
100
AcDbEntity
  8
0
100
AcDbLine
 10
295.0
 20
171.406
 30
0.0
 11
298.6
 21
171.182
 31
0.0
  0
LINE
  5
93A
330
1E
100
AcDbEntity
  8
0
100
AcDbLine
 10
309.0
 20
237.282
 30
0.0
 11
309.0
 21
243.5
 31
0.0
  0
LINE
  5
93B
330
1E
100
AcDbEntity
  8
0
100
AcDbLine
 10
309.0
 20
237.282
 30
0.0
 11
309.0
 21
165.515
 31
0.0
  0
LINE
  5
93C
330
1E
100
AcDbEntity
  8
0
100
AcDbLine
 10
309.0
 20
249.264
 30
0.0
 11
309.0
 21
243.5
 31
0.0
  0
LINE
  5
93D
330
1E
100
AcDbEntity
  8
0
100
AcDbLine
 10
309.0
 20
249.264
 30
0.0
 11
309.0
 21
254.477
 31
0.0
  0
LINE
  5
93E
330
1E
100
AcDbEntity
  8
0
100
AcDbLine
 10
309.0
 20
254.477
 30
0.0
 11
309.0
 21
259.048
 31
0.0
  0
LINE
  5
93F
330
1E
100
AcDbEntity
  8
0
100
AcDbLine
 10
309.0
 20
254.477
 30
0.0
 11
309.0
 21
249.264
 31
0.0
  0
LINE
  5
940
330
1E
100
AcDbEntity
  8
0
100
AcDbLine
 10
309.0
 20
259.048
 30
0.0
 11
309.0
 21
262.899
 31
0.0
  0
LINE
  5
941
330
1E
100
AcDbEntity
  8
0
100
AcDbLine
 10
309.0
 20
259.048
 30
0.0
 11
309.0
 21
254.477
 31
0.0
  0
LINE
  5
942
330
1E
100
AcDbEntity
  8
0
100
AcDbLine
 10
309.0
 20
262.899
 30
0.0
 11
309.0
 21
265.966
 31
0.0
  0
LINE
  5
943
330
1E
100
AcDbEntity
  8
0
100
AcDbLine
 10
309.0
 20
262.899
 30
0.0
 11
309.0
 21
259.048
 31
0.0
  0
LINE
  5
944
330
1E
100
AcDbEntity
  8
0
100
AcDbLine
 10
309.0
 20
265.966
 30
0.0
 11
309.0
 21
268.194
 31
0.0
  0
LINE
  5
945
330
1E
100
AcDbEntity
  8
0
100
AcDbLine
 10
309.0
 20
265.966
 30
0.0
 11
309.0
 21
262.899
 31
0.0
  0
LINE
  5
946
330
1E
100
AcDbEntity
  8
0
100
AcDbLine
 10
309.0
 20
268.194
 30
0.0
 11
309.0
 21
269.547
 31
0.0
  0
LINE
  5
947
330
1E
100
AcDbEntity
  8
0
100
AcDbLine
 10
309.0
 20
268.194
 30
0.0
 11
309.0
 21
265.966
 31
0.0
  0
LINE
  5
948
330
1E
100
AcDbEntity
  8
0
100
AcDbLine
 10
309.0
 20
243.5
 30
0.0
 11
309.0
 21
249.264
 31
0.0
  0
LINE
  5
949
330
1E
100
AcDbEntity
  8
0
100
AcDbLine
 10
309.0
 20
243.5
 30
0.0
 11
309.0
 21
237.282
 31
0.0
  0
LINE
  5
94A
330
1E
100
AcDbEntity
  8
0
100
AcDbLine
 10
309.0
 20
269.547
 30
0.0
 11
309.0
 21
270.0
 31
0.0
  0
LINE
  5
94B
330
1E
100
AcDbEntity
  8
0
100
AcDbLine
 10
309.0
 20
269.547
 30
0.0
 11
309.0
 21
268.194
 31
0.0
  0
LINE
  5
94C
330
1E
100
AcDbEntity
  8
0
100
AcDbLine
 10
308.968405635375
 20
269.772520574697
 30
0.0
 11
309.0
 21
270.0
 31
0.0
  0
LINE
  5
94D
330
1E
100
AcDbEntity
  8
0
100
AcDbLine
 10
302.0
 20
282.1
 30
0.0
 11
304.9
 21
279.9
 31
0.0
  0
LINE
  5
94E
330
1E
100
AcDbEntity
  8
0
100
AcDbLine
 10
304.9
 20
279.9
 30
0.0
 11
307.1
 21
277.0
 31
0.0
  0
LINE
  5
94F
330
1E
100
AcDbEntity
  8
0
100
AcDbLine
 10
307.1
 20
277.0
 30
0.0
 11
308.5
 21
273.6
 31
0.0
  0
LINE
  5
950
330
1E
100
AcDbEntity
  8
0
100
AcDbLine
 10
308.5
 20
273.6
 30
0.0
 11
309.0
 21
270.0
 31
0.0
  0
LINE
  5
98D
330
1E
100
AcDbEntity
  8
0
100
AcDbLine
 10
309.0
 20
270.0
 30
0.0
 11
309.0
 21
269.547
 31
0.0
  0
LINE
  5
98E
330
1E
100
AcDbEntity
  8
0
100
AcDbLine
 10
295.0
 20
284.0
 30
0.0
 11
298.6
 21
283.5
 31
0.0
  0
LINE
  5
98F
330
1E
100
AcDbEntity
  8
0
100
AcDbLine
 10
298.6
 20
283.5
 30
0.0
 11
302.0
 21
282.1
 31
0.0
  0
LINE
  5
990
330
1E
100
AcDbEntity
  8
0
100
AcDbLine
 10
291.4
 20
283.5
 30
0.0
 11
295.0
 21
284.0
 31
0.0
  0
LINE
  5
991
330
1E
100
AcDbEntity
  8
0
100
AcDbLine
 10
288.0
 20
282.1
 30
0.0
 11
291.4
 21
283.5
 31
0.0
  0
LINE
  5
992
330
1E
100
AcDbEntity
  8
0
100
AcDbLine
 10
285.1
 20
279.9
 30
0.0
 11
288.0
 21
282.1
 31
0.0
  0
LINE
  5
993
330
1E
100
AcDbEntity
  8
0
100
AcDbLine
 10
291.4
 20
171.182
 30
0.0
 11
295.0
 21
171.406
 31
0.0
  0
LINE
  5
994
330
1E
100
AcDbEntity
  8
0
100
AcDbLine
 10
284.733
 20
165.71
 30
0.0
 11
285.8
 21
164.644
 31
0.0
  0
LINE
  5
995
330
1E
100
AcDbEntity
  8
0
100
AcDbLine
 10
285.8
 20
164.644
 30
0.0
 11
287.533
 21
163.746
 31
0.0
  0
LINE
  5
996
330
1E
100
AcDbEntity
  8
0
100
AcDbLine
 10
283.0
 20
165.058
 30
0.0
 11
283.4
 21
163.767
 31
0.0
  0
LINE
  5
997
330
1E
100
AcDbEntity
  8
0
100
AcDbLine
 10
283.0
 20
165.058
 30
0.0
 11
283.4
 21
166.348
 31
0.0
  0
LINE
  5
998
330
1E
100
AcDbEntity
  8
0
100
AcDbLine
 10
283.4
 20
163.767
 30
0.0
 11
284.6
 21
162.533
 31
0.0
  0
LINE
  5
999
330
1E
100
AcDbEntity
  8
0
100
AcDbLine
 10
281.667
 20
165.058
 30
0.0
 11
282.2
 21
163.599
 31
0.0
  0
LINE
  5
99A
330
1E
100
AcDbEntity
  8
0
100
AcDbLine
 10
281.667
 20
165.058
 30
0.0
 11
282.2
 21
166.517
 31
0.0
  0
LINE
  5
99B
330
1E
100
AcDbEntity
  8
0
100
AcDbLine
 10
282.2
 20
163.599
 30
0.0
 11
283.4
 21
162.253
 31
0.0
  0
LINE
  5
99C
330
1E
100
AcDbEntity
  8
0
100
AcDbLine
 10
281.533
 20
164.0
 30
0.0
 11
282.867
 21
162.598
 31
0.0
  0
LINE
  5
99D
330
1E
100
AcDbEntity
  8
0
100
AcDbLine
 10
282.867
 20
162.598
 30
0.0
 11
283.260490923236
 21
162.383542237336
 31
0.0
  0
LINE
  5
99E
330
1E
100
AcDbEntity
  8
0
100
AcDbLine
 10
282.867
 20
162.598
 30
0.0
 11
283.4
 21
162.253
 31
0.0
  0
LINE
  5
99F
330
1E
100
AcDbEntity
  8
0
100
AcDbLine
 10
281.0
 20
217.0
 30
0.0
 11
281.0
 21
37.5
 31
0.0
  0
LINE
  5
9A0
330
1E
100
AcDbEntity
  8
0
100
AcDbLine
 10
281.0
 20
217.0
 30
0.0
 11
281.0
 21
223.918
 31
0.0
  0
LINE
  5
9A2
330
1E
100
AcDbEntity
  8
0
100
AcDbLine
 10
279.5
 20
34.5
 30
0.0
 11
280.5
 21
35.5
 31
0.0
  0
LINE
  5
9A3
330
1E
100
AcDbEntity
  8
0
100
AcDbLine
 10
274.3
 20
34.0
 30
0.0
 11
276.4
 21
34.0
 31
0.0
  0
LINE
  5
9A4
330
1E
100
AcDbEntity
  8
0
100
AcDbLine
 10
273.5
 20
34.0
 30
0.0
 11
274.3
 21
34.0
 31
0.0
  0
LINE
  5
9A5
330
1E
100
AcDbEntity
  8
0
100
AcDbLine
 10
273.8
 20
33.5
 30
0.0
 11
275.9
 21
33.5
 31
0.0
  0
LINE
  5
9A6
330
1E
100
AcDbEntity
  8
0
100
AcDbLine
 10
273.0
 20
33.5
 30
0.0
 11
273.0
 21
12.0
 31
0.0
  0
LINE
  5
9A7
330
1E
100
AcDbEntity
  8
0
100
AcDbLine
 10
273.0
 20
33.5
 30
0.0
 11
273.8
 21
33.5
 31
0.0
  0
LINE
  5
9A8
330
1E
100
AcDbEntity
  8
0
100
AcDbLine
 10
273.0
 20
33.5
 30
0.0
 11
273.5
 21
34.0
 31
0.0
  0
LINE
  5
9A9
330
1E
100
AcDbEntity
  8
0
100
AcDbLine
 10
272.7
 20
11.0
 30
0.0
 11
273.0
 21
12.0
 31
0.0
  0
LINE
  5
9AA
330
1E
100
AcDbEntity
  8
0
100
AcDbLine
 10
272.2
 20
10.3
 30
0.0
 11
272.7
 21
11.0
 31
0.0
  0
LINE
  5
9AB
330
1E
100
AcDbEntity
  8
0
100
AcDbLine
 10
261.235
 20
10.0
 30
0.0
 11
261.75
 21
10.0
 31
0.0
  0
LINE
  5
9AC
330
1E
100
AcDbEntity
  8
0
100
AcDbLine
 10
261.029
 20
10.0
 30
0.0
 11
261.235
 21
10.0
 31
0.0
  0
LINE
  5
9B1
330
1E
100
AcDbEntity
  8
0
100
AcDbLine
 10
122.1573
 20
60.0
 30
0.0
 11
198.3409
 21
60.0
 31
0.0
  0
LINE
  5
171B
330
1E
100
AcDbEntity
  8
0
100
AcDbLine
 10
480.0
 20
0.0
 30
0.0
 11
480.354996551922
 21
7.1056855
 31
0.0
  0
LINE
  5
171C
330
1E
100
AcDbEntity
  8
0
100
AcDbLine
 10
480.355
 20
7.1056955
 30
0.0
 11
480.715
 21
8.1497555
 31
0.0
  0
LINE
  5
171D
330
1E
100
AcDbEntity
  8
0
100
AcDbLine
 10
480.715
 20
8.1497555
 30
0.0
 11
481.501
 21
8.8287455
 31
0.0
  0
LINE
  5
171E
330
1E
100
AcDbEntity
  8
0
100
AcDbLine
 10
482.239
 20
8.9982855
 30
0.0
 11
486.56
 21
9.2229155
 31
0.0
  0
LINE
  5
171F
330
1E
100
AcDbEntity
  8
0
100
AcDbLine
 10
481.501
 20
8.8287455
 30
0.0
 11
482.239
 21
8.9982855
 31
0.0
  0
LINE
  5
1720
330
1E
100
AcDbEntity
  8
0
100
AcDbLine
 10
486.827
 20
9.2229155
 30
0.0
 11
487.387
 21
9.2229155
 31
0.0
  0
LINE
  5
1721
330
1E
100
AcDbEntity
  8
0
100
AcDbLine
 10
486.678
 20
9.2229155
 30
0.0
 11
486.827
 21
9.2229155
 31
0.0
  0
LINE
  5
1722
330
1E
100
AcDbEntity
  8
0
100
AcDbLine
 10
487.387
 20
9.2229155
 30
0.0
 11
488.349
 21
9.2229155
 31
0.0
  0
LINE
  5
1723
330
1E
100
AcDbEntity
  8
0
100
AcDbLine
 10
486.56
 20
9.2229155
 30
0.0
 11
486.856
 21
9.2229155
 31
0.0
  0
LINE
  5
1724
330
1E
100
AcDbEntity
  8
0
100
AcDbLine
 10
486.856
 20
9.2229155
 30
0.0
 11
487.443
 21
9.2229155
 31
0.0
  0
LINE
  5
1725
330
1E
100
AcDbEntity
  8
0
100
AcDbLine
 10
487.443
 20
9.2229155
 30
0.0
 11
488.317
 21
9.2229155
 31
0.0
  0
LINE
  5
1726
330
1E
100
AcDbEntity
  8
0
100
AcDbLine
 10
488.317
 20
9.2229155
 30
0.0
 11
489.467
 21
9.2229155
 31
0.0
  0
LINE
  5
1727
330
1E
100
AcDbEntity
  8
0
100
AcDbLine
 10
488.349
 20
9.2229155
 30
0.0
 11
489.699
 21
9.2229155
 31
0.0
  0
LINE
  5
1728
330
1E
100
AcDbEntity
  8
0
100
AcDbLine
 10
489.699
 20
9.2229155
 30
0.0
 11
491.418
 21
9.2229155
 31
0.0
  0
LINE
  5
1729
330
1E
100
AcDbEntity
  8
0
100
AcDbLine
 10
491.418
 20
9.2229155
 30
0.0
 11
493.481
 21
9.2229155
 31
0.0
  0
LINE
  5
172A
330
1E
100
AcDbEntity
  8
0
100
AcDbLine
 10
489.467
 20
9.2229155
 30
0.0
 11
490.883
 21
9.2229155
 31
0.0
  0
LINE
  5
172B
330
1E
100
AcDbEntity
  8
0
100
AcDbLine
 10
490.883
 20
9.2229155
 30
0.0
 11
492.548
 21
9.2229155
 31
0.0
  0
LINE
  5
172C
330
1E
100
AcDbEntity
  8
0
100
AcDbLine
 10
493.488
 20
9.2229155
 30
0.0
 11
494.986
 21
9.4411955
 31
0.0
  0
LINE
  5
172D
330
1E
100
AcDbEntity
  8
0
100
AcDbLine
 10
492.548
 20
9.2229155
 30
0.0
 11
535.5
 21
9.2229155
 31
0.0
  0
LINE
  5
172E
330
1E
100
AcDbEntity
  8
0
100
AcDbLine
 10
494.986
 20
9.4411955
 30
0.0
 11
497.228107834354
 21
10.714307768645
 31
0.0
  0
LINE
  5
172F
330
1E
100
AcDbEntity
  8
0
100
AcDbLine
 10
549.552921649406
 20
7.1056955
 30
0.0
 11
549.913
 21
0.1442015
 31
0.0
  0
LINE
  5
1730
330
1E
100
AcDbEntity
  8
0
100
AcDbLine
 10
535.5
 20
9.2229155
 30
0.0
 11
537.399
 21
9.2229155
 31
0.0
  0
LINE
  5
1731
330
1E
100
AcDbEntity
  8
0
100
AcDbLine
 10
535.841
 20
9.2229155
 30
0.0
 11
537.993
 21
9.2229155
 31
0.0
  0
LINE
  5
1732
330
1E
100
AcDbEntity
  8
0
100
AcDbLine
 10
537.399
 20
9.2229155
 30
0.0
 11
539.065
 21
9.2229155
 31
0.0
  0
LINE
  5
1733
330
1E
100
AcDbEntity
  8
0
100
AcDbLine
 10
537.993
 20
9.2229155
 30
0.0
 11
539.81
 21
9.2229155
 31
0.0
  0
LINE
  5
1734
330
1E
100
AcDbEntity
  8
0
100
AcDbLine
 10
539.065
 20
9.2229155
 30
0.0
 11
540.48
 21
9.2229155
 31
0.0
  0
LINE
  5
1735
330
1E
100
AcDbEntity
  8
0
100
AcDbLine
 10
535.143
 20
9.3498355
 30
0.0
 11
536.474
 21
9.2229155
 31
0.0
  0
LINE
  5
1736
330
1E
100
AcDbEntity
  8
0
100
AcDbLine
 10
548.446
 20
8.8287555
 30
0.0
 11
549.271
 21
8.1491755
 31
0.0
  0
LINE
  5
1737
330
1E
100
AcDbEntity
  8
0
100
AcDbLine
 10
549.271
 20
8.1491755
 30
0.0
 11
549.552921649406
 21
7.1056955
 31
0.0
  0
LINE
  5
1738
330
1E
100
AcDbEntity
  8
0
100
AcDbLine
 10
547.708
 20
8.9982855
 30
0.0
 11
548.446
 21
8.8287555
 31
0.0
  0
LINE
  5
1739
330
1E
100
AcDbEntity
  8
0
100
AcDbLine
 10
541.264
 20
9.2229155
 30
0.0
 11
542.335
 21
9.2229155
 31
0.0
  0
LINE
  5
173A
330
1E
100
AcDbEntity
  8
0
100
AcDbLine
 10
539.81
 20
9.2229155
 30
0.0
 11
541.264
 21
9.2229155
 31
0.0
  0
LINE
  5
173B
330
1E
100
AcDbEntity
  8
0
100
AcDbLine
 10
540.48
 20
9.2229155
 30
0.0
 11
541.63
 21
9.2229155
 31
0.0
  0
LINE
  5
173C
330
1E
100
AcDbEntity
  8
0
100
AcDbLine
 10
543.006
 20
9.2229155
 30
0.0
 11
543.27
 21
9.2229155
 31
0.0
  0
LINE
  5
173D
330
1E
100
AcDbEntity
  8
0
100
AcDbLine
 10
542.335
 20
9.2229155
 30
0.0
 11
543.006
 21
9.2229155
 31
0.0
  0
LINE
  5
173E
330
1E
100
AcDbEntity
  8
0
100
AcDbLine
 10
541.63
 20
9.2229155
 30
0.0
 11
542.504
 21
9.2229155
 31
0.0
  0
LINE
  5
173F
330
1E
100
AcDbEntity
  8
0
100
AcDbLine
 10
542.504
 20
9.2229155
 30
0.0
 11
543.091
 21
9.2229155
 31
0.0
  0
LINE
  5
1740
330
1E
100
AcDbEntity
  8
0
100
AcDbLine
 10
543.387
 20
9.2229155
 30
0.0
 11
547.708
 21
8.9982855
 31
0.0
  0
LINE
  5
1741
330
1E
100
AcDbEntity
  8
0
100
AcDbLine
 10
543.091
 20
9.2229155
 30
0.0
 11
543.387
 21
9.2229155
 31
0.0
  0
LINE
  5
1742
330
1E
100
AcDbEntity
  8
0
100
AcDbLine
 10
533.021
 20
10.3132155
 30
0.0
 11
535.143
 21
9.3498355
 31
0.0
  0
LINE
  5
1743
330
1E
100
AcDbEntity
  8
0
100
AcDbLine
 10
497.228107834354
 20
10.714307768644
 30
0.0
 11
498.343
 21
11.9400155
 31
0.0
  0
LINE
  5
1744
330
1E
100
AcDbEntity
  8
0
100
AcDbLine
 10
531.707175682719
 20
11.740491011561
 30
0.0
 11
533.021
 21
10.3132155
 31
0.0
  0
LINE
  5
1745
330
1E
100
AcDbEntity
  8
0
100
AcDbLine
 10
498.343
 20
11.9400155
 30
0.0
 11
498.918
 21
13.4534155
 31
0.0
  0
LINE
  5
1746
330
1E
100
AcDbEntity
  8
0
100
AcDbLine
 10
531.353186137138
 20
12.481567434747
 30
0.0
 11
531.707175682719
 21
11.740491011561
 31
0.0
  0
LINE
  5
1747
330
1E
100
AcDbEntity
  8
0
100
AcDbLine
 10
498.918
 20
13.4534155
 30
0.0
 11
498.974
 21
14.2229155
 31
0.0
  0
LINE
  5
1748
330
1E
100
AcDbEntity
  8
0
100
AcDbLine
 10
498.918
 20
13.4533155
 30
0.0
 11
498.974
 21
14.2229155
 31
0.0
  0
LINE
  5
1749
330
1E
100
AcDbEntity
  8
0
100
AcDbLine
 10
498.974
 20
14.2229155
 30
0.0
 11
498.974
 21
44.959764106811
 31
0.0
  0
LINE
  5
174A
330
1E
100
AcDbEntity
  8
0
100
AcDbLine
 10
530.974
 20
14.2229155
 30
0.0
 11
530.991351854483
 21
13.933646738196
 31
0.0
  0
LINE
  5
174B
330
1E
100
AcDbEntity
  8
0
100
AcDbLine
 10
500.717
 20
40.3238155
 30
0.0
 11
502.029
 21
38.9478155
 31
0.0
  0
LINE
  5
174C
330
1E
100
AcDbEntity
  8
0
100
AcDbLine
 10
498.965
 20
45.0016155
 30
0.0
 11
498.983343998511
 21
45.568894294785
 31
0.0
  0
LINE
  5
174D
330
1E
100
AcDbEntity
  8
0
100
AcDbLine
 10
498.965
 20
45.0016155
 30
0.0
 11
499.288
 21
43.4996155
 31
0.0
  0
LINE
  5
174E
330
1E
100
AcDbEntity
  8
0
100
AcDbLine
 10
499.288
 20
43.4996155
 30
0.0
 11
499.94
 21
42.0484155
 31
0.0
  0
LINE
  5
174F
330
1E
100
AcDbEntity
  8
0
100
AcDbLine
 10
499.94
 20
42.0484155
 30
0.0
 11
500.912
 21
40.6634155
 31
0.0
  0
LINE
  5
1750
330
1E
100
AcDbEntity
  8
0
100
AcDbLine
 10
499.757
 20
41.8150155
 30
0.0
 11
500.717
 21
40.3238155
 31
0.0
  0
LINE
  5
1751
330
1E
100
AcDbEntity
  8
0
100
AcDbLine
 10
499.171
 20
43.3843155
 30
0.0
 11
499.757
 21
41.8150155
 31
0.0
  0
LINE
  5
1752
330
1E
100
AcDbEntity
  8
0
100
AcDbLine
 10
498.983511747885
 20
44.915533006738
 30
0.0
 11
499.171
 21
43.3843155
 31
0.0
  0
LINE
  5
1753
330
1E
100
AcDbEntity
  8
0
100
AcDbLine
 10
498.974
 20
44.959764106811
 30
0.0
 11
498.974
 21
14.2229155
 31
0.0
  0
LINE
  5
1754
330
1E
100
AcDbEntity
  8
0
100
AcDbLine
 10
500.912
 20
40.6634155
 30
0.0
 11
503.727
 21
38.2445155
 31
0.0
  0
LINE
  5
1755
330
1E
100
AcDbEntity
  8
0
100
AcDbLine
 10
510.03
 20
35.2119155
 30
0.0
 11
512.471
 21
34.8349155
 31
0.0
  0
LINE
  5
1756
330
1E
100
AcDbEntity
  8
0
100
AcDbLine
 10
512.471
 20
34.8349155
 30
0.0
 11
514.974
 21
34.7084155
 31
0.0
  0
LINE
  5
1757
330
1E
100
AcDbEntity
  8
0
100
AcDbLine
 10
503.66
 20
37.7206155
 30
0.0
 11
505.569
 21
36.6726155
 31
0.0
  0
LINE
  5
1758
330
1E
100
AcDbEntity
  8
0
100
AcDbLine
 10
513.546
 20
35.3293155
 30
0.0
 11
517.469
 21
35.4347155
 31
0.0
  0
LINE
  5
1759
330
1E
100
AcDbEntity
  8
0
100
AcDbLine
 10
505.125
 20
37.5169155
 30
0.0
 11
506.371
 21
36.9343155
 31
0.0
  0
LINE
  5
175A
330
1E
100
AcDbEntity
  8
0
100
AcDbLine
 10
506.651250898714
 20
36.828562433254
 30
0.0
 11
509.714
 21
35.8798155
 31
0.0
  0
LINE
  5
175B
330
1E
100
AcDbEntity
  8
0
100
AcDbLine
 10
509.714
 20
35.8798155
 30
0.0
 11
513.546
 21
35.3293155
 31
0.0
  0
LINE
  5
175C
330
1E
100
AcDbEntity
  8
0
100
AcDbLine
 10
506.371
 20
36.9342155
 30
0.0
 11
506.651988852678
 21
36.828205108177
 31
0.0
  0
LINE
  5
175D
330
1E
100
AcDbEntity
  8
0
100
AcDbLine
 10
506.371
 20
36.9343155
 30
0.0
 11
506.651250898714
 21
36.828562433254
 31
0.0
  0
LINE
  5
175E
330
1E
100
AcDbEntity
  8
0
100
AcDbLine
 10
505.569
 20
36.6726155
 30
0.0
 11
507.71
 21
35.8292155
 31
0.0
  0
LINE
  5
175F
330
1E
100
AcDbEntity
  8
0
100
AcDbLine
 10
507.71
 20
35.8292155
 30
0.0
 11
510.03
 21
35.2119155
 31
0.0
  0
LINE
  5
1760
330
1E
100
AcDbEntity
  8
0
100
AcDbLine
 10
514.974
 20
34.7086155
 30
0.0
 11
518.72
 21
34.9618155
 31
0.0
  0
LINE
  5
1761
330
1E
100
AcDbEntity
  8
0
100
AcDbLine
 10
517.469
 20
35.4347155
 30
0.0
 11
521.253
 21
36.1107155
 31
0.0
  0
LINE
  5
1762
330
1E
100
AcDbEntity
  8
0
100
AcDbLine
 10
502.029
 20
38.9478155
 30
0.0
 11
503.66
 21
37.7206155
 31
0.0
  0
LINE
  5
1763
330
1E
100
AcDbEntity
  8
0
100
AcDbLine
 10
503.203
 20
52.9463155
 30
0.0
 11
504.937
 21
51.9215155
 31
0.0
  0
LINE
  5
1764
330
1E
100
AcDbEntity
  8
0
100
AcDbLine
 10
511.6
 20
49.8496155
 30
0.0
 11
514.543
 21
49.6227155
 31
0.0
  0
LINE
  5
1765
330
1E
100
AcDbEntity
  8
0
100
AcDbLine
 10
508.257
 20
50.5827155
 30
0.0
 11
511.6
 21
49.8496155
 31
0.0
  0
LINE
  5
1766
330
1E
100
AcDbEntity
  8
0
100
AcDbLine
 10
514.543
 20
49.6227155
 30
0.0
 11
516.692
 21
49.6830155
 31
0.0
  0
LINE
  5
1767
330
1E
100
AcDbEntity
  8
0
100
AcDbLine
 10
516.692
 20
49.6830155
 30
0.0
 11
520.154
 21
50.1388155
 31
0.0
  0
LINE
  5
1768
330
1E
100
AcDbEntity
  8
0
100
AcDbLine
 10
504.937
 20
51.9215155
 30
0.0
 11
506.206
 21
51.3278155
 31
0.0
  0
LINE
  5
1769
330
1E
100
AcDbEntity
  8
0
100
AcDbLine
 10
506.206
 20
51.3278155
 30
0.0
 11
508.257
 21
50.5827155
 31
0.0
  0
LINE
  5
176A
330
1E
100
AcDbEntity
  8
0
100
AcDbLine
 10
509.048
 20
54.5084155
 30
0.0
 11
511.928
 21
53.7543155
 31
0.0
  0
LINE
  5
176B
330
1E
100
AcDbEntity
  8
0
100
AcDbLine
 10
511.928
 20
53.7543155
 30
0.0
 11
515.0
 21
53.3998155
 31
0.0
  0
LINE
  5
176C
330
1E
100
AcDbEntity
  8
0
100
AcDbLine
 10
515.0
 20
53.3998155
 30
0.0
 11
518.072
 21
53.7543155
 31
0.0
  0
LINE
  5
176D
330
1E
100
AcDbEntity
  8
0
100
AcDbLine
 10
522.238
 20
35.8294155
 30
0.0
 11
525.394
 21
37.1470155
 31
0.0
  0
LINE
  5
176E
330
1E
100
AcDbEntity
  8
0
100
AcDbLine
 10
521.253
 20
36.1107155
 30
0.0
 11
524.634
 21
37.3918155
 31
0.0
  0
LINE
  5
176F
330
1E
100
AcDbEntity
  8
0
100
AcDbLine
 10
518.72
 20
34.9618155
 30
0.0
 11
522.238
 21
35.8294155
 31
0.0
  0
LINE
  5
1770
330
1E
100
AcDbEntity
  8
0
100
AcDbLine
 10
520.154
 20
50.1388155
 30
0.0
 11
523.351
 21
51.1350155
 31
0.0
  0
LINE
  5
1771
330
1E
100
AcDbEntity
  8
0
100
AcDbLine
 10
523.351
 20
51.1350155
 30
0.0
 11
525.839
 21
52.3645155
 31
0.0
  0
LINE
  5
1772
330
1E
100
AcDbEntity
  8
0
100
AcDbLine
 10
518.072
 20
53.7543155
 30
0.0
 11
520.952
 21
54.5084155
 31
0.0
  0
LINE
  5
1773
330
1E
100
AcDbEntity
  8
0
100
AcDbLine
 10
500.898
 20
54.9862155
 30
0.0
 11
503.203
 21
52.9463155
 31
0.0
  0
LINE
  5
1774
330
1E
100
AcDbEntity
  8
0
100
AcDbLine
 10
506.552
 20
55.7501155
 30
0.0
 11
509.048
 21
54.5084155
 31
0.0
  0
LINE
  5
1775
330
1E
100
AcDbEntity
  8
0
100
AcDbLine
 10
506.552
 20
55.7501155
 30
0.0
 11
507.224
 21
55.4063155
 31
0.0
  0
LINE
  5
1776
330
1E
100
AcDbEntity
  8
0
100
AcDbLine
 10
522.776
 20
55.4063155
 30
0.0
 11
523.448
 21
55.7501155
 31
0.0
  0
LINE
  5
1777
330
1E
100
AcDbEntity
  8
0
100
AcDbLine
 10
520.952
 20
54.5084155
 30
0.0
 11
523.448
 21
55.7501155
 31
0.0
  0
LINE
  5
1778
330
1E
100
AcDbEntity
  8
0
100
AcDbLine
 10
525.394
 20
37.1470155
 30
0.0
 11
528.66
 21
39.6050155
 31
0.0
  0
LINE
  5
1779
330
1E
100
AcDbEntity
  8
0
100
AcDbLine
 10
524.634
 20
37.3918155
 30
0.0
 11
527.475
 21
39.1345155
 31
0.0
  0
LINE
  5
177A
330
1E
100
AcDbEntity
  8
0
100
AcDbLine
 10
526.176
 20
38.3056155
 30
0.0
 11
526.470434782115
 21
38.518304375323
 31
0.0
  0
LINE
  5
177B
330
1E
100
AcDbEntity
  8
0
100
AcDbLine
 10
526.176
 20
38.3055155
 30
0.0
 11
526.472740610168
 21
38.519718795086
 31
0.0
  0
LINE
  5
177C
330
1E
100
AcDbEntity
  8
0
100
AcDbLine
 10
527.475
 20
39.1345155
 30
0.0
 11
529.86
 21
41.7463155
 31
0.0
  0
LINE
  5
177D
330
1E
100
AcDbEntity
  8
0
100
AcDbLine
 10
528.66
 20
39.6050155
 30
0.0
 11
530.582
 21
42.5901155
 31
0.0
  0
LINE
  5
177E
330
1E
100
AcDbEntity
  8
0
100
AcDbLine
 10
525.839
 20
52.3645155
 30
0.0
 11
528.617
 21
54.4877155
 31
0.0
  0
LINE
  5
177F
330
1E
100
AcDbEntity
  8
0
100
AcDbLine
 10
528.617
 20
54.4877155
 30
0.0
 11
529.998
 21
56.3104155
 31
0.0
  0
LINE
  5
1780
330
1E
100
AcDbEntity
  8
0
100
AcDbLine
 10
529.86
 20
41.7463155
 30
0.0
 11
530.961
 21
44.6898155
 31
0.0
  0
LINE
  5
1781
330
1E
100
AcDbEntity
  8
0
100
AcDbLine
 10
530.582
 20
42.5901155
 30
0.0
 11
530.896333282945
 21
44.516930412214
 31
0.0
  0
LINE
  5
1782
330
1E
100
AcDbEntity
  8
0
100
AcDbLine
 10
530.961
 20
44.6898155
 30
0.0
 11
530.979637057189
 21
59.23623481571
 31
0.0
  0
LINE
  5
1783
330
1E
100
AcDbEntity
  8
0
100
AcDbLine
 10
529.998
 20
56.3104155
 30
0.0
 11
530.599
 21
57.5209155
 31
0.0
  0
LINE
  5
1784
330
1E
100
AcDbEntity
  8
0
100
AcDbLine
 10
523.448
 20
55.7501155
 30
0.0
 11
525.368
 21
57.3031155
 31
0.0
  0
LINE
  5
1785
330
1E
100
AcDbEntity
  8
0
100
AcDbLine
 10
499.706
 20
56.8557155
 30
0.0
 11
500.896
 21
54.9893155
 31
0.0
  0
LINE
  5
1786
330
1E
100
AcDbEntity
  8
0
100
AcDbLine
 10
504.632
 20
57.3031155
 30
0.0
 11
506.552
 21
55.7501155
 31
0.0
  0
LINE
  5
1787
330
1E
100
AcDbEntity
  8
0
100
AcDbLine
 10
498.967
 20
60.3424155
 30
0.0
 11
499.244
 21
61.8294155
 31
0.0
  0
LINE
  5
1788
330
1E
100
AcDbEntity
  8
0
100
AcDbLine
 10
498.967
 20
60.3424155
 30
0.0
 11
499.15
 21
58.3273155
 31
0.0
  0
LINE
  5
1789
330
1E
100
AcDbEntity
  8
0
100
AcDbLine
 10
499.15
 20
58.3273155
 30
0.0
 11
499.706
 21
56.8557155
 31
0.0
  0
LINE
  5
178A
330
1E
100
AcDbEntity
  8
0
100
AcDbLine
 10
499.244
 20
61.8294155
 30
0.0
 11
499.49
 21
62.5886155
 31
0.0
  0
LINE
  5
178B
330
1E
100
AcDbEntity
  8
0
100
AcDbLine
 10
499.181600641377
 20
61.494441325731
 30
0.0
 11
499.204
 21
61.8531155
 31
0.0
  0
LINE
  5
178C
330
1E
100
AcDbEntity
  8
0
100
AcDbLine
 10
499.400593749471
 20
62.204630184629
 30
0.0
 11
499.49
 21
62.5886155
 31
0.0
  0
LINE
  5
178D
330
1E
100
AcDbEntity
  8
0
100
AcDbLine
 10
499.49
 20
62.5886155
 30
0.0
 11
499.70731624961
 21
62.93956875368
 31
0.0
  0
LINE
  5
178E
330
1E
100
AcDbEntity
  8
0
100
AcDbLine
 10
499.49
 20
62.5886155
 30
0.0
 11
500.219
 21
64.1656155
 31
0.0
  0
LINE
  5
178F
330
1E
100
AcDbEntity
  8
0
100
AcDbLine
 10
499.204
 20
61.8531155
 30
0.0
 11
499.333594014034
 21
62.105918652255
 31
0.0
  0
LINE
  5
1790
330
1E
100
AcDbEntity
  8
0
100
AcDbLine
 10
503.384
 20
59.2106155
 30
0.0
 11
504.632
 21
57.3031155
 31
0.0
  0
LINE
  5
1791
330
1E
100
AcDbEntity
  8
0
100
AcDbLine
 10
503.0
 20
61.2064155
 30
0.0
 11
503.0
 21
133.2409155
 31
0.0
  0
LINE
  5
1792
330
1E
100
AcDbEntity
  8
0
100
AcDbLine
 10
503.0
 20
61.2064155
 30
0.0
 11
503.384
 21
59.2106155
 31
0.0
  0
LINE
  5
1793
330
1E
100
AcDbEntity
  8
0
100
AcDbLine
 10
525.368
 20
57.3031155
 30
0.0
 11
526.616
 21
59.2106155
 31
0.0
  0
LINE
  5
1794
330
1E
100
AcDbEntity
  8
0
100
AcDbLine
 10
530.599
 20
57.5209155
 30
0.0
 11
530.987
 21
59.2694155
 31
0.0
  0
LINE
  5
1795
330
1E
100
AcDbEntity
  8
0
100
AcDbLine
 10
530.758
 20
61.7882155
 30
0.0
 11
530.987
 21
59.2694155
 31
0.0
  0
LINE
  5
1796
330
1E
100
AcDbEntity
  8
0
100
AcDbLine
 10
530.770415338738
 20
61.601205480986
 30
0.0
 11
530.798
 21
61.5330155
 31
0.0
  0
LINE
  5
1797
330
1E
100
AcDbEntity
  8
0
100
AcDbLine
 10
527.0
 20
61.2064155
 30
0.0
 11
527.0
 21
133.2409155
 31
0.0
  0
LINE
  5
1798
330
1E
100
AcDbEntity
  8
0
100
AcDbLine
 10
526.616
 20
59.2106155
 30
0.0
 11
527.0
 21
61.2064155
 31
0.0
  0
LINE
  5
1799
330
1E
100
AcDbEntity
  8
0
100
AcDbLine
 10
500.219
 20
64.1656155
 30
0.0
 11
500.935
 21
65.3167155
 31
0.0
  0
LINE
  5
179A
330
1E
100
AcDbEntity
  8
0
100
AcDbLine
 10
527.0
 20
67.199456262463
 30
0.0
 11
528.822
 21
65.5738155
 31
0.0
  0
LINE
  5
179B
330
1E
100
AcDbEntity
  8
0
100
AcDbLine
 10
501.885
 20
66.0351155
 30
0.0
 11
503.0
 21
67.018954871981
 31
0.0
  0
LINE
  5
179C
330
1E
100
AcDbEntity
  8
0
100
AcDbLine
 10
500.935
 20
65.3167155
 30
0.0
 11
503.0
 21
67.186931812057
 31
0.0
  0
LINE
  5
179D
330
1E
100
AcDbEntity
  8
0
100
AcDbLine
 10
528.822
 20
65.5738155
 30
0.0
 11
529.632
 21
64.3384155
 31
0.0
  0
LINE
  5
179E
330
1E
100
AcDbEntity
  8
0
100
AcDbLine
 10
529.632
 20
64.3384155
 30
0.0
 11
530.181
 21
63.2659155
 31
0.0
  0
LINE
  5
179F
330
1E
100
AcDbEntity
  8
0
100
AcDbLine
 10
530.181
 20
63.2659155
 30
0.0
 11
530.758
 21
61.7882155
 31
0.0
  0
LINE
  5
17A0
330
1E
100
AcDbEntity
  8
0
100
AcDbLine
 10
480.33
 20
147.5429155
 30
0.0
 11
480.33
 21
148.1599155
 31
0.0
  0
LINE
  5
17A1
330
1E
100
AcDbEntity
  8
0
100
AcDbLine
 10
478.87
 20
147.5429155
 30
0.0
 11
478.87
 21
148.439149996683
 31
0.0
  0
LINE
  5
17A2
330
1E
100
AcDbEntity
  8
0
100
AcDbLine
 10
478.87
 20
147.5429155
 30
0.0
 11
478.87
 21
148.1599155
 31
0.0
  0
LINE
  5
17A3
330
1E
100
AcDbEntity
  8
0
100
AcDbLine
 10
478.87
 20
147.5429155
 30
0.0
 11
480.33
 21
147.5429155
 31
0.0
  0
LINE
  5
17A4
330
1E
100
AcDbEntity
  8
0
100
AcDbLine
 10
480.33
 20
148.1599155
 30
0.0
 11
480.33
 21
148.961093144711
 31
0.0
  0
LINE
  5
17A5
330
1E
100
AcDbEntity
  8
0
100
AcDbLine
 10
480.33
 20
148.1599155
 30
0.0
 11
480.33
 21
147.5429155
 31
0.0
  0
LINE
  5
17A6
330
1E
100
AcDbEntity
  8
0
100
AcDbLine
 10
478.87
 20
148.439149996683
 30
0.0
 11
478.87
 21
147.5429155
 31
0.0
  0
LINE
  5
17A7
330
1E
100
AcDbEntity
  8
0
100
AcDbLine
 10
480.33
 20
148.961093144711
 30
0.0
 11
480.33
 21
148.1599155
 31
0.0
  0
LINE
  5
17A8
330
1E
100
AcDbEntity
  8
0
100
AcDbLine
 10
478.87
 20
148.611127621212
 30
0.0
 11
478.87
 21
148.1599155
 31
0.0
  0
LINE
  5
17A9
330
1E
100
AcDbEntity
  8
0
100
AcDbLine
 10
478.87
 20
148.1599155
 30
0.0
 11
478.87
 21
147.5429155
 31
0.0
  0
LINE
  5
17AA
330
1E
100
AcDbEntity
  8
0
100
AcDbLine
 10
478.87
 20
148.1599155
 30
0.0
 11
478.87
 21
148.611127621212
 31
0.0
  0
LINE
  5
17AB
330
1E
100
AcDbEntity
  8
0
100
AcDbLine
 10
478.87
 20
148.1599155
 30
0.0
 11
480.33
 21
148.1599155
 31
0.0
  0
LINE
  5
17AC
330
1E
100
AcDbEntity
  8
0
100
AcDbLine
 10
477.701
 20
148.3309155
 30
0.0
 11
478.87
 21
147.775161401639
 31
0.0
  0
LINE
  5
17AD
330
1E
100
AcDbEntity
  8
0
100
AcDbLine
 10
479.358517241379
 20
147.5429155
 30
0.0
 11
481.788
 21
146.3879155
 31
0.0
  0
LINE
  5
17AE
330
1E
100
AcDbEntity
  8
0
100
AcDbLine
 10
475.949
 20
147.7759155
 30
0.0
 11
480.182
 21
145.7089155
 31
0.0
  0
LINE
  5
17AF
330
1E
100
AcDbEntity
  8
0
100
AcDbLine
 10
474.084
 20
150.9749155
 30
0.0
 11
474.084
 21
151.5919155
 31
0.0
  0
LINE
  5
17B0
330
1E
100
AcDbEntity
  8
0
100
AcDbLine
 10
474.084
 20
150.9749155
 30
0.0
 11
475.544
 21
150.9749155
 31
0.0
  0
LINE
  5
17B1
330
1E
100
AcDbEntity
  8
0
100
AcDbLine
 10
474.084
 20
152.780891304253
 30
0.0
 11
474.084
 21
151.5919155
 31
0.0
  0
LINE
  5
17B2
330
1E
100
AcDbEntity
  8
0
100
AcDbLine
 10
475.544
 20
151.5919155
 30
0.0
 11
475.544
 21
152.74894882879
 31
0.0
  0
LINE
  5
17B3
330
1E
100
AcDbEntity
  8
0
100
AcDbLine
 10
475.544
 20
151.5919155
 30
0.0
 11
475.544
 21
150.9749155
 31
0.0
  0
LINE
  5
17B4
330
1E
100
AcDbEntity
  8
0
100
AcDbLine
 10
475.544
 20
150.9749155
 30
0.0
 11
475.544
 21
151.5919155
 31
0.0
  0
LINE
  5
17B5
330
1E
100
AcDbEntity
  8
0
100
AcDbLine
 10
475.544
 20
152.74894882879
 30
0.0
 11
475.544
 21
151.5919155
 31
0.0
  0
LINE
  5
17B6
330
1E
100
AcDbEntity
  8
0
100
AcDbLine
 10
474.084
 20
151.5919155
 30
0.0
 11
474.084
 21
150.9749155
 31
0.0
  0
LINE
  5
17B7
330
1E
100
AcDbEntity
  8
0
100
AcDbLine
 10
474.084
 20
151.5919155
 30
0.0
 11
474.084
 21
152.780891304253
 31
0.0
  0
LINE
  5
17B8
330
1E
100
AcDbEntity
  8
0
100
AcDbLine
 10
474.084
 20
151.5919155
 30
0.0
 11
475.544
 21
151.5919155
 31
0.0
  0
LINE
  5
17B9
330
1E
100
AcDbEntity
  8
0
100
AcDbLine
 10
474.197
 20
150.5209155
 30
0.0
 11
477.701
 21
148.3309155
 31
0.0
  0
LINE
  5
17BA
330
1E
100
AcDbEntity
  8
0
100
AcDbLine
 10
471.569
 20
152.8359155
 30
0.0
 11
474.197
 21
150.5209155
 31
0.0
  0
LINE
  5
17BB
330
1E
100
AcDbEntity
  8
0
100
AcDbLine
 10
472.299
 20
150.0589155
 30
0.0
 11
475.949
 21
147.7759155
 31
0.0
  0
LINE
  5
17BC
330
1E
100
AcDbEntity
  8
0
100
AcDbLine
 10
469.599
 20
152.4659155
 30
0.0
 11
472.299
 21
150.0589155
 31
0.0
  0
LINE
  5
17BD
330
1E
100
AcDbEntity
  8
0
100
AcDbLine
 10
481.14
 20
154.6729155
 30
0.0
 11
481.14
 21
155.2899155
 31
0.0
  0
LINE
  5
17BE
330
1E
100
AcDbEntity
  8
0
100
AcDbLine
 10
479.68
 20
154.6729155
 30
0.0
 11
479.68
 21
155.835826632739
 31
0.0
  0
LINE
  5
17BF
330
1E
100
AcDbEntity
  8
0
100
AcDbLine
 10
479.68
 20
154.6729155
 30
0.0
 11
479.68
 21
155.2899155
 31
0.0
  0
LINE
  5
17C0
330
1E
100
AcDbEntity
  8
0
100
AcDbLine
 10
479.68
 20
154.6729155
 30
0.0
 11
481.14
 21
154.6729155
 31
0.0
  0
LINE
  5
17C1
330
1E
100
AcDbEntity
  8
0
100
AcDbLine
 10
472.218
 20
155.0579155
 30
0.0
 11
472.218
 21
155.6749155
 31
0.0
  0
LINE
  5
17C2
330
1E
100
AcDbEntity
  8
0
100
AcDbLine
 10
470.759
 20
155.636795562888
 30
0.0
 11
470.759
 21
155.0579155
 31
0.0
  0
LINE
  5
17C3
330
1E
100
AcDbEntity
  8
0
100
AcDbLine
 10
481.14
 20
155.2899155
 30
0.0
 11
481.14
 21
155.86839981534
 31
0.0
  0
LINE
  5
17C4
330
1E
100
AcDbEntity
  8
0
100
AcDbLine
 10
481.14
 20
155.2899155
 30
0.0
 11
481.14
 21
154.6729155
 31
0.0
  0
LINE
  5
17C5
330
1E
100
AcDbEntity
  8
0
100
AcDbLine
 10
479.68
 20
155.2899155
 30
0.0
 11
479.68
 21
154.6729155
 31
0.0
  0
LINE
  5
17C6
330
1E
100
AcDbEntity
  8
0
100
AcDbLine
 10
479.68
 20
155.2899155
 30
0.0
 11
479.68
 21
155.835826632739
 31
0.0
  0
LINE
  5
17C7
330
1E
100
AcDbEntity
  8
0
100
AcDbLine
 10
479.68
 20
155.2899155
 30
0.0
 11
481.14
 21
155.2899155
 31
0.0
  0
LINE
  5
17C8
330
1E
100
AcDbEntity
  8
0
100
AcDbLine
 10
481.14
 20
155.86839981534
 30
0.0
 11
481.14
 21
155.2899155
 31
0.0
  0
LINE
  5
17C9
330
1E
100
AcDbEntity
  8
0
100
AcDbLine
 10
479.68
 20
155.835826632739
 30
0.0
 11
479.68
 21
155.2899155
 31
0.0
  0
LINE
  5
17CA
330
1E
100
AcDbEntity
  8
0
100
AcDbLine
 10
479.68
 20
155.835826632739
 30
0.0
 11
479.68
 21
154.6729155
 31
0.0
  0
LINE
  5
17CB
330
1E
100
AcDbEntity
  8
0
100
AcDbLine
 10
472.218
 20
155.6749155
 30
0.0
 11
472.218
 21
155.0579155
 31
0.0
  0
LINE
  5
17CC
330
1E
100
AcDbEntity
  8
0
100
AcDbLine
 10
470.759
 20
155.6749155
 30
0.0
 11
470.759
 21
155.0579155
 31
0.0
  0
LINE
  5
17CD
330
1E
100
AcDbEntity
  8
0
100
AcDbLine
 10
470.759
 20
155.6749155
 30
0.0
 11
472.218
 21
155.6749155
 31
0.0
  0
LINE
  5
17CE
330
1E
100
AcDbEntity
  8
0
100
AcDbLine
 10
470.759
 20
155.0579155
 30
0.0
 11
470.759
 21
155.636795562888
 31
0.0
  0
LINE
  5
17CF
330
1E
100
AcDbEntity
  8
0
100
AcDbLine
 10
470.759
 20
155.0579155
 30
0.0
 11
470.759
 21
155.6749155
 31
0.0
  0
LINE
  5
17D0
330
1E
100
AcDbEntity
  8
0
100
AcDbLine
 10
470.759
 20
155.0579155
 30
0.0
 11
472.218
 21
155.0579155
 31
0.0
  0
LINE
  5
17D1
330
1E
100
AcDbEntity
  8
0
100
AcDbLine
 10
469.599
 20
155.6109155
 30
0.0
 11
471.569
 21
152.8359155
 31
0.0
  0
LINE
  5
17D2
330
1E
100
AcDbEntity
  8
0
100
AcDbLine
 10
468.869
 20
153.2479155
 30
0.0
 11
469.599
 21
152.4659155
 31
0.0
  0
LINE
  5
17D3
330
1E
100
AcDbEntity
  8
0
100
AcDbLine
 10
467.482
 20
155.1799155
 30
0.0
 11
469.599
 21
152.4659155
 31
0.0
  0
LINE
  5
17D4
330
1E
100
AcDbEntity
  8
0
100
AcDbLine
 10
469.38
 20
160.14418389036
 30
0.0
 11
469.38
 21
159.2099155
 31
0.0
  0
LINE
  5
17D5
330
1E
100
AcDbEntity
  8
0
100
AcDbLine
 10
469.38
 20
160.517672262453
 30
0.0
 11
469.38
 21
159.8269155
 31
0.0
  0
LINE
  5
17D6
330
1E
100
AcDbEntity
  8
0
100
AcDbLine
 10
469.38
 20
159.8269155
 30
0.0
 11
469.38
 21
159.2099155
 31
0.0
  0
LINE
  5
17D7
330
1E
100
AcDbEntity
  8
0
100
AcDbLine
 10
469.38
 20
159.8269155
 30
0.0
 11
469.38
 21
160.517672262453
 31
0.0
  0
LINE
  5
17D8
330
1E
100
AcDbEntity
  8
0
100
AcDbLine
 10
469.38
 20
159.8269155
 30
0.0
 11
470.839
 21
159.8269155
 31
0.0
  0
LINE
  5
17D9
330
1E
100
AcDbEntity
  8
0
100
AcDbLine
 10
470.839
 20
159.8269155
 30
0.0
 11
470.839
 21
160.611364807946
 31
0.0
  0
LINE
  5
17DA
330
1E
100
AcDbEntity
  8
0
100
AcDbLine
 10
470.839
 20
159.8269155
 30
0.0
 11
470.839
 21
159.2099155
 31
0.0
  0
LINE
  5
17DB
330
1E
100
AcDbEntity
  8
0
100
AcDbLine
 10
479.599
 20
158.7559155
 30
0.0
 11
479.599
 21
159.3729155
 31
0.0
  0
LINE
  5
17DC
330
1E
100
AcDbEntity
  8
0
100
AcDbLine
 10
478.139
 20
159.756305606721
 30
0.0
 11
478.139
 21
159.3729155
 31
0.0
  0
LINE
  5
17DD
330
1E
100
AcDbEntity
  8
0
100
AcDbLine
 10
478.139
 20
159.756305606721
 30
0.0
 11
478.139
 21
158.7559155
 31
0.0
  0
LINE
  5
17DE
330
1E
100
AcDbEntity
  8
0
100
AcDbLine
 10
479.599
 20
159.3729155
 30
0.0
 11
479.599
 21
159.66092343193
 31
0.0
  0
LINE
  5
17DF
330
1E
100
AcDbEntity
  8
0
100
AcDbLine
 10
479.599
 20
159.3729155
 30
0.0
 11
479.599
 21
158.7559155
 31
0.0
  0
LINE
  5
17E0
330
1E
100
AcDbEntity
  8
0
100
AcDbLine
 10
479.599
 20
159.66092343193
 30
0.0
 11
479.599
 21
159.3729155
 31
0.0
  0
LINE
  5
17E1
330
1E
100
AcDbEntity
  8
0
100
AcDbLine
 10
478.139
 20
159.3729155
 30
0.0
 11
478.139
 21
158.7559155
 31
0.0
  0
LINE
  5
17E2
330
1E
100
AcDbEntity
  8
0
100
AcDbLine
 10
478.139
 20
159.3729155
 30
0.0
 11
478.139
 21
159.756305606721
 31
0.0
  0
LINE
  5
17E3
330
1E
100
AcDbEntity
  8
0
100
AcDbLine
 10
478.139
 20
159.3729155
 30
0.0
 11
479.599
 21
159.3729155
 31
0.0
  0
LINE
  5
17E4
330
1E
100
AcDbEntity
  8
0
100
AcDbLine
 10
478.139
 20
158.7559155
 30
0.0
 11
478.139
 21
159.756305606721
 31
0.0
  0
LINE
  5
17E5
330
1E
100
AcDbEntity
  8
0
100
AcDbLine
 10
478.139
 20
158.7559155
 30
0.0
 11
478.139
 21
159.3729155
 31
0.0
  0
LINE
  5
17E6
330
1E
100
AcDbEntity
  8
0
100
AcDbLine
 10
478.139
 20
158.7559155
 30
0.0
 11
479.599
 21
158.7559155
 31
0.0
  0
LINE
  5
17E7
330
1E
100
AcDbEntity
  8
0
100
AcDbLine
 10
470.839
 20
159.2099155
 30
0.0
 11
470.839
 21
159.8269155
 31
0.0
  0
LINE
  5
17E8
330
1E
100
AcDbEntity
  8
0
100
AcDbLine
 10
470.839
 20
160.611364807946
 30
0.0
 11
470.839
 21
159.8269155
 31
0.0
  0
LINE
  5
17E9
330
1E
100
AcDbEntity
  8
0
100
AcDbLine
 10
469.38
 20
159.2099155
 30
0.0
 11
469.38
 21
160.14418389036
 31
0.0
  0
LINE
  5
17EA
330
1E
100
AcDbEntity
  8
0
100
AcDbLine
 10
469.38
 20
159.2099155
 30
0.0
 11
469.38
 21
159.8269155
 31
0.0
  0
LINE
  5
17EB
330
1E
100
AcDbEntity
  8
0
100
AcDbLine
 10
469.38
 20
159.2099155
 30
0.0
 11
470.839
 21
159.2099155
 31
0.0
  0
LINE
  5
17EC
330
1E
100
AcDbEntity
  8
0
100
AcDbLine
 10
468.358
 20
157.8009155
 30
0.0
 11
469.599
 21
155.6109155
 31
0.0
  0
LINE
  5
17ED
330
1E
100
AcDbEntity
  8
0
100
AcDbLine
 10
467.92
 20
160.4239155
 30
0.0
 11
468.358
 21
157.8009155
 31
0.0
  0
LINE
  5
17EE
330
1E
100
AcDbEntity
  8
0
100
AcDbLine
 10
467.92
 20
160.4239155
 30
0.0
 11
468.358
 21
163.0459155
 31
0.0
  0
LINE
  5
17EF
330
1E
100
AcDbEntity
  8
0
100
AcDbLine
 10
466.241
 20
157.7399155
 30
0.0
 11
467.482
 21
155.1799155
 31
0.0
  0
LINE
  5
17F0
330
1E
100
AcDbEntity
  8
0
100
AcDbLine
 10
465.73
 20
160.4239155
 30
0.0
 11
466.241
 21
157.7399155
 31
0.0
  0
LINE
  5
17F1
330
1E
100
AcDbEntity
  8
0
100
AcDbLine
 10
465.73
 20
160.4239155
 30
0.0
 11
466.241
 21
163.1079155
 31
0.0
  0
LINE
  5
17F2
330
1E
100
AcDbEntity
  8
0
100
AcDbLine
 10
466.825
 20
155.8699155
 30
0.0
 11
468.869
 21
153.2479155
 31
0.0
  0
LINE
  5
17F3
330
1E
100
AcDbEntity
  8
0
100
AcDbLine
 10
465.511
 20
158.6159155
 30
0.0
 11
466.825
 21
155.8699155
 31
0.0
  0
LINE
  5
17F4
330
1E
100
AcDbEntity
  8
0
100
AcDbLine
 10
465.0
 20
161.3309155
 30
0.0
 11
465.511
 21
158.6159155
 31
0.0
  0
LINE
  5
17F5
330
1E
100
AcDbEntity
  8
0
100
AcDbLine
 10
465.0
 20
161.3309155
 30
0.0
 11
465.0
 21
180.3629155
 31
0.0
  0
LINE
  5
17F6
330
1E
100
AcDbEntity
  8
0
100
AcDbLine
 10
465.0
 20
161.3309155
 30
0.0
 11
465.511
 21
164.0449155
 31
0.0
  0
LINE
  5
17F7
330
1E
100
AcDbEntity
  8
0
100
AcDbLine
 10
484.141
 20
150.830339154137
 30
0.0
 11
484.141
 21
150.5909155
 31
0.0
  0
LINE
  5
17F8
330
1E
100
AcDbEntity
  8
0
100
AcDbLine
 10
484.141
 20
152.167240309034
 30
0.0
 11
484.141
 21
151.2079155
 31
0.0
  0
LINE
  5
17F9
330
1E
100
AcDbEntity
  8
0
100
AcDbLine
 10
484.141
 20
151.2079155
 30
0.0
 11
484.141
 21
150.5909155
 31
0.0
  0
LINE
  5
17FA
330
1E
100
AcDbEntity
  8
0
100
AcDbLine
 10
484.141
 20
151.2079155
 30
0.0
 11
484.141
 21
152.167240309034
 31
0.0
  0
LINE
  5
17FB
330
1E
100
AcDbEntity
  8
0
100
AcDbLine
 10
484.141
 20
151.2079155
 30
0.0
 11
485.601
 21
151.2079155
 31
0.0
  0
LINE
  5
17FC
330
1E
100
AcDbEntity
  8
0
100
AcDbLine
 10
484.141
 20
150.5909155
 30
0.0
 11
484.141
 21
150.830339154137
 31
0.0
  0
LINE
  5
17FD
330
1E
100
AcDbEntity
  8
0
100
AcDbLine
 10
484.141
 20
150.5909155
 30
0.0
 11
484.141
 21
151.2079155
 31
0.0
  0
LINE
  5
17FE
330
1E
100
AcDbEntity
  8
0
100
AcDbLine
 10
484.141
 20
150.5909155
 30
0.0
 11
485.601
 21
150.5909155
 31
0.0
  0
LINE
  5
17FF
330
1E
100
AcDbEntity
  8
0
100
AcDbLine
 10
481.788
 20
146.3879155
 30
0.0
 11
485.278
 21
145.077363206023
 31
0.0
  0
LINE
  5
1800
330
1E
100
AcDbEntity
  8
0
100
AcDbLine
 10
480.182
 20
145.7089155
 30
0.0
 11
485.073
 21
143.9199155
 31
0.0
  0
LINE
  5
1801
330
1E
100
AcDbEntity
  8
0
100
AcDbLine
 10
491.558
 20
143.183059266885
 30
0.0
 11
491.558
 21
142.9749155
 31
0.0
  0
LINE
  5
1802
330
1E
100
AcDbEntity
  8
0
100
AcDbLine
 10
491.558
 20
142.9749155
 30
0.0
 11
492.822
 21
142.6659155
 31
0.0
  0
LINE
  5
1803
330
1E
100
AcDbEntity
  8
0
100
AcDbLine
 10
491.558
 20
142.9749155
 30
0.0
 11
491.558
 21
143.183059266885
 31
0.0
  0
LINE
  5
1804
330
1E
100
AcDbEntity
  8
0
100
AcDbLine
 10
491.558
 20
142.9749155
 30
0.0
 11
492.288
 21
143.5089155
 31
0.0
  0
LINE
  5
1805
330
1E
100
AcDbEntity
  8
0
100
AcDbLine
 10
485.278
 20
145.077363206023
 30
0.0
 11
485.278
 21
144.6959155
 31
0.0
  0
LINE
  5
1806
330
1E
100
AcDbEntity
  8
0
100
AcDbLine
 10
485.278
 20
145.3129155
 30
0.0
 11
485.278
 21
144.6959155
 31
0.0
  0
LINE
  5
1807
330
1E
100
AcDbEntity
  8
0
100
AcDbLine
 10
485.278
 20
145.3129155
 30
0.0
 11
486.738
 21
145.3129155
 31
0.0
  0
LINE
  5
1808
330
1E
100
AcDbEntity
  8
0
100
AcDbLine
 10
485.278
 20
144.6959155
 30
0.0
 11
485.278
 21
145.077363206023
 31
0.0
  0
LINE
  5
1809
330
1E
100
AcDbEntity
  8
0
100
AcDbLine
 10
485.278
 20
144.6959155
 30
0.0
 11
485.278
 21
145.3129155
 31
0.0
  0
LINE
  5
180A
330
1E
100
AcDbEntity
  8
0
100
AcDbLine
 10
485.278
 20
144.6959155
 30
0.0
 11
486.738
 21
144.6959155
 31
0.0
  0
LINE
  5
180B
330
1E
100
AcDbEntity
  8
0
100
AcDbLine
 10
485.601
 20
151.2079155
 30
0.0
 11
485.601
 21
150.5909155
 31
0.0
  0
LINE
  5
180C
330
1E
100
AcDbEntity
  8
0
100
AcDbLine
 10
485.601
 20
150.5909155
 30
0.0
 11
485.601
 21
151.2079155
 31
0.0
  0
LINE
  5
180D
330
1E
100
AcDbEntity
  8
0
100
AcDbLine
 10
486.738
 20
145.3129155
 30
0.0
 11
486.738
 21
144.6959155
 31
0.0
  0
LINE
  5
180E
330
1E
100
AcDbEntity
  8
0
100
AcDbLine
 10
486.738
 20
144.6959155
 30
0.0
 11
486.738
 21
145.3129155
 31
0.0
  0
LINE
  5
180F
330
1E
100
AcDbEntity
  8
0
100
AcDbLine
 10
489.495
 20
148.930650291944
 30
0.0
 11
489.495
 21
148.3939155
 31
0.0
  0
LINE
  5
1810
330
1E
100
AcDbEntity
  8
0
100
AcDbLine
 10
489.495
 20
148.930650291944
 30
0.0
 11
489.495
 21
147.7769155
 31
0.0
  0
LINE
  5
1811
330
1E
100
AcDbEntity
  8
0
100
AcDbLine
 10
489.495
 20
148.3939155
 30
0.0
 11
489.495
 21
147.7769155
 31
0.0
  0
LINE
  5
1812
330
1E
100
AcDbEntity
  8
0
100
AcDbLine
 10
489.495
 20
148.3939155
 30
0.0
 11
489.495
 21
148.930650291944
 31
0.0
  0
LINE
  5
1813
330
1E
100
AcDbEntity
  8
0
100
AcDbLine
 10
489.495
 20
148.3939155
 30
0.0
 11
490.955
 21
148.3939155
 31
0.0
  0
LINE
  5
1814
330
1E
100
AcDbEntity
  8
0
100
AcDbLine
 10
489.495
 20
147.7769155
 30
0.0
 11
489.495
 21
148.930650291944
 31
0.0
  0
LINE
  5
1815
330
1E
100
AcDbEntity
  8
0
100
AcDbLine
 10
489.495
 20
147.7769155
 30
0.0
 11
489.495
 21
148.3939155
 31
0.0
  0
LINE
  5
1816
330
1E
100
AcDbEntity
  8
0
100
AcDbLine
 10
489.495
 20
147.7769155
 30
0.0
 11
490.955
 21
147.7769155
 31
0.0
  0
LINE
  5
1817
330
1E
100
AcDbEntity
  8
0
100
AcDbLine
 10
490.955
 20
148.3939155
 30
0.0
 11
490.955
 21
149.41234132558
 31
0.0
  0
LINE
  5
1818
330
1E
100
AcDbEntity
  8
0
100
AcDbLine
 10
490.955
 20
148.3939155
 30
0.0
 11
490.955
 21
147.7769155
 31
0.0
  0
LINE
  5
1819
330
1E
100
AcDbEntity
  8
0
100
AcDbLine
 10
490.955
 20
147.7769155
 30
0.0
 11
490.955
 21
148.3939155
 31
0.0
  0
LINE
  5
181A
330
1E
100
AcDbEntity
  8
0
100
AcDbLine
 10
490.955
 20
149.41234132558
 30
0.0
 11
490.955
 21
148.3939155
 31
0.0
  0
LINE
  5
181B
330
1E
100
AcDbEntity
  8
0
100
AcDbLine
 10
490.548
 20
154.5289155
 30
0.0
 11
490.548
 21
155.1449155
 31
0.0
  0
LINE
  5
181C
330
1E
100
AcDbEntity
  8
0
100
AcDbLine
 10
489.088
 20
154.750789871859
 30
0.0
 11
489.088
 21
154.5289155
 31
0.0
  0
LINE
  5
181D
330
1E
100
AcDbEntity
  8
0
100
AcDbLine
 10
489.088
 20
156.100804914548
 30
0.0
 11
489.088
 21
155.1449155
 31
0.0
  0
LINE
  5
181E
330
1E
100
AcDbEntity
  8
0
100
AcDbLine
 10
490.548
 20
155.1449155
 30
0.0
 11
490.548
 21
156.146492870392
 31
0.0
  0
LINE
  5
181F
330
1E
100
AcDbEntity
  8
0
100
AcDbLine
 10
490.548
 20
155.1449155
 30
0.0
 11
490.548
 21
154.5289155
 31
0.0
  0
LINE
  5
1820
330
1E
100
AcDbEntity
  8
0
100
AcDbLine
 10
490.548
 20
156.146492870392
 30
0.0
 11
490.548
 21
155.1449155
 31
0.0
  0
LINE
  5
1821
330
1E
100
AcDbEntity
  8
0
100
AcDbLine
 10
489.088
 20
155.1449155
 30
0.0
 11
489.088
 21
154.5289155
 31
0.0
  0
LINE
  5
1822
330
1E
100
AcDbEntity
  8
0
100
AcDbLine
 10
489.088
 20
155.1449155
 30
0.0
 11
489.088
 21
156.100804914548
 31
0.0
  0
LINE
  5
1823
330
1E
100
AcDbEntity
  8
0
100
AcDbLine
 10
489.088
 20
155.1449155
 30
0.0
 11
490.548
 21
155.1449155
 31
0.0
  0
LINE
  5
1824
330
1E
100
AcDbEntity
  8
0
100
AcDbLine
 10
489.088
 20
154.5289155
 30
0.0
 11
489.088
 21
154.750789871859
 31
0.0
  0
LINE
  5
1825
330
1E
100
AcDbEntity
  8
0
100
AcDbLine
 10
489.088
 20
154.5289155
 30
0.0
 11
489.088
 21
155.1449155
 31
0.0
  0
LINE
  5
1826
330
1E
100
AcDbEntity
  8
0
100
AcDbLine
 10
489.088
 20
154.5289155
 30
0.0
 11
490.548
 21
154.5289155
 31
0.0
  0
LINE
  5
1827
330
1E
100
AcDbEntity
  8
0
100
AcDbLine
 10
488.358
 20
158.3029155
 30
0.0
 11
488.358
 21
158.9199155
 31
0.0
  0
LINE
  5
1828
330
1E
100
AcDbEntity
  8
0
100
AcDbLine
 10
486.898
 20
159.116741772833
 30
0.0
 11
486.898
 21
158.3029155
 31
0.0
  0
LINE
  5
1829
330
1E
100
AcDbEntity
  8
0
100
AcDbLine
 10
486.898
 20
159.469010039448
 30
0.0
 11
486.898
 21
158.9199155
 31
0.0
  0
LINE
  5
182A
330
1E
100
AcDbEntity
  8
0
100
AcDbLine
 10
488.358
 20
158.9199155
 30
0.0
 11
488.358
 21
159.455037050719
 31
0.0
  0
LINE
  5
182B
330
1E
100
AcDbEntity
  8
0
100
AcDbLine
 10
488.358
 20
158.9199155
 30
0.0
 11
488.358
 21
158.3029155
 31
0.0
  0
LINE
  5
182C
330
1E
100
AcDbEntity
  8
0
100
AcDbLine
 10
488.358
 20
159.455037050719
 30
0.0
 11
488.358
 21
158.9199155
 31
0.0
  0
LINE
  5
182D
330
1E
100
AcDbEntity
  8
0
100
AcDbLine
 10
486.898
 20
158.9199155
 30
0.0
 11
486.898
 21
158.3029155
 31
0.0
  0
LINE
  5
182E
330
1E
100
AcDbEntity
  8
0
100
AcDbLine
 10
486.898
 20
158.9199155
 30
0.0
 11
486.898
 21
159.469010039448
 31
0.0
  0
LINE
  5
182F
330
1E
100
AcDbEntity
  8
0
100
AcDbLine
 10
486.898
 20
158.9199155
 30
0.0
 11
488.358
 21
158.9199155
 31
0.0
  0
LINE
  5
1830
330
1E
100
AcDbEntity
  8
0
100
AcDbLine
 10
486.898
 20
158.3029155
 30
0.0
 11
486.898
 21
159.116741772833
 31
0.0
  0
LINE
  5
1831
330
1E
100
AcDbEntity
  8
0
100
AcDbLine
 10
486.898
 20
158.3029155
 30
0.0
 11
486.898
 21
158.9199155
 31
0.0
  0
LINE
  5
1832
330
1E
100
AcDbEntity
  8
0
100
AcDbLine
 10
486.898
 20
158.3029155
 30
0.0
 11
488.358
 21
158.3029155
 31
0.0
  0
LINE
  5
1833
330
1E
100
AcDbEntity
  8
0
100
AcDbLine
 10
486.293795020266
 20
144.6959155
 30
0.0
 11
486.387
 21
144.6609155
 31
0.0
  0
LINE
  5
1834
330
1E
100
AcDbEntity
  8
0
100
AcDbLine
 10
486.387
 20
144.6609155
 30
0.0
 11
491.558
 21
143.183059266885
 31
0.0
  0
LINE
  5
1835
330
1E
100
AcDbEntity
  8
0
100
AcDbLine
 10
485.073
 20
143.9199155
 30
0.0
 11
490.474
 21
142.3779155
 31
0.0
  0
LINE
  5
1836
330
1E
100
AcDbEntity
  8
0
100
AcDbLine
 10
490.474
 20
142.3779155
 30
0.0
 11
496.168
 21
141.2359155
 31
0.0
  0
LINE
  5
1837
330
1E
100
AcDbEntity
  8
0
100
AcDbLine
 10
504.632
 20
127.2399155
 30
0.0
 11
506.552
 21
124.6799155
 31
0.0
  0
LINE
  5
1838
330
1E
100
AcDbEntity
  8
0
100
AcDbLine
 10
503.384
 20
130.1519155
 30
0.0
 11
504.632
 21
127.2399155
 31
0.0
  0
LINE
  5
1839
330
1E
100
AcDbEntity
  8
0
100
AcDbLine
 10
503.0
 20
133.2409155
 30
0.0
 11
503.384
 21
136.4189155
 31
0.0
  0
LINE
  5
183A
330
1E
100
AcDbEntity
  8
0
100
AcDbLine
 10
503.0
 20
133.2409155
 30
0.0
 11
503.0
 21
61.2064155
 31
0.0
  0
LINE
  5
183B
330
1E
100
AcDbEntity
  8
0
100
AcDbLine
 10
503.0
 20
133.2409155
 30
0.0
 11
503.384
 21
130.1519155
 31
0.0
  0
LINE
  5
183C
330
1E
100
AcDbEntity
  8
0
100
AcDbLine
 10
503.384
 20
136.4189155
 30
0.0
 11
504.632
 21
139.3309155
 31
0.0
  0
LINE
  5
183D
330
1E
100
AcDbEntity
  8
0
100
AcDbLine
 10
504.632
 20
139.3309155
 30
0.0
 11
505.219743916615
 21
140.114574055487
 31
0.0
  0
LINE
  5
183E
330
1E
100
AcDbEntity
  8
0
100
AcDbLine
 10
506.36
 20
140.015961382159
 30
0.0
 11
506.36
 21
133.2409155
 31
0.0
  0
LINE
  5
183F
330
1E
100
AcDbEntity
  8
0
100
AcDbLine
 10
506.552
 20
124.6799155
 30
0.0
 11
509.048
 21
122.7389155
 31
0.0
  0
LINE
  5
1840
330
1E
100
AcDbEntity
  8
0
100
AcDbLine
 10
507.512
 20
128.9169155
 30
0.0
 11
508.856
 21
127.0629155
 31
0.0
  0
LINE
  5
1841
330
1E
100
AcDbEntity
  8
0
100
AcDbLine
 10
508.529
 20
140.3069155
 30
0.0
 11
509.793
 21
140.6159155
 31
0.0
  0
LINE
  5
1842
330
1E
100
AcDbEntity
  8
0
100
AcDbLine
 10
506.648
 20
131.0349155
 30
0.0
 11
507.512
 21
128.9169155
 31
0.0
  0
LINE
  5
1843
330
1E
100
AcDbEntity
  8
0
100
AcDbLine
 10
506.36
 20
133.2409155
 30
0.0
 11
506.648
 21
131.0349155
 31
0.0
  0
LINE
  5
1844
330
1E
100
AcDbEntity
  8
0
100
AcDbLine
 10
506.36
 20
133.2409155
 30
0.0
 11
506.36
 21
140.015961382159
 31
0.0
  0
LINE
  5
1845
330
1E
100
AcDbEntity
  8
0
100
AcDbLine
 10
492.822
 20
142.6659155
 30
0.0
 11
493.552
 21
143.2009155
 31
0.0
  0
LINE
  5
1846
330
1E
100
AcDbEntity
  8
0
100
AcDbLine
 10
493.552
 20
143.2009155
 30
0.0
 11
493.552
 21
143.804754549394
 31
0.0
  0
LINE
  5
1847
330
1E
100
AcDbEntity
  8
0
100
AcDbLine
 10
492.288
 20
143.5089155
 30
0.0
 11
493.552
 21
143.2009155
 31
0.0
  0
LINE
  5
1848
330
1E
100
AcDbEntity
  8
0
100
AcDbLine
 10
492.288
 20
143.5089155
 30
0.0
 11
492.288
 21
143.618210020548
 31
0.0
  0
LINE
  5
1849
330
1E
100
AcDbEntity
  8
0
100
AcDbLine
 10
493.552
 20
143.804754549394
 30
0.0
 11
493.552
 21
143.2009155
 31
0.0
  0
LINE
  5
184A
330
1E
100
AcDbEntity
  8
0
100
AcDbLine
 10
492.288
 20
143.618210020548
 30
0.0
 11
492.288
 21
143.5089155
 31
0.0
  0
LINE
  5
184B
330
1E
100
AcDbEntity
  8
0
100
AcDbLine
 10
494.36
 20
150.7209155
 30
0.0
 11
494.36
 21
151.3379155
 31
0.0
  0
LINE
  5
184C
330
1E
100
AcDbEntity
  8
0
100
AcDbLine
 10
494.36
 20
150.7209155
 30
0.0
 11
495.82
 21
150.7209155
 31
0.0
  0
LINE
  5
184D
330
1E
100
AcDbEntity
  8
0
100
AcDbLine
 10
494.36
 20
152.220673598224
 30
0.0
 11
494.36
 21
151.3379155
 31
0.0
  0
LINE
  5
184E
330
1E
100
AcDbEntity
  8
0
100
AcDbLine
 10
494.36
 20
151.3379155
 30
0.0
 11
494.36
 21
150.7209155
 31
0.0
  0
LINE
  5
184F
330
1E
100
AcDbEntity
  8
0
100
AcDbLine
 10
494.36
 20
151.3379155
 30
0.0
 11
494.36
 21
152.220673598224
 31
0.0
  0
LINE
  5
1850
330
1E
100
AcDbEntity
  8
0
100
AcDbLine
 10
494.36
 20
151.3379155
 30
0.0
 11
495.82
 21
151.3379155
 31
0.0
  0
LINE
  5
1851
330
1E
100
AcDbEntity
  8
0
100
AcDbLine
 10
495.657
 20
158.429093890983
 30
0.0
 11
495.657
 21
157.8499155
 31
0.0
  0
LINE
  5
1852
330
1E
100
AcDbEntity
  8
0
100
AcDbLine
 10
495.657
 20
159.385181677614
 30
0.0
 11
495.657
 21
158.4659155
 31
0.0
  0
LINE
  5
1853
330
1E
100
AcDbEntity
  8
0
100
AcDbLine
 10
495.657
 20
158.4659155
 30
0.0
 11
495.657
 21
157.8499155
 31
0.0
  0
LINE
  5
1854
330
1E
100
AcDbEntity
  8
0
100
AcDbLine
 10
495.657
 20
158.4659155
 30
0.0
 11
495.657
 21
159.385181677614
 31
0.0
  0
LINE
  5
1855
330
1E
100
AcDbEntity
  8
0
100
AcDbLine
 10
495.657
 20
158.4659155
 30
0.0
 11
497.117
 21
158.4659155
 31
0.0
  0
LINE
  5
1856
330
1E
100
AcDbEntity
  8
0
100
AcDbLine
 10
495.82
 20
151.3379155
 30
0.0
 11
495.82
 21
150.7209155
 31
0.0
  0
LINE
  5
1857
330
1E
100
AcDbEntity
  8
0
100
AcDbLine
 10
495.82
 20
150.7209155
 30
0.0
 11
495.82
 21
151.3379155
 31
0.0
  0
LINE
  5
1858
330
1E
100
AcDbEntity
  8
0
100
AcDbLine
 10
495.937
 20
146.803401385088
 30
0.0
 11
495.937
 21
145.7279155
 31
0.0
  0
LINE
  5
1859
330
1E
100
AcDbEntity
  8
0
100
AcDbLine
 10
495.937
 20
145.7279155
 30
0.0
 11
497.202
 21
145.4189155
 31
0.0
  0
LINE
  5
185A
330
1E
100
AcDbEntity
  8
0
100
AcDbLine
 10
495.937
 20
145.7279155
 30
0.0
 11
495.937
 21
146.803401385088
 31
0.0
  0
LINE
  5
185B
330
1E
100
AcDbEntity
  8
0
100
AcDbLine
 10
495.937
 20
145.7279155
 30
0.0
 11
496.667
 21
146.2619155
 31
0.0
  0
LINE
  5
185C
330
1E
100
AcDbEntity
  8
0
100
AcDbLine
 10
495.657
 20
157.8499155
 30
0.0
 11
495.657
 21
158.429093890983
 31
0.0
  0
LINE
  5
185D
330
1E
100
AcDbEntity
  8
0
100
AcDbLine
 10
495.657
 20
157.8499155
 30
0.0
 11
495.657
 21
158.4659155
 31
0.0
  0
LINE
  5
185E
330
1E
100
AcDbEntity
  8
0
100
AcDbLine
 10
495.657
 20
157.8499155
 30
0.0
 11
497.117
 21
157.8499155
 31
0.0
  0
LINE
  5
185F
330
1E
100
AcDbEntity
  8
0
100
AcDbLine
 10
493.099557724212
 20
142.869331092402
 30
0.0
 11
497.044
 21
142.0689155
 31
0.0
  0
LINE
  5
1860
330
1E
100
AcDbEntity
  8
0
100
AcDbLine
 10
499.489
 20
141.2289155
 30
0.0
 11
500.753
 21
141.5369155
 31
0.0
  0
LINE
  5
1861
330
1E
100
AcDbEntity
  8
0
100
AcDbLine
 10
507.799
 20
140.8419155
 30
0.0
 11
509.063
 21
141.1499155
 31
0.0
  0
LINE
  5
1862
330
1E
100
AcDbEntity
  8
0
100
AcDbLine
 10
507.799
 20
140.8419155
 30
0.0
 11
508.529
 21
140.3069155
 31
0.0
  0
LINE
  5
1863
330
1E
100
AcDbEntity
  8
0
100
AcDbLine
 10
498.759
 20
141.7629155
 30
0.0
 11
500.023
 21
142.0719155
 31
0.0
  0
LINE
  5
1864
330
1E
100
AcDbEntity
  8
0
100
AcDbLine
 10
498.759
 20
141.7629155
 30
0.0
 11
499.489
 21
141.2289155
 31
0.0
  0
LINE
  5
1865
330
1E
100
AcDbEntity
  8
0
100
AcDbLine
 10
498.759
 20
141.7629155
 30
0.0
 11
498.759
 21
142.780523932455
 31
0.0
  0
LINE
  5
1866
330
1E
100
AcDbEntity
  8
0
100
AcDbLine
 10
500.753
 20
141.5369155
 30
0.0
 11
500.753
 21
141.598585617217
 31
0.0
  0
LINE
  5
1867
330
1E
100
AcDbEntity
  8
0
100
AcDbLine
 10
498.759
 20
142.780523932455
 30
0.0
 11
498.759
 21
141.7629155
 31
0.0
  0
LINE
  5
1868
330
1E
100
AcDbEntity
  8
0
100
AcDbLine
 10
496.667
 20
146.2619155
 30
0.0
 11
497.931
 21
145.9539155
 31
0.0
  0
LINE
  5
1869
330
1E
100
AcDbEntity
  8
0
100
AcDbLine
 10
496.667
 20
146.2619155
 30
0.0
 11
496.667
 21
146.967172557456
 31
0.0
  0
LINE
  5
186A
330
1E
100
AcDbEntity
  8
0
100
AcDbLine
 10
497.931
 20
145.9539155
 30
0.0
 11
497.931
 21
147.058120979452
 31
0.0
  0
LINE
  5
186B
330
1E
100
AcDbEntity
  8
0
100
AcDbLine
 10
497.202
 20
145.4189155
 30
0.0
 11
497.931
 21
145.9539155
 31
0.0
  0
LINE
  5
186C
330
1E
100
AcDbEntity
  8
0
100
AcDbLine
 10
497.931
 20
147.058120979452
 30
0.0
 11
497.931
 21
145.9539155
 31
0.0
  0
LINE
  5
186D
330
1E
100
AcDbEntity
  8
0
100
AcDbLine
 10
496.667
 20
146.967172557456
 30
0.0
 11
496.667
 21
146.2619155
 31
0.0
  0
LINE
  5
186E
330
1E
100
AcDbEntity
  8
0
100
AcDbLine
 10
498.82
 20
154.424777102106
 30
0.0
 11
498.82
 21
153.8349155
 31
0.0
  0
LINE
  5
186F
330
1E
100
AcDbEntity
  8
0
100
AcDbLine
 10
497.117
 20
158.4659155
 30
0.0
 11
497.117
 21
159.371208688885
 31
0.0
  0
LINE
  5
1870
330
1E
100
AcDbEntity
  8
0
100
AcDbLine
 10
497.117
 20
158.4659155
 30
0.0
 11
497.117
 21
157.8499155
 31
0.0
  0
LINE
  5
1871
330
1E
100
AcDbEntity
  8
0
100
AcDbLine
 10
497.117
 20
157.8499155
 30
0.0
 11
497.117
 21
158.4659155
 31
0.0
  0
LINE
  5
1872
330
1E
100
AcDbEntity
  8
0
100
AcDbLine
 10
497.117
 20
159.371208688885
 30
0.0
 11
497.117
 21
158.4659155
 31
0.0
  0
LINE
  5
1873
330
1E
100
AcDbEntity
  8
0
100
AcDbLine
 10
498.82
 20
154.94469063587
 30
0.0
 11
498.82
 21
154.4519155
 31
0.0
  0
LINE
  5
1874
330
1E
100
AcDbEntity
  8
0
100
AcDbLine
 10
498.82
 20
154.4519155
 30
0.0
 11
498.82
 21
153.8349155
 31
0.0
  0
LINE
  5
1875
330
1E
100
AcDbEntity
  8
0
100
AcDbLine
 10
498.82
 20
154.4519155
 30
0.0
 11
498.82
 21
154.94469063587
 31
0.0
  0
LINE
  5
1876
330
1E
100
AcDbEntity
  8
0
100
AcDbLine
 10
498.82
 20
154.4519155
 30
0.0
 11
500.28
 21
154.4519155
 31
0.0
  0
LINE
  5
1877
330
1E
100
AcDbEntity
  8
0
100
AcDbLine
 10
498.82
 20
153.8349155
 30
0.0
 11
498.82
 21
154.424777102106
 31
0.0
  0
LINE
  5
1878
330
1E
100
AcDbEntity
  8
0
100
AcDbLine
 10
498.82
 20
153.8349155
 30
0.0
 11
498.82
 21
154.4519155
 31
0.0
  0
LINE
  5
1879
330
1E
100
AcDbEntity
  8
0
100
AcDbLine
 10
498.82
 20
153.8349155
 30
0.0
 11
500.28
 21
153.8349155
 31
0.0
  0
LINE
  5
187A
330
1E
100
AcDbEntity
  8
0
100
AcDbLine
 10
500.023
 20
143.304998019116
 30
0.0
 11
500.023
 21
142.0719155
 31
0.0
  0
LINE
  5
187B
330
1E
100
AcDbEntity
  8
0
100
AcDbLine
 10
500.28
 20
154.4519155
 30
0.0
 11
500.28
 21
155.22670603442
 31
0.0
  0
LINE
  5
187C
330
1E
100
AcDbEntity
  8
0
100
AcDbLine
 10
500.28
 20
154.4519155
 30
0.0
 11
500.28
 21
153.8349155
 31
0.0
  0
LINE
  5
187D
330
1E
100
AcDbEntity
  8
0
100
AcDbLine
 10
500.317
 20
148.573432576035
 30
0.0
 11
500.317
 21
148.4799155
 31
0.0
  0
LINE
  5
187E
330
1E
100
AcDbEntity
  8
0
100
AcDbLine
 10
500.317
 20
148.4799155
 30
0.0
 11
501.581
 21
148.1709155
 31
0.0
  0
LINE
  5
187F
330
1E
100
AcDbEntity
  8
0
100
AcDbLine
 10
500.317
 20
148.4799155
 30
0.0
 11
500.317
 21
148.573432576035
 31
0.0
  0
LINE
  5
1880
330
1E
100
AcDbEntity
  8
0
100
AcDbLine
 10
500.317
 20
148.4799155
 30
0.0
 11
501.047
 21
149.0149155
 31
0.0
  0
LINE
  5
1881
330
1E
100
AcDbEntity
  8
0
100
AcDbLine
 10
500.28
 20
153.8349155
 30
0.0
 11
500.28
 21
154.4519155
 31
0.0
  0
LINE
  5
1882
330
1E
100
AcDbEntity
  8
0
100
AcDbLine
 10
500.28
 20
155.22670603442
 30
0.0
 11
500.28
 21
154.4519155
 31
0.0
  0
LINE
  5
1883
330
1E
100
AcDbEntity
  8
0
100
AcDbLine
 10
500.023
 20
142.0719155
 30
0.0
 11
500.753
 21
141.5369155
 31
0.0
  0
LINE
  5
1884
330
1E
100
AcDbEntity
  8
0
100
AcDbLine
 10
500.023
 20
142.0719155
 30
0.0
 11
500.023
 21
143.304998019116
 31
0.0
  0
LINE
  5
1885
330
1E
100
AcDbEntity
  8
0
100
AcDbLine
 10
497.044
 20
142.0689155
 30
0.0
 11
498.759
 21
141.851440237403
 31
0.0
  0
LINE
  5
1886
330
1E
100
AcDbEntity
  8
0
100
AcDbLine
 10
503.892
 20
144.910370045455
 30
0.0
 11
503.892
 21
144.6199155
 31
0.0
  0
LINE
  5
1887
330
1E
100
AcDbEntity
  8
0
100
AcDbLine
 10
503.892
 20
144.6199155
 30
0.0
 11
505.157
 21
144.9289155
 31
0.0
  0
LINE
  5
1888
330
1E
100
AcDbEntity
  8
0
100
AcDbLine
 10
503.892
 20
144.6199155
 30
0.0
 11
504.622
 21
144.0859155
 31
0.0
  0
LINE
  5
1889
330
1E
100
AcDbEntity
  8
0
100
AcDbLine
 10
503.892
 20
144.6199155
 30
0.0
 11
503.892
 21
144.910370045455
 31
0.0
  0
LINE
  5
188A
330
1E
100
AcDbEntity
  8
0
100
AcDbLine
 10
501.047
 20
149.0149155
 30
0.0
 11
502.311
 21
148.7059155
 31
0.0
  0
LINE
  5
188B
330
1E
100
AcDbEntity
  8
0
100
AcDbLine
 10
502.311
 20
148.7059155
 30
0.0
 11
502.311
 21
149.450101662014
 31
0.0
  0
LINE
  5
188C
330
1E
100
AcDbEntity
  8
0
100
AcDbLine
 10
501.581
 20
148.1709155
 30
0.0
 11
502.311
 21
148.7059155
 31
0.0
  0
LINE
  5
188D
330
1E
100
AcDbEntity
  8
0
100
AcDbLine
 10
502.311
 20
149.450101662014
 30
0.0
 11
502.311
 21
148.7059155
 31
0.0
  0
LINE
  5
188E
330
1E
100
AcDbEntity
  8
0
100
AcDbLine
 10
504.007
 20
155.9959155
 30
0.0
 11
504.399
 21
156.2169155
 31
0.0
  0
LINE
  5
188F
330
1E
100
AcDbEntity
  8
0
100
AcDbLine
 10
503.776
 20
155.7329155
 30
0.0
 11
504.007
 21
155.9959155
 31
0.0
  0
LINE
  5
1890
330
1E
100
AcDbEntity
  8
0
100
AcDbLine
 10
503.664
 20
155.4559155
 30
0.0
 11
503.743
 21
155.1819155
 31
0.0
  0
LINE
  5
1891
330
1E
100
AcDbEntity
  8
0
100
AcDbLine
 10
503.664
 20
155.4559155
 30
0.0
 11
503.776
 21
155.7329155
 31
0.0
  0
LINE
  5
1892
330
1E
100
AcDbEntity
  8
0
100
AcDbLine
 10
503.371875926283
 20
155.87848683836
 30
0.0
 11
503.743
 21
155.1819155
 31
0.0
  0
LINE
  5
1893
330
1E
100
AcDbEntity
  8
0
100
AcDbLine
 10
503.743
 20
155.1819155
 30
0.0
 11
504.007
 21
154.9139155
 31
0.0
  0
LINE
  5
1894
330
1E
100
AcDbEntity
  8
0
100
AcDbLine
 10
504.399
 20
156.2169155
 30
0.0
 11
504.944
 21
156.3919155
 31
0.0
  0
LINE
  5
1895
330
1E
100
AcDbEntity
  8
0
100
AcDbLine
 10
504.423
 20
154.6839155
 30
0.0
 11
504.944
 21
154.5179155
 31
0.0
  0
LINE
  5
1896
330
1E
100
AcDbEntity
  8
0
100
AcDbLine
 10
504.007
 20
154.9139155
 30
0.0
 11
504.423
 21
154.6839155
 31
0.0
  0
LINE
  5
1897
330
1E
100
AcDbEntity
  8
0
100
AcDbLine
 10
504.696
 20
152.351035119295
 30
0.0
 11
504.696
 21
151.2329155
 31
0.0
  0
LINE
  5
1898
330
1E
100
AcDbEntity
  8
0
100
AcDbLine
 10
504.944
 20
156.3919155
 30
0.0
 11
505.577
 21
156.5039155
 31
0.0
  0
LINE
  5
1899
330
1E
100
AcDbEntity
  8
0
100
AcDbLine
 10
504.944
 20
154.5179155
 30
0.0
 11
505.568
 21
154.4209155
 31
0.0
  0
LINE
  5
189A
330
1E
100
AcDbEntity
  8
0
100
AcDbLine
 10
504.696
 20
151.2329155
 30
0.0
 11
505.961
 21
150.9239155
 31
0.0
  0
LINE
  5
189B
330
1E
100
AcDbEntity
  8
0
100
AcDbLine
 10
504.696
 20
151.2329155
 30
0.0
 11
504.696
 21
152.351035119295
 31
0.0
  0
LINE
  5
189C
330
1E
100
AcDbEntity
  8
0
100
AcDbLine
 10
504.696
 20
151.2329155
 30
0.0
 11
505.426
 21
151.7669155
 31
0.0
  0
LINE
  5
189D
330
1E
100
AcDbEntity
  8
0
100
AcDbLine
 10
505.157
 20
145.435259064146
 30
0.0
 11
505.157
 21
144.9289155
 31
0.0
  0
LINE
  5
189E
330
1E
100
AcDbEntity
  8
0
100
AcDbLine
 10
505.426
 20
151.7669155
 30
0.0
 11
506.69
 21
151.4579155
 31
0.0
  0
LINE
  5
189F
330
1E
100
AcDbEntity
  8
0
100
AcDbLine
 10
505.426
 20
151.7669155
 30
0.0
 11
505.426
 21
152.641056029238
 31
0.0
  0
LINE
  5
18A0
330
1E
100
AcDbEntity
  8
0
100
AcDbLine
 10
505.577
 20
156.5039155
 30
0.0
 11
506.224
 21
156.5369155
 31
0.0
  0
LINE
  5
18A1
330
1E
100
AcDbEntity
  8
0
100
AcDbLine
 10
505.568
 20
154.4209155
 30
0.0
 11
506.223
 21
154.3739155
 31
0.0
  0
LINE
  5
18A2
330
1E
100
AcDbEntity
  8
0
100
AcDbLine
 10
505.426
 20
152.641056029238
 30
0.0
 11
505.426
 21
151.7669155
 31
0.0
  0
LINE
  5
18A3
330
1E
100
AcDbEntity
  8
0
100
AcDbLine
 10
505.157
 20
144.9289155
 30
0.0
 11
505.887
 21
144.3939155
 31
0.0
  0
LINE
  5
18A4
330
1E
100
AcDbEntity
  8
0
100
AcDbLine
 10
505.157
 20
144.9289155
 30
0.0
 11
505.157
 21
145.435259064146
 31
0.0
  0
LINE
  5
18A5
330
1E
100
AcDbEntity
  8
0
100
AcDbLine
 10
505.887
 20
144.3939155
 30
0.0
 11
505.887
 21
145.021921822445
 31
0.0
  0
LINE
  5
18A6
330
1E
100
AcDbEntity
  8
0
100
AcDbLine
 10
506.69
 20
151.4579155
 30
0.0
 11
506.69
 21
151.80571717837
 31
0.0
  0
LINE
  5
18A7
330
1E
100
AcDbEntity
  8
0
100
AcDbLine
 10
505.961
 20
150.9239155
 30
0.0
 11
506.69
 21
151.4579155
 31
0.0
  0
LINE
  5
18A8
330
1E
100
AcDbEntity
  8
0
100
AcDbLine
 10
506.69
 20
151.80571717837
 30
0.0
 11
506.69
 21
151.4579155
 31
0.0
  0
LINE
  5
18A9
330
1E
100
AcDbEntity
  8
0
100
AcDbLine
 10
506.871
 20
154.4069155
 30
0.0
 11
507.504
 21
154.5179155
 31
0.0
  0
LINE
  5
18AA
330
1E
100
AcDbEntity
  8
0
100
AcDbLine
 10
506.223
 20
154.3739155
 30
0.0
 11
506.871
 21
154.4069155
 31
0.0
  0
LINE
  5
18AB
330
1E
100
AcDbEntity
  8
0
100
AcDbLine
 10
506.224
 20
156.5369155
 30
0.0
 11
506.879
 21
156.4889155
 31
0.0
  0
LINE
  5
18AC
330
1E
100
AcDbEntity
  8
0
100
AcDbLine
 10
506.879
 20
156.4889155
 30
0.0
 11
507.503
 21
156.3919155
 31
0.0
  0
LINE
  5
18AD
330
1E
100
AcDbEntity
  8
0
100
AcDbLine
 10
507.503
 20
156.3919155
 30
0.0
 11
508.024
 21
156.2269155
 31
0.0
  0
LINE
  5
18AE
330
1E
100
AcDbEntity
  8
0
100
AcDbLine
 10
508.024
 20
156.2269155
 30
0.0
 11
508.441
 21
155.9969155
 31
0.0
  0
LINE
  5
18AF
330
1E
100
AcDbEntity
  8
0
100
AcDbLine
 10
507.504
 20
154.5179155
 30
0.0
 11
508.049
 21
154.6939155
 31
0.0
  0
LINE
  5
18B0
330
1E
100
AcDbEntity
  8
0
100
AcDbLine
 10
508.049
 20
154.6939155
 30
0.0
 11
508.44
 21
154.9149155
 31
0.0
  0
LINE
  5
18B1
330
1E
100
AcDbEntity
  8
0
100
AcDbLine
 10
508.44
 20
154.9149155
 30
0.0
 11
508.672
 21
155.1779155
 31
0.0
  0
LINE
  5
18B2
330
1E
100
AcDbEntity
  8
0
100
AcDbLine
 10
508.441
 20
155.9969155
 30
0.0
 11
508.704
 21
155.7289155
 31
0.0
  0
LINE
  5
18B3
330
1E
100
AcDbEntity
  8
0
100
AcDbLine
 10
508.42
 20
148.061040117403
 30
0.0
 11
508.42
 21
147.6469155
 31
0.0
  0
LINE
  5
18B4
330
1E
100
AcDbEntity
  8
0
100
AcDbLine
 10
508.42
 20
147.6469155
 30
0.0
 11
509.684
 21
147.9549155
 31
0.0
  0
LINE
  5
18B5
330
1E
100
AcDbEntity
  8
0
100
AcDbLine
 10
508.42
 20
147.6469155
 30
0.0
 11
509.15
 21
147.1119155
 31
0.0
  0
LINE
  5
18B6
330
1E
100
AcDbEntity
  8
0
100
AcDbLine
 10
508.42
 20
147.6469155
 30
0.0
 11
508.42
 21
148.061040117403
 31
0.0
  0
LINE
  5
18B7
330
1E
100
AcDbEntity
  8
0
100
AcDbLine
 10
505.887
 20
145.021921822445
 30
0.0
 11
505.887
 21
144.3939155
 31
0.0
  0
LINE
  5
18B8
330
1E
100
AcDbEntity
  8
0
100
AcDbLine
 10
504.622
 20
144.0859155
 30
0.0
 11
505.887
 21
144.3939155
 31
0.0
  0
LINE
  5
18B9
330
1E
100
AcDbEntity
  8
0
100
AcDbLine
 10
500.753
 20
141.598585617217
 30
0.0
 11
503.613
 21
141.2359155
 31
0.0
  0
LINE
  5
18BA
330
1E
100
AcDbEntity
  8
0
100
AcDbLine
 10
500.753
 20
141.598585617217
 30
0.0
 11
500.753
 21
141.5369155
 31
0.0
  0
LINE
  5
18BB
330
1E
100
AcDbEntity
  8
0
100
AcDbLine
 10
503.613
 20
141.2359155
 30
0.0
 11
507.84522446175
 21
140.808038668444
 31
0.0
  0
LINE
  5
18BC
330
1E
100
AcDbEntity
  8
0
100
AcDbLine
 10
496.168
 20
141.2359155
 30
0.0
 11
502.591
 21
140.3419155
 31
0.0
  0
LINE
  5
18BD
330
1E
100
AcDbEntity
  8
0
100
AcDbLine
 10
502.591
 20
140.3419155
 30
0.0
 11
508.65
 21
139.8179155
 31
0.0
  0
LINE
  5
18BE
330
1E
100
AcDbEntity
  8
0
100
AcDbLine
 10
481.14
 20
162.8389155
 30
0.0
 11
481.14
 21
163.4559155
 31
0.0
  0
LINE
  5
18BF
330
1E
100
AcDbEntity
  8
0
100
AcDbLine
 10
479.68
 20
162.8389155
 30
0.0
 11
479.68
 21
163.4559155
 31
0.0
  0
LINE
  5
18C0
330
1E
100
AcDbEntity
  8
0
100
AcDbLine
 10
479.68
 20
162.8389155
 30
0.0
 11
479.68
 21
163.644178657895
 31
0.0
  0
LINE
  5
18C1
330
1E
100
AcDbEntity
  8
0
100
AcDbLine
 10
479.68
 20
162.8389155
 30
0.0
 11
481.14
 21
162.8389155
 31
0.0
  0
LINE
  5
18C2
330
1E
100
AcDbEntity
  8
0
100
AcDbLine
 10
470.759
 20
163.9769155
 30
0.0
 11
470.759
 21
165.052757605263
 31
0.0
  0
LINE
  5
18C3
330
1E
100
AcDbEntity
  8
0
100
AcDbLine
 10
470.759
 20
163.9769155
 30
0.0
 11
470.759
 21
163.3599155
 31
0.0
  0
LINE
  5
18C4
330
1E
100
AcDbEntity
  8
0
100
AcDbLine
 10
470.759
 20
163.9769155
 30
0.0
 11
472.218
 21
163.9769155
 31
0.0
  0
LINE
  5
18C5
330
1E
100
AcDbEntity
  8
0
100
AcDbLine
 10
481.14
 20
163.4559155
 30
0.0
 11
481.14
 21
162.8389155
 31
0.0
  0
LINE
  5
18C6
330
1E
100
AcDbEntity
  8
0
100
AcDbLine
 10
479.68
 20
163.4559155
 30
0.0
 11
479.68
 21
163.644178657895
 31
0.0
  0
LINE
  5
18C7
330
1E
100
AcDbEntity
  8
0
100
AcDbLine
 10
479.68
 20
163.4559155
 30
0.0
 11
479.68
 21
162.8389155
 31
0.0
  0
LINE
  5
18C8
330
1E
100
AcDbEntity
  8
0
100
AcDbLine
 10
479.68
 20
163.4559155
 30
0.0
 11
481.14
 21
163.4559155
 31
0.0
  0
LINE
  5
18C9
330
1E
100
AcDbEntity
  8
0
100
AcDbLine
 10
479.68
 20
163.644178657895
 30
0.0
 11
479.68
 21
162.8389155
 31
0.0
  0
LINE
  5
18CA
330
1E
100
AcDbEntity
  8
0
100
AcDbLine
 10
479.68
 20
163.644178657895
 30
0.0
 11
479.68
 21
163.4559155
 31
0.0
  0
LINE
  5
18CB
330
1E
100
AcDbEntity
  8
0
100
AcDbLine
 10
472.218
 20
163.3599155
 30
0.0
 11
472.218
 21
163.9769155
 31
0.0
  0
LINE
  5
18CC
330
1E
100
AcDbEntity
  8
0
100
AcDbLine
 10
472.218
 20
163.9769155
 30
0.0
 11
472.218
 21
163.3599155
 31
0.0
  0
LINE
  5
18CD
330
1E
100
AcDbEntity
  8
0
100
AcDbLine
 10
472.218
 20
163.9769155
 30
0.0
 11
472.218
 21
164.822389184211
 31
0.0
  0
LINE
  5
18CE
330
1E
100
AcDbEntity
  8
0
100
AcDbLine
 10
470.759
 20
163.3599155
 30
0.0
 11
470.759
 21
163.9769155
 31
0.0
  0
LINE
  5
18CF
330
1E
100
AcDbEntity
  8
0
100
AcDbLine
 10
470.759
 20
163.3599155
 30
0.0
 11
472.218
 21
163.3599155
 31
0.0
  0
LINE
  5
18D0
330
1E
100
AcDbEntity
  8
0
100
AcDbLine
 10
468.358
 20
163.0459155
 30
0.0
 11
469.599
 21
165.2359155
 31
0.0
  0
LINE
  5
18D1
330
1E
100
AcDbEntity
  8
0
100
AcDbLine
 10
466.241
 20
163.1079155
 30
0.0
 11
467.482
 21
165.6679155
 31
0.0
  0
LINE
  5
18D2
330
1E
100
AcDbEntity
  8
0
100
AcDbLine
 10
465.511
 20
164.0449155
 30
0.0
 11
466.825
 21
166.7899155
 31
0.0
  0
LINE
  5
18D3
330
1E
100
AcDbEntity
  8
0
100
AcDbLine
 10
500.28
 20
161.8639155
 30
0.0
 11
500.28
 21
162.4809155
 31
0.0
  0
LINE
  5
18D4
330
1E
100
AcDbEntity
  8
0
100
AcDbLine
 10
489.088
 20
162.386856954761
 30
0.0
 11
489.088
 21
162.0769155
 31
0.0
  0
LINE
  5
18D5
330
1E
100
AcDbEntity
  8
0
100
AcDbLine
 10
490.548
 20
162.0769155
 30
0.0
 11
490.548
 21
162.6939155
 31
0.0
  0
LINE
  5
18D6
330
1E
100
AcDbEntity
  8
0
100
AcDbLine
 10
489.088
 20
162.0769155
 30
0.0
 11
489.088
 21
162.6939155
 31
0.0
  0
LINE
  5
18D7
330
1E
100
AcDbEntity
  8
0
100
AcDbLine
 10
489.088
 20
162.0769155
 30
0.0
 11
489.088
 21
162.386856954761
 31
0.0
  0
LINE
  5
18D8
330
1E
100
AcDbEntity
  8
0
100
AcDbLine
 10
489.088
 20
162.0769155
 30
0.0
 11
490.548
 21
162.0769155
 31
0.0
  0
LINE
  5
18D9
330
1E
100
AcDbEntity
  8
0
100
AcDbLine
 10
489.088
 20
163.828992992727
 30
0.0
 11
489.088
 21
162.6939155
 31
0.0
  0
LINE
  5
18DA
330
1E
100
AcDbEntity
  8
0
100
AcDbLine
 10
490.548
 20
163.50409375972
 30
0.0
 11
490.548
 21
162.6939155
 31
0.0
  0
LINE
  5
18DB
330
1E
100
AcDbEntity
  8
0
100
AcDbLine
 10
490.548
 20
162.6939155
 30
0.0
 11
490.548
 21
162.0769155
 31
0.0
  0
LINE
  5
18DC
330
1E
100
AcDbEntity
  8
0
100
AcDbLine
 10
490.548
 20
162.6939155
 30
0.0
 11
490.548
 21
163.50409375972
 31
0.0
  0
LINE
  5
18DD
330
1E
100
AcDbEntity
  8
0
100
AcDbLine
 10
489.088
 20
162.6939155
 30
0.0
 11
489.088
 21
163.828992992727
 31
0.0
  0
LINE
  5
18DE
330
1E
100
AcDbEntity
  8
0
100
AcDbLine
 10
489.088
 20
162.6939155
 30
0.0
 11
489.088
 21
162.0769155
 31
0.0
  0
LINE
  5
18DF
330
1E
100
AcDbEntity
  8
0
100
AcDbLine
 10
489.088
 20
162.6939155
 30
0.0
 11
490.548
 21
162.6939155
 31
0.0
  0
LINE
  5
18E0
330
1E
100
AcDbEntity
  8
0
100
AcDbLine
 10
498.82
 20
163.384795906168
 30
0.0
 11
498.82
 21
162.4809155
 31
0.0
  0
LINE
  5
18E1
330
1E
100
AcDbEntity
  8
0
100
AcDbLine
 10
498.82
 20
162.4809155
 30
0.0
 11
498.82
 21
163.384795906168
 31
0.0
  0
LINE
  5
18E2
330
1E
100
AcDbEntity
  8
0
100
AcDbLine
 10
498.82
 20
162.4809155
 30
0.0
 11
498.82
 21
161.8639155
 31
0.0
  0
LINE
  5
18E3
330
1E
100
AcDbEntity
  8
0
100
AcDbLine
 10
498.82
 20
162.4809155
 30
0.0
 11
500.28
 21
162.4809155
 31
0.0
  0
LINE
  5
18E4
330
1E
100
AcDbEntity
  8
0
100
AcDbLine
 10
505.426
 20
164.5489155
 30
0.0
 11
506.69
 21
164.8579155
 31
0.0
  0
LINE
  5
18E5
330
1E
100
AcDbEntity
  8
0
100
AcDbLine
 10
500.28
 20
163.02091367332
 30
0.0
 11
500.28
 21
162.4809155
 31
0.0
  0
LINE
  5
18E6
330
1E
100
AcDbEntity
  8
0
100
AcDbLine
 10
500.28
 20
162.4809155
 30
0.0
 11
500.28
 21
161.8639155
 31
0.0
  0
LINE
  5
18E7
330
1E
100
AcDbEntity
  8
0
100
AcDbLine
 10
500.28
 20
162.4809155
 30
0.0
 11
500.28
 21
163.02091367332
 31
0.0
  0
LINE
  5
18E8
330
1E
100
AcDbEntity
  8
0
100
AcDbLine
 10
498.82
 20
162.799055275815
 30
0.0
 11
498.82
 21
161.8639155
 31
0.0
  0
LINE
  5
18E9
330
1E
100
AcDbEntity
  8
0
100
AcDbLine
 10
498.82
 20
161.8639155
 30
0.0
 11
498.82
 21
162.4809155
 31
0.0
  0
LINE
  5
18EA
330
1E
100
AcDbEntity
  8
0
100
AcDbLine
 10
498.82
 20
161.8639155
 30
0.0
 11
498.82
 21
162.799055275815
 31
0.0
  0
LINE
  5
18EB
330
1E
100
AcDbEntity
  8
0
100
AcDbLine
 10
498.82
 20
161.8639155
 30
0.0
 11
500.28
 21
161.8639155
 31
0.0
  0
LINE
  5
18EC
330
1E
100
AcDbEntity
  8
0
100
AcDbLine
 10
509.048
 20
122.7389155
 30
0.0
 11
511.928
 21
121.5029155
 31
0.0
  0
LINE
  5
18ED
330
1E
100
AcDbEntity
  8
0
100
AcDbLine
 10
511.928
 20
121.5029155
 30
0.0
 11
515.0
 21
121.0619155
 31
0.0
  0
LINE
  5
18EE
330
1E
100
AcDbEntity
  8
0
100
AcDbLine
 10
512.792
 20
124.8569155
 30
0.0
 11
515.0
 21
124.5039155
 31
0.0
  0
LINE
  5
18EF
330
1E
100
AcDbEntity
  8
0
100
AcDbLine
 10
514.0
 20
135.9479155
 30
0.0
 11
514.0
 21
135.2169155
 31
0.0
  0
LINE
  5
18F0
330
1E
100
AcDbEntity
  8
0
100
AcDbLine
 10
514.0
 20
135.9479155
 30
0.0
 11
514.0
 21
136.9389155
 31
0.0
  0
LINE
  5
18F1
330
1E
100
AcDbEntity
  8
0
100
AcDbLine
 10
514.0
 20
135.2169155
 30
0.0
 11
514.0
 21
134.9749155
 31
0.0
  0
LINE
  5
18F2
330
1E
100
AcDbEntity
  8
0
100
AcDbLine
 10
514.0
 20
135.2169155
 30
0.0
 11
514.0
 21
135.9479155
 31
0.0
  0
LINE
  5
18F3
330
1E
100
AcDbEntity
  8
0
100
AcDbLine
 10
514.0
 20
134.9749155
 30
0.0
 11
514.0
 21
135.3069155
 31
0.0
  0
LINE
  5
18F4
330
1E
100
AcDbEntity
  8
0
100
AcDbLine
 10
514.0
 20
134.9749155
 30
0.0
 11
514.0
 21
135.2169155
 31
0.0
  0
LINE
  5
18F5
330
1E
100
AcDbEntity
  8
0
100
AcDbLine
 10
514.0
 20
134.9749155
 30
0.0
 11
516.0
 21
134.9749155
 31
0.0
  0
LINE
  5
18F6
330
1E
100
AcDbEntity
  8
0
100
AcDbLine
 10
514.0
 20
135.3069155
 30
0.0
 11
514.0
 21
135.9589155
 31
0.0
  0
LINE
  5
18F7
330
1E
100
AcDbEntity
  8
0
100
AcDbLine
 10
514.0
 20
135.3069155
 30
0.0
 11
514.0
 21
134.9749155
 31
0.0
  0
LINE
  5
18F8
330
1E
100
AcDbEntity
  8
0
100
AcDbLine
 10
514.0
 20
136.9389155
 30
0.0
 11
514.0
 21
135.9479155
 31
0.0
  0
LINE
  5
18F9
330
1E
100
AcDbEntity
  8
0
100
AcDbLine
 10
514.0
 20
135.9589155
 30
0.0
 11
514.0
 21
137.8849155
 31
0.0
  0
LINE
  5
18FA
330
1E
100
AcDbEntity
  8
0
100
AcDbLine
 10
514.0
 20
135.9589155
 30
0.0
 11
514.0
 21
135.3069155
 31
0.0
  0
LINE
  5
18FB
330
1E
100
AcDbEntity
  8
0
100
AcDbLine
 10
514.0
 20
137.8849155
 30
0.0
 11
514.0
 21
143.761731955696
 31
0.0
  0
LINE
  5
18FC
330
1E
100
AcDbEntity
  8
0
100
AcDbLine
 10
514.0
 20
137.8849155
 30
0.0
 11
514.0
 21
135.9589155
 31
0.0
  0
LINE
  5
18FD
330
1E
100
AcDbEntity
  8
0
100
AcDbLine
 10
510.68
 20
125.6509155
 30
0.0
 11
512.792
 21
124.8569155
 31
0.0
  0
LINE
  5
18FE
330
1E
100
AcDbEntity
  8
0
100
AcDbLine
 10
508.856
 20
127.0629155
 30
0.0
 11
510.68
 21
125.6509155
 31
0.0
  0
LINE
  5
18FF
330
1E
100
AcDbEntity
  8
0
100
AcDbLine
 10
515.0
 20
121.0619155
 30
0.0
 11
518.072
 21
121.5029155
 31
0.0
  0
LINE
  5
1900
330
1E
100
AcDbEntity
  8
0
100
AcDbLine
 10
515.0
 20
124.5039155
 30
0.0
 11
517.208
 21
124.8569155
 31
0.0
  0
LINE
  5
1901
330
1E
100
AcDbEntity
  8
0
100
AcDbLine
 10
509.063
 20
141.404961361887
 30
0.0
 11
509.063
 21
141.1499155
 31
0.0
  0
LINE
  5
1902
330
1E
100
AcDbEntity
  8
0
100
AcDbLine
 10
509.063
 20
141.1499155
 30
0.0
 11
509.793
 21
140.6159155
 31
0.0
  0
LINE
  5
1903
330
1E
100
AcDbEntity
  8
0
100
AcDbLine
 10
509.063
 20
141.1499155
 30
0.0
 11
509.063
 21
141.404961361887
 31
0.0
  0
LINE
  5
1904
330
1E
100
AcDbEntity
  8
0
100
AcDbLine
 10
509.793
 20
140.6159155
 30
0.0
 11
509.793
 21
141.478467724371
 31
0.0
  0
LINE
  5
1905
330
1E
100
AcDbEntity
  8
0
100
AcDbLine
 10
508.672
 20
155.1779155
 30
0.0
 11
509.199147227839
 21
156.159803832086
 31
0.0
  0
LINE
  5
1906
330
1E
100
AcDbEntity
  8
0
100
AcDbLine
 10
508.672
 20
155.1779155
 30
0.0
 11
508.783
 21
155.4549155
 31
0.0
  0
LINE
  5
1907
330
1E
100
AcDbEntity
  8
0
100
AcDbLine
 10
508.704
 20
155.7289155
 30
0.0
 11
508.783
 21
155.4549155
 31
0.0
  0
LINE
  5
1908
330
1E
100
AcDbEntity
  8
0
100
AcDbLine
 10
509.0
 20
158.6119155
 30
0.0
 11
509.0
 21
158.0529155
 31
0.0
  0
LINE
  5
1909
330
1E
100
AcDbEntity
  8
0
100
AcDbLine
 10
509.0
 20
158.0529155
 30
0.0
 11
509.216
 21
158.7019155
 31
0.0
  0
LINE
  5
190A
330
1E
100
AcDbEntity
  8
0
100
AcDbLine
 10
509.0
 20
158.0529155
 30
0.0
 11
509.216
 21
157.4029155
 31
0.0
  0
LINE
  5
190B
330
1E
100
AcDbEntity
  8
0
100
AcDbLine
 10
509.0
 20
158.0529155
 30
0.0
 11
509.0
 21
158.6119155
 31
0.0
  0
LINE
  5
190C
330
1E
100
AcDbEntity
  8
0
100
AcDbLine
 10
509.216
 20
157.4029155
 30
0.0
 11
509.792
 21
156.7949155
 31
0.0
  0
LINE
  5
190D
330
1E
100
AcDbEntity
  8
0
100
AcDbLine
 10
509.792
 20
156.7949155
 30
0.0
 11
510.752
 21
156.2569155
 31
0.0
  0
LINE
  5
190E
330
1E
100
AcDbEntity
  8
0
100
AcDbLine
 10
509.792
 20
159.3099155
 30
0.0
 11
510.752
 21
159.8479155
 31
0.0
  0
LINE
  5
190F
330
1E
100
AcDbEntity
  8
0
100
AcDbLine
 10
509.216
 20
158.7019155
 30
0.0
 11
509.792
 21
159.3099155
 31
0.0
  0
LINE
  5
1910
330
1E
100
AcDbEntity
  8
0
100
AcDbLine
 10
509.684
 20
147.9549155
 30
0.0
 11
510.414
 21
147.4199155
 31
0.0
  0
LINE
  5
1911
330
1E
100
AcDbEntity
  8
0
100
AcDbLine
 10
509.15
 20
147.1119155
 30
0.0
 11
510.414
 21
147.4199155
 31
0.0
  0
LINE
  5
1912
330
1E
100
AcDbEntity
  8
0
100
AcDbLine
 10
509.793
 20
141.478467724371
 30
0.0
 11
509.793
 21
140.6159155
 31
0.0
  0
LINE
  5
1913
330
1E
100
AcDbEntity
  8
0
100
AcDbLine
 10
514.0
 20
140.415261956693
 30
0.0
 11
514.0
 21
136.9389155
 31
0.0
  0
LINE
  5
1914
330
1E
100
AcDbEntity
  8
0
100
AcDbLine
 10
514.0
 20
143.761731955696
 30
0.0
 11
514.0
 21
137.8849155
 31
0.0
  0
LINE
  5
1915
330
1E
100
AcDbEntity
  8
0
100
AcDbLine
 10
512.334
 20
144.0669155
 30
0.0
 11
513.599
 21
144.3759155
 31
0.0
  0
LINE
  5
1916
330
1E
100
AcDbEntity
  8
0
100
AcDbLine
 10
512.334
 20
144.0669155
 30
0.0
 11
513.064
 21
143.5329155
 31
0.0
  0
LINE
  5
1917
330
1E
100
AcDbEntity
  8
0
100
AcDbLine
 10
510.752
 20
156.2569155
 30
0.0
 11
512.024
 21
155.8519155
 31
0.0
  0
LINE
  5
1918
330
1E
100
AcDbEntity
  8
0
100
AcDbLine
 10
513.464
 20
155.6079155
 30
0.0
 11
515.0
 21
155.5169155
 31
0.0
  0
LINE
  5
1919
330
1E
100
AcDbEntity
  8
0
100
AcDbLine
 10
512.024
 20
155.8519155
 30
0.0
 11
513.464
 21
155.6079155
 31
0.0
  0
LINE
  5
191A
330
1E
100
AcDbEntity
  8
0
100
AcDbLine
 10
512.523
 20
162.1699155
 30
0.0
 11
512.779
 21
162.4239155
 31
0.0
  0
LINE
  5
191B
330
1E
100
AcDbEntity
  8
0
100
AcDbLine
 10
512.779
 20
162.4239155
 30
0.0
 11
513.203
 21
162.6399155
 31
0.0
  0
LINE
  5
191C
330
1E
100
AcDbEntity
  8
0
100
AcDbLine
 10
512.435
 20
161.8829155
 30
0.0
 11
512.523
 21
161.5959155
 31
0.0
  0
LINE
  5
191D
330
1E
100
AcDbEntity
  8
0
100
AcDbLine
 10
512.435
 20
161.8829155
 30
0.0
 11
512.523
 21
162.1699155
 31
0.0
  0
LINE
  5
191E
330
1E
100
AcDbEntity
  8
0
100
AcDbLine
 10
512.523
 20
161.5959155
 30
0.0
 11
512.779
 21
161.3419155
 31
0.0
  0
LINE
  5
191F
330
1E
100
AcDbEntity
  8
0
100
AcDbLine
 10
513.203
 20
162.6399155
 30
0.0
 11
513.715
 21
162.8189155
 31
0.0
  0
LINE
  5
1920
330
1E
100
AcDbEntity
  8
0
100
AcDbLine
 10
512.779
 20
161.3419155
 30
0.0
 11
513.203
 21
161.1259155
 31
0.0
  0
LINE
  5
1921
330
1E
100
AcDbEntity
  8
0
100
AcDbLine
 10
513.203
 20
161.1259155
 30
0.0
 11
513.715
 21
160.9459155
 31
0.0
  0
LINE
  5
1922
330
1E
100
AcDbEntity
  8
0
100
AcDbLine
 10
513.464
 20
160.4969155
 30
0.0
 11
515.0
 21
160.5879155
 31
0.0
  0
LINE
  5
1923
330
1E
100
AcDbEntity
  8
0
100
AcDbLine
 10
512.024
 20
160.2539155
 30
0.0
 11
513.464
 21
160.4969155
 31
0.0
  0
LINE
  5
1924
330
1E
100
AcDbEntity
  8
0
100
AcDbLine
 10
510.752
 20
159.8479155
 30
0.0
 11
512.024
 21
160.2539155
 31
0.0
  0
LINE
  5
1925
330
1E
100
AcDbEntity
  8
0
100
AcDbLine
 10
513.502
 20
150.6099155
 30
0.0
 11
514.766
 21
150.9179155
 31
0.0
  0
LINE
  5
1926
330
1E
100
AcDbEntity
  8
0
100
AcDbLine
 10
513.502
 20
150.6099155
 30
0.0
 11
514.232
 21
150.0749155
 31
0.0
  0
LINE
  5
1927
330
1E
100
AcDbEntity
  8
0
100
AcDbLine
 10
513.715
 20
162.8189155
 30
0.0
 11
514.315
 21
162.9279155
 31
0.0
  0
LINE
  5
1928
330
1E
100
AcDbEntity
  8
0
100
AcDbLine
 10
514.315
 20
162.9279155
 30
0.0
 11
514.995
 21
162.9649155
 31
0.0
  0
LINE
  5
1929
330
1E
100
AcDbEntity
  8
0
100
AcDbLine
 10
513.715
 20
160.9459155
 30
0.0
 11
514.315
 21
160.8379155
 31
0.0
  0
LINE
  5
192A
330
1E
100
AcDbEntity
  8
0
100
AcDbLine
 10
514.315
 20
160.8379155
 30
0.0
 11
514.995
 21
160.8009155
 31
0.0
  0
LINE
  5
192B
330
1E
100
AcDbEntity
  8
0
100
AcDbLine
 10
514.232
 20
150.0749155
 30
0.0
 11
515.496
 21
150.3829155
 31
0.0
  0
LINE
  5
192C
330
1E
100
AcDbEntity
  8
0
100
AcDbLine
 10
513.599
 20
144.3759155
 30
0.0
 11
514.328
 21
143.8419155
 31
0.0
  0
LINE
  5
192D
330
1E
100
AcDbEntity
  8
0
100
AcDbLine
 10
514.328
 20
143.8419155
 30
0.0
 11
514.328
 21
144.96524238588
 31
0.0
  0
LINE
  5
192E
330
1E
100
AcDbEntity
  8
0
100
AcDbLine
 10
514.995
 20
160.8009155
 30
0.0
 11
515.675
 21
160.8379155
 31
0.0
  0
LINE
  5
192F
330
1E
100
AcDbEntity
  8
0
100
AcDbLine
 10
514.995
 20
162.9649155
 30
0.0
 11
515.675
 21
162.9279155
 31
0.0
  0
LINE
  5
1930
330
1E
100
AcDbEntity
  8
0
100
AcDbLine
 10
515.0
 20
155.5169155
 30
0.0
 11
516.536
 21
155.6079155
 31
0.0
  0
LINE
  5
1931
330
1E
100
AcDbEntity
  8
0
100
AcDbLine
 10
515.0
 20
160.5879155
 30
0.0
 11
516.536
 21
160.4969155
 31
0.0
  0
LINE
  5
1932
330
1E
100
AcDbEntity
  8
0
100
AcDbLine
 10
514.766
 20
150.9179155
 30
0.0
 11
515.496
 21
150.3829155
 31
0.0
  0
LINE
  5
1933
330
1E
100
AcDbEntity
  8
0
100
AcDbLine
 10
514.328
 20
144.96524238588
 30
0.0
 11
514.328
 21
143.8419155
 31
0.0
  0
LINE
  5
1934
330
1E
100
AcDbEntity
  8
0
100
AcDbLine
 10
513.064
 20
143.5329155
 30
0.0
 11
514.328
 21
143.8419155
 31
0.0
  0
LINE
  5
1935
330
1E
100
AcDbEntity
  8
0
100
AcDbLine
 10
509.793
 20
140.682185487105
 30
0.0
 11
514.0
 21
140.556734971309
 31
0.0
  0
LINE
  5
1936
330
1E
100
AcDbEntity
  8
0
100
AcDbLine
 10
508.65
 20
139.8179155
 30
0.0
 11
514.0
 21
139.635931248032
 31
0.0
  0
LINE
  5
1937
330
1E
100
AcDbEntity
  8
0
100
AcDbLine
 10
470.759
 20
165.052757605263
 30
0.0
 11
470.759
 21
163.9769155
 31
0.0
  0
LINE
  5
1938
330
1E
100
AcDbEntity
  8
0
100
AcDbLine
 10
506.69
 20
164.8579155
 30
0.0
 11
506.69
 21
165.946910790289
 31
0.0
  0
LINE
  5
1939
330
1E
100
AcDbEntity
  8
0
100
AcDbLine
 10
504.696
 20
165.0839155
 30
0.0
 11
505.961
 21
165.3919155
 31
0.0
  0
LINE
  5
193A
330
1E
100
AcDbEntity
  8
0
100
AcDbLine
 10
504.696
 20
165.0839155
 30
0.0
 11
505.426
 21
164.5489155
 31
0.0
  0
LINE
  5
193B
330
1E
100
AcDbEntity
  8
0
100
AcDbLine
 10
504.696
 20
165.0839155
 30
0.0
 11
504.696
 21
165.387675396171
 31
0.0
  0
LINE
  5
193C
330
1E
100
AcDbEntity
  8
0
100
AcDbLine
 10
472.218
 20
164.822389184211
 30
0.0
 11
472.218
 21
163.9769155
 31
0.0
  0
LINE
  5
193D
330
1E
100
AcDbEntity
  8
0
100
AcDbLine
 10
494.36
 20
166.5019155
 30
0.0
 11
494.36
 21
165.8849155
 31
0.0
  0
LINE
  5
193E
330
1E
100
AcDbEntity
  8
0
100
AcDbLine
 10
494.36
 20
166.5019155
 30
0.0
 11
495.82
 21
166.5019155
 31
0.0
  0
LINE
  5
193F
330
1E
100
AcDbEntity
  8
0
100
AcDbLine
 10
494.36
 20
166.221547858063
 30
0.0
 11
494.36
 21
165.8849155
 31
0.0
  0
LINE
  5
1940
330
1E
100
AcDbEntity
  8
0
100
AcDbLine
 10
505.961
 20
166.452241754496
 30
0.0
 11
505.961
 21
165.3919155
 31
0.0
  0
LINE
  5
1941
330
1E
100
AcDbEntity
  8
0
100
AcDbLine
 10
513.502
 20
165.7059155
 30
0.0
 11
514.766
 21
165.3979155
 31
0.0
  0
LINE
  5
1942
330
1E
100
AcDbEntity
  8
0
100
AcDbLine
 10
513.502
 20
165.7059155
 30
0.0
 11
514.232
 21
166.2419155
 31
0.0
  0
LINE
  5
1943
330
1E
100
AcDbEntity
  8
0
100
AcDbLine
 10
514.766
 20
165.3979155
 30
0.0
 11
515.496
 21
165.9329155
 31
0.0
  0
LINE
  5
1944
330
1E
100
AcDbEntity
  8
0
100
AcDbLine
 10
514.232
 20
166.2419155
 30
0.0
 11
515.496
 21
165.9329155
 31
0.0
  0
LINE
  5
1945
330
1E
100
AcDbEntity
  8
0
100
AcDbLine
 10
506.69
 20
165.946910790289
 30
0.0
 11
506.69
 21
164.8579155
 31
0.0
  0
LINE
  5
1946
330
1E
100
AcDbEntity
  8
0
100
AcDbLine
 10
505.961
 20
165.3919155
 30
0.0
 11
505.961
 21
166.452241754496
 31
0.0
  0
LINE
  5
1947
330
1E
100
AcDbEntity
  8
0
100
AcDbLine
 10
505.961
 20
165.3919155
 30
0.0
 11
506.69
 21
164.8579155
 31
0.0
  0
LINE
  5
1948
330
1E
100
AcDbEntity
  8
0
100
AcDbLine
 10
504.696
 20
165.387675396171
 30
0.0
 11
504.696
 21
165.0839155
 31
0.0
  0
LINE
  5
1949
330
1E
100
AcDbEntity
  8
0
100
AcDbLine
 10
495.82
 20
165.8849155
 30
0.0
 11
495.82
 21
166.5019155
 31
0.0
  0
LINE
  5
194A
330
1E
100
AcDbEntity
  8
0
100
AcDbLine
 10
495.82
 20
166.5019155
 30
0.0
 11
495.82
 21
165.8849155
 31
0.0
  0
LINE
  5
194B
330
1E
100
AcDbEntity
  8
0
100
AcDbLine
 10
495.82
 20
166.5019155
 30
0.0
 11
495.82
 21
167.355312996523
 31
0.0
  0
LINE
  5
194C
330
1E
100
AcDbEntity
  8
0
100
AcDbLine
 10
494.36
 20
165.8849155
 30
0.0
 11
494.36
 21
166.5019155
 31
0.0
  0
LINE
  5
194D
330
1E
100
AcDbEntity
  8
0
100
AcDbLine
 10
494.36
 20
165.8849155
 30
0.0
 11
494.36
 21
166.221547858063
 31
0.0
  0
LINE
  5
194E
330
1E
100
AcDbEntity
  8
0
100
AcDbLine
 10
494.36
 20
165.8849155
 30
0.0
 11
495.82
 21
165.8849155
 31
0.0
  0
LINE
  5
194F
330
1E
100
AcDbEntity
  8
0
100
AcDbLine
 10
469.599
 20
165.2359155
 30
0.0
 11
471.569
 21
168.0129155
 31
0.0
  0
LINE
  5
1950
330
1E
100
AcDbEntity
  8
0
100
AcDbLine
 10
467.482
 20
165.6679155
 30
0.0
 11
469.599
 21
168.3829155
 31
0.0
  0
LINE
  5
1951
330
1E
100
AcDbEntity
  8
0
100
AcDbLine
 10
474.084
 20
168.0609155
 30
0.0
 11
474.084
 21
167.4439155
 31
0.0
  0
LINE
  5
1952
330
1E
100
AcDbEntity
  8
0
100
AcDbLine
 10
474.084
 20
168.0609155
 30
0.0
 11
475.544
 21
168.0609155
 31
0.0
  0
LINE
  5
1953
330
1E
100
AcDbEntity
  8
0
100
AcDbLine
 10
474.084
 20
167.756992994547
 30
0.0
 11
474.084
 21
167.4439155
 31
0.0
  0
LINE
  5
1954
330
1E
100
AcDbEntity
  8
0
100
AcDbLine
 10
485.601
 20
166.9209155
 30
0.0
 11
485.601
 21
167.5379155
 31
0.0
  0
LINE
  5
1955
330
1E
100
AcDbEntity
  8
0
100
AcDbLine
 10
484.141
 20
167.5379155
 30
0.0
 11
484.141
 21
168.776743532493
 31
0.0
  0
LINE
  5
1956
330
1E
100
AcDbEntity
  8
0
100
AcDbLine
 10
484.141
 20
167.5379155
 30
0.0
 11
484.141
 21
166.9209155
 31
0.0
  0
LINE
  5
1957
330
1E
100
AcDbEntity
  8
0
100
AcDbLine
 10
484.141
 20
167.5379155
 30
0.0
 11
485.601
 21
167.5379155
 31
0.0
  0
LINE
  5
1958
330
1E
100
AcDbEntity
  8
0
100
AcDbLine
 10
495.82
 20
167.355312996523
 30
0.0
 11
495.82
 21
166.5019155
 31
0.0
  0
LINE
  5
1959
330
1E
100
AcDbEntity
  8
0
100
AcDbLine
 10
485.601
 20
167.5379155
 30
0.0
 11
485.601
 21
166.9209155
 31
0.0
  0
LINE
  5
195A
330
1E
100
AcDbEntity
  8
0
100
AcDbLine
 10
485.601
 20
167.5379155
 30
0.0
 11
485.601
 21
168.549290689316
 31
0.0
  0
LINE
  5
195B
330
1E
100
AcDbEntity
  8
0
100
AcDbLine
 10
484.141
 20
167.183532238625
 30
0.0
 11
484.141
 21
166.9209155
 31
0.0
  0
LINE
  5
195C
330
1E
100
AcDbEntity
  8
0
100
AcDbLine
 10
484.141
 20
166.9209155
 30
0.0
 11
484.141
 21
167.5379155
 31
0.0
  0
LINE
  5
195D
330
1E
100
AcDbEntity
  8
0
100
AcDbLine
 10
484.141
 20
166.9209155
 30
0.0
 11
484.141
 21
167.183532238625
 31
0.0
  0
LINE
  5
195E
330
1E
100
AcDbEntity
  8
0
100
AcDbLine
 10
484.141
 20
166.9209155
 30
0.0
 11
485.601
 21
166.9209155
 31
0.0
  0
LINE
  5
195F
330
1E
100
AcDbEntity
  8
0
100
AcDbLine
 10
475.544
 20
167.4439155
 30
0.0
 11
475.544
 21
168.0609155
 31
0.0
  0
LINE
  5
1960
330
1E
100
AcDbEntity
  8
0
100
AcDbLine
 10
484.141
 20
168.776743532493
 30
0.0
 11
484.141
 21
167.5379155
 31
0.0
  0
LINE
  5
1961
330
1E
100
AcDbEntity
  8
0
100
AcDbLine
 10
485.601
 20
168.549290689316
 30
0.0
 11
485.601
 21
167.5379155
 31
0.0
  0
LINE
  5
1962
330
1E
100
AcDbEntity
  8
0
100
AcDbLine
 10
502.311
 20
168.5169155
 30
0.0
 11
502.311
 21
168.982362494348
 31
0.0
  0
LINE
  5
1963
330
1E
100
AcDbEntity
  8
0
100
AcDbLine
 10
501.047
 20
168.2089155
 30
0.0
 11
502.311
 21
168.5169155
 31
0.0
  0
LINE
  5
1964
330
1E
100
AcDbEntity
  8
0
100
AcDbLine
 10
501.581
 20
169.488386642319
 30
0.0
 11
501.581
 21
169.0509155
 31
0.0
  0
LINE
  5
1965
330
1E
100
AcDbEntity
  8
0
100
AcDbLine
 10
508.42
 20
169.5769155
 30
0.0
 11
509.684
 21
169.2689155
 31
0.0
  0
LINE
  5
1966
330
1E
100
AcDbEntity
  8
0
100
AcDbLine
 10
508.42
 20
169.5769155
 30
0.0
 11
509.15
 21
170.1109155
 31
0.0
  0
LINE
  5
1967
330
1E
100
AcDbEntity
  8
0
100
AcDbLine
 10
508.42
 20
169.5769155
 30
0.0
 11
508.42
 21
170.456152054438
 31
0.0
  0
LINE
  5
1968
330
1E
100
AcDbEntity
  8
0
100
AcDbLine
 10
509.684
 20
169.2689155
 30
0.0
 11
510.414
 21
169.8029155
 31
0.0
  0
LINE
  5
1969
330
1E
100
AcDbEntity
  8
0
100
AcDbLine
 10
502.311
 20
168.982362494348
 30
0.0
 11
502.311
 21
168.5169155
 31
0.0
  0
LINE
  5
196A
330
1E
100
AcDbEntity
  8
0
100
AcDbLine
 10
501.581
 20
169.0509155
 30
0.0
 11
501.581
 21
169.488386642319
 31
0.0
  0
LINE
  5
196B
330
1E
100
AcDbEntity
  8
0
100
AcDbLine
 10
501.581
 20
169.0509155
 30
0.0
 11
502.311
 21
168.5169155
 31
0.0
  0
LINE
  5
196C
330
1E
100
AcDbEntity
  8
0
100
AcDbLine
 10
500.317
 20
168.7429155
 30
0.0
 11
501.581
 21
169.0509155
 31
0.0
  0
LINE
  5
196D
330
1E
100
AcDbEntity
  8
0
100
AcDbLine
 10
500.317
 20
168.7429155
 30
0.0
 11
501.047
 21
168.2089155
 31
0.0
  0
LINE
  5
196E
330
1E
100
AcDbEntity
  8
0
100
AcDbLine
 10
500.317
 20
168.7429155
 30
0.0
 11
500.317
 21
170.126794450974
 31
0.0
  0
LINE
  5
196F
330
1E
100
AcDbEntity
  8
0
100
AcDbLine
 10
509.15
 20
170.1109155
 30
0.0
 11
510.414
 21
169.8029155
 31
0.0
  0
LINE
  5
1970
330
1E
100
AcDbEntity
  8
0
100
AcDbLine
 10
500.317
 20
170.126794450974
 30
0.0
 11
500.317
 21
168.7429155
 31
0.0
  0
LINE
  5
1971
330
1E
100
AcDbEntity
  8
0
100
AcDbLine
 10
490.955
 20
169.7349155
 30
0.0
 11
490.955
 21
170.3519155
 31
0.0
  0
LINE
  5
1972
330
1E
100
AcDbEntity
  8
0
100
AcDbLine
 10
489.495
 20
169.7349155
 30
0.0
 11
489.495
 21
170.3519155
 31
0.0
  0
LINE
  5
1973
330
1E
100
AcDbEntity
  8
0
100
AcDbLine
 10
489.495
 20
169.7349155
 30
0.0
 11
489.495
 21
170.488403998109
 31
0.0
  0
LINE
  5
1974
330
1E
100
AcDbEntity
  8
0
100
AcDbLine
 10
489.495
 20
169.7349155
 30
0.0
 11
490.955
 21
169.7349155
 31
0.0
  0
LINE
  5
1975
330
1E
100
AcDbEntity
  8
0
100
AcDbLine
 10
475.544
 20
168.0609155
 30
0.0
 11
475.544
 21
167.4439155
 31
0.0
  0
LINE
  5
1976
330
1E
100
AcDbEntity
  8
0
100
AcDbLine
 10
474.084
 20
167.4439155
 30
0.0
 11
474.084
 21
168.0609155
 31
0.0
  0
LINE
  5
1977
330
1E
100
AcDbEntity
  8
0
100
AcDbLine
 10
474.084
 20
167.4439155
 30
0.0
 11
474.084
 21
167.756992994547
 31
0.0
  0
LINE
  5
1978
330
1E
100
AcDbEntity
  8
0
100
AcDbLine
 10
474.084
 20
167.4439155
 30
0.0
 11
475.544
 21
167.4439155
 31
0.0
  0
LINE
  5
1979
330
1E
100
AcDbEntity
  8
0
100
AcDbLine
 10
489.495
 20
170.3519155
 30
0.0
 11
489.495
 21
170.488403998109
 31
0.0
  0
LINE
  5
197A
330
1E
100
AcDbEntity
  8
0
100
AcDbLine
 10
489.495
 20
170.3519155
 30
0.0
 11
489.495
 21
169.7349155
 31
0.0
  0
LINE
  5
197B
330
1E
100
AcDbEntity
  8
0
100
AcDbLine
 10
489.495
 20
170.3519155
 30
0.0
 11
490.955
 21
170.3519155
 31
0.0
  0
LINE
  5
197C
330
1E
100
AcDbEntity
  8
0
100
AcDbLine
 10
508.42
 20
170.456152054438
 30
0.0
 11
508.42
 21
169.5769155
 31
0.0
  0
LINE
  5
197D
330
1E
100
AcDbEntity
  8
0
100
AcDbLine
 10
490.955
 20
170.3519155
 30
0.0
 11
490.955
 21
169.7349155
 31
0.0
  0
LINE
  5
197E
330
1E
100
AcDbEntity
  8
0
100
AcDbLine
 10
489.495
 20
170.488403998109
 30
0.0
 11
489.495
 21
169.7349155
 31
0.0
  0
LINE
  5
197F
330
1E
100
AcDbEntity
  8
0
100
AcDbLine
 10
489.495
 20
170.488403998109
 30
0.0
 11
489.495
 21
170.3519155
 31
0.0
  0
LINE
  5
1980
330
1E
100
AcDbEntity
  8
0
100
AcDbLine
 10
474.197
 20
170.3259155
 30
0.0
 11
477.701
 21
172.5159155
 31
0.0
  0
LINE
  5
1981
330
1E
100
AcDbEntity
  8
0
100
AcDbLine
 10
471.569
 20
168.0129155
 30
0.0
 11
474.197
 21
170.3259155
 31
0.0
  0
LINE
  5
1982
330
1E
100
AcDbEntity
  8
0
100
AcDbLine
 10
478.87
 20
171.4919155
 30
0.0
 11
478.87
 21
172.254938863138
 31
0.0
  0
LINE
  5
1983
330
1E
100
AcDbEntity
  8
0
100
AcDbLine
 10
478.87
 20
171.4919155
 30
0.0
 11
478.87
 21
170.8749155
 31
0.0
  0
LINE
  5
1984
330
1E
100
AcDbEntity
  8
0
100
AcDbLine
 10
478.87
 20
171.4919155
 30
0.0
 11
480.33
 21
171.4919155
 31
0.0
  0
LINE
  5
1985
330
1E
100
AcDbEntity
  8
0
100
AcDbLine
 10
480.33
 20
170.8749155
 30
0.0
 11
480.33
 21
171.4919155
 31
0.0
  0
LINE
  5
1986
330
1E
100
AcDbEntity
  8
0
100
AcDbLine
 10
480.33
 20
171.4919155
 30
0.0
 11
480.33
 21
170.8749155
 31
0.0
  0
LINE
  5
1987
330
1E
100
AcDbEntity
  8
0
100
AcDbLine
 10
480.33
 20
171.4919155
 30
0.0
 11
480.33
 21
171.928997126767
 31
0.0
  0
LINE
  5
1988
330
1E
100
AcDbEntity
  8
0
100
AcDbLine
 10
478.87
 20
170.8749155
 30
0.0
 11
478.87
 21
171.4919155
 31
0.0
  0
LINE
  5
1989
330
1E
100
AcDbEntity
  8
0
100
AcDbLine
 10
478.87
 20
170.8749155
 30
0.0
 11
478.87
 21
172.043627621212
 31
0.0
  0
LINE
  5
198A
330
1E
100
AcDbEntity
  8
0
100
AcDbLine
 10
478.87
 20
170.8749155
 30
0.0
 11
480.33
 21
170.8749155
 31
0.0
  0
LINE
  5
198B
330
1E
100
AcDbEntity
  8
0
100
AcDbLine
 10
472.299
 20
170.7889155
 30
0.0
 11
475.949
 21
173.0719155
 31
0.0
  0
LINE
  5
198C
330
1E
100
AcDbEntity
  8
0
100
AcDbLine
 10
469.599
 20
168.3829155
 30
0.0
 11
472.299
 21
170.7889155
 31
0.0
  0
LINE
  5
198D
330
1E
100
AcDbEntity
  8
0
100
AcDbLine
 10
496.667
 20
171.8669155
 30
0.0
 11
497.931
 21
172.1749155
 31
0.0
  0
LINE
  5
198E
330
1E
100
AcDbEntity
  8
0
100
AcDbLine
 10
480.33
 20
171.928997126767
 30
0.0
 11
480.33
 21
171.4919155
 31
0.0
  0
LINE
  5
198F
330
1E
100
AcDbEntity
  8
0
100
AcDbLine
 10
495.937
 20
172.606854888907
 30
0.0
 11
495.937
 21
172.4019155
 31
0.0
  0
LINE
  5
1990
330
1E
100
AcDbEntity
  8
0
100
AcDbLine
 10
497.202
 20
172.7089155
 30
0.0
 11
497.931
 21
172.1749155
 31
0.0
  0
LINE
  5
1991
330
1E
100
AcDbEntity
  8
0
100
AcDbLine
 10
495.937
 20
172.4019155
 30
0.0
 11
497.202
 21
172.7089155
 31
0.0
  0
LINE
  5
1992
330
1E
100
AcDbEntity
  8
0
100
AcDbLine
 10
495.937
 20
172.4019155
 30
0.0
 11
496.667
 21
171.8669155
 31
0.0
  0
LINE
  5
1993
330
1E
100
AcDbEntity
  8
0
100
AcDbLine
 10
495.937
 20
172.4019155
 30
0.0
 11
495.937
 21
172.606854888907
 31
0.0
  0
LINE
  5
1994
330
1E
100
AcDbEntity
  8
0
100
AcDbLine
 10
478.87
 20
172.254938863138
 30
0.0
 11
478.87
 21
171.4919155
 31
0.0
  0
LINE
  5
1995
330
1E
100
AcDbEntity
  8
0
100
AcDbLine
 10
478.87
 20
172.043627621212
 30
0.0
 11
478.87
 21
170.8749155
 31
0.0
  0
LINE
  5
1996
330
1E
100
AcDbEntity
  8
0
100
AcDbLine
 10
477.701
 20
172.5159155
 30
0.0
 11
481.788
 21
174.4589155
 31
0.0
  0
LINE
  5
1997
330
1E
100
AcDbEntity
  8
0
100
AcDbLine
 10
481.788
 20
174.4589155
 30
0.0
 11
486.387
 21
176.1869155
 31
0.0
  0
LINE
  5
1998
330
1E
100
AcDbEntity
  8
0
100
AcDbLine
 10
480.182
 20
175.1379155
 30
0.0
 11
485.073
 21
176.9279155
 31
0.0
  0
LINE
  5
1999
330
1E
100
AcDbEntity
  8
0
100
AcDbLine
 10
479.672
 20
176.2609155
 30
0.0
 11
484.635
 21
178.0809155
 31
0.0
  0
LINE
  5
199A
330
1E
100
AcDbEntity
  8
0
100
AcDbLine
 10
485.278
 20
175.770226654599
 30
0.0
 11
485.278
 21
174.3389155
 31
0.0
  0
LINE
  5
199B
330
1E
100
AcDbEntity
  8
0
100
AcDbLine
 10
485.278
 20
174.3389155
 30
0.0
 11
485.278
 21
175.770226654599
 31
0.0
  0
LINE
  5
199C
330
1E
100
AcDbEntity
  8
0
100
AcDbLine
 10
485.278
 20
174.3389155
 30
0.0
 11
485.278
 21
173.7219155
 31
0.0
  0
LINE
  5
199D
330
1E
100
AcDbEntity
  8
0
100
AcDbLine
 10
485.278
 20
174.3389155
 30
0.0
 11
486.738
 21
174.3389155
 31
0.0
  0
LINE
  5
199E
330
1E
100
AcDbEntity
  8
0
100
AcDbLine
 10
485.278
 20
173.7219155
 30
0.0
 11
485.278
 21
174.3389155
 31
0.0
  0
LINE
  5
199F
330
1E
100
AcDbEntity
  8
0
100
AcDbLine
 10
485.278
 20
173.7219155
 30
0.0
 11
486.738
 21
173.7219155
 31
0.0
  0
LINE
  5
19A0
330
1E
100
AcDbEntity
  8
0
100
AcDbLine
 10
486.738
 20
173.7219155
 30
0.0
 11
486.738
 21
174.3389155
 31
0.0
  0
LINE
  5
19A1
330
1E
100
AcDbEntity
  8
0
100
AcDbLine
 10
486.738
 20
174.3389155
 30
0.0
 11
486.738
 21
173.7219155
 31
0.0
  0
LINE
  5
19A2
330
1E
100
AcDbEntity
  8
0
100
AcDbLine
 10
493.552
 20
175.8339155
 30
0.0
 11
493.552
 21
176.708017829916
 31
0.0
  0
LINE
  5
19A3
330
1E
100
AcDbEntity
  8
0
100
AcDbLine
 10
492.288
 20
175.5259155
 30
0.0
 11
493.552
 21
175.8339155
 31
0.0
  0
LINE
  5
19A4
330
1E
100
AcDbEntity
  8
0
100
AcDbLine
 10
492.822
 20
177.061384092731
 30
0.0
 11
492.822
 21
176.3689155
 31
0.0
  0
LINE
  5
19A5
330
1E
100
AcDbEntity
  8
0
100
AcDbLine
 10
493.552
 20
176.708017829916
 30
0.0
 11
493.552
 21
175.8339155
 31
0.0
  0
LINE
  5
19A6
330
1E
100
AcDbEntity
  8
0
100
AcDbLine
 10
492.822
 20
176.3689155
 30
0.0
 11
492.822
 21
177.061384092731
 31
0.0
  0
LINE
  5
19A7
330
1E
100
AcDbEntity
  8
0
100
AcDbLine
 10
492.822
 20
176.3689155
 30
0.0
 11
493.552
 21
175.8339155
 31
0.0
  0
LINE
  5
19A8
330
1E
100
AcDbEntity
  8
0
100
AcDbLine
 10
491.558
 20
177.664771733115
 30
0.0
 11
491.558
 21
176.0599155
 31
0.0
  0
LINE
  5
19A9
330
1E
100
AcDbEntity
  8
0
100
AcDbLine
 10
491.558
 20
176.0599155
 30
0.0
 11
492.822
 21
176.3689155
 31
0.0
  0
LINE
  5
19AA
330
1E
100
AcDbEntity
  8
0
100
AcDbLine
 10
491.558
 20
176.0599155
 30
0.0
 11
492.288
 21
175.5259155
 31
0.0
  0
LINE
  5
19AB
330
1E
100
AcDbEntity
  8
0
100
AcDbLine
 10
491.558
 20
176.0599155
 30
0.0
 11
491.558
 21
177.664771733115
 31
0.0
  0
LINE
  5
19AC
330
1E
100
AcDbEntity
  8
0
100
AcDbLine
 10
486.387
 20
176.1869155
 30
0.0
 11
491.569
 21
177.6679155
 31
0.0
  0
LINE
  5
19AD
330
1E
100
AcDbEntity
  8
0
100
AcDbLine
 10
491.569
 20
177.6679155
 30
0.0
 11
497.044
 21
178.7789155
 31
0.0
  0
LINE
  5
19AE
330
1E
100
AcDbEntity
  8
0
100
AcDbLine
 10
485.073
 20
176.9279155
 30
0.0
 11
490.474
 21
178.4699155
 31
0.0
  0
LINE
  5
19AF
330
1E
100
AcDbEntity
  8
0
100
AcDbLine
 10
490.474
 20
178.4699155
 30
0.0
 11
496.168
 21
179.6109155
 31
0.0
  0
LINE
  5
19B0
330
1E
100
AcDbEntity
  8
0
100
AcDbLine
 10
484.635
 20
178.0809155
 30
0.0
 11
490.109
 21
179.6229155
 31
0.0
  0
LINE
  5
19B1
330
1E
100
AcDbEntity
  8
0
100
AcDbLine
 10
490.109
 20
179.6229155
 30
0.0
 11
495.876
 21
180.8259155
 31
0.0
  0
LINE
  5
19B2
330
1E
100
AcDbEntity
  8
0
100
AcDbLine
 10
498.759
 20
177.737093070094
 30
0.0
 11
498.759
 21
177.2719155
 31
0.0
  0
LINE
  5
19B3
330
1E
100
AcDbEntity
  8
0
100
AcDbLine
 10
498.759
 20
177.2719155
 30
0.0
 11
500.023
 21
176.9639155
 31
0.0
  0
LINE
  5
19B4
330
1E
100
AcDbEntity
  8
0
100
AcDbLine
 10
498.759
 20
177.2719155
 30
0.0
 11
499.489
 21
177.8059155
 31
0.0
  0
LINE
  5
19B5
330
1E
100
AcDbEntity
  8
0
100
AcDbLine
 10
498.759
 20
177.2719155
 30
0.0
 11
498.759
 21
177.737093070094
 31
0.0
  0
LINE
  5
19B6
330
1E
100
AcDbEntity
  8
0
100
AcDbLine
 10
500.023
 20
176.9639155
 30
0.0
 11
500.753
 21
177.4979155
 31
0.0
  0
LINE
  5
19B7
330
1E
100
AcDbEntity
  8
0
100
AcDbLine
 10
499.489
 20
179.08858820513
 30
0.0
 11
499.489
 21
177.8059155
 31
0.0
  0
LINE
  5
19B8
330
1E
100
AcDbEntity
  8
0
100
AcDbLine
 10
499.489
 20
177.8059155
 30
0.0
 11
500.753
 21
177.4979155
 31
0.0
  0
LINE
  5
19B9
330
1E
100
AcDbEntity
  8
0
100
AcDbLine
 10
499.489
 20
177.8059155
 30
0.0
 11
499.489
 21
179.08858820513
 31
0.0
  0
LINE
  5
19BA
330
1E
100
AcDbEntity
  8
0
100
AcDbLine
 10
497.044
 20
178.7789155
 30
0.0
 11
503.613
 21
179.6109155
 31
0.0
  0
LINE
  5
19BB
330
1E
100
AcDbEntity
  8
0
100
AcDbLine
 10
496.168
 20
179.6109155
 30
0.0
 11
502.591
 21
180.5059155
 31
0.0
  0
LINE
  5
19BC
330
1E
100
AcDbEntity
  8
0
100
AcDbLine
 10
503.892
 20
173.5089155
 30
0.0
 11
505.157
 21
173.2009155
 31
0.0
  0
LINE
  5
19BD
330
1E
100
AcDbEntity
  8
0
100
AcDbLine
 10
503.892
 20
173.5089155
 30
0.0
 11
504.622
 21
174.0429155
 31
0.0
  0
LINE
  5
19BE
330
1E
100
AcDbEntity
  8
0
100
AcDbLine
 10
503.892
 20
173.5089155
 30
0.0
 11
503.892
 21
174.6189155
 31
0.0
  0
LINE
  5
19BF
330
1E
100
AcDbEntity
  8
0
100
AcDbLine
 10
505.887
 20
173.7349155
 30
0.0
 11
505.887
 21
174.377600431507
 31
0.0
  0
LINE
  5
19C0
330
1E
100
AcDbEntity
  8
0
100
AcDbLine
 10
505.157
 20
173.2009155
 30
0.0
 11
505.887
 21
173.7349155
 31
0.0
  0
LINE
  5
19C1
330
1E
100
AcDbEntity
  8
0
100
AcDbLine
 10
504.622
 20
174.0429155
 30
0.0
 11
505.887
 21
173.7349155
 31
0.0
  0
LINE
  5
19C2
330
1E
100
AcDbEntity
  8
0
100
AcDbLine
 10
504.622
 20
174.0429155
 30
0.0
 11
504.622
 21
174.175457556075
 31
0.0
  0
LINE
  5
19C3
330
1E
100
AcDbEntity
  8
0
100
AcDbLine
 10
504.622
 20
174.175457556075
 30
0.0
 11
504.622
 21
174.0429155
 31
0.0
  0
LINE
  5
19C4
330
1E
100
AcDbEntity
  8
0
100
AcDbLine
 10
505.887
 20
174.377600431507
 30
0.0
 11
505.887
 21
173.7349155
 31
0.0
  0
LINE
  5
19C5
330
1E
100
AcDbEntity
  8
0
100
AcDbLine
 10
512.334
 20
174.0619155
 30
0.0
 11
513.599
 21
173.7529155
 31
0.0
  0
LINE
  5
19C6
330
1E
100
AcDbEntity
  8
0
100
AcDbLine
 10
512.334
 20
174.0619155
 30
0.0
 11
513.064
 21
174.5959155
 31
0.0
  0
LINE
  5
19C7
330
1E
100
AcDbEntity
  8
0
100
AcDbLine
 10
513.599
 20
173.7529155
 30
0.0
 11
514.328
 21
174.2879155
 31
0.0
  0
LINE
  5
19C8
330
1E
100
AcDbEntity
  8
0
100
AcDbLine
 10
503.892
 20
174.6189155
 30
0.0
 11
503.892
 21
173.5089155
 31
0.0
  0
LINE
  5
19C9
330
1E
100
AcDbEntity
  8
0
100
AcDbLine
 10
507.799
 20
178.1929155
 30
0.0
 11
509.063
 21
177.8849155
 31
0.0
  0
LINE
  5
19CA
330
1E
100
AcDbEntity
  8
0
100
AcDbLine
 10
507.799
 20
178.1929155
 30
0.0
 11
508.529
 21
178.7279155
 31
0.0
  0
LINE
  5
19CB
330
1E
100
AcDbEntity
  8
0
100
AcDbLine
 10
509.793
 20
178.4189155
 30
0.0
 11
509.793
 21
179.078009149258
 31
0.0
  0
LINE
  5
19CC
330
1E
100
AcDbEntity
  8
0
100
AcDbLine
 10
509.063
 20
177.8849155
 30
0.0
 11
509.793
 21
178.4189155
 31
0.0
  0
LINE
  5
19CD
330
1E
100
AcDbEntity
  8
0
100
AcDbLine
 10
508.529
 20
180.108870352402
 30
0.0
 11
508.529
 21
178.7279155
 31
0.0
  0
LINE
  5
19CE
330
1E
100
AcDbEntity
  8
0
100
AcDbLine
 10
509.793
 20
179.078009149258
 30
0.0
 11
509.793
 21
178.4189155
 31
0.0
  0
LINE
  5
19CF
330
1E
100
AcDbEntity
  8
0
100
AcDbLine
 10
508.529
 20
178.7279155
 30
0.0
 11
509.793
 21
178.4189155
 31
0.0
  0
LINE
  5
19D0
330
1E
100
AcDbEntity
  8
0
100
AcDbLine
 10
508.529
 20
178.7279155
 30
0.0
 11
508.529
 21
180.108870352402
 31
0.0
  0
LINE
  5
19D1
330
1E
100
AcDbEntity
  8
0
100
AcDbLine
 10
513.064
 20
175.607185003546
 30
0.0
 11
513.064
 21
174.5959155
 31
0.0
  0
LINE
  5
19D2
330
1E
100
AcDbEntity
  8
0
100
AcDbLine
 10
513.064
 20
174.5959155
 30
0.0
 11
514.328
 21
174.2879155
 31
0.0
  0
LINE
  5
19D3
330
1E
100
AcDbEntity
  8
0
100
AcDbLine
 10
513.064
 20
174.5959155
 30
0.0
 11
513.064
 21
175.607185003546
 31
0.0
  0
LINE
  5
19D4
330
1E
100
AcDbEntity
  8
0
100
AcDbLine
 10
503.613
 20
179.6109155
 30
0.0
 11
508.796
 21
180.1359155
 31
0.0
  0
LINE
  5
19D5
330
1E
100
AcDbEntity
  8
0
100
AcDbLine
 10
508.796
 20
180.1359155
 30
0.0
 11
515.0
 21
180.3209155
 31
0.0
  0
LINE
  5
19D6
330
1E
100
AcDbEntity
  8
0
100
AcDbLine
 10
502.591
 20
180.5059155
 30
0.0
 11
508.65
 21
181.0299155
 31
0.0
  0
LINE
  5
19D7
330
1E
100
AcDbEntity
  8
0
100
AcDbLine
 10
508.65
 20
181.0299155
 30
0.0
 11
515.0
 21
181.2469155
 31
0.0
  0
LINE
  5
19D8
330
1E
100
AcDbEntity
  8
0
100
AcDbLine
 10
495.876
 20
180.8259155
 30
0.0
 11
502.08
 21
181.6899155
 31
0.0
  0
LINE
  5
19D9
330
1E
100
AcDbEntity
  8
0
100
AcDbLine
 10
475.949
 20
173.0719155
 30
0.0
 11
480.182
 21
175.1379155
 31
0.0
  0
LINE
  5
19DA
330
1E
100
AcDbEntity
  8
0
100
AcDbLine
 10
475.365
 20
174.1629155
 30
0.0
 11
479.672
 21
176.2609155
 31
0.0
  0
LINE
  5
19DB
330
1E
100
AcDbEntity
  8
0
100
AcDbLine
 10
471.715
 20
171.8499155
 30
0.0
 11
475.365
 21
174.1629155
 31
0.0
  0
LINE
  5
19DC
330
1E
100
AcDbEntity
  8
0
100
AcDbLine
 10
468.869
 20
169.4129155
 30
0.0
 11
471.715
 21
171.8499155
 31
0.0
  0
LINE
  5
19DD
330
1E
100
AcDbEntity
  8
0
100
AcDbLine
 10
466.825
 20
166.7899155
 30
0.0
 11
468.869
 21
169.4129155
 31
0.0
  0
LINE
  5
19DE
330
1E
100
AcDbEntity
  8
0
100
AcDbLine
 10
465.0
 20
180.3629155
 30
0.0
 11
465.511
 21
183.0779155
 31
0.0
  0
LINE
  5
19DF
330
1E
100
AcDbEntity
  8
0
100
AcDbLine
 10
465.0
 20
180.3629155
 30
0.0
 11
465.0
 21
161.3309155
 31
0.0
  0
LINE
  5
19E0
330
1E
100
AcDbEntity
  8
0
100
AcDbLine
 10
515.0
 20
180.3209155
 30
0.0
 11
521.204
 21
180.1359155
 31
0.0
  0
LINE
  5
19E1
330
1E
100
AcDbEntity
  8
0
100
AcDbLine
 10
468.869
 20
188.4449155
 30
0.0
 11
469.599
 21
189.2279155
 31
0.0
  0
LINE
  5
19E2
330
1E
100
AcDbEntity
  8
0
100
AcDbLine
 10
468.869
 20
188.4449155
 30
0.0
 11
471.715
 21
190.8809155
 31
0.0
  0
LINE
  5
19E3
330
1E
100
AcDbEntity
  8
0
100
AcDbLine
 10
466.825
 20
185.8229155
 30
0.0
 11
468.869
 21
188.4449155
 31
0.0
  0
LINE
  5
19E4
330
1E
100
AcDbEntity
  8
0
100
AcDbLine
 10
465.511
 20
183.0779155
 30
0.0
 11
466.825
 21
185.8229155
 31
0.0
  0
LINE
  5
19E5
330
1E
100
AcDbEntity
  8
0
100
AcDbLine
 10
502.08
 20
181.6899155
 30
0.0
 11
508.577
 21
182.2449155
 31
0.0
  0
LINE
  5
19E6
330
1E
100
AcDbEntity
  8
0
100
AcDbLine
 10
508.577
 20
182.2449155
 30
0.0
 11
515.0
 21
182.4619155
 31
0.0
  0
LINE
  5
19E7
330
1E
100
AcDbEntity
  8
0
100
AcDbLine
 10
471.715
 20
190.8809155
 30
0.0
 11
475.365
 21
193.1959155
 31
0.0
  0
LINE
  5
19E8
330
1E
100
AcDbEntity
  8
0
100
AcDbLine
 10
475.365
 20
193.1959155
 30
0.0
 11
479.672
 21
195.2929155
 31
0.0
  0
LINE
  5
19E9
330
1E
100
AcDbEntity
  8
0
100
AcDbLine
 10
479.672
 20
195.2929155
 30
0.0
 11
484.635
 21
197.1139155
 31
0.0
  0
LINE
  5
19EA
330
1E
100
AcDbEntity
  8
0
100
AcDbLine
 10
484.635
 20
197.1139155
 30
0.0
 11
490.109
 21
198.6559155
 31
0.0
  0
LINE
  5
19EB
330
1E
100
AcDbEntity
  8
0
100
AcDbLine
 10
480.182
 20
195.9839155
 30
0.0
 11
485.073
 21
197.7729155
 31
0.0
  0
LINE
  5
19EC
330
1E
100
AcDbEntity
  8
0
100
AcDbLine
 10
490.109
 20
198.6559155
 30
0.0
 11
495.876
 21
199.8589155
 31
0.0
  0
LINE
  5
19ED
330
1E
100
AcDbEntity
  8
0
100
AcDbLine
 10
485.073
 20
197.7729155
 30
0.0
 11
490.474
 21
199.3159155
 31
0.0
  0
LINE
  5
19EE
330
1E
100
AcDbEntity
  8
0
100
AcDbLine
 10
495.876
 20
199.8589155
 30
0.0
 11
502.08
 21
200.7229155
 31
0.0
  0
LINE
  5
19EF
330
1E
100
AcDbEntity
  8
0
100
AcDbLine
 10
490.474
 20
199.3159155
 30
0.0
 11
496.168
 21
200.4569155
 31
0.0
  0
LINE
  5
19F0
330
1E
100
AcDbEntity
  8
0
100
AcDbLine
 10
502.08
 20
200.7229155
 30
0.0
 11
508.577
 21
201.2779155
 31
0.0
  0
LINE
  5
19F1
330
1E
100
AcDbEntity
  8
0
100
AcDbLine
 10
508.577
 20
201.2779155
 30
0.0
 11
515.0
 21
201.4939155
 31
0.0
  0
LINE
  5
19F2
330
1E
100
AcDbEntity
  8
0
100
AcDbLine
 10
496.168
 20
200.4569155
 30
0.0
 11
502.591
 21
201.3509155
 31
0.0
  0
LINE
  5
19F3
330
1E
100
AcDbEntity
  8
0
100
AcDbLine
 10
502.591
 20
201.3509155
 30
0.0
 11
508.65
 21
201.8759155
 31
0.0
  0
LINE
  5
19F4
330
1E
100
AcDbEntity
  8
0
100
AcDbLine
 10
475.949
 20
193.9169155
 30
0.0
 11
480.182
 21
195.9839155
 31
0.0
  0
LINE
  5
19F5
330
1E
100
AcDbEntity
  8
0
100
AcDbLine
 10
472.299
 20
191.6339155
 30
0.0
 11
475.949
 21
193.9169155
 31
0.0
  0
LINE
  5
19F6
330
1E
100
AcDbEntity
  8
0
100
AcDbLine
 10
469.599
 20
189.2279155
 30
0.0
 11
472.299
 21
191.6339155
 31
0.0
  0
LINE
  5
19F7
330
1E
100
AcDbEntity
  8
0
100
AcDbLine
 10
515.0
 20
181.2469155
 30
0.0
 11
521.35
 21
181.0299155
 31
0.0
  0
LINE
  5
19F8
330
1E
100
AcDbEntity
  8
0
100
AcDbLine
 10
515.0
 20
182.4619155
 30
0.0
 11
521.423
 21
182.2449155
 31
0.0
  0
LINE
  5
19F9
330
1E
100
AcDbEntity
  8
0
100
AcDbLine
 10
508.65
 20
201.8759155
 30
0.0
 11
515.0
 21
202.0909155
 31
0.0
  0
LINE
  5
19FA
330
1E
100
AcDbEntity
  8
0
100
AcDbLine
 10
515.0
 20
201.4939155
 30
0.0
 11
521.423
 21
201.2779155
 31
0.0
  0
LINE
  5
19FB
330
1E
100
AcDbEntity
  8
0
100
AcDbLine
 10
518.072
 20
121.5029155
 30
0.0
 11
520.952
 21
122.7389155
 31
0.0
  0
LINE
  5
19FC
330
1E
100
AcDbEntity
  8
0
100
AcDbLine
 10
520.952
 20
122.7389155
 30
0.0
 11
523.448
 21
124.6799155
 31
0.0
  0
LINE
  5
19FD
330
1E
100
AcDbEntity
  8
0
100
AcDbLine
 10
517.208
 20
124.8569155
 30
0.0
 11
519.32
 21
125.6509155
 31
0.0
  0
LINE
  5
19FE
330
1E
100
AcDbEntity
  8
0
100
AcDbLine
 10
516.0
 20
134.9749155
 30
0.0
 11
516.0
 21
135.3069155
 31
0.0
  0
LINE
  5
19FF
330
1E
100
AcDbEntity
  8
0
100
AcDbLine
 10
516.0
 20
135.3069155
 30
0.0
 11
516.0
 21
134.9749155
 31
0.0
  0
LINE
  5
1A00
330
1E
100
AcDbEntity
  8
0
100
AcDbLine
 10
516.0
 20
135.3069155
 30
0.0
 11
516.0
 21
135.9589155
 31
0.0
  0
LINE
  5
1A01
330
1E
100
AcDbEntity
  8
0
100
AcDbLine
 10
516.0
 20
135.9589155
 30
0.0
 11
516.0
 21
135.3069155
 31
0.0
  0
LINE
  5
1A02
330
1E
100
AcDbEntity
  8
0
100
AcDbLine
 10
516.0
 20
135.9589155
 30
0.0
 11
516.0
 21
137.9389155
 31
0.0
  0
LINE
  5
1A03
330
1E
100
AcDbEntity
  8
0
100
AcDbLine
 10
516.0
 20
137.9389155
 30
0.0
 11
516.0
 21
135.9589155
 31
0.0
  0
LINE
  5
1A04
330
1E
100
AcDbEntity
  8
0
100
AcDbLine
 10
516.0
 20
137.9389155
 30
0.0
 11
516.0
 21
144.0219155
 31
0.0
  0
LINE
  5
1A05
330
1E
100
AcDbEntity
  8
0
100
AcDbLine
 10
519.32
 20
125.6509155
 30
0.0
 11
521.144
 21
127.0629155
 31
0.0
  0
LINE
  5
1A06
330
1E
100
AcDbEntity
  8
0
100
AcDbLine
 10
521.144
 20
127.0629155
 30
0.0
 11
522.488
 21
128.9169155
 31
0.0
  0
LINE
  5
1A07
330
1E
100
AcDbEntity
  8
0
100
AcDbLine
 10
517.952
 20
140.2709155
 30
0.0
 11
519.216
 21
140.5799155
 31
0.0
  0
LINE
  5
1A08
330
1E
100
AcDbEntity
  8
0
100
AcDbLine
 10
517.222
 20
140.8049155
 30
0.0
 11
518.486
 21
141.1139155
 31
0.0
  0
LINE
  5
1A09
330
1E
100
AcDbEntity
  8
0
100
AcDbLine
 10
517.222
 20
140.8049155
 30
0.0
 11
517.952
 21
140.2709155
 31
0.0
  0
LINE
  5
1A0A
330
1E
100
AcDbEntity
  8
0
100
AcDbLine
 10
515.675
 20
160.8379155
 30
0.0
 11
516.275
 21
160.9459155
 31
0.0
  0
LINE
  5
1A0B
330
1E
100
AcDbEntity
  8
0
100
AcDbLine
 10
515.675
 20
162.9279155
 30
0.0
 11
516.275
 21
162.8189155
 31
0.0
  0
LINE
  5
1A0C
330
1E
100
AcDbEntity
  8
0
100
AcDbLine
 10
516.536
 20
155.6079155
 30
0.0
 11
517.976
 21
155.8519155
 31
0.0
  0
LINE
  5
1A0D
330
1E
100
AcDbEntity
  8
0
100
AcDbLine
 10
517.976
 20
155.8519155
 30
0.0
 11
519.248
 21
156.2569155
 31
0.0
  0
LINE
  5
1A0E
330
1E
100
AcDbEntity
  8
0
100
AcDbLine
 10
516.275
 20
160.9459155
 30
0.0
 11
516.787
 21
161.1259155
 31
0.0
  0
LINE
  5
1A0F
330
1E
100
AcDbEntity
  8
0
100
AcDbLine
 10
516.275
 20
162.8189155
 30
0.0
 11
516.787
 21
162.6399155
 31
0.0
  0
LINE
  5
1A10
330
1E
100
AcDbEntity
  8
0
100
AcDbLine
 10
517.211
 20
161.3419155
 30
0.0
 11
517.467
 21
161.5959155
 31
0.0
  0
LINE
  5
1A11
330
1E
100
AcDbEntity
  8
0
100
AcDbLine
 10
516.787
 20
161.1259155
 30
0.0
 11
517.211
 21
161.3419155
 31
0.0
  0
LINE
  5
1A12
330
1E
100
AcDbEntity
  8
0
100
AcDbLine
 10
517.467
 20
161.5959155
 30
0.0
 11
517.555
 21
161.8829155
 31
0.0
  0
LINE
  5
1A13
330
1E
100
AcDbEntity
  8
0
100
AcDbLine
 10
517.467
 20
162.1699155
 30
0.0
 11
517.555
 21
161.8829155
 31
0.0
  0
LINE
  5
1A14
330
1E
100
AcDbEntity
  8
0
100
AcDbLine
 10
517.211
 20
162.4239155
 30
0.0
 11
517.467
 21
162.1699155
 31
0.0
  0
LINE
  5
1A15
330
1E
100
AcDbEntity
  8
0
100
AcDbLine
 10
516.787
 20
162.6399155
 30
0.0
 11
517.211
 21
162.4239155
 31
0.0
  0
LINE
  5
1A16
330
1E
100
AcDbEntity
  8
0
100
AcDbLine
 10
516.536
 20
160.4969155
 30
0.0
 11
517.976
 21
160.2539155
 31
0.0
  0
LINE
  5
1A17
330
1E
100
AcDbEntity
  8
0
100
AcDbLine
 10
517.976
 20
160.2539155
 30
0.0
 11
519.248
 21
159.8479155
 31
0.0
  0
LINE
  5
1A18
330
1E
100
AcDbEntity
  8
0
100
AcDbLine
 10
516.0
 20
144.0219155
 30
0.0
 11
516.0
 21
137.9389155
 31
0.0
  0
LINE
  5
1A19
330
1E
100
AcDbEntity
  8
0
100
AcDbLine
 10
517.222
 20
178.2299155
 30
0.0
 11
518.486
 21
177.9209155
 31
0.0
  0
LINE
  5
1A1A
330
1E
100
AcDbEntity
  8
0
100
AcDbLine
 10
517.222
 20
178.2299155
 30
0.0
 11
517.952
 21
178.7639155
 31
0.0
  0
LINE
  5
1A1B
330
1E
100
AcDbEntity
  8
0
100
AcDbLine
 10
518.86
 20
169.6019155
 30
0.0
 11
520.125
 21
169.2939155
 31
0.0
  0
LINE
  5
1A1C
330
1E
100
AcDbEntity
  8
0
100
AcDbLine
 10
518.86
 20
169.6019155
 30
0.0
 11
519.59
 21
170.1369155
 31
0.0
  0
LINE
  5
1A1D
330
1E
100
AcDbEntity
  8
0
100
AcDbLine
 10
518.486
 20
177.9209155
 30
0.0
 11
519.216
 21
178.4549155
 31
0.0
  0
LINE
  5
1A1E
330
1E
100
AcDbEntity
  8
0
100
AcDbLine
 10
517.952
 20
180.232888420696
 30
0.0
 11
517.952
 21
178.7639155
 31
0.0
  0
LINE
  5
1A1F
330
1E
100
AcDbEntity
  8
0
100
AcDbLine
 10
517.952
 20
178.7639155
 30
0.0
 11
519.216
 21
178.4549155
 31
0.0
  0
LINE
  5
1A20
330
1E
100
AcDbEntity
  8
0
100
AcDbLine
 10
517.952
 20
178.7639155
 30
0.0
 11
517.952
 21
180.232888420696
 31
0.0
  0
LINE
  5
1A21
330
1E
100
AcDbEntity
  8
0
100
AcDbLine
 10
518.86
 20
147.6199155
 30
0.0
 11
520.125
 21
147.9289155
 31
0.0
  0
LINE
  5
1A22
330
1E
100
AcDbEntity
  8
0
100
AcDbLine
 10
518.86
 20
147.6199155
 30
0.0
 11
519.59
 21
147.0859155
 31
0.0
  0
LINE
  5
1A23
330
1E
100
AcDbEntity
  8
0
100
AcDbLine
 10
518.486
 20
141.1139155
 30
0.0
 11
519.216
 21
140.5799155
 31
0.0
  0
LINE
  5
1A24
330
1E
100
AcDbEntity
  8
0
100
AcDbLine
 10
519.216
 20
140.5799155
 30
0.0
 11
519.216
 21
140.652634391038
 31
0.0
  0
LINE
  5
1A25
330
1E
100
AcDbEntity
  8
0
100
AcDbLine
 10
516.0
 20
140.556734971309
 30
0.0
 11
517.500121390284
 21
140.601467798066
 31
0.0
  0
LINE
  5
1A26
330
1E
100
AcDbEntity
  8
0
100
AcDbLine
 10
519.248
 20
156.2569155
 30
0.0
 11
520.208
 21
156.7949155
 31
0.0
  0
LINE
  5
1A27
330
1E
100
AcDbEntity
  8
0
100
AcDbLine
 10
519.248
 20
159.8479155
 30
0.0
 11
520.208
 21
159.3099155
 31
0.0
  0
LINE
  5
1A28
330
1E
100
AcDbEntity
  8
0
100
AcDbLine
 10
519.59
 20
170.1369155
 30
0.0
 11
520.854
 21
169.8279155
 31
0.0
  0
LINE
  5
1A29
330
1E
100
AcDbEntity
  8
0
100
AcDbLine
 10
520.810636480609
 20
156.155668104706
 30
0.0
 11
521.334
 21
155.1819155
 31
0.0
  0
LINE
  5
1A2A
330
1E
100
AcDbEntity
  8
0
100
AcDbLine
 10
520.208
 20
156.7949155
 30
0.0
 11
520.784
 21
157.4029155
 31
0.0
  0
LINE
  5
1A2B
330
1E
100
AcDbEntity
  8
0
100
AcDbLine
 10
521.0
 20
158.6119155
 30
0.0
 11
521.0
 21
158.0529155
 31
0.0
  0
LINE
  5
1A2C
330
1E
100
AcDbEntity
  8
0
100
AcDbLine
 10
520.784
 20
157.4029155
 30
0.0
 11
521.0
 21
158.0529155
 31
0.0
  0
LINE
  5
1A2D
330
1E
100
AcDbEntity
  8
0
100
AcDbLine
 10
521.0
 20
158.0529155
 30
0.0
 11
521.0
 21
158.6119155
 31
0.0
  0
LINE
  5
1A2E
330
1E
100
AcDbEntity
  8
0
100
AcDbLine
 10
520.208
 20
159.3099155
 30
0.0
 11
520.784
 21
158.7019155
 31
0.0
  0
LINE
  5
1A2F
330
1E
100
AcDbEntity
  8
0
100
AcDbLine
 10
520.784
 20
158.7019155
 30
0.0
 11
521.0
 21
158.0529155
 31
0.0
  0
LINE
  5
1A30
330
1E
100
AcDbEntity
  8
0
100
AcDbLine
 10
520.125
 20
169.2939155
 30
0.0
 11
520.854
 21
169.8279155
 31
0.0
  0
LINE
  5
1A31
330
1E
100
AcDbEntity
  8
0
100
AcDbLine
 10
520.125
 20
147.9289155
 30
0.0
 11
520.854
 21
147.3949155
 31
0.0
  0
LINE
  5
1A32
330
1E
100
AcDbEntity
  8
0
100
AcDbLine
 10
519.59
 20
147.0859155
 30
0.0
 11
520.854
 21
147.3949155
 31
0.0
  0
LINE
  5
1A33
330
1E
100
AcDbEntity
  8
0
100
AcDbLine
 10
521.204
 20
140.7119155
 30
0.0
 11
526.387
 21
141.2359155
 31
0.0
  0
LINE
  5
1A34
330
1E
100
AcDbEntity
  8
0
100
AcDbLine
 10
519.216
 20
140.652634391038
 30
0.0
 11
521.204
 21
140.7119155
 31
0.0
  0
LINE
  5
1A35
330
1E
100
AcDbEntity
  8
0
100
AcDbLine
 10
519.216
 20
140.652634391038
 30
0.0
 11
519.216
 21
140.5799155
 31
0.0
  0
LINE
  5
1A36
330
1E
100
AcDbEntity
  8
0
100
AcDbLine
 10
516.0
 20
139.635931248032
 30
0.0
 11
521.35
 21
139.8179155
 31
0.0
  0
LINE
  5
1A37
330
1E
100
AcDbEntity
  8
0
100
AcDbLine
 10
521.222
 20
155.4589155
 30
0.0
 11
521.301
 21
155.7319155
 31
0.0
  0
LINE
  5
1A38
330
1E
100
AcDbEntity
  8
0
100
AcDbLine
 10
521.222
 20
155.4589155
 30
0.0
 11
521.334
 21
155.1819155
 31
0.0
  0
LINE
  5
1A39
330
1E
100
AcDbEntity
  8
0
100
AcDbLine
 10
521.334
 20
155.1819155
 30
0.0
 11
521.565
 21
154.9179155
 31
0.0
  0
LINE
  5
1A3A
330
1E
100
AcDbEntity
  8
0
100
AcDbLine
 10
521.301
 20
155.7319155
 30
0.0
 11
521.564
 21
155.9999155
 31
0.0
  0
LINE
  5
1A3B
330
1E
100
AcDbEntity
  8
0
100
AcDbLine
 10
521.35
 20
139.8179155
 30
0.0
 11
527.409
 21
140.3419155
 31
0.0
  0
LINE
  5
1A3C
330
1E
100
AcDbEntity
  8
0
100
AcDbLine
 10
521.204
 20
180.1359155
 30
0.0
 11
526.387
 21
179.6109155
 31
0.0
  0
LINE
  5
1A3D
330
1E
100
AcDbEntity
  8
0
100
AcDbLine
 10
521.35
 20
181.0299155
 30
0.0
 11
527.409
 21
180.5059155
 31
0.0
  0
LINE
  5
1A3E
330
1E
100
AcDbEntity
  8
0
100
AcDbLine
 10
522.488
 20
128.9169155
 30
0.0
 11
523.352
 21
131.0349155
 31
0.0
  0
LINE
  5
1A3F
330
1E
100
AcDbEntity
  8
0
100
AcDbLine
 10
523.448
 20
124.6799155
 30
0.0
 11
525.368
 21
127.2399155
 31
0.0
  0
LINE
  5
1A40
330
1E
100
AcDbEntity
  8
0
100
AcDbLine
 10
525.368
 20
127.2399155
 30
0.0
 11
526.616
 21
130.1519155
 31
0.0
  0
LINE
  5
1A41
330
1E
100
AcDbEntity
  8
0
100
AcDbLine
 10
525.368
 20
139.3309155
 30
0.0
 11
526.616
 21
136.4189155
 31
0.0
  0
LINE
  5
1A42
330
1E
100
AcDbEntity
  8
0
100
AcDbLine
 10
523.64
 20
133.2409155
 30
0.0
 11
523.64
 21
140.015961382159
 31
0.0
  0
LINE
  5
1A43
330
1E
100
AcDbEntity
  8
0
100
AcDbLine
 10
523.352
 20
131.0349155
 30
0.0
 11
523.64
 21
133.2409155
 31
0.0
  0
LINE
  5
1A44
330
1E
100
AcDbEntity
  8
0
100
AcDbLine
 10
522.931
 20
144.4759155
 30
0.0
 11
524.196
 21
144.7849155
 31
0.0
  0
LINE
  5
1A45
330
1E
100
AcDbEntity
  8
0
100
AcDbLine
 10
522.931
 20
144.4759155
 30
0.0
 11
523.661
 21
143.9419155
 31
0.0
  0
LINE
  5
1A46
330
1E
100
AcDbEntity
  8
0
100
AcDbLine
 10
524.196
 20
145.703720087935
 30
0.0
 11
524.196
 21
144.7849155
 31
0.0
  0
LINE
  5
1A47
330
1E
100
AcDbEntity
  8
0
100
AcDbLine
 10
524.196
 20
144.7849155
 30
0.0
 11
524.926
 21
144.2499155
 31
0.0
  0
LINE
  5
1A48
330
1E
100
AcDbEntity
  8
0
100
AcDbLine
 10
524.196
 20
144.7849155
 30
0.0
 11
524.196
 21
145.703720087935
 31
0.0
  0
LINE
  5
1A49
330
1E
100
AcDbEntity
  8
0
100
AcDbLine
 10
523.661
 20
143.9419155
 30
0.0
 11
524.926
 21
144.2499155
 31
0.0
  0
LINE
  5
1A4A
330
1E
100
AcDbEntity
  8
0
100
AcDbLine
 10
523.31
 20
151.80571717837
 30
0.0
 11
523.31
 21
151.4579155
 31
0.0
  0
LINE
  5
1A4B
330
1E
100
AcDbEntity
  8
0
100
AcDbLine
 10
523.31
 20
151.4579155
 30
0.0
 11
524.574
 21
151.7669155
 31
0.0
  0
LINE
  5
1A4C
330
1E
100
AcDbEntity
  8
0
100
AcDbLine
 10
523.31
 20
151.4579155
 30
0.0
 11
524.039
 21
150.9239155
 31
0.0
  0
LINE
  5
1A4D
330
1E
100
AcDbEntity
  8
0
100
AcDbLine
 10
523.31
 20
151.4579155
 30
0.0
 11
523.31
 21
151.80571717837
 31
0.0
  0
LINE
  5
1A4E
330
1E
100
AcDbEntity
  8
0
100
AcDbLine
 10
521.956
 20
154.6989155
 30
0.0
 11
522.501
 21
154.5219155
 31
0.0
  0
LINE
  5
1A4F
330
1E
100
AcDbEntity
  8
0
100
AcDbLine
 10
521.565
 20
154.9179155
 30
0.0
 11
521.956
 21
154.6989155
 31
0.0
  0
LINE
  5
1A50
330
1E
100
AcDbEntity
  8
0
100
AcDbLine
 10
522.501
 20
154.5219155
 30
0.0
 11
523.134
 21
154.4109155
 31
0.0
  0
LINE
  5
1A51
330
1E
100
AcDbEntity
  8
0
100
AcDbLine
 10
523.134
 20
154.4109155
 30
0.0
 11
523.782
 21
154.3769155
 31
0.0
  0
LINE
  5
1A52
330
1E
100
AcDbEntity
  8
0
100
AcDbLine
 10
523.126
 20
156.4939155
 30
0.0
 11
523.781
 21
156.5399155
 31
0.0
  0
LINE
  5
1A53
330
1E
100
AcDbEntity
  8
0
100
AcDbLine
 10
522.502
 20
156.3959155
 30
0.0
 11
523.126
 21
156.4939155
 31
0.0
  0
LINE
  5
1A54
330
1E
100
AcDbEntity
  8
0
100
AcDbLine
 10
521.981
 20
156.2299155
 30
0.0
 11
522.502
 21
156.3959155
 31
0.0
  0
LINE
  5
1A55
330
1E
100
AcDbEntity
  8
0
100
AcDbLine
 10
521.564
 20
155.9999155
 30
0.0
 11
521.981
 21
156.2299155
 31
0.0
  0
LINE
  5
1A56
330
1E
100
AcDbEntity
  8
0
100
AcDbLine
 10
523.782
 20
154.3769155
 30
0.0
 11
524.437
 21
154.4249155
 31
0.0
  0
LINE
  5
1A57
330
1E
100
AcDbEntity
  8
0
100
AcDbLine
 10
524.437
 20
154.4249155
 30
0.0
 11
525.061
 21
154.5229155
 31
0.0
  0
LINE
  5
1A58
330
1E
100
AcDbEntity
  8
0
100
AcDbLine
 10
524.428
 20
156.5069155
 30
0.0
 11
525.061
 21
156.3959155
 31
0.0
  0
LINE
  5
1A59
330
1E
100
AcDbEntity
  8
0
100
AcDbLine
 10
523.781
 20
156.5399155
 30
0.0
 11
524.428
 21
156.5069155
 31
0.0
  0
LINE
  5
1A5A
330
1E
100
AcDbEntity
  8
0
100
AcDbLine
 10
524.574
 20
152.641056029238
 30
0.0
 11
524.574
 21
151.7669155
 31
0.0
  0
LINE
  5
1A5B
330
1E
100
AcDbEntity
  8
0
100
AcDbLine
 10
524.574
 20
151.7669155
 30
0.0
 11
525.304
 21
151.2329155
 31
0.0
  0
LINE
  5
1A5C
330
1E
100
AcDbEntity
  8
0
100
AcDbLine
 10
524.574
 20
151.7669155
 30
0.0
 11
524.574
 21
152.641056029238
 31
0.0
  0
LINE
  5
1A5D
330
1E
100
AcDbEntity
  8
0
100
AcDbLine
 10
524.039
 20
150.9239155
 30
0.0
 11
525.304
 21
151.2329155
 31
0.0
  0
LINE
  5
1A5E
330
1E
100
AcDbEntity
  8
0
100
AcDbLine
 10
524.926
 20
144.2499155
 30
0.0
 11
524.926
 21
145.400819705608
 31
0.0
  0
LINE
  5
1A5F
330
1E
100
AcDbEntity
  8
0
100
AcDbLine
 10
524.926
 20
145.400819705608
 30
0.0
 11
524.926
 21
144.2499155
 31
0.0
  0
LINE
  5
1A60
330
1E
100
AcDbEntity
  8
0
100
AcDbLine
 10
525.304
 20
151.2329155
 30
0.0
 11
525.304
 21
152.351035119295
 31
0.0
  0
LINE
  5
1A61
330
1E
100
AcDbEntity
  8
0
100
AcDbLine
 10
525.061
 20
154.5229155
 30
0.0
 11
525.582
 21
154.6869155
 31
0.0
  0
LINE
  5
1A62
330
1E
100
AcDbEntity
  8
0
100
AcDbLine
 10
525.582
 20
154.6869155
 30
0.0
 11
525.999
 21
154.9179155
 31
0.0
  0
LINE
  5
1A63
330
1E
100
AcDbEntity
  8
0
100
AcDbLine
 10
525.061
 20
156.3959155
 30
0.0
 11
525.606
 21
156.2199155
 31
0.0
  0
LINE
  5
1A64
330
1E
100
AcDbEntity
  8
0
100
AcDbLine
 10
525.606
 20
156.2199155
 30
0.0
 11
525.998
 21
155.9989155
 31
0.0
  0
LINE
  5
1A65
330
1E
100
AcDbEntity
  8
0
100
AcDbLine
 10
525.998
 20
155.9989155
 30
0.0
 11
526.229
 21
155.7369155
 31
0.0
  0
LINE
  5
1A66
330
1E
100
AcDbEntity
  8
0
100
AcDbLine
 10
526.229
 20
155.7369155
 30
0.0
 11
526.341
 21
155.4589155
 31
0.0
  0
LINE
  5
1A67
330
1E
100
AcDbEntity
  8
0
100
AcDbLine
 10
526.262
 20
155.1849155
 30
0.0
 11
526.63136868048
 21
155.878192100286
 31
0.0
  0
LINE
  5
1A68
330
1E
100
AcDbEntity
  8
0
100
AcDbLine
 10
526.262
 20
155.1849155
 30
0.0
 11
526.341
 21
155.4589155
 31
0.0
  0
LINE
  5
1A69
330
1E
100
AcDbEntity
  8
0
100
AcDbLine
 10
525.999
 20
154.9179155
 30
0.0
 11
526.262
 21
155.1849155
 31
0.0
  0
LINE
  5
1A6A
330
1E
100
AcDbEntity
  8
0
100
AcDbLine
 10
525.304
 20
152.351035119295
 30
0.0
 11
525.304
 21
151.2329155
 31
0.0
  0
LINE
  5
1A6B
330
1E
100
AcDbEntity
  8
0
100
AcDbLine
 10
524.780256083385
 20
140.114574055487
 30
0.0
 11
525.368
 21
139.3309155
 31
0.0
  0
LINE
  5
1A6C
330
1E
100
AcDbEntity
  8
0
100
AcDbLine
 10
523.64
 20
140.015961382159
 30
0.0
 11
523.64
 21
133.2409155
 31
0.0
  0
LINE
  5
1A6D
330
1E
100
AcDbEntity
  8
0
100
AcDbLine
 10
526.387
 20
141.2359155
 30
0.0
 11
527.582249704487
 21
141.387482405745
 31
0.0
  0
LINE
  5
1A6E
330
1E
100
AcDbEntity
  8
0
100
AcDbLine
 10
522.931
 20
173.6529155
 30
0.0
 11
524.196
 21
173.3439155
 31
0.0
  0
LINE
  5
1A6F
330
1E
100
AcDbEntity
  8
0
100
AcDbLine
 10
522.931
 20
173.6529155
 30
0.0
 11
523.661
 21
174.1869155
 31
0.0
  0
LINE
  5
1A70
330
1E
100
AcDbEntity
  8
0
100
AcDbLine
 10
523.661
 20
174.1869155
 30
0.0
 11
524.926
 21
173.8779155
 31
0.0
  0
LINE
  5
1A71
330
1E
100
AcDbEntity
  8
0
100
AcDbLine
 10
524.039
 20
166.452241754496
 30
0.0
 11
524.039
 21
165.3919155
 31
0.0
  0
LINE
  5
1A72
330
1E
100
AcDbEntity
  8
0
100
AcDbLine
 10
523.31
 20
165.946910790289
 30
0.0
 11
523.31
 21
164.8579155
 31
0.0
  0
LINE
  5
1A73
330
1E
100
AcDbEntity
  8
0
100
AcDbLine
 10
523.31
 20
164.8579155
 30
0.0
 11
524.574
 21
164.5489155
 31
0.0
  0
LINE
  5
1A74
330
1E
100
AcDbEntity
  8
0
100
AcDbLine
 10
523.31
 20
164.8579155
 30
0.0
 11
524.039
 21
165.3919155
 31
0.0
  0
LINE
  5
1A75
330
1E
100
AcDbEntity
  8
0
100
AcDbLine
 10
523.31
 20
164.8579155
 30
0.0
 11
523.31
 21
165.946910790289
 31
0.0
  0
LINE
  5
1A76
330
1E
100
AcDbEntity
  8
0
100
AcDbLine
 10
525.304
 20
165.0839155
 30
0.0
 11
525.304
 21
165.387675396171
 31
0.0
  0
LINE
  5
1A77
330
1E
100
AcDbEntity
  8
0
100
AcDbLine
 10
524.574
 20
164.5489155
 30
0.0
 11
525.304
 21
165.0839155
 31
0.0
  0
LINE
  5
1A78
330
1E
100
AcDbEntity
  8
0
100
AcDbLine
 10
525.304
 20
165.387675396171
 30
0.0
 11
525.304
 21
165.0839155
 31
0.0
  0
LINE
  5
1A79
330
1E
100
AcDbEntity
  8
0
100
AcDbLine
 10
524.196
 20
173.3439155
 30
0.0
 11
524.926
 21
173.8779155
 31
0.0
  0
LINE
  5
1A7A
330
1E
100
AcDbEntity
  8
0
100
AcDbLine
 10
524.039
 20
165.3919155
 30
0.0
 11
525.304
 21
165.0839155
 31
0.0
  0
LINE
  5
1A7B
330
1E
100
AcDbEntity
  8
0
100
AcDbLine
 10
524.039
 20
165.3919155
 30
0.0
 11
524.039
 21
166.452241754496
 31
0.0
  0
LINE
  5
1A7C
330
1E
100
AcDbEntity
  8
0
100
AcDbLine
 10
526.616
 20
130.1519155
 30
0.0
 11
527.0
 21
133.2409155
 31
0.0
  0
LINE
  5
1A7D
330
1E
100
AcDbEntity
  8
0
100
AcDbLine
 10
527.0
 20
133.2409155
 30
0.0
 11
527.0
 21
61.2064155
 31
0.0
  0
LINE
  5
1A7E
330
1E
100
AcDbEntity
  8
0
100
AcDbLine
 10
526.616
 20
136.4189155
 30
0.0
 11
527.0
 21
133.2409155
 31
0.0
  0
LINE
  5
1A7F
330
1E
100
AcDbEntity
  8
0
100
AcDbLine
 10
527.251
 20
177.4059155
 30
0.0
 11
528.516
 21
177.0969155
 31
0.0
  0
LINE
  5
1A80
330
1E
100
AcDbEntity
  8
0
100
AcDbLine
 10
527.251
 20
177.4059155
 30
0.0
 11
527.982
 21
177.9399155
 31
0.0
  0
LINE
  5
1A81
330
1E
100
AcDbEntity
  8
0
100
AcDbLine
 10
527.251
 20
141.6299155
 30
0.0
 11
528.516
 21
141.9379155
 31
0.0
  0
LINE
  5
1A82
330
1E
100
AcDbEntity
  8
0
100
AcDbLine
 10
527.251
 20
141.6299155
 30
0.0
 11
527.982
 21
141.0949155
 31
0.0
  0
LINE
  5
1A83
330
1E
100
AcDbEntity
  8
0
100
AcDbLine
 10
527.409
 20
140.3419155
 30
0.0
 11
533.832
 21
141.2359155
 31
0.0
  0
LINE
  5
1A84
330
1E
100
AcDbEntity
  8
0
100
AcDbLine
 10
526.387
 20
179.6109155
 30
0.0
 11
532.956
 21
178.7789155
 31
0.0
  0
LINE
  5
1A85
330
1E
100
AcDbEntity
  8
0
100
AcDbLine
 10
527.409
 20
180.5059155
 30
0.0
 11
533.832
 21
179.6109155
 31
0.0
  0
LINE
  5
1A86
330
1E
100
AcDbEntity
  8
0
100
AcDbLine
 10
521.423
 20
182.2449155
 30
0.0
 11
527.92
 21
181.6899155
 31
0.0
  0
LINE
  5
1A87
330
1E
100
AcDbEntity
  8
0
100
AcDbLine
 10
521.423
 20
201.2779155
 30
0.0
 11
527.92
 21
200.7229155
 31
0.0
  0
LINE
  5
1A88
330
1E
100
AcDbEntity
  8
0
100
AcDbLine
 10
527.689
 20
168.982362494348
 30
0.0
 11
527.689
 21
168.5169155
 31
0.0
  0
LINE
  5
1A89
330
1E
100
AcDbEntity
  8
0
100
AcDbLine
 10
527.689
 20
168.5169155
 30
0.0
 11
528.953
 21
168.2089155
 31
0.0
  0
LINE
  5
1A8A
330
1E
100
AcDbEntity
  8
0
100
AcDbLine
 10
527.689
 20
168.5169155
 30
0.0
 11
528.419
 21
169.0509155
 31
0.0
  0
LINE
  5
1A8B
330
1E
100
AcDbEntity
  8
0
100
AcDbLine
 10
527.689
 20
168.5169155
 30
0.0
 11
527.689
 21
168.982362494348
 31
0.0
  0
LINE
  5
1A8C
330
1E
100
AcDbEntity
  8
0
100
AcDbLine
 10
527.689
 20
149.450101662014
 30
0.0
 11
527.689
 21
148.7059155
 31
0.0
  0
LINE
  5
1A8D
330
1E
100
AcDbEntity
  8
0
100
AcDbLine
 10
527.689
 20
148.7059155
 30
0.0
 11
528.953
 21
149.0149155
 31
0.0
  0
LINE
  5
1A8E
330
1E
100
AcDbEntity
  8
0
100
AcDbLine
 10
527.689
 20
148.7059155
 30
0.0
 11
528.419
 21
148.1709155
 31
0.0
  0
LINE
  5
1A8F
330
1E
100
AcDbEntity
  8
0
100
AcDbLine
 10
527.689
 20
148.7059155
 30
0.0
 11
527.689
 21
149.450101662014
 31
0.0
  0
LINE
  5
1A90
330
1E
100
AcDbEntity
  8
0
100
AcDbLine
 10
529.246
 20
141.4039155
 30
0.0
 11
529.246
 21
141.598458809484
 31
0.0
  0
LINE
  5
1A91
330
1E
100
AcDbEntity
  8
0
100
AcDbLine
 10
527.982
 20
141.0949155
 30
0.0
 11
529.246
 21
141.4039155
 31
0.0
  0
LINE
  5
1A92
330
1E
100
AcDbEntity
  8
0
100
AcDbLine
 10
527.982
 20
177.9399155
 30
0.0
 11
529.246
 21
177.6309155
 31
0.0
  0
LINE
  5
1A93
330
1E
100
AcDbEntity
  8
0
100
AcDbLine
 10
527.982
 20
177.9399155
 30
0.0
 11
527.982
 21
179.408899972523
 31
0.0
  0
LINE
  5
1A94
330
1E
100
AcDbEntity
  8
0
100
AcDbLine
 10
528.419
 20
169.488386642319
 30
0.0
 11
528.419
 21
169.0509155
 31
0.0
  0
LINE
  5
1A95
330
1E
100
AcDbEntity
  8
0
100
AcDbLine
 10
528.419
 20
169.0509155
 30
0.0
 11
529.683
 21
168.7429155
 31
0.0
  0
LINE
  5
1A96
330
1E
100
AcDbEntity
  8
0
100
AcDbLine
 10
528.419
 20
169.0509155
 30
0.0
 11
528.419
 21
169.488386642319
 31
0.0
  0
LINE
  5
1A97
330
1E
100
AcDbEntity
  8
0
100
AcDbLine
 10
528.516
 20
141.9379155
 30
0.0
 11
529.246
 21
141.4039155
 31
0.0
  0
LINE
  5
1A98
330
1E
100
AcDbEntity
  8
0
100
AcDbLine
 10
529.683
 20
148.4799155
 30
0.0
 11
529.683
 21
148.573432576035
 31
0.0
  0
LINE
  5
1A99
330
1E
100
AcDbEntity
  8
0
100
AcDbLine
 10
528.516
 20
177.0969155
 30
0.0
 11
529.246
 21
177.6309155
 31
0.0
  0
LINE
  5
1A9A
330
1E
100
AcDbEntity
  8
0
100
AcDbLine
 10
528.953
 20
168.2089155
 30
0.0
 11
529.683
 21
168.7429155
 31
0.0
  0
LINE
  5
1A9B
330
1E
100
AcDbEntity
  8
0
100
AcDbLine
 10
529.72
 20
153.8349155
 30
0.0
 11
529.72
 21
154.4519155
 31
0.0
  0
LINE
  5
1A9C
330
1E
100
AcDbEntity
  8
0
100
AcDbLine
 10
529.72
 20
153.8349155
 30
0.0
 11
531.18
 21
153.8349155
 31
0.0
  0
LINE
  5
1A9D
330
1E
100
AcDbEntity
  8
0
100
AcDbLine
 10
529.72
 20
153.8349155
 30
0.0
 11
529.72
 21
154.646447977301
 31
0.0
  0
LINE
  5
1A9E
330
1E
100
AcDbEntity
  8
0
100
AcDbLine
 10
529.72
 20
154.646447977301
 30
0.0
 11
529.72
 21
153.8349155
 31
0.0
  0
LINE
  5
1A9F
330
1E
100
AcDbEntity
  8
0
100
AcDbLine
 10
529.72
 20
155.22670603442
 30
0.0
 11
529.72
 21
154.4519155
 31
0.0
  0
LINE
  5
1AA0
330
1E
100
AcDbEntity
  8
0
100
AcDbLine
 10
529.72
 20
154.4519155
 30
0.0
 11
531.18
 21
154.4519155
 31
0.0
  0
LINE
  5
1AA1
330
1E
100
AcDbEntity
  8
0
100
AcDbLine
 10
529.72
 20
154.4519155
 30
0.0
 11
529.72
 21
155.22670603442
 31
0.0
  0
LINE
  5
1AA2
330
1E
100
AcDbEntity
  8
0
100
AcDbLine
 10
529.72
 20
154.4519155
 30
0.0
 11
529.72
 21
153.8349155
 31
0.0
  0
LINE
  5
1AA3
330
1E
100
AcDbEntity
  8
0
100
AcDbLine
 10
531.18
 20
153.8349155
 30
0.0
 11
531.18
 21
154.4519155
 31
0.0
  0
LINE
  5
1AA4
330
1E
100
AcDbEntity
  8
0
100
AcDbLine
 10
531.18
 20
154.94469063587
 30
0.0
 11
531.18
 21
154.4519155
 31
0.0
  0
LINE
  5
1AA5
330
1E
100
AcDbEntity
  8
0
100
AcDbLine
 10
531.18
 20
154.4519155
 30
0.0
 11
531.18
 21
153.8349155
 31
0.0
  0
LINE
  5
1AA6
330
1E
100
AcDbEntity
  8
0
100
AcDbLine
 10
531.18
 20
154.4519155
 30
0.0
 11
531.18
 21
154.94469063587
 31
0.0
  0
LINE
  5
1AA7
330
1E
100
AcDbEntity
  8
0
100
AcDbLine
 10
529.72
 20
161.8639155
 30
0.0
 11
531.18
 21
161.8639155
 31
0.0
  0
LINE
  5
1AA8
330
1E
100
AcDbEntity
  8
0
100
AcDbLine
 10
529.72
 20
161.8639155
 30
0.0
 11
529.72
 21
162.36718820154
 31
0.0
  0
LINE
  5
1AA9
330
1E
100
AcDbEntity
  8
0
100
AcDbLine
 10
529.72
 20
161.8639155
 30
0.0
 11
529.72
 21
162.4809155
 31
0.0
  0
LINE
  5
1AAA
330
1E
100
AcDbEntity
  8
0
100
AcDbLine
 10
529.72
 20
163.02091367332
 30
0.0
 11
529.72
 21
162.4809155
 31
0.0
  0
LINE
  5
1AAB
330
1E
100
AcDbEntity
  8
0
100
AcDbLine
 10
529.72
 20
162.4809155
 30
0.0
 11
529.72
 21
161.8639155
 31
0.0
  0
LINE
  5
1AAC
330
1E
100
AcDbEntity
  8
0
100
AcDbLine
 10
529.72
 20
162.4809155
 30
0.0
 11
531.18
 21
162.4809155
 31
0.0
  0
LINE
  5
1AAD
330
1E
100
AcDbEntity
  8
0
100
AcDbLine
 10
529.72
 20
162.4809155
 30
0.0
 11
529.72
 21
163.02091367332
 31
0.0
  0
LINE
  5
1AAE
330
1E
100
AcDbEntity
  8
0
100
AcDbLine
 10
531.18
 20
163.384795906168
 30
0.0
 11
531.18
 21
162.4809155
 31
0.0
  0
LINE
  5
1AAF
330
1E
100
AcDbEntity
  8
0
100
AcDbLine
 10
529.72
 20
162.36718820154
 30
0.0
 11
529.72
 21
161.8639155
 31
0.0
  0
LINE
  5
1AB0
330
1E
100
AcDbEntity
  8
0
100
AcDbLine
 10
531.18
 20
162.4809155
 30
0.0
 11
531.18
 21
163.384795906168
 31
0.0
  0
LINE
  5
1AB1
330
1E
100
AcDbEntity
  8
0
100
AcDbLine
 10
531.18
 20
162.4809155
 30
0.0
 11
531.18
 21
161.8639155
 31
0.0
  0
LINE
  5
1AB2
330
1E
100
AcDbEntity
  8
0
100
AcDbLine
 10
531.18
 20
161.8639155
 30
0.0
 11
531.18
 21
162.4809155
 31
0.0
  0
LINE
  5
1AB3
330
1E
100
AcDbEntity
  8
0
100
AcDbLine
 10
529.683
 20
168.7429155
 30
0.0
 11
529.683
 21
170.126794450974
 31
0.0
  0
LINE
  5
1AB4
330
1E
100
AcDbEntity
  8
0
100
AcDbLine
 10
529.246
 20
177.6309155
 30
0.0
 11
529.246
 21
179.248807416578
 31
0.0
  0
LINE
  5
1AB5
330
1E
100
AcDbEntity
  8
0
100
AcDbLine
 10
529.683
 20
170.126794450974
 30
0.0
 11
529.683
 21
168.7429155
 31
0.0
  0
LINE
  5
1AB6
330
1E
100
AcDbEntity
  8
0
100
AcDbLine
 10
528.953
 20
149.0149155
 30
0.0
 11
529.683
 21
148.4799155
 31
0.0
  0
LINE
  5
1AB7
330
1E
100
AcDbEntity
  8
0
100
AcDbLine
 10
529.683
 20
148.573432576035
 30
0.0
 11
529.683
 21
148.4799155
 31
0.0
  0
LINE
  5
1AB8
330
1E
100
AcDbEntity
  8
0
100
AcDbLine
 10
528.419
 20
148.1709155
 30
0.0
 11
529.683
 21
148.4799155
 31
0.0
  0
LINE
  5
1AB9
330
1E
100
AcDbEntity
  8
0
100
AcDbLine
 10
529.246
 20
141.598458809484
 30
0.0
 11
532.956
 21
142.0689155
 31
0.0
  0
LINE
  5
1ABA
330
1E
100
AcDbEntity
  8
0
100
AcDbLine
 10
529.246
 20
141.598458809484
 30
0.0
 11
529.246
 21
141.4039155
 31
0.0
  0
LINE
  5
1ABB
330
1E
100
AcDbEntity
  8
0
100
AcDbLine
 10
532.069
 20
172.1749155
 30
0.0
 11
533.333
 21
171.8669155
 31
0.0
  0
LINE
  5
1ABC
330
1E
100
AcDbEntity
  8
0
100
AcDbLine
 10
532.069
 20
172.1749155
 30
0.0
 11
532.798
 21
172.7089155
 31
0.0
  0
LINE
  5
1ABD
330
1E
100
AcDbEntity
  8
0
100
AcDbLine
 10
532.069
 20
147.058120979452
 30
0.0
 11
532.069
 21
145.9539155
 31
0.0
  0
LINE
  5
1ABE
330
1E
100
AcDbEntity
  8
0
100
AcDbLine
 10
532.883
 20
158.314472826079
 30
0.0
 11
532.883
 21
157.8499155
 31
0.0
  0
LINE
  5
1ABF
330
1E
100
AcDbEntity
  8
0
100
AcDbLine
 10
532.883
 20
157.8499155
 30
0.0
 11
532.883
 21
158.4659155
 31
0.0
  0
LINE
  5
1AC0
330
1E
100
AcDbEntity
  8
0
100
AcDbLine
 10
532.883
 20
157.8499155
 30
0.0
 11
534.343
 21
157.8499155
 31
0.0
  0
LINE
  5
1AC1
330
1E
100
AcDbEntity
  8
0
100
AcDbLine
 10
532.883
 20
157.8499155
 30
0.0
 11
532.883
 21
158.314472826079
 31
0.0
  0
LINE
  5
1AC2
330
1E
100
AcDbEntity
  8
0
100
AcDbLine
 10
532.798
 20
172.7089155
 30
0.0
 11
534.063
 21
172.4019155
 31
0.0
  0
LINE
  5
1AC3
330
1E
100
AcDbEntity
  8
0
100
AcDbLine
 10
532.883
 20
159.371208688885
 30
0.0
 11
532.883
 21
158.4659155
 31
0.0
  0
LINE
  5
1AC4
330
1E
100
AcDbEntity
  8
0
100
AcDbLine
 10
532.883
 20
158.4659155
 30
0.0
 11
534.343
 21
158.4659155
 31
0.0
  0
LINE
  5
1AC5
330
1E
100
AcDbEntity
  8
0
100
AcDbLine
 10
532.883
 20
158.4659155
 30
0.0
 11
532.883
 21
159.371208688885
 31
0.0
  0
LINE
  5
1AC6
330
1E
100
AcDbEntity
  8
0
100
AcDbLine
 10
532.883
 20
158.4659155
 30
0.0
 11
532.883
 21
157.8499155
 31
0.0
  0
LINE
  5
1AC7
330
1E
100
AcDbEntity
  8
0
100
AcDbLine
 10
532.069
 20
145.9539155
 30
0.0
 11
533.333
 21
146.2619155
 31
0.0
  0
LINE
  5
1AC8
330
1E
100
AcDbEntity
  8
0
100
AcDbLine
 10
532.069
 20
145.9539155
 30
0.0
 11
532.798
 21
145.4189155
 31
0.0
  0
LINE
  5
1AC9
330
1E
100
AcDbEntity
  8
0
100
AcDbLine
 10
532.069
 20
145.9539155
 30
0.0
 11
532.069
 21
147.058120979452
 31
0.0
  0
LINE
  5
1ACA
330
1E
100
AcDbEntity
  8
0
100
AcDbLine
 10
532.798
 20
145.4189155
 30
0.0
 11
534.063
 21
145.7279155
 31
0.0
  0
LINE
  5
1ACB
330
1E
100
AcDbEntity
  8
0
100
AcDbLine
 10
533.333
 20
171.8669155
 30
0.0
 11
534.063
 21
172.4019155
 31
0.0
  0
LINE
  5
1ACC
330
1E
100
AcDbEntity
  8
0
100
AcDbLine
 10
533.333
 20
146.967172557456
 30
0.0
 11
533.333
 21
146.2619155
 31
0.0
  0
LINE
  5
1ACD
330
1E
100
AcDbEntity
  8
0
100
AcDbLine
 10
533.333
 20
146.2619155
 30
0.0
 11
534.063
 21
145.7279155
 31
0.0
  0
LINE
  5
1ACE
330
1E
100
AcDbEntity
  8
0
100
AcDbLine
 10
533.333
 20
146.2619155
 30
0.0
 11
533.333
 21
146.967172557456
 31
0.0
  0
LINE
  5
1ACF
330
1E
100
AcDbEntity
  8
0
100
AcDbLine
 10
532.956
 20
142.0689155
 30
0.0
 11
536.900442275788
 21
142.869331092402
 31
0.0
  0
LINE
  5
1AD0
330
1E
100
AcDbEntity
  8
0
100
AcDbLine
 10
533.832
 20
141.2359155
 30
0.0
 11
539.526
 21
142.3779155
 31
0.0
  0
LINE
  5
1AD1
330
1E
100
AcDbEntity
  8
0
100
AcDbLine
 10
527.982
 20
179.408899972523
 30
0.0
 11
527.982
 21
177.9399155
 31
0.0
  0
LINE
  5
1AD2
330
1E
100
AcDbEntity
  8
0
100
AcDbLine
 10
529.246
 20
179.248807416578
 30
0.0
 11
529.246
 21
177.6309155
 31
0.0
  0
LINE
  5
1AD3
330
1E
100
AcDbEntity
  8
0
100
AcDbLine
 10
532.956
 20
178.7789155
 30
0.0
 11
538.431
 21
177.6679155
 31
0.0
  0
LINE
  5
1AD4
330
1E
100
AcDbEntity
  8
0
100
AcDbLine
 10
536.448
 20
143.2009155
 30
0.0
 11
537.712
 21
143.5089155
 31
0.0
  0
LINE
  5
1AD5
330
1E
100
AcDbEntity
  8
0
100
AcDbLine
 10
536.448
 20
143.2009155
 30
0.0
 11
537.178
 21
142.6659155
 31
0.0
  0
LINE
  5
1AD6
330
1E
100
AcDbEntity
  8
0
100
AcDbLine
 10
536.448
 20
143.2009155
 30
0.0
 11
536.448
 21
143.804754549394
 31
0.0
  0
LINE
  5
1AD7
330
1E
100
AcDbEntity
  8
0
100
AcDbLine
 10
534.063
 20
145.7279155
 30
0.0
 11
534.063
 21
146.803401385088
 31
0.0
  0
LINE
  5
1AD8
330
1E
100
AcDbEntity
  8
0
100
AcDbLine
 10
534.18
 20
151.143560910292
 30
0.0
 11
534.18
 21
150.7209155
 31
0.0
  0
LINE
  5
1AD9
330
1E
100
AcDbEntity
  8
0
100
AcDbLine
 10
534.18
 20
150.7209155
 30
0.0
 11
534.18
 21
151.3379155
 31
0.0
  0
LINE
  5
1ADA
330
1E
100
AcDbEntity
  8
0
100
AcDbLine
 10
534.18
 20
150.7209155
 30
0.0
 11
535.64
 21
150.7209155
 31
0.0
  0
LINE
  5
1ADB
330
1E
100
AcDbEntity
  8
0
100
AcDbLine
 10
534.18
 20
150.7209155
 30
0.0
 11
534.18
 21
151.143560910292
 31
0.0
  0
LINE
  5
1ADC
330
1E
100
AcDbEntity
  8
0
100
AcDbLine
 10
534.18
 20
151.3379155
 30
0.0
 11
535.64
 21
151.3379155
 31
0.0
  0
LINE
  5
1ADD
330
1E
100
AcDbEntity
  8
0
100
AcDbLine
 10
534.18
 20
151.3379155
 30
0.0
 11
534.18
 21
150.7209155
 31
0.0
  0
LINE
  5
1ADE
330
1E
100
AcDbEntity
  8
0
100
AcDbLine
 10
534.343
 20
157.8499155
 30
0.0
 11
534.343
 21
158.4659155
 31
0.0
  0
LINE
  5
1ADF
330
1E
100
AcDbEntity
  8
0
100
AcDbLine
 10
534.063
 20
172.4019155
 30
0.0
 11
534.063
 21
172.606854888907
 31
0.0
  0
LINE
  5
1AE0
330
1E
100
AcDbEntity
  8
0
100
AcDbLine
 10
534.18
 20
167.355312996523
 30
0.0
 11
534.18
 21
166.5019155
 31
0.0
  0
LINE
  5
1AE1
330
1E
100
AcDbEntity
  8
0
100
AcDbLine
 10
534.18
 20
166.5019155
 30
0.0
 11
534.18
 21
165.8849155
 31
0.0
  0
LINE
  5
1AE2
330
1E
100
AcDbEntity
  8
0
100
AcDbLine
 10
534.18
 20
166.5019155
 30
0.0
 11
535.64
 21
166.5019155
 31
0.0
  0
LINE
  5
1AE3
330
1E
100
AcDbEntity
  8
0
100
AcDbLine
 10
534.18
 20
166.5019155
 30
0.0
 11
534.18
 21
167.355312996523
 31
0.0
  0
LINE
  5
1AE4
330
1E
100
AcDbEntity
  8
0
100
AcDbLine
 10
534.18
 20
165.8849155
 30
0.0
 11
535.64
 21
165.8849155
 31
0.0
  0
LINE
  5
1AE5
330
1E
100
AcDbEntity
  8
0
100
AcDbLine
 10
534.18
 20
165.8849155
 30
0.0
 11
534.18
 21
166.5019155
 31
0.0
  0
LINE
  5
1AE6
330
1E
100
AcDbEntity
  8
0
100
AcDbLine
 10
534.063
 20
172.606854888907
 30
0.0
 11
534.063
 21
172.4019155
 31
0.0
  0
LINE
  5
1AE7
330
1E
100
AcDbEntity
  8
0
100
AcDbLine
 10
534.343
 20
159.385181677614
 30
0.0
 11
534.343
 21
158.4659155
 31
0.0
  0
LINE
  5
1AE8
330
1E
100
AcDbEntity
  8
0
100
AcDbLine
 10
535.64
 20
150.7209155
 30
0.0
 11
535.64
 21
151.3379155
 31
0.0
  0
LINE
  5
1AE9
330
1E
100
AcDbEntity
  8
0
100
AcDbLine
 10
535.64
 20
152.220673598224
 30
0.0
 11
535.64
 21
151.3379155
 31
0.0
  0
LINE
  5
1AEA
330
1E
100
AcDbEntity
  8
0
100
AcDbLine
 10
535.64
 20
151.3379155
 30
0.0
 11
535.64
 21
150.7209155
 31
0.0
  0
LINE
  5
1AEB
330
1E
100
AcDbEntity
  8
0
100
AcDbLine
 10
535.64
 20
151.3379155
 30
0.0
 11
535.64
 21
152.220673598224
 31
0.0
  0
LINE
  5
1AEC
330
1E
100
AcDbEntity
  8
0
100
AcDbLine
 10
535.64
 20
166.5019155
 30
0.0
 11
535.64
 21
165.8849155
 31
0.0
  0
LINE
  5
1AED
330
1E
100
AcDbEntity
  8
0
100
AcDbLine
 10
535.64
 20
165.8849155
 30
0.0
 11
535.64
 21
166.5019155
 31
0.0
  0
LINE
  5
1AEE
330
1E
100
AcDbEntity
  8
0
100
AcDbLine
 10
536.448
 20
176.708017829916
 30
0.0
 11
536.448
 21
175.8339155
 31
0.0
  0
LINE
  5
1AEF
330
1E
100
AcDbEntity
  8
0
100
AcDbLine
 10
536.448
 20
175.8339155
 30
0.0
 11
537.712
 21
175.5259155
 31
0.0
  0
LINE
  5
1AF0
330
1E
100
AcDbEntity
  8
0
100
AcDbLine
 10
536.448
 20
175.8339155
 30
0.0
 11
537.178
 21
176.3689155
 31
0.0
  0
LINE
  5
1AF1
330
1E
100
AcDbEntity
  8
0
100
AcDbLine
 10
536.448
 20
175.8339155
 30
0.0
 11
536.448
 21
176.708017829916
 31
0.0
  0
LINE
  5
1AF2
330
1E
100
AcDbEntity
  8
0
100
AcDbLine
 10
534.343
 20
158.4659155
 30
0.0
 11
534.343
 21
157.8499155
 31
0.0
  0
LINE
  5
1AF3
330
1E
100
AcDbEntity
  8
0
100
AcDbLine
 10
534.343
 20
158.4659155
 30
0.0
 11
534.343
 21
159.385181677614
 31
0.0
  0
LINE
  5
1AF4
330
1E
100
AcDbEntity
  8
0
100
AcDbLine
 10
534.063
 20
146.803401385088
 30
0.0
 11
534.063
 21
145.7279155
 31
0.0
  0
LINE
  5
1AF5
330
1E
100
AcDbEntity
  8
0
100
AcDbLine
 10
537.712
 20
175.5259155
 30
0.0
 11
538.442
 21
176.0599155
 31
0.0
  0
LINE
  5
1AF6
330
1E
100
AcDbEntity
  8
0
100
AcDbLine
 10
537.178
 20
177.061384092731
 30
0.0
 11
537.178
 21
176.3689155
 31
0.0
  0
LINE
  5
1AF7
330
1E
100
AcDbEntity
  8
0
100
AcDbLine
 10
537.178
 20
176.3689155
 30
0.0
 11
538.442
 21
176.0599155
 31
0.0
  0
LINE
  5
1AF8
330
1E
100
AcDbEntity
  8
0
100
AcDbLine
 10
537.178
 20
176.3689155
 30
0.0
 11
537.178
 21
177.061384092731
 31
0.0
  0
LINE
  5
1AF9
330
1E
100
AcDbEntity
  8
0
100
AcDbLine
 10
536.448
 20
143.804754549394
 30
0.0
 11
536.448
 21
143.2009155
 31
0.0
  0
LINE
  5
1AFA
330
1E
100
AcDbEntity
  8
0
100
AcDbLine
 10
537.712
 20
143.618210020548
 30
0.0
 11
537.712
 21
143.5089155
 31
0.0
  0
LINE
  5
1AFB
330
1E
100
AcDbEntity
  8
0
100
AcDbLine
 10
537.712
 20
143.5089155
 30
0.0
 11
538.442
 21
142.9749155
 31
0.0
  0
LINE
  5
1AFC
330
1E
100
AcDbEntity
  8
0
100
AcDbLine
 10
537.712
 20
143.5089155
 30
0.0
 11
537.712
 21
143.618210020548
 31
0.0
  0
LINE
  5
1AFD
330
1E
100
AcDbEntity
  8
0
100
AcDbLine
 10
537.178
 20
142.6659155
 30
0.0
 11
538.442
 21
142.9749155
 31
0.0
  0
LINE
  5
1AFE
330
1E
100
AcDbEntity
  8
0
100
AcDbLine
 10
538.442
 20
176.0599155
 30
0.0
 11
538.442
 21
177.664771733115
 31
0.0
  0
LINE
  5
1AFF
330
1E
100
AcDbEntity
  8
0
100
AcDbLine
 10
538.442
 20
177.664771733115
 30
0.0
 11
538.442
 21
176.0599155
 31
0.0
  0
LINE
  5
1B00
330
1E
100
AcDbEntity
  8
0
100
AcDbLine
 10
538.442
 20
142.9749155
 30
0.0
 11
538.442
 21
143.183059266885
 31
0.0
  0
LINE
  5
1B01
330
1E
100
AcDbEntity
  8
0
100
AcDbLine
 10
539.045
 20
147.7769155
 30
0.0
 11
539.045
 21
148.3939155
 31
0.0
  0
LINE
  5
1B02
330
1E
100
AcDbEntity
  8
0
100
AcDbLine
 10
539.045
 20
147.7769155
 30
0.0
 11
540.505
 21
147.7769155
 31
0.0
  0
LINE
  5
1B03
330
1E
100
AcDbEntity
  8
0
100
AcDbLine
 10
539.045
 20
149.41234132558
 30
0.0
 11
539.045
 21
148.3939155
 31
0.0
  0
LINE
  5
1B04
330
1E
100
AcDbEntity
  8
0
100
AcDbLine
 10
539.452
 20
154.93567429397
 30
0.0
 11
539.452
 21
154.5289155
 31
0.0
  0
LINE
  5
1B05
330
1E
100
AcDbEntity
  8
0
100
AcDbLine
 10
539.452
 20
154.5289155
 30
0.0
 11
539.452
 21
155.1449155
 31
0.0
  0
LINE
  5
1B06
330
1E
100
AcDbEntity
  8
0
100
AcDbLine
 10
539.452
 20
154.5289155
 30
0.0
 11
540.912
 21
154.5289155
 31
0.0
  0
LINE
  5
1B07
330
1E
100
AcDbEntity
  8
0
100
AcDbLine
 10
539.452
 20
154.5289155
 30
0.0
 11
539.452
 21
154.93567429397
 31
0.0
  0
LINE
  5
1B08
330
1E
100
AcDbEntity
  8
0
100
AcDbLine
 10
539.452
 20
156.146492870392
 30
0.0
 11
539.452
 21
155.1449155
 31
0.0
  0
LINE
  5
1B09
330
1E
100
AcDbEntity
  8
0
100
AcDbLine
 10
539.452
 20
155.1449155
 30
0.0
 11
540.912
 21
155.1449155
 31
0.0
  0
LINE
  5
1B0A
330
1E
100
AcDbEntity
  8
0
100
AcDbLine
 10
539.452
 20
155.1449155
 30
0.0
 11
539.452
 21
156.146492870392
 31
0.0
  0
LINE
  5
1B0B
330
1E
100
AcDbEntity
  8
0
100
AcDbLine
 10
539.452
 20
155.1449155
 30
0.0
 11
539.452
 21
154.5289155
 31
0.0
  0
LINE
  5
1B0C
330
1E
100
AcDbEntity
  8
0
100
AcDbLine
 10
539.045
 20
148.3939155
 30
0.0
 11
540.505
 21
148.3939155
 31
0.0
  0
LINE
  5
1B0D
330
1E
100
AcDbEntity
  8
0
100
AcDbLine
 10
539.045
 20
148.3939155
 30
0.0
 11
539.045
 21
149.41234132558
 31
0.0
  0
LINE
  5
1B0E
330
1E
100
AcDbEntity
  8
0
100
AcDbLine
 10
539.045
 20
148.3939155
 30
0.0
 11
539.045
 21
147.7769155
 31
0.0
  0
LINE
  5
1B0F
330
1E
100
AcDbEntity
  8
0
100
AcDbLine
 10
539.045
 20
170.3519155
 30
0.0
 11
539.045
 21
169.7349155
 31
0.0
  0
LINE
  5
1B10
330
1E
100
AcDbEntity
  8
0
100
AcDbLine
 10
539.045
 20
170.3519155
 30
0.0
 11
540.505
 21
170.3519155
 31
0.0
  0
LINE
  5
1B11
330
1E
100
AcDbEntity
  8
0
100
AcDbLine
 10
539.045
 20
169.7349155
 30
0.0
 11
540.505
 21
169.7349155
 31
0.0
  0
LINE
  5
1B12
330
1E
100
AcDbEntity
  8
0
100
AcDbLine
 10
539.045
 20
169.7349155
 30
0.0
 11
539.045
 21
170.3519155
 31
0.0
  0
LINE
  5
1B13
330
1E
100
AcDbEntity
  8
0
100
AcDbLine
 10
539.452
 20
163.50409375972
 30
0.0
 11
539.452
 21
162.6939155
 31
0.0
  0
LINE
  5
1B14
330
1E
100
AcDbEntity
  8
0
100
AcDbLine
 10
539.452
 20
162.6939155
 30
0.0
 11
539.452
 21
162.0769155
 31
0.0
  0
LINE
  5
1B15
330
1E
100
AcDbEntity
  8
0
100
AcDbLine
 10
539.452
 20
162.6939155
 30
0.0
 11
540.912
 21
162.6939155
 31
0.0
  0
LINE
  5
1B16
330
1E
100
AcDbEntity
  8
0
100
AcDbLine
 10
539.452
 20
162.6939155
 30
0.0
 11
539.452
 21
163.50409375972
 31
0.0
  0
LINE
  5
1B17
330
1E
100
AcDbEntity
  8
0
100
AcDbLine
 10
539.452
 20
162.210652539227
 30
0.0
 11
539.452
 21
162.0769155
 31
0.0
  0
LINE
  5
1B18
330
1E
100
AcDbEntity
  8
0
100
AcDbLine
 10
539.452
 20
162.0769155
 30
0.0
 11
540.912
 21
162.0769155
 31
0.0
  0
LINE
  5
1B19
330
1E
100
AcDbEntity
  8
0
100
AcDbLine
 10
539.452
 20
162.0769155
 30
0.0
 11
539.452
 21
162.210652539227
 31
0.0
  0
LINE
  5
1B1A
330
1E
100
AcDbEntity
  8
0
100
AcDbLine
 10
539.452
 20
162.0769155
 30
0.0
 11
539.452
 21
162.6939155
 31
0.0
  0
LINE
  5
1B1B
330
1E
100
AcDbEntity
  8
0
100
AcDbLine
 10
538.442
 20
143.183059266885
 30
0.0
 11
543.613
 21
144.6609155
 31
0.0
  0
LINE
  5
1B1C
330
1E
100
AcDbEntity
  8
0
100
AcDbLine
 10
538.442
 20
143.183059266885
 30
0.0
 11
538.442
 21
142.9749155
 31
0.0
  0
LINE
  5
1B1D
330
1E
100
AcDbEntity
  8
0
100
AcDbLine
 10
539.526
 20
142.3779155
 30
0.0
 11
544.927
 21
143.9199155
 31
0.0
  0
LINE
  5
1B1E
330
1E
100
AcDbEntity
  8
0
100
AcDbLine
 10
538.431
 20
177.6679155
 30
0.0
 11
543.613
 21
176.1869155
 31
0.0
  0
LINE
  5
1B1F
330
1E
100
AcDbEntity
  8
0
100
AcDbLine
 10
539.526
 20
178.4699155
 30
0.0
 11
544.927
 21
176.9279155
 31
0.0
  0
LINE
  5
1B20
330
1E
100
AcDbEntity
  8
0
100
AcDbLine
 10
533.832
 20
179.6109155
 30
0.0
 11
539.526
 21
178.4699155
 31
0.0
  0
LINE
  5
1B21
330
1E
100
AcDbEntity
  8
0
100
AcDbLine
 10
534.124
 20
180.8259155
 30
0.0
 11
539.891
 21
179.6229155
 31
0.0
  0
LINE
  5
1B22
330
1E
100
AcDbEntity
  8
0
100
AcDbLine
 10
527.92
 20
181.6899155
 30
0.0
 11
534.124
 21
180.8259155
 31
0.0
  0
LINE
  5
1B23
330
1E
100
AcDbEntity
  8
0
100
AcDbLine
 10
534.124
 20
199.8589155
 30
0.0
 11
539.891
 21
198.6559155
 31
0.0
  0
LINE
  5
1B24
330
1E
100
AcDbEntity
  8
0
100
AcDbLine
 10
540.505
 20
147.7769155
 30
0.0
 11
540.505
 21
148.3939155
 31
0.0
  0
LINE
  5
1B25
330
1E
100
AcDbEntity
  8
0
100
AcDbLine
 10
540.505
 20
148.930650291944
 30
0.0
 11
540.505
 21
148.3939155
 31
0.0
  0
LINE
  5
1B26
330
1E
100
AcDbEntity
  8
0
100
AcDbLine
 10
540.912
 20
154.5289155
 30
0.0
 11
540.912
 21
155.1449155
 31
0.0
  0
LINE
  5
1B27
330
1E
100
AcDbEntity
  8
0
100
AcDbLine
 10
540.912
 20
156.100804914548
 30
0.0
 11
540.912
 21
155.1449155
 31
0.0
  0
LINE
  5
1B28
330
1E
100
AcDbEntity
  8
0
100
AcDbLine
 10
540.912
 20
155.1449155
 30
0.0
 11
540.912
 21
154.5289155
 31
0.0
  0
LINE
  5
1B29
330
1E
100
AcDbEntity
  8
0
100
AcDbLine
 10
540.912
 20
155.1449155
 30
0.0
 11
540.912
 21
156.100804914548
 31
0.0
  0
LINE
  5
1B2A
330
1E
100
AcDbEntity
  8
0
100
AcDbLine
 10
540.505
 20
148.3939155
 30
0.0
 11
540.505
 21
147.7769155
 31
0.0
  0
LINE
  5
1B2B
330
1E
100
AcDbEntity
  8
0
100
AcDbLine
 10
540.505
 20
148.3939155
 30
0.0
 11
540.505
 21
148.930650291944
 31
0.0
  0
LINE
  5
1B2C
330
1E
100
AcDbEntity
  8
0
100
AcDbLine
 10
541.642
 20
158.3029155
 30
0.0
 11
541.642
 21
158.9199155
 31
0.0
  0
LINE
  5
1B2D
330
1E
100
AcDbEntity
  8
0
100
AcDbLine
 10
541.642
 20
158.3029155
 30
0.0
 11
543.102
 21
158.3029155
 31
0.0
  0
LINE
  5
1B2E
330
1E
100
AcDbEntity
  8
0
100
AcDbLine
 10
541.642
 20
158.3029155
 30
0.0
 11
541.642
 21
159.002120707928
 31
0.0
  0
LINE
  5
1B2F
330
1E
100
AcDbEntity
  8
0
100
AcDbLine
 10
543.262
 20
144.817765750179
 30
0.0
 11
543.262
 21
144.6959155
 31
0.0
  0
LINE
  5
1B30
330
1E
100
AcDbEntity
  8
0
100
AcDbLine
 10
543.262
 20
144.6959155
 30
0.0
 11
543.262
 21
145.3129155
 31
0.0
  0
LINE
  5
1B31
330
1E
100
AcDbEntity
  8
0
100
AcDbLine
 10
543.262
 20
144.6959155
 30
0.0
 11
544.722
 21
144.6959155
 31
0.0
  0
LINE
  5
1B32
330
1E
100
AcDbEntity
  8
0
100
AcDbLine
 10
543.262
 20
144.6959155
 30
0.0
 11
543.262
 21
144.817765750179
 31
0.0
  0
LINE
  5
1B33
330
1E
100
AcDbEntity
  8
0
100
AcDbLine
 10
543.262
 20
145.3129155
 30
0.0
 11
544.722
 21
145.3129155
 31
0.0
  0
LINE
  5
1B34
330
1E
100
AcDbEntity
  8
0
100
AcDbLine
 10
543.262
 20
145.3129155
 30
0.0
 11
543.262
 21
144.6959155
 31
0.0
  0
LINE
  5
1B35
330
1E
100
AcDbEntity
  8
0
100
AcDbLine
 10
543.102
 20
158.3029155
 30
0.0
 11
543.102
 21
158.9199155
 31
0.0
  0
LINE
  5
1B36
330
1E
100
AcDbEntity
  8
0
100
AcDbLine
 10
541.642
 20
158.9199155
 30
0.0
 11
543.102
 21
158.9199155
 31
0.0
  0
LINE
  5
1B37
330
1E
100
AcDbEntity
  8
0
100
AcDbLine
 10
541.642
 20
158.9199155
 30
0.0
 11
541.642
 21
159.455037050719
 31
0.0
  0
LINE
  5
1B38
330
1E
100
AcDbEntity
  8
0
100
AcDbLine
 10
541.642
 20
158.9199155
 30
0.0
 11
541.642
 21
158.3029155
 31
0.0
  0
LINE
  5
1B39
330
1E
100
AcDbEntity
  8
0
100
AcDbLine
 10
541.642
 20
159.002120707928
 30
0.0
 11
541.642
 21
158.3029155
 31
0.0
  0
LINE
  5
1B3A
330
1E
100
AcDbEntity
  8
0
100
AcDbLine
 10
540.912
 20
162.0769155
 30
0.0
 11
540.912
 21
162.6939155
 31
0.0
  0
LINE
  5
1B3B
330
1E
100
AcDbEntity
  8
0
100
AcDbLine
 10
541.642
 20
159.455037050719
 30
0.0
 11
541.642
 21
158.9199155
 31
0.0
  0
LINE
  5
1B3C
330
1E
100
AcDbEntity
  8
0
100
AcDbLine
 10
543.102
 20
159.469010039448
 30
0.0
 11
543.102
 21
158.9199155
 31
0.0
  0
LINE
  5
1B3D
330
1E
100
AcDbEntity
  8
0
100
AcDbLine
 10
543.102
 20
158.9199155
 30
0.0
 11
543.102
 21
158.3029155
 31
0.0
  0
LINE
  5
1B3E
330
1E
100
AcDbEntity
  8
0
100
AcDbLine
 10
543.102
 20
158.9199155
 30
0.0
 11
543.102
 21
159.469010039448
 31
0.0
  0
LINE
  5
1B3F
330
1E
100
AcDbEntity
  8
0
100
AcDbLine
 10
543.613
 20
144.6609155
 30
0.0
 11
543.706204979734
 21
144.6959155
 31
0.0
  0
LINE
  5
1B40
330
1E
100
AcDbEntity
  8
0
100
AcDbLine
 10
540.505
 20
170.488403998109
 30
0.0
 11
540.505
 21
170.3519155
 31
0.0
  0
LINE
  5
1B41
330
1E
100
AcDbEntity
  8
0
100
AcDbLine
 10
540.505
 20
170.3519155
 30
0.0
 11
540.505
 21
170.488403998109
 31
0.0
  0
LINE
  5
1B42
330
1E
100
AcDbEntity
  8
0
100
AcDbLine
 10
540.505
 20
170.3519155
 30
0.0
 11
540.505
 21
169.7349155
 31
0.0
  0
LINE
  5
1B43
330
1E
100
AcDbEntity
  8
0
100
AcDbLine
 10
540.505
 20
169.7349155
 30
0.0
 11
540.505
 21
170.3519155
 31
0.0
  0
LINE
  5
1B44
330
1E
100
AcDbEntity
  8
0
100
AcDbLine
 10
540.912
 20
163.828992992727
 30
0.0
 11
540.912
 21
162.6939155
 31
0.0
  0
LINE
  5
1B45
330
1E
100
AcDbEntity
  8
0
100
AcDbLine
 10
543.262
 20
174.3389155
 30
0.0
 11
543.262
 21
173.7219155
 31
0.0
  0
LINE
  5
1B46
330
1E
100
AcDbEntity
  8
0
100
AcDbLine
 10
543.262
 20
174.3389155
 30
0.0
 11
544.722
 21
174.3389155
 31
0.0
  0
LINE
  5
1B47
330
1E
100
AcDbEntity
  8
0
100
AcDbLine
 10
543.262
 20
173.7219155
 30
0.0
 11
544.722
 21
173.7219155
 31
0.0
  0
LINE
  5
1B48
330
1E
100
AcDbEntity
  8
0
100
AcDbLine
 10
543.262
 20
173.7219155
 30
0.0
 11
543.262
 21
174.3389155
 31
0.0
  0
LINE
  5
1B49
330
1E
100
AcDbEntity
  8
0
100
AcDbLine
 10
540.912
 20
162.6939155
 30
0.0
 11
540.912
 21
163.828992992727
 31
0.0
  0
LINE
  5
1B4A
330
1E
100
AcDbEntity
  8
0
100
AcDbLine
 10
540.912
 20
162.6939155
 30
0.0
 11
540.912
 21
162.0769155
 31
0.0
  0
LINE
  5
1B4B
330
1E
100
AcDbEntity
  8
0
100
AcDbLine
 10
544.399
 20
150.875769417114
 30
0.0
 11
544.399
 21
150.5909155
 31
0.0
  0
LINE
  5
1B4C
330
1E
100
AcDbEntity
  8
0
100
AcDbLine
 10
544.399
 20
150.5909155
 30
0.0
 11
544.399
 21
151.2079155
 31
0.0
  0
LINE
  5
1B4D
330
1E
100
AcDbEntity
  8
0
100
AcDbLine
 10
544.399
 20
150.5909155
 30
0.0
 11
545.859
 21
150.5909155
 31
0.0
  0
LINE
  5
1B4E
330
1E
100
AcDbEntity
  8
0
100
AcDbLine
 10
544.399
 20
150.5909155
 30
0.0
 11
544.399
 21
150.875769417114
 31
0.0
  0
LINE
  5
1B4F
330
1E
100
AcDbEntity
  8
0
100
AcDbLine
 10
544.399
 20
151.2079155
 30
0.0
 11
545.859
 21
151.2079155
 31
0.0
  0
LINE
  5
1B50
330
1E
100
AcDbEntity
  8
0
100
AcDbLine
 10
544.399
 20
151.2079155
 30
0.0
 11
544.399
 21
150.5909155
 31
0.0
  0
LINE
  5
1B51
330
1E
100
AcDbEntity
  8
0
100
AcDbLine
 10
544.722
 20
144.6959155
 30
0.0
 11
544.722
 21
145.3129155
 31
0.0
  0
LINE
  5
1B52
330
1E
100
AcDbEntity
  8
0
100
AcDbLine
 10
544.722
 20
145.3129155
 30
0.0
 11
544.722
 21
144.6959155
 31
0.0
  0
LINE
  5
1B53
330
1E
100
AcDbEntity
  8
0
100
AcDbLine
 10
544.399
 20
168.549290689316
 30
0.0
 11
544.399
 21
167.5379155
 31
0.0
  0
LINE
  5
1B54
330
1E
100
AcDbEntity
  8
0
100
AcDbLine
 10
544.722
 20
175.770226654599
 30
0.0
 11
544.722
 21
174.3389155
 31
0.0
  0
LINE
  5
1B55
330
1E
100
AcDbEntity
  8
0
100
AcDbLine
 10
544.722
 20
174.3389155
 30
0.0
 11
544.722
 21
175.770226654599
 31
0.0
  0
LINE
  5
1B56
330
1E
100
AcDbEntity
  8
0
100
AcDbLine
 10
544.722
 20
174.3389155
 30
0.0
 11
544.722
 21
173.7219155
 31
0.0
  0
LINE
  5
1B57
330
1E
100
AcDbEntity
  8
0
100
AcDbLine
 10
544.722
 20
173.7219155
 30
0.0
 11
544.722
 21
174.3389155
 31
0.0
  0
LINE
  5
1B58
330
1E
100
AcDbEntity
  8
0
100
AcDbLine
 10
544.399
 20
167.5379155
 30
0.0
 11
544.399
 21
166.9209155
 31
0.0
  0
LINE
  5
1B59
330
1E
100
AcDbEntity
  8
0
100
AcDbLine
 10
544.399
 20
167.5379155
 30
0.0
 11
545.859
 21
167.5379155
 31
0.0
  0
LINE
  5
1B5A
330
1E
100
AcDbEntity
  8
0
100
AcDbLine
 10
544.399
 20
167.5379155
 30
0.0
 11
544.399
 21
168.549290689316
 31
0.0
  0
LINE
  5
1B5B
330
1E
100
AcDbEntity
  8
0
100
AcDbLine
 10
544.399
 20
166.9209155
 30
0.0
 11
545.859
 21
166.9209155
 31
0.0
  0
LINE
  5
1B5C
330
1E
100
AcDbEntity
  8
0
100
AcDbLine
 10
544.399
 20
166.9209155
 30
0.0
 11
544.399
 21
167.5379155
 31
0.0
  0
LINE
  5
1B5D
330
1E
100
AcDbEntity
  8
0
100
AcDbLine
 10
544.722
 20
145.077363206023
 30
0.0
 11
548.212
 21
146.3879155
 31
0.0
  0
LINE
  5
1B5E
330
1E
100
AcDbEntity
  8
0
100
AcDbLine
 10
544.927
 20
143.9199155
 30
0.0
 11
549.818
 21
145.7089155
 31
0.0
  0
LINE
  5
1B5F
330
1E
100
AcDbEntity
  8
0
100
AcDbLine
 10
543.613
 20
176.1869155
 30
0.0
 11
548.212
 21
174.4589155
 31
0.0
  0
LINE
  5
1B60
330
1E
100
AcDbEntity
  8
0
100
AcDbLine
 10
544.927
 20
176.9279155
 30
0.0
 11
549.818
 21
175.1379155
 31
0.0
  0
LINE
  5
1B61
330
1E
100
AcDbEntity
  8
0
100
AcDbLine
 10
545.365
 20
178.0809155
 30
0.0
 11
550.328
 21
176.2609155
 31
0.0
  0
LINE
  5
1B62
330
1E
100
AcDbEntity
  8
0
100
AcDbLine
 10
539.891
 20
179.6229155
 30
0.0
 11
545.365
 21
178.0809155
 31
0.0
  0
LINE
  5
1B63
330
1E
100
AcDbEntity
  8
0
100
AcDbLine
 10
549.67
 20
147.5429155
 30
0.0
 11
549.67
 21
148.1599155
 31
0.0
  0
LINE
  5
1B64
330
1E
100
AcDbEntity
  8
0
100
AcDbLine
 10
549.67
 20
147.5429155
 30
0.0
 11
551.13
 21
147.5429155
 31
0.0
  0
LINE
  5
1B65
330
1E
100
AcDbEntity
  8
0
100
AcDbLine
 10
549.67
 20
147.5429155
 30
0.0
 11
549.67
 21
148.574327383473
 31
0.0
  0
LINE
  5
1B66
330
1E
100
AcDbEntity
  8
0
100
AcDbLine
 10
548.212
 20
146.3879155
 30
0.0
 11
550.641482758621
 21
147.5429155
 31
0.0
  0
LINE
  5
1B67
330
1E
100
AcDbEntity
  8
0
100
AcDbLine
 10
551.13
 20
147.5429155
 30
0.0
 11
551.13
 21
148.1599155
 31
0.0
  0
LINE
  5
1B68
330
1E
100
AcDbEntity
  8
0
100
AcDbLine
 10
551.13
 20
147.775161401639
 30
0.0
 11
552.299
 21
148.3309155
 31
0.0
  0
LINE
  5
1B69
330
1E
100
AcDbEntity
  8
0
100
AcDbLine
 10
549.818
 20
145.7089155
 30
0.0
 11
554.051
 21
147.7759155
 31
0.0
  0
LINE
  5
1B6A
330
1E
100
AcDbEntity
  8
0
100
AcDbLine
 10
549.67
 20
148.1599155
 30
0.0
 11
551.13
 21
148.1599155
 31
0.0
  0
LINE
  5
1B6B
330
1E
100
AcDbEntity
  8
0
100
AcDbLine
 10
549.67
 20
148.1599155
 30
0.0
 11
549.67
 21
148.961093144711
 31
0.0
  0
LINE
  5
1B6C
330
1E
100
AcDbEntity
  8
0
100
AcDbLine
 10
549.67
 20
148.1599155
 30
0.0
 11
549.67
 21
147.5429155
 31
0.0
  0
LINE
  5
1B6D
330
1E
100
AcDbEntity
  8
0
100
AcDbLine
 10
551.13
 20
148.1599155
 30
0.0
 11
551.13
 21
147.5429155
 31
0.0
  0
LINE
  5
1B6E
330
1E
100
AcDbEntity
  8
0
100
AcDbLine
 10
551.13
 20
148.1599155
 30
0.0
 11
551.13
 21
148.611127621212
 31
0.0
  0
LINE
  5
1B6F
330
1E
100
AcDbEntity
  8
0
100
AcDbLine
 10
549.67
 20
148.574327383473
 30
0.0
 11
549.67
 21
147.5429155
 31
0.0
  0
LINE
  5
1B70
330
1E
100
AcDbEntity
  8
0
100
AcDbLine
 10
545.859
 20
150.5909155
 30
0.0
 11
545.859
 21
151.2079155
 31
0.0
  0
LINE
  5
1B71
330
1E
100
AcDbEntity
  8
0
100
AcDbLine
 10
545.859
 20
152.167240309034
 30
0.0
 11
545.859
 21
151.2079155
 31
0.0
  0
LINE
  5
1B72
330
1E
100
AcDbEntity
  8
0
100
AcDbLine
 10
545.859
 20
151.2079155
 30
0.0
 11
545.859
 21
150.5909155
 31
0.0
  0
LINE
  5
1B73
330
1E
100
AcDbEntity
  8
0
100
AcDbLine
 10
545.859
 20
151.2079155
 30
0.0
 11
545.859
 21
152.167240309034
 31
0.0
  0
LINE
  5
1B74
330
1E
100
AcDbEntity
  8
0
100
AcDbLine
 10
549.67
 20
148.961093144711
 30
0.0
 11
549.67
 21
148.1599155
 31
0.0
  0
LINE
  5
1B75
330
1E
100
AcDbEntity
  8
0
100
AcDbLine
 10
554.456
 20
150.9749155
 30
0.0
 11
554.456
 21
151.5919155
 31
0.0
  0
LINE
  5
1B76
330
1E
100
AcDbEntity
  8
0
100
AcDbLine
 10
554.456
 20
150.9749155
 30
0.0
 11
555.916
 21
150.9749155
 31
0.0
  0
LINE
  5
1B77
330
1E
100
AcDbEntity
  8
0
100
AcDbLine
 10
554.456
 20
151.5919155
 30
0.0
 11
555.916
 21
151.5919155
 31
0.0
  0
LINE
  5
1B78
330
1E
100
AcDbEntity
  8
0
100
AcDbLine
 10
554.456
 20
151.5919155
 30
0.0
 11
554.456
 21
152.74894882879
 31
0.0
  0
LINE
  5
1B79
330
1E
100
AcDbEntity
  8
0
100
AcDbLine
 10
554.456
 20
151.5919155
 30
0.0
 11
554.456
 21
150.9749155
 31
0.0
  0
LINE
  5
1B7A
330
1E
100
AcDbEntity
  8
0
100
AcDbLine
 10
551.13
 20
148.611127621212
 30
0.0
 11
551.13
 21
148.1599155
 31
0.0
  0
LINE
  5
1B7B
330
1E
100
AcDbEntity
  8
0
100
AcDbLine
 10
552.299
 20
148.3309155
 30
0.0
 11
555.803
 21
150.5209155
 31
0.0
  0
LINE
  5
1B7C
330
1E
100
AcDbEntity
  8
0
100
AcDbLine
 10
555.916
 20
150.9749155
 30
0.0
 11
555.916
 21
151.5919155
 31
0.0
  0
LINE
  5
1B7D
330
1E
100
AcDbEntity
  8
0
100
AcDbLine
 10
555.916
 20
151.5919155
 30
0.0
 11
555.916
 21
150.9749155
 31
0.0
  0
LINE
  5
1B7E
330
1E
100
AcDbEntity
  8
0
100
AcDbLine
 10
555.916
 20
151.5919155
 30
0.0
 11
555.916
 21
152.780891304253
 31
0.0
  0
LINE
  5
1B7F
330
1E
100
AcDbEntity
  8
0
100
AcDbLine
 10
555.803
 20
150.5209155
 30
0.0
 11
558.431
 21
152.8359155
 31
0.0
  0
LINE
  5
1B80
330
1E
100
AcDbEntity
  8
0
100
AcDbLine
 10
554.051
 20
147.7759155
 30
0.0
 11
557.701
 21
150.0589155
 31
0.0
  0
LINE
  5
1B81
330
1E
100
AcDbEntity
  8
0
100
AcDbLine
 10
557.701
 20
150.0589155
 30
0.0
 11
560.401
 21
152.4659155
 31
0.0
  0
LINE
  5
1B82
330
1E
100
AcDbEntity
  8
0
100
AcDbLine
 10
554.456
 20
152.74894882879
 30
0.0
 11
554.456
 21
151.5919155
 31
0.0
  0
LINE
  5
1B83
330
1E
100
AcDbEntity
  8
0
100
AcDbLine
 10
555.916
 20
152.780891304253
 30
0.0
 11
555.916
 21
151.5919155
 31
0.0
  0
LINE
  5
1B84
330
1E
100
AcDbEntity
  8
0
100
AcDbLine
 10
548.86
 20
154.6729155
 30
0.0
 11
548.86
 21
155.2899155
 31
0.0
  0
LINE
  5
1B85
330
1E
100
AcDbEntity
  8
0
100
AcDbLine
 10
548.86
 20
154.6729155
 30
0.0
 11
550.32
 21
154.6729155
 31
0.0
  0
LINE
  5
1B86
330
1E
100
AcDbEntity
  8
0
100
AcDbLine
 10
548.86
 20
154.6729155
 30
0.0
 11
548.86
 21
155.86839981534
 31
0.0
  0
LINE
  5
1B87
330
1E
100
AcDbEntity
  8
0
100
AcDbLine
 10
550.32
 20
154.6729155
 30
0.0
 11
550.32
 21
155.2899155
 31
0.0
  0
LINE
  5
1B88
330
1E
100
AcDbEntity
  8
0
100
AcDbLine
 10
548.86
 20
155.2899155
 30
0.0
 11
550.32
 21
155.2899155
 31
0.0
  0
LINE
  5
1B89
330
1E
100
AcDbEntity
  8
0
100
AcDbLine
 10
548.86
 20
155.2899155
 30
0.0
 11
548.86
 21
155.86839981534
 31
0.0
  0
LINE
  5
1B8A
330
1E
100
AcDbEntity
  8
0
100
AcDbLine
 10
548.86
 20
155.2899155
 30
0.0
 11
548.86
 21
154.6729155
 31
0.0
  0
LINE
  5
1B8B
330
1E
100
AcDbEntity
  8
0
100
AcDbLine
 10
548.86
 20
155.86839981534
 30
0.0
 11
548.86
 21
155.2899155
 31
0.0
  0
LINE
  5
1B8C
330
1E
100
AcDbEntity
  8
0
100
AcDbLine
 10
548.86
 20
155.86839981534
 30
0.0
 11
548.86
 21
154.6729155
 31
0.0
  0
LINE
  5
1B8D
330
1E
100
AcDbEntity
  8
0
100
AcDbLine
 10
550.32
 20
155.835826632739
 30
0.0
 11
550.32
 21
155.2899155
 31
0.0
  0
LINE
  5
1B8E
330
1E
100
AcDbEntity
  8
0
100
AcDbLine
 10
550.32
 20
155.2899155
 30
0.0
 11
550.32
 21
154.6729155
 31
0.0
  0
LINE
  5
1B8F
330
1E
100
AcDbEntity
  8
0
100
AcDbLine
 10
550.32
 20
155.2899155
 30
0.0
 11
550.32
 21
155.835826632739
 31
0.0
  0
LINE
  5
1B90
330
1E
100
AcDbEntity
  8
0
100
AcDbLine
 10
550.401
 20
158.7559155
 30
0.0
 11
550.401
 21
159.3729155
 31
0.0
  0
LINE
  5
1B91
330
1E
100
AcDbEntity
  8
0
100
AcDbLine
 10
550.401
 20
158.7559155
 30
0.0
 11
551.861
 21
158.7559155
 31
0.0
  0
LINE
  5
1B92
330
1E
100
AcDbEntity
  8
0
100
AcDbLine
 10
550.401
 20
158.7559155
 30
0.0
 11
550.401
 21
159.66092343193
 31
0.0
  0
LINE
  5
1B93
330
1E
100
AcDbEntity
  8
0
100
AcDbLine
 10
550.401
 20
159.66092343193
 30
0.0
 11
550.401
 21
159.3729155
 31
0.0
  0
LINE
  5
1B94
330
1E
100
AcDbEntity
  8
0
100
AcDbLine
 10
550.401
 20
159.66092343193
 30
0.0
 11
550.401
 21
158.7559155
 31
0.0
  0
LINE
  5
1B95
330
1E
100
AcDbEntity
  8
0
100
AcDbLine
 10
551.861
 20
158.7559155
 30
0.0
 11
551.861
 21
159.3729155
 31
0.0
  0
LINE
  5
1B96
330
1E
100
AcDbEntity
  8
0
100
AcDbLine
 10
550.401
 20
159.3729155
 30
0.0
 11
551.861
 21
159.3729155
 31
0.0
  0
LINE
  5
1B97
330
1E
100
AcDbEntity
  8
0
100
AcDbLine
 10
550.401
 20
159.3729155
 30
0.0
 11
550.401
 21
159.66092343193
 31
0.0
  0
LINE
  5
1B98
330
1E
100
AcDbEntity
  8
0
100
AcDbLine
 10
550.401
 20
159.3729155
 30
0.0
 11
550.401
 21
158.7559155
 31
0.0
  0
LINE
  5
1B99
330
1E
100
AcDbEntity
  8
0
100
AcDbLine
 10
551.861
 20
159.756305606721
 30
0.0
 11
551.861
 21
159.3729155
 31
0.0
  0
LINE
  5
1B9A
330
1E
100
AcDbEntity
  8
0
100
AcDbLine
 10
557.782
 20
155.66934643509
 30
0.0
 11
557.782
 21
155.0579155
 31
0.0
  0
LINE
  5
1B9B
330
1E
100
AcDbEntity
  8
0
100
AcDbLine
 10
557.782
 20
155.0579155
 30
0.0
 11
557.782
 21
155.6749155
 31
0.0
  0
LINE
  5
1B9C
330
1E
100
AcDbEntity
  8
0
100
AcDbLine
 10
557.782
 20
155.0579155
 30
0.0
 11
559.241
 21
155.0579155
 31
0.0
  0
LINE
  5
1B9D
330
1E
100
AcDbEntity
  8
0
100
AcDbLine
 10
557.782
 20
155.0579155
 30
0.0
 11
557.782
 21
155.66934643509
 31
0.0
  0
LINE
  5
1B9E
330
1E
100
AcDbEntity
  8
0
100
AcDbLine
 10
557.782
 20
155.6749155
 30
0.0
 11
559.241
 21
155.6749155
 31
0.0
  0
LINE
  5
1B9F
330
1E
100
AcDbEntity
  8
0
100
AcDbLine
 10
557.782
 20
155.6749155
 30
0.0
 11
557.782
 21
155.0579155
 31
0.0
  0
LINE
  5
1BA0
330
1E
100
AcDbEntity
  8
0
100
AcDbLine
 10
551.861
 20
159.3729155
 30
0.0
 11
551.861
 21
158.7559155
 31
0.0
  0
LINE
  5
1BA1
330
1E
100
AcDbEntity
  8
0
100
AcDbLine
 10
551.861
 20
159.3729155
 30
0.0
 11
551.861
 21
159.756305606721
 31
0.0
  0
LINE
  5
1BA2
330
1E
100
AcDbEntity
  8
0
100
AcDbLine
 10
559.161
 20
159.864643877714
 30
0.0
 11
559.161
 21
159.2099155
 31
0.0
  0
LINE
  5
1BA3
330
1E
100
AcDbEntity
  8
0
100
AcDbLine
 10
559.161
 20
159.2099155
 30
0.0
 11
559.161
 21
159.8269155
 31
0.0
  0
LINE
  5
1BA4
330
1E
100
AcDbEntity
  8
0
100
AcDbLine
 10
559.161
 20
159.2099155
 30
0.0
 11
560.62
 21
159.2099155
 31
0.0
  0
LINE
  5
1BA5
330
1E
100
AcDbEntity
  8
0
100
AcDbLine
 10
559.161
 20
159.2099155
 30
0.0
 11
559.161
 21
159.864643877714
 31
0.0
  0
LINE
  5
1BA6
330
1E
100
AcDbEntity
  8
0
100
AcDbLine
 10
548.86
 20
163.4559155
 30
0.0
 11
548.86
 21
162.8389155
 31
0.0
  0
LINE
  5
1BA7
330
1E
100
AcDbEntity
  8
0
100
AcDbLine
 10
548.86
 20
163.4559155
 30
0.0
 11
550.32
 21
163.4559155
 31
0.0
  0
LINE
  5
1BA8
330
1E
100
AcDbEntity
  8
0
100
AcDbLine
 10
548.86
 20
163.413652342105
 30
0.0
 11
548.86
 21
162.8389155
 31
0.0
  0
LINE
  5
1BA9
330
1E
100
AcDbEntity
  8
0
100
AcDbLine
 10
548.86
 20
162.8389155
 30
0.0
 11
550.32
 21
162.8389155
 31
0.0
  0
LINE
  5
1BAA
330
1E
100
AcDbEntity
  8
0
100
AcDbLine
 10
548.86
 20
162.8389155
 30
0.0
 11
548.86
 21
163.413652342105
 31
0.0
  0
LINE
  5
1BAB
330
1E
100
AcDbEntity
  8
0
100
AcDbLine
 10
548.86
 20
162.8389155
 30
0.0
 11
548.86
 21
163.4559155
 31
0.0
  0
LINE
  5
1BAC
330
1E
100
AcDbEntity
  8
0
100
AcDbLine
 10
550.32
 20
163.644178657895
 30
0.0
 11
550.32
 21
163.4559155
 31
0.0
  0
LINE
  5
1BAD
330
1E
100
AcDbEntity
  8
0
100
AcDbLine
 10
550.32
 20
163.4559155
 30
0.0
 11
550.32
 21
163.644178657895
 31
0.0
  0
LINE
  5
1BAE
330
1E
100
AcDbEntity
  8
0
100
AcDbLine
 10
550.32
 20
163.4559155
 30
0.0
 11
550.32
 21
162.8389155
 31
0.0
  0
LINE
  5
1BAF
330
1E
100
AcDbEntity
  8
0
100
AcDbLine
 10
550.32
 20
162.8389155
 30
0.0
 11
550.32
 21
163.4559155
 31
0.0
  0
LINE
  5
1BB0
330
1E
100
AcDbEntity
  8
0
100
AcDbLine
 10
557.782
 20
164.822389184211
 30
0.0
 11
557.782
 21
163.9769155
 31
0.0
  0
LINE
  5
1BB1
330
1E
100
AcDbEntity
  8
0
100
AcDbLine
 10
557.782
 20
163.9769155
 30
0.0
 11
557.782
 21
163.3599155
 31
0.0
  0
LINE
  5
1BB2
330
1E
100
AcDbEntity
  8
0
100
AcDbLine
 10
557.782
 20
163.9769155
 30
0.0
 11
559.241
 21
163.9769155
 31
0.0
  0
LINE
  5
1BB3
330
1E
100
AcDbEntity
  8
0
100
AcDbLine
 10
557.782
 20
163.9769155
 30
0.0
 11
557.782
 21
164.822389184211
 31
0.0
  0
LINE
  5
1BB4
330
1E
100
AcDbEntity
  8
0
100
AcDbLine
 10
557.782
 20
163.3599155
 30
0.0
 11
559.241
 21
163.3599155
 31
0.0
  0
LINE
  5
1BB5
330
1E
100
AcDbEntity
  8
0
100
AcDbLine
 10
557.782
 20
163.3599155
 30
0.0
 11
557.782
 21
163.9769155
 31
0.0
  0
LINE
  5
1BB6
330
1E
100
AcDbEntity
  8
0
100
AcDbLine
 10
559.161
 20
160.611364807946
 30
0.0
 11
559.161
 21
159.8269155
 31
0.0
  0
LINE
  5
1BB7
330
1E
100
AcDbEntity
  8
0
100
AcDbLine
 10
559.241
 20
155.0579155
 30
0.0
 11
559.241
 21
155.6749155
 31
0.0
  0
LINE
  5
1BB8
330
1E
100
AcDbEntity
  8
0
100
AcDbLine
 10
559.241
 20
155.6749155
 30
0.0
 11
559.241
 21
155.0579155
 31
0.0
  0
LINE
  5
1BB9
330
1E
100
AcDbEntity
  8
0
100
AcDbLine
 10
559.241
 20
165.052757605263
 30
0.0
 11
559.241
 21
163.9769155
 31
0.0
  0
LINE
  5
1BBA
330
1E
100
AcDbEntity
  8
0
100
AcDbLine
 10
559.241
 20
163.9769155
 30
0.0
 11
559.241
 21
165.052757605263
 31
0.0
  0
LINE
  5
1BBB
330
1E
100
AcDbEntity
  8
0
100
AcDbLine
 10
559.241
 20
163.9769155
 30
0.0
 11
559.241
 21
163.3599155
 31
0.0
  0
LINE
  5
1BBC
330
1E
100
AcDbEntity
  8
0
100
AcDbLine
 10
559.241
 20
163.3599155
 30
0.0
 11
559.241
 21
163.9769155
 31
0.0
  0
LINE
  5
1BBD
330
1E
100
AcDbEntity
  8
0
100
AcDbLine
 10
559.161
 20
159.8269155
 30
0.0
 11
560.62
 21
159.8269155
 31
0.0
  0
LINE
  5
1BBE
330
1E
100
AcDbEntity
  8
0
100
AcDbLine
 10
559.161
 20
159.8269155
 30
0.0
 11
559.161
 21
160.611364807946
 31
0.0
  0
LINE
  5
1BBF
330
1E
100
AcDbEntity
  8
0
100
AcDbLine
 10
559.161
 20
159.8269155
 30
0.0
 11
559.161
 21
159.2099155
 31
0.0
  0
LINE
  5
1BC0
330
1E
100
AcDbEntity
  8
0
100
AcDbLine
 10
558.431
 20
152.8359155
 30
0.0
 11
560.401
 21
155.6109155
 31
0.0
  0
LINE
  5
1BC1
330
1E
100
AcDbEntity
  8
0
100
AcDbLine
 10
560.62
 20
159.2099155
 30
0.0
 11
560.62
 21
159.8269155
 31
0.0
  0
LINE
  5
1BC2
330
1E
100
AcDbEntity
  8
0
100
AcDbLine
 10
560.62
 20
160.517672262453
 30
0.0
 11
560.62
 21
159.8269155
 31
0.0
  0
LINE
  5
1BC3
330
1E
100
AcDbEntity
  8
0
100
AcDbLine
 10
560.62
 20
159.8269155
 30
0.0
 11
560.62
 21
159.2099155
 31
0.0
  0
LINE
  5
1BC4
330
1E
100
AcDbEntity
  8
0
100
AcDbLine
 10
560.62
 20
159.8269155
 30
0.0
 11
560.62
 21
160.517672262453
 31
0.0
  0
LINE
  5
1BC5
330
1E
100
AcDbEntity
  8
0
100
AcDbLine
 10
560.401
 20
155.6109155
 30
0.0
 11
561.642
 21
157.8009155
 31
0.0
  0
LINE
  5
1BC6
330
1E
100
AcDbEntity
  8
0
100
AcDbLine
 10
560.401
 20
152.4659155
 30
0.0
 11
561.131
 21
153.2479155
 31
0.0
  0
LINE
  5
1BC7
330
1E
100
AcDbEntity
  8
0
100
AcDbLine
 10
560.401
 20
152.4659155
 30
0.0
 11
562.518
 21
155.1799155
 31
0.0
  0
LINE
  5
1BC8
330
1E
100
AcDbEntity
  8
0
100
AcDbLine
 10
561.642
 20
157.8009155
 30
0.0
 11
562.08
 21
160.4239155
 31
0.0
  0
LINE
  5
1BC9
330
1E
100
AcDbEntity
  8
0
100
AcDbLine
 10
561.131
 20
153.2479155
 30
0.0
 11
563.175
 21
155.8699155
 31
0.0
  0
LINE
  5
1BCA
330
1E
100
AcDbEntity
  8
0
100
AcDbLine
 10
560.401
 20
165.2359155
 30
0.0
 11
561.642
 21
163.0459155
 31
0.0
  0
LINE
  5
1BCB
330
1E
100
AcDbEntity
  8
0
100
AcDbLine
 10
562.518
 20
155.1799155
 30
0.0
 11
563.759
 21
157.7399155
 31
0.0
  0
LINE
  5
1BCC
330
1E
100
AcDbEntity
  8
0
100
AcDbLine
 10
563.759
 20
157.7399155
 30
0.0
 11
564.27
 21
160.4239155
 31
0.0
  0
LINE
  5
1BCD
330
1E
100
AcDbEntity
  8
0
100
AcDbLine
 10
563.175
 20
155.8699155
 30
0.0
 11
564.489
 21
158.6159155
 31
0.0
  0
LINE
  5
1BCE
330
1E
100
AcDbEntity
  8
0
100
AcDbLine
 10
561.642
 20
163.0459155
 30
0.0
 11
562.08
 21
160.4239155
 31
0.0
  0
LINE
  5
1BCF
330
1E
100
AcDbEntity
  8
0
100
AcDbLine
 10
562.518
 20
165.6679155
 30
0.0
 11
563.759
 21
163.1079155
 31
0.0
  0
LINE
  5
1BD0
330
1E
100
AcDbEntity
  8
0
100
AcDbLine
 10
564.489
 20
158.6159155
 30
0.0
 11
565.0
 21
161.3309155
 31
0.0
  0
LINE
  5
1BD1
330
1E
100
AcDbEntity
  8
0
100
AcDbLine
 10
563.759
 20
163.1079155
 30
0.0
 11
564.27
 21
160.4239155
 31
0.0
  0
LINE
  5
1BD2
330
1E
100
AcDbEntity
  8
0
100
AcDbLine
 10
545.859
 20
166.9209155
 30
0.0
 11
545.859
 21
167.5379155
 31
0.0
  0
LINE
  5
1BD3
330
1E
100
AcDbEntity
  8
0
100
AcDbLine
 10
545.859
 20
167.5379155
 30
0.0
 11
545.859
 21
168.776743532493
 31
0.0
  0
LINE
  5
1BD4
330
1E
100
AcDbEntity
  8
0
100
AcDbLine
 10
545.859
 20
167.5379155
 30
0.0
 11
545.859
 21
166.9209155
 31
0.0
  0
LINE
  5
1BD5
330
1E
100
AcDbEntity
  8
0
100
AcDbLine
 10
545.859
 20
168.776743532493
 30
0.0
 11
545.859
 21
167.5379155
 31
0.0
  0
LINE
  5
1BD6
330
1E
100
AcDbEntity
  8
0
100
AcDbLine
 10
554.456
 20
168.0609155
 30
0.0
 11
554.456
 21
167.4439155
 31
0.0
  0
LINE
  5
1BD7
330
1E
100
AcDbEntity
  8
0
100
AcDbLine
 10
554.456
 20
168.0609155
 30
0.0
 11
555.916
 21
168.0609155
 31
0.0
  0
LINE
  5
1BD8
330
1E
100
AcDbEntity
  8
0
100
AcDbLine
 10
555.916
 20
168.0609155
 30
0.0
 11
555.916
 21
167.4439155
 31
0.0
  0
LINE
  5
1BD9
330
1E
100
AcDbEntity
  8
0
100
AcDbLine
 10
554.456
 20
167.608425655398
 30
0.0
 11
554.456
 21
167.4439155
 31
0.0
  0
LINE
  5
1BDA
330
1E
100
AcDbEntity
  8
0
100
AcDbLine
 10
554.456
 20
167.4439155
 30
0.0
 11
555.916
 21
167.4439155
 31
0.0
  0
LINE
  5
1BDB
330
1E
100
AcDbEntity
  8
0
100
AcDbLine
 10
554.456
 20
167.4439155
 30
0.0
 11
554.456
 21
167.608425655398
 31
0.0
  0
LINE
  5
1BDC
330
1E
100
AcDbEntity
  8
0
100
AcDbLine
 10
554.456
 20
167.4439155
 30
0.0
 11
554.456
 21
168.0609155
 31
0.0
  0
LINE
  5
1BDD
330
1E
100
AcDbEntity
  8
0
100
AcDbLine
 10
555.916
 20
167.4439155
 30
0.0
 11
555.916
 21
168.0609155
 31
0.0
  0
LINE
  5
1BDE
330
1E
100
AcDbEntity
  8
0
100
AcDbLine
 10
555.803
 20
170.3259155
 30
0.0
 11
558.431
 21
168.0129155
 31
0.0
  0
LINE
  5
1BDF
330
1E
100
AcDbEntity
  8
0
100
AcDbLine
 10
558.431
 20
168.0129155
 30
0.0
 11
560.401
 21
165.2359155
 31
0.0
  0
LINE
  5
1BE0
330
1E
100
AcDbEntity
  8
0
100
AcDbLine
 10
549.67
 20
171.4919155
 30
0.0
 11
549.67
 21
170.8749155
 31
0.0
  0
LINE
  5
1BE1
330
1E
100
AcDbEntity
  8
0
100
AcDbLine
 10
549.67
 20
171.4919155
 30
0.0
 11
551.13
 21
171.4919155
 31
0.0
  0
LINE
  5
1BE2
330
1E
100
AcDbEntity
  8
0
100
AcDbLine
 10
549.67
 20
171.4919155
 30
0.0
 11
549.67
 21
171.928997126767
 31
0.0
  0
LINE
  5
1BE3
330
1E
100
AcDbEntity
  8
0
100
AcDbLine
 10
549.67
 20
171.453772785429
 30
0.0
 11
549.67
 21
170.8749155
 31
0.0
  0
LINE
  5
1BE4
330
1E
100
AcDbEntity
  8
0
100
AcDbLine
 10
549.67
 20
170.8749155
 30
0.0
 11
551.13
 21
170.8749155
 31
0.0
  0
LINE
  5
1BE5
330
1E
100
AcDbEntity
  8
0
100
AcDbLine
 10
549.67
 20
170.8749155
 30
0.0
 11
549.67
 21
171.453772785429
 31
0.0
  0
LINE
  5
1BE6
330
1E
100
AcDbEntity
  8
0
100
AcDbLine
 10
549.67
 20
170.8749155
 30
0.0
 11
549.67
 21
171.4919155
 31
0.0
  0
LINE
  5
1BE7
330
1E
100
AcDbEntity
  8
0
100
AcDbLine
 10
551.13
 20
171.4919155
 30
0.0
 11
551.13
 21
172.254938863138
 31
0.0
  0
LINE
  5
1BE8
330
1E
100
AcDbEntity
  8
0
100
AcDbLine
 10
551.13
 20
171.4919155
 30
0.0
 11
551.13
 21
170.8749155
 31
0.0
  0
LINE
  5
1BE9
330
1E
100
AcDbEntity
  8
0
100
AcDbLine
 10
551.13
 20
170.8749155
 30
0.0
 11
551.13
 21
171.4919155
 31
0.0
  0
LINE
  5
1BEA
330
1E
100
AcDbEntity
  8
0
100
AcDbLine
 10
557.701
 20
170.7889155
 30
0.0
 11
560.401
 21
168.3829155
 31
0.0
  0
LINE
  5
1BEB
330
1E
100
AcDbEntity
  8
0
100
AcDbLine
 10
560.401
 20
168.3829155
 30
0.0
 11
562.518
 21
165.6679155
 31
0.0
  0
LINE
  5
1BEC
330
1E
100
AcDbEntity
  8
0
100
AcDbLine
 10
551.13
 20
172.254938863138
 30
0.0
 11
551.13
 21
171.4919155
 31
0.0
  0
LINE
  5
1BED
330
1E
100
AcDbEntity
  8
0
100
AcDbLine
 10
549.67
 20
171.928997126767
 30
0.0
 11
549.67
 21
171.4919155
 31
0.0
  0
LINE
  5
1BEE
330
1E
100
AcDbEntity
  8
0
100
AcDbLine
 10
548.212
 20
174.4589155
 30
0.0
 11
552.299
 21
172.5159155
 31
0.0
  0
LINE
  5
1BEF
330
1E
100
AcDbEntity
  8
0
100
AcDbLine
 10
552.299
 20
172.5159155
 30
0.0
 11
555.803
 21
170.3259155
 31
0.0
  0
LINE
  5
1BF0
330
1E
100
AcDbEntity
  8
0
100
AcDbLine
 10
549.818
 20
175.1379155
 30
0.0
 11
554.051
 21
173.0719155
 31
0.0
  0
LINE
  5
1BF1
330
1E
100
AcDbEntity
  8
0
100
AcDbLine
 10
554.051
 20
173.0719155
 30
0.0
 11
557.701
 21
170.7889155
 31
0.0
  0
LINE
  5
1BF2
330
1E
100
AcDbEntity
  8
0
100
AcDbLine
 10
550.328
 20
176.2609155
 30
0.0
 11
554.635
 21
174.1629155
 31
0.0
  0
LINE
  5
1BF3
330
1E
100
AcDbEntity
  8
0
100
AcDbLine
 10
554.635
 20
174.1629155
 30
0.0
 11
558.285
 21
171.8499155
 31
0.0
  0
LINE
  5
1BF4
330
1E
100
AcDbEntity
  8
0
100
AcDbLine
 10
558.285
 20
171.8499155
 30
0.0
 11
561.131
 21
169.4129155
 31
0.0
  0
LINE
  5
1BF5
330
1E
100
AcDbEntity
  8
0
100
AcDbLine
 10
561.131
 20
169.4129155
 30
0.0
 11
563.175
 21
166.7899155
 31
0.0
  0
LINE
  5
1BF6
330
1E
100
AcDbEntity
  8
0
100
AcDbLine
 10
563.175
 20
166.7899155
 30
0.0
 11
564.489
 21
164.0449155
 31
0.0
  0
LINE
  5
1BF7
330
1E
100
AcDbEntity
  8
0
100
AcDbLine
 10
564.489
 20
164.0449155
 30
0.0
 11
565.0
 21
161.3309155
 31
0.0
  0
LINE
  5
1BF8
330
1E
100
AcDbEntity
  8
0
100
AcDbLine
 10
558.285
 20
190.8809155
 30
0.0
 11
561.131
 21
188.4449155
 31
0.0
  0
LINE
  5
1BF9
330
1E
100
AcDbEntity
  8
0
100
AcDbLine
 10
560.401
 20
189.2279155
 30
0.0
 11
561.131
 21
188.4449155
 31
0.0
  0
LINE
  5
1BFA
330
1E
100
AcDbEntity
  8
0
100
AcDbLine
 10
561.131
 20
188.4449155
 30
0.0
 11
563.175
 21
185.8229155
 31
0.0
  0
LINE
  5
1BFB
330
1E
100
AcDbEntity
  8
0
100
AcDbLine
 10
563.175
 20
185.8229155
 30
0.0
 11
564.489
 21
183.0779155
 31
0.0
  0
LINE
  5
1BFC
330
1E
100
AcDbEntity
  8
0
100
AcDbLine
 10
565.0
 20
180.3629155
 30
0.0
 11
565.0
 21
161.3309155
 31
0.0
  0
LINE
  5
1BFD
330
1E
100
AcDbEntity
  8
0
100
AcDbLine
 10
565.0
 20
161.3309155
 30
0.0
 11
565.0
 21
180.3629155
 31
0.0
  0
LINE
  5
1BFE
330
1E
100
AcDbEntity
  8
0
100
AcDbLine
 10
564.489
 20
183.0779155
 30
0.0
 11
565.0
 21
180.3629155
 31
0.0
  0
LINE
  5
1BFF
330
1E
100
AcDbEntity
  8
0
100
AcDbLine
 10
550.328
 20
195.2929155
 30
0.0
 11
554.635
 21
193.1959155
 31
0.0
  0
LINE
  5
1C00
330
1E
100
AcDbEntity
  8
0
100
AcDbLine
 10
549.818
 20
195.9839155
 30
0.0
 11
554.051
 21
193.9169155
 31
0.0
  0
LINE
  5
1C01
330
1E
100
AcDbEntity
  8
0
100
AcDbLine
 10
554.635
 20
193.1959155
 30
0.0
 11
558.285
 21
190.8809155
 31
0.0
  0
LINE
  5
1C02
330
1E
100
AcDbEntity
  8
0
100
AcDbLine
 10
554.051
 20
193.9169155
 30
0.0
 11
557.701
 21
191.6339155
 31
0.0
  0
LINE
  5
1C03
330
1E
100
AcDbEntity
  8
0
100
AcDbLine
 10
557.701
 20
191.6339155
 30
0.0
 11
560.401
 21
189.2279155
 31
0.0
  0
LINE
  5
1C04
330
1E
100
AcDbEntity
  8
0
100
AcDbLine
 10
545.365
 20
197.1139155
 30
0.0
 11
550.328
 21
195.2929155
 31
0.0
  0
LINE
  5
1C05
330
1E
100
AcDbEntity
  8
0
100
AcDbLine
 10
539.891
 20
198.6559155
 30
0.0
 11
545.365
 21
197.1139155
 31
0.0
  0
LINE
  5
1C06
330
1E
100
AcDbEntity
  8
0
100
AcDbLine
 10
544.927
 20
197.7729155
 30
0.0
 11
549.818
 21
195.9839155
 31
0.0
  0
LINE
  5
1C07
330
1E
100
AcDbEntity
  8
0
100
AcDbLine
 10
539.526
 20
199.3159155
 30
0.0
 11
544.927
 21
197.7729155
 31
0.0
  0
LINE
  5
1C08
330
1E
100
AcDbEntity
  8
0
100
AcDbLine
 10
527.92
 20
200.7229155
 30
0.0
 11
534.124
 21
199.8589155
 31
0.0
  0
LINE
  5
1C09
330
1E
100
AcDbEntity
  8
0
100
AcDbLine
 10
533.832
 20
200.4569155
 30
0.0
 11
539.526
 21
199.3159155
 31
0.0
  0
LINE
  5
1C0A
330
1E
100
AcDbEntity
  8
0
100
AcDbLine
 10
527.409
 20
201.3509155
 30
0.0
 11
533.832
 21
200.4569155
 31
0.0
  0
LINE
  5
1C0B
330
1E
100
AcDbEntity
  8
0
100
AcDbLine
 10
521.35
 20
201.8759155
 30
0.0
 11
527.409
 21
201.3509155
 31
0.0
  0
LINE
  5
1C0C
330
1E
100
AcDbEntity
  8
0
100
AcDbLine
 10
515.0
 20
202.0909155
 30
0.0
 11
521.35
 21
201.8759155
 31
0.0
  0
LINE
  5
1C0D
330
1E
100
AcDbEntity
  8
0
100
AcDbLine
 10
531.353186137138
 20
12.481567434747
 30
0.0
 11
530.991351854483
 21
13.933646738196
 31
0.0
  0
LINE
  5
1C0E
330
1E
100
AcDbEntity
  8
0
100
AcDbLine
 10
498.983343998511
 20
45.568894294785
 30
0.0
 11
498.967
 21
60.3424155
 31
0.0
  0
LINE
  5
1C0F
330
1E
100
AcDbEntity
  8
0
100
AcDbLine
 10
503.727
 20
38.2445155
 30
0.0
 11
505.125
 21
37.5169155
 31
0.0
  0
LINE
  5
1C10
330
1E
100
AcDbEntity
  8
0
100
AcDbLine
 10
530.974
 20
14.2229155
 30
0.0
 11
530.961
 21
44.6898155
 31
0.0
  0
ENDSEC
  0
SECTION
  2
OBJECTS
  0
DICTIONARY
  5
C
330
0
100
AcDbDictionary
281
     1
  3
ACAD_GROUP
350
D
  3
ACAD_LAYOUT
350
19
  3
ACAD_MLEADERSTYLE
350
1C13
  3
ACAD_MLINESTYLE
350
16
  3
ACAD_PLOTSETTINGS
350
18
  3
ACAD_PLOTSTYLENAME
350
E
  3
ACAD_SCALELIST
350
B4D
  3
ACDBVARIABLEDICTIONARY
350
B19
  3
DWGPROPS
350
1C18
  0
DICTIONARY
  5
D
102
{ACAD_REACTORS
330
C
102
}
330
C
100
AcDbDictionary
281
     1
  0
DICTIONARY
  5
19
102
{ACAD_REACTORS
330
C
102
}
330
C
100
AcDbDictionary
281
     1
  3
Layout1
350
B4C
  3
Model
350
B4B
  0
DICTIONARY
  5
1C13
102
{ACAD_REACTORS
330
C
102
}
330
C
100
AcDbDictionary
281
     1
  0
DICTIONARY
  5
16
102
{ACAD_REACTORS
330
C
102
}
330
C
100
AcDbDictionary
281
     1
  3
STANDARD
350
17
  0
DICTIONARY
  5
18
102
{ACAD_REACTORS
330
C
102
}
330
C
100
AcDbDictionary
281
     1
  0
ACDBDICTIONARYWDFLT
  5
E
102
{ACAD_REACTORS
330
C
102
}
330
C
100
AcDbDictionary
281
     1
  3
Normal
350
F
100
AcDbDictionaryWithDefault
340
F
  0
DICTIONARY
  5
B4D
102
{ACAD_REACTORS
330
C
102
}
330
C
100
AcDbDictionary
281
     1
  3
A0
350
B4E
  3
A1
350
B4F
  3
A2
350
B50
  3
A3
350
B51
  3
A4
350
B52
  3
A5
350
B53
  3
A6
350
B54
  3
A7
350
B55
  3
A8
350
B56
  3
A9
350
B57
  3
B0
350
B58
  3
B1
350
B59
  3
B2
350
B5A
  3
B3
350
B5B
  3
B4
350
B5C
  3
B5
350
B5D
  3
B6
350
B5E
  3
B7
350
B5F
  3
B8
350
B60
  3
B9
350
B61
  3
C0
350
B62
  3
C1
350
B63
  3
C2
350
B64
  3
C3
350
B65
  3
C4
350
B66
  3
C5
350
B67
  3
C6
350
B68
  3
C7
350
B69
  3
C8
350
B6A
  3
C9
350
B6B
  3
D0
350
B6C
  3
D1
350
B6D
  3
D2
350
B6E
  0
DICTIONARY
  5
B19
102
{ACAD_REACTORS
330
C
102
}
330
C
100
AcDbDictionary
281
     1
  3
CANNOSCALE
350
1C14
  3
DIMASSOC
350
B1A
  0
XRECORD
  5
1C18
102
{ACAD_REACTORS
330
C
102
}
330
C
100
AcDbXrecord
280
     1
  1
DWGPROPS COOKIE
  2

  3

  4

  6

  7

  8
MARTIN
  9

300
=
301
=
302
=
303
=
304
=
305
=
306
=
307
=
308
=
309
=
 40
0.0
 41
2454638.644862731
 42
2456209.725562419
  1

 90
        0
  0
LAYOUT
  5
B4C
102
{ACAD_REACTORS
330
19
102
}
330
19
100
AcDbPlotSettings
  1

  2
none_device
  4

  6

 40
0.0
 41
0.0
 42
0.0
 43
0.0
 44
0.0
 45
0.0
 46
0.0
 47
0.0
 48
0.0
 49
0.0
140
0.0
141
0.0
142
1.0
143
1.0
 70
   688
 72
     0
 73
     0
 74
     5
  7

 75
    16
147
1.0
148
0.0
149
0.0
100
AcDbLayout
  1
Layout1
 70
     1
 71
     1
 10
0.0
 20
0.0
 11
0.0
 21
0.0
 12
0.0
 22
0.0
 32
0.0
 14
0.0
 24
0.0
 34
0.0
 15
0.0
 25
0.0
 35
0.0
146
0.0
 13
0.0
 23
0.0
 33
0.0
 16
1.0
 26
0.0
 36
0.0
 17
0.0
 27
1.0
 37
0.0
 76
     0
330
1A
  0
LAYOUT
  5
B4B
102
{ACAD_REACTORS
330
19
102
}
330
19
100
AcDbPlotSettings
  1

  2
none_device
  4

  6

 40
0.0
 41
0.0
 42
0.0
 43
0.0
 44
0.0
 45
0.0
 46
0.0
 47
0.0
 48
0.0
 49
0.0
140
0.0
141
0.0
142
1.0
143
1.0
 70
   688
 72
     0
 73
     0
 74
     5
  7

 75
    16
147
1.0
148
0.0
149
0.0
100
AcDbLayout
  1
Model
 70
     1
 71
     0
 10
0.0
 20
0.0
 11
0.0
 21
0.0
 12
0.0
 22
0.0
 32
0.0
 14
0.0
 24
0.0
 34
0.0
 15
565.0
 25
284.0
 35
0.0
146
0.0
 13
0.0
 23
0.0
 33
0.0
 16
1.0
 26
0.0
 36
0.0
 17
0.0
 27
1.0
 37
0.0
 76
     0
330
1E
331
B26
  0
MLINESTYLE
  5
17
102
{ACAD_REACTORS
330
16
102
}
330
16
100
AcDbMlineStyle
  2
STANDARD
 70
     0
  3

 62
   256
 51
90.0
 52
90.0
 71
     2
 49
0.5
 62
   256
  6
BYLAYER
 49
-0.5
 62
   256
  6
BYLAYER
  0
ACDBPLACEHOLDER
  5
F
102
{ACAD_REACTORS
330
E
102
}
330
E
  0
SCALE
  5
B4E
102
{ACAD_REACTORS
330
B4D
102
}
330
B4D
100
AcDbScale
 70
     0
300
1:1
140
1.0
141
1.0
290
     1
  0
SCALE
  5
B4F
102
{ACAD_REACTORS
330
B4D
102
}
330
B4D
100
AcDbScale
 70
     0
300
1:2
140
1.0
141
2.0
290
     0
  0
SCALE
  5
B50
102
{ACAD_REACTORS
330
B4D
102
}
330
B4D
100
AcDbScale
 70
     0
300
1:4
140
1.0
141
4.0
290
     0
  0
SCALE
  5
B51
102
{ACAD_REACTORS
330
B4D
102
}
330
B4D
100
AcDbScale
 70
     0
300
1:5
140
1.0
141
5.0
290
     0
  0
SCALE
  5
B52
102
{ACAD_REACTORS
330
B4D
102
}
330
B4D
100
AcDbScale
 70
     0
300
1:8
140
1.0
141
8.0
290
     0
  0
SCALE
  5
B53
102
{ACAD_REACTORS
330
B4D
102
}
330
B4D
100
AcDbScale
 70
     0
300
1:10
140
1.0
141
10.0
290
     0
  0
SCALE
  5
B54
102
{ACAD_REACTORS
330
B4D
102
}
330
B4D
100
AcDbScale
 70
     0
300
1:16
140
1.0
141
16.0
290
     0
  0
SCALE
  5
B55
102
{ACAD_REACTORS
330
B4D
102
}
330
B4D
100
AcDbScale
 70
     0
300
1:20
140
1.0
141
20.0
290
     0
  0
SCALE
  5
B56
102
{ACAD_REACTORS
330
B4D
102
}
330
B4D
100
AcDbScale
 70
     0
300
1:30
140
1.0
141
30.0
290
     0
  0
SCALE
  5
B57
102
{ACAD_REACTORS
330
B4D
102
}
330
B4D
100
AcDbScale
 70
     0
300
1:40
140
1.0
141
40.0
290
     0
  0
SCALE
  5
B58
102
{ACAD_REACTORS
330
B4D
102
}
330
B4D
100
AcDbScale
 70
     0
300
1:50
140
1.0
141
50.0
290
     0
  0
SCALE
  5
B59
102
{ACAD_REACTORS
330
B4D
102
}
330
B4D
100
AcDbScale
 70
     0
300
1:100
140
1.0
141
100.0
290
     0
  0
SCALE
  5
B5A
102
{ACAD_REACTORS
330
B4D
102
}
330
B4D
100
AcDbScale
 70
     0
300
2:1
140
2.0
141
1.0
290
     0
  0
SCALE
  5
B5B
102
{ACAD_REACTORS
330
B4D
102
}
330
B4D
100
AcDbScale
 70
     0
300
4:1
140
4.0
141
1.0
290
     0
  0
SCALE
  5
B5C
102
{ACAD_REACTORS
330
B4D
102
}
330
B4D
100
AcDbScale
 70
     0
300
8:1
140
8.0
141
1.0
290
     0
  0
SCALE
  5
B5D
102
{ACAD_REACTORS
330
B4D
102
}
330
B4D
100
AcDbScale
 70
     0
300
10:1
140
10.0
141
1.0
290
     0
  0
SCALE
  5
B5E
102
{ACAD_REACTORS
330
B4D
102
}
330
B4D
100
AcDbScale
 70
     0
300
100:1
140
100.0
141
1.0
290
     0
  0
SCALE
  5
B5F
102
{ACAD_REACTORS
330
B4D
102
}
330
B4D
100
AcDbScale
 70
     0
300
1/128" = 1'-0"
140
0.0078125
141
12.0
290
     0
  0
SCALE
  5
B60
102
{ACAD_REACTORS
330
B4D
102
}
330
B4D
100
AcDbScale
 70
     0
300
1/64" = 1'-0"
140
0.015625
141
12.0
290
     0
  0
SCALE
  5
B61
102
{ACAD_REACTORS
330
B4D
102
}
330
B4D
100
AcDbScale
 70
     0
300
1/32" = 1'-0"
140
0.03125
141
12.0
290
     0
  0
SCALE
  5
B62
102
{ACAD_REACTORS
330
B4D
102
}
330
B4D
100
AcDbScale
 70
     0
300
1/16" = 1'-0"
140
0.0625
141
12.0
290
     0
  0
SCALE
  5
B63
102
{ACAD_REACTORS
330
B4D
102
}
330
B4D
100
AcDbScale
 70
     0
300
3/32" = 1'-0"
140
0.09375
141
12.0
290
     0
  0
SCALE
  5
B64
102
{ACAD_REACTORS
330
B4D
102
}
330
B4D
100
AcDbScale
 70
     0
300
1/8" = 1'-0"
140
0.125
141
12.0
290
     0
  0
SCALE
  5
B65
102
{ACAD_REACTORS
330
B4D
102
}
330
B4D
100
AcDbScale
 70
     0
300
3/16" = 1'-0"
140
0.1875
141
12.0
290
     0
  0
SCALE
  5
B66
102
{ACAD_REACTORS
330
B4D
102
}
330
B4D
100
AcDbScale
 70
     0
300
1/4" = 1'-0"
140
0.25
141
12.0
290
     0
  0
SCALE
  5
B67
102
{ACAD_REACTORS
330
B4D
102
}
330
B4D
100
AcDbScale
 70
     0
300
3/8" = 1'-0"
140
0.375
141
12.0
290
     0
  0
SCALE
  5
B68
102
{ACAD_REACTORS
330
B4D
102
}
330
B4D
100
AcDbScale
 70
     0
300
1/2" = 1'-0"
140
0.5
141
12.0
290
     0
  0
SCALE
  5
B69
102
{ACAD_REACTORS
330
B4D
102
}
330
B4D
100
AcDbScale
 70
     0
300
3/4" = 1'-0"
140
0.75
141
12.0
290
     0
  0
SCALE
  5
B6A
102
{ACAD_REACTORS
330
B4D
102
}
330
B4D
100
AcDbScale
 70
     0
300
1" = 1'-0"
140
1.0
141
12.0
290
     0
  0
SCALE
  5
B6B
102
{ACAD_REACTORS
330
B4D
102
}
330
B4D
100
AcDbScale
 70
     0
300
1-1/2" = 1'-0"
140
1.5
141
12.0
290
     0
  0
SCALE
  5
B6C
102
{ACAD_REACTORS
330
B4D
102
}
330
B4D
100
AcDbScale
 70
     0
300
3" = 1'-0"
140
3.0
141
12.0
290
     0
  0
SCALE
  5
B6D
102
{ACAD_REACTORS
330
B4D
102
}
330
B4D
100
AcDbScale
 70
     0
300
6" = 1'-0"
140
6.0
141
12.0
290
     0
  0
SCALE
  5
B6E
102
{ACAD_REACTORS
330
B4D
102
}
330
B4D
100
AcDbScale
 70
     0
300
1'-0" = 1'-0"
140
12.0
141
12.0
290
     0
  0
DICTIONARYVAR
  5
1C14
102
{ACAD_REACTORS
330
B19
102
}
330
B19
100
DictionaryVariables
280
     0
  1
1:1
  0
DICTIONARYVAR
  5
B1A
102
{ACAD_REACTORS
330
B19
102
}
330
B19
100
DictionaryVariables
280
     0
  1
1
  0
ENDSEC
  0
SECTION
  2
THUMBNAILIMAGE
 90
    16364
310
28000000B40000005500000001000800000000000000000000000000000000000000000000000000FFFFFF000000FF0000FFFF0000FF0000FFFF0000FF000000FF00FF000000000080808000C0C0C0000000FF007F7FFF000000A5005252A50000007F003F3F7F0000004C0026264C000000260013132600003FFF007F9FFF
310
000029A5005267A500001F7F003F4F7F0000134C00262F4C000009260013172600007FFF007FBFFF000052A500527CA500003F7F003F5F7F0000264C0026394C0000132600131C260000BFFF007FDFFF00007CA5005291A500005F7F003F6F7F0000394C0026424C00001C26001321260000FFFF007FFFFF0000A5A50052A5
310
A500007F7F003F7F7F00004C4C00264C4C00002626001326260000FFBF007FFFDF0000A57C0052A59100007F5F003F7F6F00004C3900264C420000261C001326210000FF7F007FFFBF0000A5520052A57C00007F3F003F7F5F00004C2600264C39000026130013261C0000FF3F007FFF9F0000A5290052A56700007F1F003F
310
7F4F00004C1300264C2F00002609001326170000FF00007FFF7F0000A5000052A55200007F00003F7F3F00004C0000264C260000260000132613003FFF00009FFF7F0029A5000067A552001F7F00004F7F3F00134C00002F4C260009260000172613007FFF0000BFFF7F0052A500007CA552003F7F00005F7F3F00264C0000
310
394C2600132600001C261300BFFF0000DFFF7F007CA5000091A552005F7F00006F7F3F00394C0000424C26001C26000021261300FFFF0000FFFF7F00A5A50000A5A552007F7F00007F7F3F004C4C00004C4C26002626000026261300FFBF0000FFDF7F00A57C0000A59152007F5F00007F6F3F004C3900004C422600261C00
310
0026211300FF7F0000FFBF7F00A5520000A57C52007F3F00007F5F3F004C2600004C39260026130000261C1300FF3F0000FF9F7F00A5290000A56752007F1F00007F4F3F004C1300004C2F26002609000026171300FF000000FF7F7F00A5000000A55252007F0000007F3F3F004C0000004C2626002600000026131300FF00
310
3F00FF7F9F00A5002900A55267007F001F007F3F4F004C0013004C262F002600090026131700FF007F00FF7FBF00A5005200A5527C007F003F007F3F5F004C0026004C2639002600130026131C00FF00BF00FF7FDF00A5007C00A55291007F005F007F3F6F004C0039004C26420026001C0026132100FF00FF00FF7FFF00A5
310
00A500A552A5007F007F007F3F7F004C004C004C264C002600260026132600BF00FF00DF7FFF007C00A5009152A5005F007F006F3F7F0039004C0042264C001C002600211326007F00FF00BF7FFF005200A5007C52A5003F007F005F3F7F0026004C0039264C00130026001C1326003F00FF009F7FFF002900A5006752A500
310
1F007F004F3F7F0013004C002F264C000900260017132600000000002D2D2D005B5B5B0089898900B7B7B700B3B3B30000000000000000000000000000000000000000000000000000000000000000000000000000000000000000000000000000000000000000000000000000000000000000000000000000000000000000
310
00000000000000000000000000000000000000000000000000000000000000000000000000000000000000000000000000000000000000000000000000000000000000000000000000000000000000000000000000000000000000000000000000000000000000000000000000000000000000000000000000000000000000
310
00000000000000000000000000000000000000000000000000000000000000000000000000000000000000000000000000000000000000000000000000000000000000000000000000000000000000000000000000000000000000000000000000000000000000000000000000000000000000000000000000000000000000
310
00000000000000000000000000000000000000000000000000000000000000000000000000000000000000000000000000000000000000000000000000000000000000000000000000000000000000000000000000000000000000000000000000000000000000000000000000000000000000000000000000000000000000
310
00000000000000000000000000000000000000000000000000000000000000000000000000000000000000000000000000000000000000000000000000000000000000000000000000000000000000000000000000000000000000000000000000000000000000000000000000000000000000000000000000000000000000
310
00000000000000070707070707070707070707070707070707070700000000000000000000070707070707070707070707070707070707070700000000000000000000070707070707070707070707070707070707070700000000000000000000070707070707070707070707070707070707070700000000000000000000
310
00000000000000000000000000000000000000000000000000000000000000000000000000000000000000000000000000000000000000000000000007000000000000000000000000000000000000070000000000000000000007000000000000000000000000000000000000070000000000000000000007000000000000
310
00000000000000000000000007000000000000000000000700000000000000000000000000000000000007000000000000000000000000000000000000000000000000000000000000000000000000000000000000000000000000000000000000000000000000000000000000000000000707070707070707070707070707
310
07070707070700000000000000000000070707070707070707070707070707070707070700000000000000000000070707070707070707070707070707070707070700000000000000000000070707070707070707070707070707070707070700000000000000000000000000000000000000000000000000000000000000
310
00000000000000000000000000000000000000000000000000000000000000000000000000000000000000000707070707070707070000000000000000000000000000000000000007000000000000000000000007070000000000000000000000000000000000000707070707070707070700000000000000000000000000
310
00000000000000070000000000000000070000000000000000000000000000000000000000000000000000000000000000000000000000000000000000000000000000000000000000000000000000000000000000000000000000000000000000000707070707070707000000000000000000000000000000000000000700
310
00000000000000000000070000000000000000000000000000000000000000070707070707070700000000000000000000000000000000000000000007000000000000000007000000000000000000000000000000000000000000000000000000000000000000000000000000000000000000000000000000000000000000
310
00000000000000000000000000000000000000000000000007000000000000070000000000000000000000000000000000000007000000000000000000000007000000000000000000000000000000000000000007000000000000070000000000000000000000000000000000000000000700000000000000000700000000
310
00000000000000000000000000000000000000000000000000000000000000000000000000000000000000000000000000000000000000000000000000000000000000000000000000000000000700000000000007000000000000000000000000000000000000000700000000000000000000000700000000000000000000
310
00000000000000000000070000000000000700000000000000000000000000000000000000000007000000000000000007000000000000000000000000000000000000000000000000000000000000000000000000000000000000000000000000000000000000000000000000000000000000000000000000000000000000
310
00000007000000000000070000000000000000000000000000000000000007000000000000000000000007000000000000000000000000000000000000000007000000000000070000000000000000000000000000000000000000000700000000000000000700000000000000000000000000000000000000000000000000
310
00000000000000000000000000000000000000000000000000000000000000000000000000000000000000000000000000000000000000000700000000000007000000000000000000000000000000000000000700000000000000000000000700000000000000000000000000000000000000000700000000000007000000
310
00000000000000000000000000000000000007000000000000000007000000000000000000000000000000000000000000000000000000000000000000000000000000000000000000000000000000000000000000000000000000000000000000000000000000000000000000070000000000000700000000000000000000
310
00000000000000000007070707070707070707070707000000000000000000000000000000000000000007000000000000070000000000000000000000000000000000000000000700000707070707000700000000000000000000000000000000000000000000000000000000000000000000000000000000000000000000
310
00000000000000000000000000000000000000000000000000000000000000000000000700000000000007000000000000000000000000000000000000000000000700000000000007000000000000000000000000000000000000000000000700000000000007000000000000000000000000000000000000000000070707
310
00000007070707000000000000000000000000000000000000000000000000000000000000000000000000000000000000000000000000000000000000000000000000000000000000000000000000000000000000000000070000000000000700000000000000000000000000000000000000000000070000000000000700
310
00000000000000000000000000000000000000000007000000000000070000000000000000000000000000000000000000000707000000000000000700000000000000000000000000000000000000000000000000000000000000000000000000000000000000000000000000000000000000000000000000000000000000
310
00000000000000000000000000000700000000000007000000000000000000000000000000000000000000000700000000000007000000000000000000000000000000000000000000000700000000000007000000000000000000000000000000000000000000070000000000000000070000000000000000000000000000
310
00000000000000000000000000000000000000000000000000000000000000000000000000000000000000000000000000000000000000000000000000000000000007000000000000000700000000000000000000000000000000000000000000070000000000000700000000000000000000000000000000000000000000
310
07000000000000070700000000000000000000000000000000000000000700000707070700000700000000000000000000000000000000000000000000000000000000000000000000000000000000000000000000000000000000000000000000000000000000000000000000000000000000000000070700000000000000
310
07000000000000000000000000000000000000000000000700000000000007000000000000000000000000000000000000000000000700000000000000070700000000000000000000000000000000000000070707000707000707070000000000000000000000000000000000000000000000000000000000000000000000
310
00000000000000000000000000000000000000000000000000000000000000000007070707070707070707070700000000000000000700000000000000000000000000000000000000000000070000000000000700000000000000000000000000000000000000000000070000000000000000070707070707070707070707
310
00000000000000000707070700000707070700000000000000000000000000000000000000000000000000000000000000000000000000000000000000000000000000000000000000000000000000000000000000070707070707070707070707070707070707070707070000000000000000000000000000000000000000
310
00000700000000000007000000000000000000000000000000000000000000000707070707070707070707070707070707070707070700000000000000070700000000000007000000000000000000000000000000000000000000000000000000000000000000000000000000000000000000000000000000000000000000
310
00000000000000000000000000000000000000000000000000000000000000000000000000000000000000000000000000000000000000070000000000000700000000000000000000000000000000000000000000000000000000000000000000000000000000000000000000000000000007070000000000000707000000
310
00000000000000000000000000000000000000000000000000000000000000000000000000000000000000000000000000000000000000000000000000000000000000000000000000000000000000000000000000000000000000000000000000000000000000000000000007000000000000070000000000000000000000
310
00000000000000000000000000000000000000000000000000000000000000000000000000000000000700000000000007000000000000000000000000000000000000000000000000000000000000000000000000000000000000000000000000000000000000000000000000000000000000000000000000000000000000
310
00000000000000000000000000000000000000000000000000000000000000000000070000000000000700000000000000000000000000000000000000000000000000000000000000000000000000000000000000000000000000000000070000000000000700000000000000000000000000000000000000000000000000
310
00000000000000000000000000000000000000000000000000000000000000000000000000000000000000000000000000000000000000000000000000000000000000000000000000000000000000000000000000000007000000000000070000000000000000000000000000000000000000000000000000000000000000
310
00000000000000000000000000000000000000000700000000000007000000000000000000000000000000000000000000000000000000000000000000000000000000000000000000000000000000000000000000000000000000000000000000000000000000000000000000000000000000000000000000000000000000
310
00000000000000000000000000070000000000000700000000000000000000000000000000000000000000000000000000000000000000000000000000000000000000000000000000070000000000000700000000000000000000000000000000000000000000000000000000000000000000000000000000000000000000
310
00000000000000000000000000000000000000000000000000000000000000000000000000000000000000000000000000000000000000000000000000000000000007000000000000070000000000000000000000000000000000000000000000000000000000000000000000000000000000000000000000000000000007
310
00000000000007000000000000000000000000000000000000000000000000000000000000000000000000000000000000000000000000000000000000000000000000000000000000000000000000000000000000000000000000000000000000000000000000000000000000000000000000000000000700000000000007
310
00000000000000000000000000000000000000000000000000000000000000000000000000000000000000000000000000000000070000000000000700000000000000000000000000000000000000000000000000000000000000000000000000000000000000000000000000000000000000000000000000000000000000
310
00000000000000000000000000000000000000000000000000000000000000000000000000000000000000000007000000000000070000000000000000000000000000000000000000000000000000000000000000000000000000000000000000000000000000000007000000000000070000000000000000000000000000
310
00000000000000000000000000000000000000000000000000000000000000000000000000000000000000000000000000000000000000000000000000000000000000000000000000000000000000000000000000000000000000000000000000000700000000000007000000000000000000000000000000000000000000
310
00000000000000000000000000000000000000000000000000000000000000070000000000000700000000000000000000000000000000000000000000000000000000000000000000000000000000000000000000000000000000000000000000000000000000000000000000000000000000000000000000000000000000
310
00000000000000000000000000000000000000000000000007000000000000070000000000000000000000000000000000000000000000000000000000000000000000000000000000000000000000000000000007000000000000070000000000000000000000000000000000000000000000000000000000000000000000
310
00000000000000000000000000000000000000000000000000000000000000000000000000000000000000000000000000000000000000000000000000000000000000000000000000000000000700000000000007000000000000000000000000000000000000000000000000000000000000000000000000000000000000
310
00000000000000000000070000000000000700000000000000000000000000000000000000000000000000000000000000000000000000000000000000000000000000000000000000000000000000000000000000000000000000000000000000000000000000000000000000000000000000000000000000000000000000
310
00000007000000000000070000000000000000000000000000000000000000000000000000000000000000000000000000000000000000000000000000000007000000000000070000000000000000000000000000000000000000000000000000000000000000000000000000000000000000000000000000000000000000
310
00000000000000000000000000000000000000000000000000000000000000000000000000000000000000000000000000000000000000000700000000000007000000000000000000000000000000000000000000000000000000000000000000000000000000000000000000000000000000000700000000000007000000
310
00000000000000000000000000000000000000000000000000000000000000000000000000000000000000000000000000000000000000000000000000000000000000000000000000000000000000000000000000000000000000000000000000000000000000000000000000070000000000000700000000000000000000
310
00000000000000000000000000000000000000000000000000000000000000000000000000000000000007000000000000070000000000000000000000000000000000000000000000000000000000000000000000000000000000000000000000000000000000000000000000000000000000000000000000000000000000
310
00000000000000000000000000000000000000000000000000000000000000000000000700000000000007000000000000000000000000000000000000000000000000000000000000000000000000000000000000000000000000000000000700000000000007000000000000000000000000000000000000000000000000
310
00000000000000000000000000000000000000000000000000000000000000000000000000000000000000000000000000000000000000000000000000000000000000000000000000000000000000000000000000000000070000000000000700000000000000000000000000000000000000000000000000000000000000
310
00000000000000000000000000000000000000000007000000000000070000000000000000000000000000000000000000000000000000000000000000000000000000000000000000000000000000000000000000000000000000000000000000000000000000000000000000000000000000000000000000000000000000
310
00000000000000000000000000000700000000000007000000000000000000000000000000000000000000000000000000000000000000000000000000000000000000000000000000000700070707070007000000000000000000000000000000000000000000000000000000000000000000000000000000000000000000
310
00000000000000000000000000000000000000000000000000000000000000000000000000000000000000000000000000000000000000000000000000000000000000070000000000000700000000000000000000000000000000000000000000000000000000000000000000000000000000000000000000000000000000
310
07070707070707070000000000000000000000000000000000000000000000000000000000000000000000000000000000000000000000000000000000000000000000000000000000000000000000000000000000000000000000000000000000000000000000000000000000000000000000000000000007000000000000
310
07000000000000000000000000000000000000000000000000000000000000000000000000000000000000000000000000000000000700070000000707000000000000000000000000000000000000000000000000000000000000000000000000000000000000000000000000000000000000000000000000000000000000
310
00000000000000000000000000000000000000000000000000000000000000000000000000000000000000000000070000000000000700000000000000000000000000000000000000000000000000000000000000000000000000000000000000000000000000000000070700000000070700000000000000000000000000
310
00000000000000000000000000000000000000000000000000000000000000000000000000000000000000000000000000000000000000000000000000000000000000000000000000000000000000000000000000000000000000000000000000000007000000000000070000000000000000000000000000000000000000
310
00000000000000000000000000000000000000000000000000000000000000000707000707000707000000000000000000000000000000000000000000000000000000000000000000000000000000000000000000000000000000000000000000000000000000000000000000000000000000000000000000000000000000
310
00000000000000000000000000000000000000000000000000070000000000000700000000000000000000000000000000000000000000000000000000000000000000000000000000000000000000000000000707070707070707070707070000000000000000000000000000000000000000000000000000000000000000
310
00000000000000000000000000000000000000000000000000000000000000000000000000000000000000000000000000000000000000000000000000000000000000000000000000000000000007000000000000070000000000000000000000000000000000000000000000000000000000000000000000000000000000
310
00000000000007070707070007000707000700070707070700000000000000000000000000000000000000000000000000000000000000000000000000000000000000000000000000000000000000000000000000000000000000000000000000000000000000000000000000000000000000000000000000000000000000
310
00000000070000000000000700000000000000000000000000000000000000000000000000000000000000000000000000000000000000000007070700070707070007000007070707070707000707000000000000000000000000000000000000000000000000000000000000000000000000000000000000000000000000
310
00000000000000000000000000000000000000000000000000000000000000000000000000000000000000000000000000000000000000000007000000000000070000000000000000000000000000000000000000000000000000000000000000000000000000000000000007070700070707070007070007070007070007
310
07000700070707000000000000000000000000000000000000000000000000000000000000000000000000000000000000000000000000000000000000000000000000000000000000000000000000000000000000000000000000000000000000000000000000000000000000000700000000000007000000000000000000
310
00000000000000000000000000000000000000000000000000000000000000000007070700070000070007070707070707070707000707000700070707000000000000000000000000000000000000000000000000000000000000000000000000000000000000000000000000000000000000000000000000000000000000
310
00000000000000000000000000000000000000000000000000000000000000000000000007000707070700070000000000000000000000000000000000000000000000000000000000000000000000000000000000000707070007000700070700000707070700000707000700070700070700000000000000000000000000
310
00000000000000000000000000000000000000000000000000000000000000000000000000000000000000000000000000000000000000000000000000000000000000000000000000000000000000000000000000000000000707070707070707000000000000000000000000000000000000000000000000000000000000
310
00000000000000000000000007070700070000070007070000070700000007000707000700070707000000000000000000000000000000000000000000000000000000000000000000000000000000000000000000000000000000000000000000000000000000000000000000000000000000000000000000000000000000
310
00000000000000000000000000000007070000000007070000000000000000000000000000000000000000000000000000000000000000000000000000000000000707070700070700070000070007070007000007000007000707070700000000000000000000000000000000000000000000000000000000000000000000
310
00000000000000000000000000000000000000000000000000000000000000000000000000000000000000000000000000000000000000000000000000000000000000000707070707070707000000000000000000000000000000000000000000000000000000000000000000000000000000000000070707070707070700
310
00070007000007000707000707070707070707000000000000000000000000000000000000000000000000000000000000000000000000000000000000000000000000000000000000000000000000000000000000000000000000000000000000000000000000000000000000000000000000000000000000070000070000
310
00070000000000000000000000000000000000000000000000000000000000000000000000000000000000000700070707070700070700070007000007000707000707070707000700000000000000000000000000000000000000000000000000000000000000000000000000000000000000000000000000000000000000
310
00000000000000000000000000000000000000000000000000000000000000000000000000000000000000000000000700000000000007000000000000000000000000000000000000000000000000000000000000000000000000000000000000070000000707070707070000070707070007000707070707000000070000
310
00000000000000000000000000000000000000000000000000000000000000000000000000000000000000000000000000000000000000000000000000000000000000000000000000000000000000000000000000000000000000000000000000000000070000000000000700000000000000000000000000000000000000
310
00000000000000000000000000000000000000000000000700000000000707070707070707070707070707070700000000000700000000000000000000000000000000000000000000000000000000000000000000000000000000000000000000000000000000000000000000000000000000000000000000000000000000
310
00000000000000000000000000000000000000000000000000000700000000000007000000000000000000000000000000000000000000000000000000000000000000000000000000000000070000000000000000000007070707070700000000000000000000070000000000000000000000000000000000000000000000
310
00000000000000000000000000000000000000000000000000000000000000000000000000000000000000000000000000000000000000000000000000000000000000000000000000000000000000070000000000000700000000000000000000000000000000000000000000000000000000000000000000000000000000
310
00000007000000000000000000000000000000000000000000000000070000000000000000000000000000000000000000000000000000000000000000000000000000000000000000000000000000000000000000000000000000000000000000000000000000000000000000000000000000000000000000000000000000
310
00000000000700000000000007000000000000000000000000000000000000000000000000000000000000000000000000000000000000000007000000000000000000000000000000000000000000000700000000000000000000000000000000000000000000000000000000000000000000000000000000000000000000
310
00000000000000000000000000000000000000000000000000000000000000000000000000000000000000000000000000000000000000000000070000000000000700000000000000000000000000000000000000000000000000000000000000000000000000000000000000000007070000000000000000000000000000
310
00000000070700000000000000000000000000000000000000000000000000000000000000000000000000000000000000000000000000000000000000000000000000000000000000000000000000000000000000000000000000000000000000000000000000000000000000000007000000000000070000000000000000
310
00000000000000000000000000000000000000000000000000000000000000000000000000000007070707000000000000000000000707070700000000000000000000000000000000000000000000000000000000000000000000000000000000000000000000000000000000000000000000000000000000000000000000
310
00000000000000000000000000000000000000000000000000000000000000000000000000070000000000000700000000000000000000000000000000000000000000000000000000000000000000000000000000000000000000000000000007070707070707070707000000000000000000000000000000000000000000
310
00000000000000000000000000000000000000000000000000000000000000000000000000000000000000000000000000000000000000000000000000000000000000000000000000000000000000000000000000000000000007000000000000070000000000000000000000000000000000000000000000000000000000
310
00000000000000000000000000000000000000000000000000000000000000000000000000000000000000000000000000000000000000000000000000000000000000000000000000000000000000000000000000000000000000000000000000000000000000000000000000000000000000000000000000000000000000
310
00000000000000000000000000000000070000000000000700000000000000000000000000000000000000000000000000000000000000000000000000000000000000000000000000000000000000000000000000000000000000000000000000000000000000000000000000000000000000000000000000000000000000
310
00000000000000000000000000000000000000000000000000000000000000000000000000000000000000000000000000000000000000000000000000000000000000000007000000000000070000000000000000000000000000000000000000000000000000000000000000000000000000000000000000000000000000
310
00000000000000000000000000000000000000000000000000000000000000000000000000000000000000000000000000000000000000000000000000000000000000000000000000000000000000000000000000000000000000000000000000000000000000000000000000000000000000000000000000000700000000
310
00000700000000000000000000000000000000000000000000000000000000000000000000000000000000000000000000000000000000000000000000000000000000000000000000000000000000000000000000000000000000000000000000000000000000000000000000000000000000000000000000000000000000
310
00000000000000000000000000000000000000000000000000000000000000000000000000000000000000000000000007000000000000070000000000000000000000000000000000000000000000000000000000000000000000000000000000000000000000000000000000000000000000000000000000000000000000
310
00000000000000000000000000000000000000000000000000000000000000000000000000000000000000000000000000000000000000000000000000000000000000000000000000000000000000000000000000000000000000000000000000000000000700000000000007000000000000000000000000000000000000
310
00000000000000000000000000000000000000000000000000000000000000000000000000000000000000000000000000000000000000000000000000000000000000000000000000000000000000000000000000000000000000000000000000000000000000000000000000000000000000000000000000000000000000
310
00000000000000000000000000000000000000000000000000000007000000000000070000000000000000000000000000000000000000000000000000000000000000000000000000000000000000000000000000000000000000000000000000000000000000000000000000000000000000000000000000000000000000
310
00000000000000000000000000000000000000000000000000000000000000000000000000000000000000000000000000000000000000000000000000000000000000000000000000000000000000000700000000000007000000000000000000000000000000000000000000000000000000000000000000000000000000
310
00000000000000000000000000000000000000000000000000000000000000000000000000000000000000000000000000000000000000000000000000000000000000000000000000000000000000000000000000000000000000000000000000000000000000000000000000000000000000000000000000000000000000
310
00000000000007000000000000070000000000000000000000000000000000000000000000000000000000000000000000000000000000000000000000000000000000000000000000000000000000000000000000000000000000000000000000000000000000000000000000000000000000000000000000000000000000
310
00000000000000000000000000000000000000000000000000000000000000000000000000000000000000000000000000000000000000000000000700000000000007000000000000000000000000000000000000000000000000000000000000000000000000000000000000000000000000000000000000000000000000
310
00000000000000000000000000000000000000000000000000000000000000000000000000000000000000000000000000000000000000000000000000000000000000000000000000000000000000000000000000000000000000000000000000000000000000000000000000000000070000000000000700000000000000
310
00000000000000000000000000000000000000000000000000000000000000000000000000000000000000000000000000000000000000000000000000000000000000000000000000000000000000000000000000000000000000000000000000000000000000000000000000000000000000000000000000000000000000
310
00000000000000000000000000000000000000000000000000000000000000000000000000000700000000000007000000000000000000000000000000000000000000000000000000000000000000000000000000000000000000000000000000000000000000000000000000000000000000000000000000000000000000
310
00000000000000000000000000000000000000000000000000000000000000000000000000000000000000000000000000000000000000000000000000000000000000000000000000000000000000000000000000000000000000070000000000000700000000000000000000000000000000000000000000000000000000
310
00000000000000000000000000000000000000000000000000000000000000000000000000000000000000000000000000000000000000000000000000000000000000000000000000000000000000000000000000000000000000000000000000000000000000000000000000000000000000000000000000000000000000
310
00000000000000000000000000000000000700000000000007000000000000000000000000000000000000000000000000000000000000000000000000000000000000000000000000000000000000000000000000000000000000000000000000000000000000000000000000000000000000000000000000000000000000
310
00000000000000000000000000000000000000000000000000000000000000000000000000000000000000000000000000000000000000000000000000000000000000000000070000000000000700000000000000000000000000000000000000000000000000000000000000000000000000000000000000000000000000
310
00000000000000000000000000000000000000000000000000000000000000000000000000000000000000000000000000000000000000000000000000000000000000000000000000000000000000000000000000000000000000000000000000000000000000000000000000000000000000000000000000000007000000
310
00000007000000000000000000000000000000000000000000000000000000000000000000000000000000000000000000000000000000000000000000000000000000000000000000000000000000000000000000000000000000000000000000000000000000000000000000000000000000000000000000000000000000
310
00000000000000000000000000000000000000000000000000000000000000000000000000000000000000000000000000070000000000000700000000000000000000000000000000000000000000000000000000000000000000000000000000000000000000000000000000000000000000000000000000000000000000
310
00000000000000000000000000000000000000000000000000000000000000000000000000000000000000000000000000000000000000000000000000000000000000000000000000000000000000000000000000000000000000000000000000000000000007000000000000070000000000000000000000000000000000
310
00000000000000000000000000000000000000000000000000000000000000000000000000000000000000000000000000000000000000000000000000000000000000000000000000000000000000000000000000000000000000000000000000000000000000000000000000000000000000000000000000000000000000
310
00000000000000000000000000000000000000000000000000000000070000000000000700000000000000000000000000000000000000000000000000000000000000000000000000000000000000000000000000000000000000000000000000000000000000000000000000000000000000000000000000000000000000
310
00000000000000000000000000000000000000000000000000000000000000000000000000000000000000000000000000000000000000000000000000000000000000000000000000000000000000000007000000000000070000000000000000000000000000000000000000000000000000000000000000000000000000
310
00000000000000000000000000000000000000000000000000000000000000000000000000000000000000000000000000000000000000000000000000000000000000000000000000000000000000000000000000000000000000000000000000000000000000000000000000000000000000000000000000000000000000
310
00000000000000000700000000070000000000000000000000000000000000000000000000000000000000000000000000000000000000000000000000000000000000000000000000000000000000000000000000000000000000000000000000000000000000000000000000000000000000000000000000000000000000
310
00000000000000000000000000000000000000000000000000000000000000000000000000000000000000000000000000000000000000000000000000000707070700000000000000000000000000000000000000000000000000000000000000000000000000000000000000000000000000000000000000000000000000
310
00000000000000000000000000000000000000000000000000000000000000000000000000000000000000000000000000000000000000000000000000000000000000000000000000000000000000000000000000000000000000000000000000000000000000000000000000000000000000000000000000000000000000
310
00000000000000000000000000000000000000000000000000000000000000000000000000000000000000000000000000000000000000000000000000000000000000000000000000000000000000000000000000000000000000000000000000000000000000000000000000000000000000000000000000000000000000
310
00000000000000000000000000000000000000000000000000000000000000000000000000000000000000000000000000000000000000000000000000000000000000000000000000000000000000000000000000000000000000000000000000000000000000000000000000000000000000000000000000000000000000
310
00000000000000000000000000000000000000000000000000000000000000000000000000000000000000000000000000000000000000000000000000000000000000000000000000000000000000000000000000000000000000000000000000000000000000000000000000000000000000000000000000000000000000
310
00000000000000000000000000000000000000000000000000000000000000000000000000000000000000000000000000000000000000000000000000000000000000000000000000000000000000000000000000000000000000000000000000000000000000000000000000000000000000000000000000000000000000
310
000000000000000000000000000000000000000000000000000000000000000000000000000000000000000000000000000000000000000000000000000000000000000000000000000000000000000000000000000000000000000000000000000000000000000000000000
  0
ENDSEC
  0
EOF
