  0
SECTION
  2
HEADER
  9
$ACADVER
  1
AC1015
  9
$ACADMAINTVER
 70
     6
  9
$DWGCODEPAGE
  3
ANSI_1252
  9
$INSBASE
 10
0.0
 20
0.0
 30
0.0
  9
$EXTMIN
 10
17.937
 20
-0.24451
 30
0.0
  9
$EXTMAX
 10
433.75
 20
288.24451
 30
0.0
  9
$LIMMIN
 10
0.0
 20
0.0
  9
$LIMMAX
 10
12.0
 20
9.0
  9
$ORTHOMODE
 70
     0
  9
$REGENMODE
 70
     1
  9
$FILLMODE
 70
     1
  9
$QTEXTMODE
 70
     0
  9
$MIRRTEXT
 70
     1
  9
$LTSCALE
 40
1.0
  9
$ATTMODE
 70
     1
  9
$TEXTSIZE
 40
0.2
  9
$TRACEWID
 40
0.05
  9
$TEXTSTYLE
  7
STANDARD
  9
$CLAYER
  8
0
  9
$CELTYPE
  6
CONTINUOUS
  9
$CECOLOR
 62
   256
  9
$CELTSCALE
 40
1.0
  9
$DISPSILH
 70
     0
  9
$DIMSCALE
 40
1.0
  9
$DIMASZ
 40
0.18
  9
$DIMEXO
 40
0.0625
  9
$DIMDLI
 40
0.38
  9
$DIMRND
 40
0.0
  9
$DIMDLE
 40
0.0
  9
$DIMEXE
 40
0.18
  9
$DIMTP
 40
0.0
  9
$DIMTM
 40
0.0
  9
$DIMTXT
 40
0.18
  9
$DIMCEN
 40
0.09
  9
$DIMTSZ
 40
0.0
  9
$DIMTOL
 70
     0
  9
$DIMLIM
 70
     0
  9
$DIMTIH
 70
     1
  9
$DIMTOH
 70
     1
  9
$DIMSE1
 70
     0
  9
$DIMSE2
 70
     0
  9
$DIMTAD
 70
     0
  9
$DIMZIN
 70
     0
  9
$DIMBLK
  1

  9
$DIMASO
 70
     1
  9
$DIMSHO
 70
     1
  9
$DIMPOST
  1

  9
$DIMAPOST
  1

  9
$DIMALT
 70
     0
  9
$DIMALTD
 70
     2
  9
$DIMALTF
 40
25.4
  9
$DIMLFAC
 40
1.0
  9
$DIMTOFL
 70
     0
  9
$DIMTVP
 40
0.0
  9
$DIMTIX
 70
     0
  9
$DIMSOXD
 70
     0
  9
$DIMSAH
 70
     0
  9
$DIMBLK1
  1

  9
$DIMBLK2
  1

  9
$DIMSTYLE
  2
STANDARD
  9
$DIMCLRD
 70
     0
  9
$DIMCLRE
 70
     0
  9
$DIMCLRT
 70
     0
  9
$DIMTFAC
 40
1.0
  9
$DIMGAP
 40
0.09
  9
$DIMJUST
 70
     0
  9
$DIMSD1
 70
     0
  9
$DIMSD2
 70
     0
  9
$DIMTOLJ
 70
     1
  9
$DIMTZIN
 70
     0
  9
$DIMALTZ
 70
     0
  9
$DIMALTTZ
 70
     0
  9
$DIMUPT
 70
     0
  9
$DIMDEC
 70
     4
  9
$DIMTDEC
 70
     4
  9
$DIMALTU
 70
     2
  9
$DIMALTTD
 70
     2
  9
$DIMTXSTY
  7
STANDARD
  9
$DIMAUNIT
 70
     0
  9
$DIMADEC
 70
     0
  9
$DIMALTRND
 40
0.0
  9
$DIMAZIN
 70
     0
  9
$DIMDSEP
 70
    46
  9
$DIMATFIT
 70
     3
  9
$DIMFRAC
 70
     0
  9
$DIMLDRBLK
  1

  9
$DIMLUNIT
 70
     2
  9
$DIMLWD
 70
    -2
  9
$DIMLWE
 70
    -2
  9
$DIMTMOVE
 70
     2
  9
$LUNITS
 70
     2
  9
$LUPREC
 70
     4
  9
$SKETCHINC
 40
0.1
  9
$FILLETRAD
 40
0.0
  9
$AUNITS
 70
     0
  9
$AUPREC
 70
     0
  9
$MENU
  1
.
  9
$ELEVATION
 40
0.0
  9
$PELEVATION
 40
0.0
  9
$THICKNESS
 40
0.0
  9
$LIMCHECK
 70
     0
  9
$CHAMFERA
 40
0.0
  9
$CHAMFERB
 40
0.0
  9
$CHAMFERC
 40
0.0
  9
$CHAMFERD
 40
0.0
  9
$SKPOLY
 70
     0
  9
$TDCREATE
 40
2454691.695456632
  9
$TDUCREATE
 40
2454691.612123298
  9
$TDUPDATE
 40
2456209.740382477
  9
$TDUUPDATE
 40
2456209.657049144
  9
$TDINDWG
 40
0.0020046644
  9
$TDUSRTIMER
 40
0.0020046644
  9
$USRTIMER
 70
     1
  9
$ANGBASE
 50
0.0
  9
$ANGDIR
 70
     0
  9
$PDMODE
 70
     0
  9
$PDSIZE
 40
0.0
  9
$PLINEWID
 40
0.0
  9
$SPLFRAME
 70
     0
  9
$SPLINETYPE
 70
     6
  9
$SPLINESEGS
 70
     8
  9
$HANDSEED
  5
6E1
  9
$SURFTAB1
 70
     6
  9
$SURFTAB2
 70
     6
  9
$SURFTYPE
 70
     6
  9
$SURFU
 70
     6
  9
$SURFV
 70
     6
  9
$UCSBASE
  2

  9
$UCSNAME
  2

  9
$UCSORG
 10
0.0
 20
0.0
 30
0.0
  9
$UCSXDIR
 10
1.0
 20
0.0
 30
0.0
  9
$UCSYDIR
 10
0.0
 20
1.0
 30
0.0
  9
$UCSORTHOREF
  2

  9
$UCSORTHOVIEW
 70
     0
  9
$UCSORGTOP
 10
0.0
 20
0.0
 30
0.0
  9
$UCSORGBOTTOM
 10
0.0
 20
0.0
 30
0.0
  9
$UCSORGLEFT
 10
0.0
 20
0.0
 30
0.0
  9
$UCSORGRIGHT
 10
0.0
 20
0.0
 30
0.0
  9
$UCSORGFRONT
 10
0.0
 20
0.0
 30
0.0
  9
$UCSORGBACK
 10
0.0
 20
0.0
 30
0.0
  9
$PUCSBASE
  2

  9
$PUCSNAME
  2

  9
$PUCSORG
 10
0.0
 20
0.0
 30
0.0
  9
$PUCSXDIR
 10
1.0
 20
0.0
 30
0.0
  9
$PUCSYDIR
 10
0.0
 20
1.0
 30
0.0
  9
$PUCSORTHOREF
  2

  9
$PUCSORTHOVIEW
 70
     0
  9
$PUCSORGTOP
 10
0.0
 20
0.0
 30
0.0
  9
$PUCSORGBOTTOM
 10
0.0
 20
0.0
 30
0.0
  9
$PUCSORGLEFT
 10
0.0
 20
0.0
 30
0.0
  9
$PUCSORGRIGHT
 10
0.0
 20
0.0
 30
0.0
  9
$PUCSORGFRONT
 10
0.0
 20
0.0
 30
0.0
  9
$PUCSORGBACK
 10
0.0
 20
0.0
 30
0.0
  9
$USERI1
 70
     0
  9
$USERI2
 70
     0
  9
$USERI3
 70
     0
  9
$USERI4
 70
     0
  9
$USERI5
 70
     0
  9
$USERR1
 40
0.0
  9
$USERR2
 40
0.0
  9
$USERR3
 40
0.0
  9
$USERR4
 40
0.0
  9
$USERR5
 40
0.0
  9
$WORLDVIEW
 70
     1
  9
$SHADEDGE
 70
     3
  9
$SHADEDIF
 70
    70
  9
$TILEMODE
 70
     1
  9
$MAXACTVP
 70
    64
  9
$PINSBASE
 10
0.0
 20
0.0
 30
0.0
  9
$PLIMCHECK
 70
     0
  9
$PEXTMIN
 10
1.000000000000E+20
 20
1.000000000000E+20
 30
1.000000000000E+20
  9
$PEXTMAX
 10
-1.000000000000E+20
 20
-1.000000000000E+20
 30
-1.000000000000E+20
  9
$PLIMMIN
 10
0.0
 20
0.0
  9
$PLIMMAX
 10
12.0
 20
9.0
  9
$UNITMODE
 70
     0
  9
$VISRETAIN
 70
     1
  9
$PLINEGEN
 70
     0
  9
$PSLTSCALE
 70
     1
  9
$TREEDEPTH
 70
  3020
  9
$CMLSTYLE
  2
STANDARD
  9
$CMLJUST
 70
     0
  9
$CMLSCALE
 40
1.0
  9
$PROXYGRAPHICS
 70
     1
  9
$MEASUREMENT
 70
     0
  9
$CELWEIGHT
370
    -1
  9
$ENDCAPS
280
     0
  9
$JOINSTYLE
280
     0
  9
$LWDISPLAY
290
     0
  9
$INSUNITS
 70
     0
  9
$HYPERLINKBASE
  1

  9
$STYLESHEET
  1

  9
$XEDIT
290
     1
  9
$CEPSNTYPE
380
     0
  9
$PSTYLEMODE
290
     1
  9
$FINGERPRINTGUID
  2
{3795EF99-0588-47F5-A970-858C5BDEA1A3}
  9
$VERSIONGUID
  2
{45B3ED56-E7BC-40F2-B19B-88A647B59115}
  9
$EXTNAMES
290
     1
  9
$PSVPSCALE
 40
0.0
  9
$OLESTARTUP
290
     0
  0
ENDSEC
  0
SECTION
  2
CLASSES
  0
CLASS
  1
ACDBDICTIONARYWDFLT
  2
AcDbDictionaryWithDefault
  3
ObjectDBX Classes
 90
        0
280
     0
281
     0
  0
CLASS
  1
ACDBPLACEHOLDER
  2
AcDbPlaceHolder
  3
ObjectDBX Classes
 90
        0
280
     0
281
     0
  0
CLASS
  1
LAYOUT
  2
AcDbLayout
  3
ObjectDBX Classes
 90
        0
280
     0
281
     0
  0
CLASS
  1
DICTIONARYVAR
  2
AcDbDictionaryVar
  3
ObjectDBX Classes
 90
        0
280
     0
281
     0
  0
CLASS
  1
DUMMY
  2
AcDbLongTransaction
  3
DUMMY
 90
        0
280
     0
281
     0
  0
CLASS
  1
LWPOLYLINE
  2
AcDbPolyline
  3
AutoCAD 2000
 90
        0
280
     0
281
     1
  0
CLASS
  1
HATCH
  2
AcDbHatch
  3
AutoCAD 2000
 90
        0
280
     0
281
     1
  0
CLASS
  1
XRECORD
  2
AcDbXrecord
  3
AutoCAD 2000
 90
        0
280
     0
281
     0
  0
CLASS
  1
SCALE
  2
AcDbScale
  3
ObjectDBX Classes
 90
     1153
280
     0
281
     0
  0
ENDSEC
  0
SECTION
  2
TABLES
  0
TABLE
  2
VPORT
  5
8
330
0
100
AcDbSymbolTable
 70
     1
  0
VPORT
  5
335
330
8
100
AcDbSymbolTableRecord
100
AcDbViewportTableRecord
  2
*ACTIVE
 70
     0
 10
0.0
 20
0.0
 11
1.0
 21
1.0
 12
216.875
 22
144.0
 13
0.0
 23
0.0
 14
1.0
 24
1.0
 15
0.0
 25
0.0
 16
0.0
 26
0.0
 36
1.0
 17
0.0
 27
0.0
 37
0.0
 40
294.2588004
 41
2.271724137931
 42
50.0
 43
0.0
 44
0.0
 50
0.0
 51
0.0
 71
    16
 72
   100
 73
     1
 74
     3
 75
     0
 76
     0
 77
     0
 78
     0
281
     0
 65
     1
110
0.0
120
0.0
130
0.0
111
1.0
121
0.0
131
0.0
112
0.0
122
1.0
132
0.0
 79
     0
146
0.0
  0
ENDTAB
  0
TABLE
  2
LTYPE
  5
5
330
0
100
AcDbSymbolTable
 70
     1
  0
LTYPE
  5
13
330
5
100
AcDbSymbolTableRecord
100
AcDbLinetypeTableRecord
  2
BYBLOCK
 70
     0
  3

 72
    65
 73
     0
 40
0.0
  0
LTYPE
  5
14
330
5
100
AcDbSymbolTableRecord
100
AcDbLinetypeTableRecord
  2
BYLAYER
 70
     0
  3

 72
    65
 73
     0
 40
0.0
  0
LTYPE
  5
15
330
5
100
AcDbSymbolTableRecord
100
AcDbLinetypeTableRecord
  2
CONTINUOUS
 70
     0
  3
Solid line
 72
    65
 73
     0
 40
0.0
  0
ENDTAB
  0
TABLE
  2
LAYER
  5
2
330
0
100
AcDbSymbolTable
 70
     1
  0
LAYER
  5
10
330
2
100
AcDbSymbolTableRecord
100
AcDbLayerTableRecord
  2
0
 70
     0
 62
     7
  6
CONTINUOUS
370
    -3
390
F
  0
ENDTAB
  0
TABLE
  2
STYLE
  5
3
330
0
100
AcDbSymbolTable
 70
     1
  0
STYLE
  5
11
330
3
100
AcDbSymbolTableRecord
100
AcDbTextStyleTableRecord
  2
STANDARD
 70
     0
 40
0.0
 41
1.0
 50
0.0
 71
     0
 42
0.2
  3
txt
  4

  0
ENDTAB
  0
TABLE
  2
VIEW
  5
6
330
0
100
AcDbSymbolTable
 70
     0
  0
ENDTAB
  0
TABLE
  2
UCS
  5
7
330
0
100
AcDbSymbolTable
 70
     0
  0
ENDTAB
  0
TABLE
  2
APPID
  5
9
330
0
100
AcDbSymbolTable
 70
     1
  0
APPID
  5
12
330
9
100
AcDbSymbolTableRecord
100
AcDbRegAppTableRecord
  2
ACAD
 70
     0
  0
ENDTAB
  0
TABLE
  2
DIMSTYLE
  5
A
330
0
100
AcDbSymbolTable
 70
     1
100
AcDbDimStyleTable
  0
DIMSTYLE
105
32F
330
A
100
AcDbSymbolTableRecord
100
AcDbDimStyleTableRecord
  2
STANDARD
 70
     0
340
11
  0
ENDTAB
  0
TABLE
  2
BLOCK_RECORD
  5
1
330
0
100
AcDbSymbolTable
 70
     1
  0
BLOCK_RECORD
  5
1E
330
1
100
AcDbSymbolTableRecord
100
AcDbBlockTableRecord
  2
*MODEL_SPACE
340
35A
  0
BLOCK_RECORD
  5
1A
330
1
100
AcDbSymbolTableRecord
100
AcDbBlockTableRecord
  2
*PAPER_SPACE
340
35B
  0
ENDTAB
  0
ENDSEC
  0
SECTION
  2
BLOCKS
  0
BLOCK
  5
1F
330
1E
100
AcDbEntity
  8
0
100
AcDbBlockBegin
  2
*MODEL_SPACE
 70
     0
 10
0.0
 20
0.0
 30
0.0
  3
*MODEL_SPACE
  1
*MODEL_SPACE
  0
ENDBLK
  5
20
330
1E
100
AcDbEntity
  8
0
100
AcDbBlockEnd
  0
BLOCK
  5
1B
330
1A
100
AcDbEntity
 67
     1
  8
0
100
AcDbBlockBegin
  2
*PAPER_SPACE
 70
     0
 10
0.0
 20
0.0
 30
0.0
  3
*PAPER_SPACE
  1
*PAPER_SPACE
  0
ENDBLK
  5
1C
330
1A
100
AcDbEntity
 67
     1
  8
0
100
AcDbBlockEnd
  0
ENDSEC
  0
SECTION
  2
ENTITIES
  0
LINE
  5
142
330
1E
100
AcDbEntity
  8
0
100
AcDbLine
 10
178.75
 20
219.24451
 30
0.0
 11
187.45
 21
220.44451
 31
0.0
  0
LINE
  5
143
330
1E
100
AcDbEntity
  8
0
100
AcDbLine
 10
178.75
 20
218.24451
 30
0.0
 11
187.75
 21
219.54451
 31
0.0
  0
LINE
  5
144
330
1E
100
AcDbEntity
  8
0
100
AcDbLine
 10
398.768
 20
-0.24451
 30
0.0
 11
404.104
 21
0.50739
 31
0.0
  0
LINE
  5
145
330
1E
100
AcDbEntity
  8
0
100
AcDbLine
 10
404.104
 20
0.50739
 30
0.0
 11
408.646
 21
2.65479
 31
0.0
  0
LINE
  5
146
330
1E
100
AcDbEntity
  8
0
100
AcDbLine
 10
388.847
 20
2.66609
 30
0.0
 11
393.388
 21
0.51349
 31
0.0
  0
LINE
  5
147
330
1E
100
AcDbEntity
  8
0
100
AcDbLine
 10
393.388
 20
0.51349
 30
0.0
 11
398.768
 21
-0.24451
 31
0.0
  0
LINE
  5
148
330
1E
100
AcDbEntity
  8
0
100
AcDbLine
 10
393.388
 20
0.51349
 30
0.0
 11
398.768
 21
-0.24451
 31
0.0
  0
LINE
  5
149
330
1E
100
AcDbEntity
  8
0
100
AcDbLine
 10
404.104
 20
0.50739
 30
0.0
 11
408.646
 21
2.65479
 31
0.0
  0
LINE
  5
14A
330
1E
100
AcDbEntity
  8
0
100
AcDbLine
 10
408.646
 20
2.65479
 30
0.0
 11
411.68
 21
5.87089
 31
0.0
  0
LINE
  5
14B
330
1E
100
AcDbEntity
  8
0
100
AcDbLine
 10
385.812
 20
5.88549
 30
0.0
 11
388.847
 21
2.66609
 31
0.0
  0
LINE
  5
14C
330
1E
100
AcDbEntity
  8
0
100
AcDbLine
 10
395.8122156198
 20
6.771430486689
 30
0.0
 11
398.765
 21
6.35539
 31
0.0
  0
LINE
  5
14D
330
1E
100
AcDbEntity
  8
0
100
AcDbLine
 10
398.75
 20
6.44501
 30
0.0
 11
402.35
 21
6.84501
 31
0.0
  0
LINE
  5
14E
330
1E
100
AcDbEntity
  8
0
100
AcDbLine
 10
395.8122156198
 20
6.771430486689
 30
0.0
 11
398.765
 21
6.35539
 31
0.0
  0
LINE
  5
14F
330
1E
100
AcDbEntity
  8
0
100
AcDbLine
 10
395.15
 20
6.84501
 30
0.0
 11
398.75
 21
6.44501
 31
0.0
  0
LINE
  5
150
330
1E
100
AcDbEntity
  8
0
100
AcDbLine
 10
395.443981692094
 20
6.812345367545
 30
0.0
 11
398.776
 21
6.34289
 31
0.0
  0
LINE
  5
151
330
1E
100
AcDbEntity
  8
0
100
AcDbLine
 10
402.35
 20
6.84501
 30
0.0
 11
405.75
 21
7.74501
 31
0.0
  0
LINE
  5
152
330
1E
100
AcDbEntity
  8
0
100
AcDbLine
 10
398.765
 20
6.35539
 30
0.0
 11
401.823141544579
 21
6.78647017162
 31
0.0
  0
LINE
  5
153
330
1E
100
AcDbEntity
  8
0
100
AcDbLine
 10
398.776
 20
6.34289
 30
0.0
 11
402.29449392882
 21
6.838842658758
 31
0.0
  0
LINE
  5
154
330
1E
100
AcDbEntity
  8
0
100
AcDbLine
 10
402.363386430258
 20
6.848553466833
 30
0.0
 11
404.111
 21
7.09489
 31
0.0
  0
LINE
  5
155
330
1E
100
AcDbEntity
  8
0
100
AcDbLine
 10
391.75
 20
7.74501
 30
0.0
 11
395.15
 21
6.84501
 31
0.0
  0
LINE
  5
156
330
1E
100
AcDbEntity
  8
0
100
AcDbLine
 10
392.399902829618
 20
7.572976898042
 30
0.0
 11
393.396
 21
7.10089
 31
0.0
  0
LINE
  5
157
330
1E
100
AcDbEntity
  8
0
100
AcDbLine
 10
405.75
 20
7.74501
 30
0.0
 11
408.65
 21
9.34501
 31
0.0
  0
LINE
  5
158
330
1E
100
AcDbEntity
  8
0
100
AcDbLine
 10
393.396
 20
7.10089
 30
0.0
 11
395.079288166726
 21
6.86372783822
 31
0.0
  0
LINE
  5
159
330
1E
100
AcDbEntity
  8
0
100
AcDbLine
 10
404.111
 20
7.09489
 30
0.0
 11
405.150316560383
 21
7.586270265984
 31
0.0
  0
LINE
  5
15A
330
1E
100
AcDbEntity
  8
0
100
AcDbLine
 10
407.330917420904
 20
8.617240301188
 30
0.0
 11
408.653
 21
9.24231
 31
0.0
  0
LINE
  5
15B
330
1E
100
AcDbEntity
  8
0
100
AcDbLine
 10
388.85
 20
9.34501
 30
0.0
 11
391.75
 21
7.74501
 31
0.0
  0
LINE
  5
15C
330
1E
100
AcDbEntity
  8
0
100
AcDbLine
 10
384.746
 20
9.68171
 30
0.0
 11
384.754
 21
16.26921
 31
0.0
  0
LINE
  5
15D
330
1E
100
AcDbEntity
  8
0
100
AcDbLine
 10
384.746
 20
9.68171
 30
0.0
 11
385.812
 21
5.88549
 31
0.0
  0
LINE
  5
15E
330
1E
100
AcDbEntity
  8
0
100
AcDbLine
 10
386.65
 20
11.44501
 30
0.0
 11
388.85
 21
9.34501
 31
0.0
  0
LINE
  5
15F
330
1E
100
AcDbEntity
  8
0
100
AcDbLine
 10
385.819
 20
12.47301
 30
0.0
 11
386.398339923985
 21
11.858451553453
 31
0.0
  0
LINE
  5
160
330
1E
100
AcDbEntity
  8
0
100
AcDbLine
 10
388.028723005357
 20
10.128956222159
 30
0.0
 11
388.854
 21
9.25351
 31
0.0
  0
LINE
  5
161
330
1E
100
AcDbEntity
  8
0
100
AcDbLine
 10
410.85
 20
11.44501
 30
0.0
 11
412.25
 21
13.74501
 31
0.0
  0
LINE
  5
162
330
1E
100
AcDbEntity
  8
0
100
AcDbLine
 10
408.65
 20
9.34501
 30
0.0
 11
410.85
 21
11.44501
 31
0.0
  0
LINE
  5
163
330
1E
100
AcDbEntity
  8
0
100
AcDbLine
 10
388.854
 20
9.25351
 30
0.0
 11
390.001910017743
 21
8.709473438486
 31
0.0
  0
LINE
  5
164
330
1E
100
AcDbEntity
  8
0
100
AcDbLine
 10
408.653
 20
9.24231
 30
0.0
 11
409.657486817728
 21
10.306701962377
 31
0.0
  0
LINE
  5
165
330
1E
100
AcDbEntity
  8
0
100
AcDbLine
 10
411.064882571325
 20
11.798031367177
 30
0.0
 11
411.688
 21
12.45831
 31
0.0
  0
LINE
  5
166
330
1E
100
AcDbEntity
  8
0
100
AcDbLine
 10
411.68
 20
5.87089
 30
0.0
 11
412.746
 21
9.67381
 31
0.0
  0
LINE
  5
167
330
1E
100
AcDbEntity
  8
0
100
AcDbLine
 10
411.688
 20
12.45831
 30
0.0
 11
411.876826735741
 21
13.131939637289
 31
0.0
  0
LINE
  5
168
330
1E
100
AcDbEntity
  8
0
100
AcDbLine
 10
412.25
 20
13.74501
 30
0.0
 11
412.75
 21
16.34501
 31
0.0
  0
LINE
  5
169
330
1E
100
AcDbEntity
  8
0
100
AcDbLine
 10
385.25
 20
13.74501
 30
0.0
 11
386.65
 21
11.44501
 31
0.0
  0
LINE
  5
16A
330
1E
100
AcDbEntity
  8
0
100
AcDbLine
 10
384.754
 20
16.26921
 30
0.0
 11
384.787629004478
 21
16.149339176714
 31
0.0
  0
LINE
  5
16B
330
1E
100
AcDbEntity
  8
0
100
AcDbLine
 10
385.643518354868
 20
13.09851555986
 30
0.0
 11
385.819
 21
12.47301
 31
0.0
  0
LINE
  5
16C
330
1E
100
AcDbEntity
  8
0
100
AcDbLine
 10
412.689928518072
 20
16.032638293972
 30
0.0
 11
412.754
 21
16.26121
 31
0.0
  0
LINE
  5
16D
330
1E
100
AcDbEntity
  8
0
100
AcDbLine
 10
411.805743596621
 20
13.015160194448
 30
0.0
 11
411.824954934067
 21
12.946889661131
 31
0.0
  0
LINE
  5
16E
330
1E
100
AcDbEntity
  8
0
100
AcDbLine
 10
412.746
 20
9.67381
 30
0.0
 11
412.754
 21
16.26121
 31
0.0
  0
LINE
  5
16F
330
1E
100
AcDbEntity
  8
0
100
AcDbLine
 10
279.75
 20
219.54451
 30
0.0
 11
288.75
 21
218.24451
 31
0.0
  0
LINE
  5
170
330
1E
100
AcDbEntity
  8
0
100
AcDbLine
 10
288.75
 20
219.24451
 30
0.0
 11
297.45
 21
220.44451
 31
0.0
  0
LINE
  5
171
330
1E
100
AcDbEntity
  8
0
100
AcDbLine
 10
288.75
 20
218.24451
 30
0.0
 11
297.75
 21
219.54451
 31
0.0
  0
LINE
  5
172
330
1E
100
AcDbEntity
  8
0
100
AcDbLine
 10
297.75
 20
219.54451
 30
0.0
 11
306.15
 21
222.94451
 31
0.0
  0
LINE
  5
173
330
1E
100
AcDbEntity
  8
0
100
AcDbLine
 10
412.75
 20
16.34501
 30
0.0
 11
414.15
 21
37.14501
 31
0.0
  0
LINE
  5
174
330
1E
100
AcDbEntity
  8
0
100
AcDbLine
 10
412.75
 20
16.34501
 30
0.0
 11
414.15
 21
37.14501
 31
0.0
  0
LINE
  5
175
330
1E
100
AcDbEntity
  8
0
100
AcDbLine
 10
414.15
 20
37.14501
 30
0.0
 11
416.05
 21
60.14501
 31
0.0
  0
LINE
  5
176
330
1E
100
AcDbEntity
  8
0
100
AcDbLine
 10
416.05
 20
60.14501
 30
0.0
 11
418.05
 21
84.84501
 31
0.0
  0
LINE
  5
177
330
1E
100
AcDbEntity
  8
0
100
AcDbLine
 10
418.05
 20
84.84501
 30
0.0
 11
419.65
 21
106.74451
 31
0.0
  0
LINE
  5
178
330
1E
100
AcDbEntity
  8
0
100
AcDbLine
 10
383.35
 20
37.14501
 30
0.0
 11
384.75
 21
16.34501
 31
0.0
  0
LINE
  5
179
330
1E
100
AcDbEntity
  8
0
100
AcDbLine
 10
383.35
 20
37.14501
 30
0.0
 11
384.75
 21
16.34501
 31
0.0
  0
LINE
  5
17A
330
1E
100
AcDbEntity
  8
0
100
AcDbLine
 10
384.75
 20
16.34501
 30
0.0
 11
385.25
 21
13.74501
 31
0.0
  0
LINE
  5
17B
330
1E
100
AcDbEntity
  8
0
100
AcDbLine
 10
381.45
 20
60.14501
 30
0.0
 11
383.35
 21
37.14501
 31
0.0
  0
LINE
  5
17C
330
1E
100
AcDbEntity
  8
0
100
AcDbLine
 10
419.65
 20
106.74451
 30
0.0
 11
421.15
 21
125.54451
 31
0.0
  0
LINE
  5
17D
330
1E
100
AcDbEntity
  8
0
100
AcDbLine
 10
421.15
 20
125.54451
 30
0.0
 11
423.15
 21
148.14451
 31
0.0
  0
LINE
  5
17E
330
1E
100
AcDbEntity
  8
0
100
AcDbLine
 10
379.45
 20
84.84501
 30
0.0
 11
381.45
 21
60.14501
 31
0.0
  0
LINE
  5
17F
330
1E
100
AcDbEntity
  8
0
100
AcDbLine
 10
377.85
 20
106.74451
 30
0.0
 11
379.45
 21
84.84501
 31
0.0
  0
LINE
  5
180
330
1E
100
AcDbEntity
  8
0
100
AcDbLine
 10
423.15
 20
148.14451
 30
0.0
 11
424.35
 21
165.14451
 31
0.0
  0
LINE
  5
181
330
1E
100
AcDbEntity
  8
0
100
AcDbLine
 10
424.35
 20
165.14451
 30
0.0
 11
425.45
 21
181.54451
 31
0.0
  0
LINE
  5
182
330
1E
100
AcDbEntity
  8
0
100
AcDbLine
 10
376.35
 20
125.54451
 30
0.0
 11
377.85
 21
106.74451
 31
0.0
  0
LINE
  5
183
330
1E
100
AcDbEntity
  8
0
100
AcDbLine
 10
374.35
 20
148.14451
 30
0.0
 11
376.35
 21
125.54451
 31
0.0
  0
LINE
  5
184
330
1E
100
AcDbEntity
  8
0
100
AcDbLine
 10
425.45
 20
181.54451
 30
0.0
 11
427.25
 21
199.94451
 31
0.0
  0
LINE
  5
185
330
1E
100
AcDbEntity
  8
0
100
AcDbLine
 10
427.25
 20
199.94451
 30
0.0
 11
428.65
 21
218.34551
 31
0.0
  0
LINE
  5
186
330
1E
100
AcDbEntity
  8
0
100
AcDbLine
 10
373.15
 20
165.14451
 30
0.0
 11
374.35
 21
148.14451
 31
0.0
  0
LINE
  5
187
330
1E
100
AcDbEntity
  8
0
100
AcDbLine
 10
372.05
 20
181.54451
 30
0.0
 11
373.15
 21
165.14451
 31
0.0
  0
LINE
  5
188
330
1E
100
AcDbEntity
  8
0
100
AcDbLine
 10
428.65
 20
218.34551
 30
0.0
 11
429.85
 21
232.04451
 31
0.0
  0
LINE
  5
189
330
1E
100
AcDbEntity
  8
0
100
AcDbLine
 10
370.25
 20
199.94451
 30
0.0
 11
372.05
 21
181.54451
 31
0.0
  0
LINE
  5
18A
330
1E
100
AcDbEntity
  8
0
100
AcDbLine
 10
368.85
 20
218.34551
 30
0.0
 11
370.25
 21
199.94451
 31
0.0
  0
LINE
  5
18B
330
1E
100
AcDbEntity
  8
0
100
AcDbLine
 10
187.75
 20
219.54451
 30
0.0
 11
196.15
 21
222.94451
 31
0.0
  0
LINE
  5
18C
330
1E
100
AcDbEntity
  8
0
100
AcDbLine
 10
145.05
 20
262.24451
 30
0.0
 11
148.45
 21
270.64451
 31
0.0
  0
LINE
  5
18D
330
1E
100
AcDbEntity
  8
0
100
AcDbLine
 10
144.75
 20
253.24451
 30
0.0
 11
145.95
 21
244.54451
 31
0.0
  0
LINE
  5
18E
330
1E
100
AcDbEntity
  8
0
100
AcDbLine
 10
144.75
 20
253.24451
 30
0.0
 11
145.95
 21
261.94451
 31
0.0
  0
LINE
  5
18F
330
1E
100
AcDbEntity
  8
0
100
AcDbLine
 10
176.75
 20
221.24451
 30
0.0
 11
176.822
 21
221.24451
 31
0.0
  0
LINE
  5
190
330
1E
100
AcDbEntity
  8
0
100
AcDbLine
 10
176.75
 20
221.24451
 30
0.0
 11
176.75
 21
226.534365072464
 31
0.0
  0
LINE
  5
191
330
1E
100
AcDbEntity
  8
0
100
AcDbLine
 10
176.822
 20
221.24451
 30
0.0
 11
177.014
 21
221.24451
 31
0.0
  0
LINE
  5
192
330
1E
100
AcDbEntity
  8
0
100
AcDbLine
 10
177.014
 20
221.24451
 30
0.0
 11
177.334
 21
221.24451
 31
0.0
  0
LINE
  5
193
330
1E
100
AcDbEntity
  8
0
100
AcDbLine
 10
177.334
 20
221.24451
 30
0.0
 11
177.758
 21
221.24451
 31
0.0
  0
LINE
  5
194
330
1E
100
AcDbEntity
  8
0
100
AcDbLine
 10
180.75
 20
221.24451
 30
0.0
 11
180.75
 21
226.534365072464
 31
0.0
  0
LINE
  5
195
330
1E
100
AcDbEntity
  8
0
100
AcDbLine
 10
180.678
 20
221.24451
 30
0.0
 11
180.75
 21
221.24451
 31
0.0
  0
LINE
  5
196
330
1E
100
AcDbEntity
  8
0
100
AcDbLine
 10
180.486
 20
221.24451
 30
0.0
 11
180.678
 21
221.24451
 31
0.0
  0
LINE
  5
197
330
1E
100
AcDbEntity
  8
0
100
AcDbLine
 10
180.166
 20
221.24451
 30
0.0
 11
180.486
 21
221.24451
 31
0.0
  0
LINE
  5
198
330
1E
100
AcDbEntity
  8
0
100
AcDbLine
 10
179.742
 20
221.24451
 30
0.0
 11
180.166
 21
221.24451
 31
0.0
  0
LINE
  5
199
330
1E
100
AcDbEntity
  8
0
100
AcDbLine
 10
179.262
 20
221.24451
 30
0.0
 11
179.742
 21
221.24451
 31
0.0
  0
LINE
  5
19A
330
1E
100
AcDbEntity
  8
0
100
AcDbLine
 10
178.75
 20
221.24451
 30
0.0
 11
179.262
 21
221.24451
 31
0.0
  0
LINE
  5
19B
330
1E
100
AcDbEntity
  8
0
100
AcDbLine
 10
177.758
 20
221.24451
 30
0.0
 11
178.238
 21
221.24451
 31
0.0
  0
LINE
  5
19C
330
1E
100
AcDbEntity
  8
0
100
AcDbLine
 10
178.238
 20
221.24451
 30
0.0
 11
178.75
 21
221.24451
 31
0.0
  0
LINE
  5
19D
330
1E
100
AcDbEntity
  8
0
100
AcDbLine
 10
286.75
 20
221.24451
 30
0.0
 11
286.822
 21
221.24451
 31
0.0
  0
LINE
  5
19E
330
1E
100
AcDbEntity
  8
0
100
AcDbLine
 10
286.75
 20
221.24451
 30
0.0
 11
286.75
 21
226.534365072464
 31
0.0
  0
LINE
  5
19F
330
1E
100
AcDbEntity
  8
0
100
AcDbLine
 10
286.822
 20
221.24451
 30
0.0
 11
287.014
 21
221.24451
 31
0.0
  0
LINE
  5
1A0
330
1E
100
AcDbEntity
  8
0
100
AcDbLine
 10
287.014
 20
221.24451
 30
0.0
 11
287.334
 21
221.24451
 31
0.0
  0
LINE
  5
1A1
330
1E
100
AcDbEntity
  8
0
100
AcDbLine
 10
287.334
 20
221.24451
 30
0.0
 11
287.758
 21
221.24451
 31
0.0
  0
LINE
  5
1A2
330
1E
100
AcDbEntity
  8
0
100
AcDbLine
 10
290.75
 20
221.24451
 30
0.0
 11
290.75
 21
226.534365072464
 31
0.0
  0
LINE
  5
1A3
330
1E
100
AcDbEntity
  8
0
100
AcDbLine
 10
290.678
 20
221.24451
 30
0.0
 11
290.75
 21
221.24451
 31
0.0
  0
LINE
  5
1A4
330
1E
100
AcDbEntity
  8
0
100
AcDbLine
 10
290.486
 20
221.24451
 30
0.0
 11
290.678
 21
221.24451
 31
0.0
  0
LINE
  5
1A5
330
1E
100
AcDbEntity
  8
0
100
AcDbLine
 10
290.166
 20
221.24451
 30
0.0
 11
290.486
 21
221.24451
 31
0.0
  0
LINE
  5
1A6
330
1E
100
AcDbEntity
  8
0
100
AcDbLine
 10
289.742
 20
221.24451
 30
0.0
 11
290.166
 21
221.24451
 31
0.0
  0
LINE
  5
1A7
330
1E
100
AcDbEntity
  8
0
100
AcDbLine
 10
289.262
 20
221.24451
 30
0.0
 11
289.742
 21
221.24451
 31
0.0
  0
LINE
  5
1A8
330
1E
100
AcDbEntity
  8
0
100
AcDbLine
 10
288.75
 20
221.24451
 30
0.0
 11
289.262
 21
221.24451
 31
0.0
  0
LINE
  5
1A9
330
1E
100
AcDbEntity
  8
0
100
AcDbLine
 10
287.758
 20
221.24451
 30
0.0
 11
288.238
 21
221.24451
 31
0.0
  0
LINE
  5
1AA
330
1E
100
AcDbEntity
  8
0
100
AcDbLine
 10
288.238
 20
221.24451
 30
0.0
 11
288.75
 21
221.24451
 31
0.0
  0
LINE
  5
1AB
330
1E
100
AcDbEntity
  8
0
100
AcDbLine
 10
280.05
 20
220.44451
 30
0.0
 11
288.75
 21
219.24451
 31
0.0
  0
LINE
  5
1AC
330
1E
100
AcDbEntity
  8
0
100
AcDbLine
 10
271.35
 20
222.94451
 30
0.0
 11
279.75
 21
219.54451
 31
0.0
  0
LINE
  5
1AD
330
1E
100
AcDbEntity
  8
0
100
AcDbLine
 10
297.45
 20
220.44451
 30
0.0
 11
305.65
 21
223.84451
 31
0.0
  0
LINE
  5
1AE
330
1E
100
AcDbEntity
  8
0
100
AcDbLine
 10
306.15
 20
222.94451
 30
0.0
 11
313.45
 21
228.54451
 31
0.0
  0
LINE
  5
1AF
330
1E
100
AcDbEntity
  8
0
100
AcDbLine
 10
187.45
 20
220.44451
 30
0.0
 11
195.65
 21
223.84451
 31
0.0
  0
LINE
  5
1B0
330
1E
100
AcDbEntity
  8
0
100
AcDbLine
 10
196.15
 20
222.94451
 30
0.0
 11
203.45
 21
228.54451
 31
0.0
  0
LINE
  5
1B1
330
1E
100
AcDbEntity
  8
0
100
AcDbLine
 10
170.05
 20
220.44451
 30
0.0
 11
178.75
 21
219.24451
 31
0.0
  0
LINE
  5
1B2
330
1E
100
AcDbEntity
  8
0
100
AcDbLine
 10
271.85
 20
223.84451
 30
0.0
 11
280.05
 21
220.44451
 31
0.0
  0
LINE
  5
1B3
330
1E
100
AcDbEntity
  8
0
100
AcDbLine
 10
305.65
 20
223.84451
 30
0.0
 11
312.75
 21
229.24451
 31
0.0
  0
LINE
  5
1B4
330
1E
100
AcDbEntity
  8
0
100
AcDbLine
 10
195.65
 20
223.84451
 30
0.0
 11
202.75
 21
229.24451
 31
0.0
  0
LINE
  5
1B5
330
1E
100
AcDbEntity
  8
0
100
AcDbLine
 10
176.75
 20
226.534365072464
 30
0.0
 11
176.75
 21
221.24451
 31
0.0
  0
LINE
  5
1B6
330
1E
100
AcDbEntity
  8
0
100
AcDbLine
 10
178.75
 20
226.74451
 30
0.0
 11
185.55
 21
227.74451
 31
0.0
  0
LINE
  5
1B7
330
1E
100
AcDbEntity
  8
0
100
AcDbLine
 10
178.75
 20
226.24451
 30
0.0
 11
185.65
 21
227.24451
 31
0.0
  0
LINE
  5
1B8
330
1E
100
AcDbEntity
  8
0
100
AcDbLine
 10
185.55
 20
227.74451
 30
0.0
 11
191.95
 21
230.24451
 31
0.0
  0
LINE
  5
1B9
330
1E
100
AcDbEntity
  8
0
100
AcDbLine
 10
185.65
 20
227.24451
 30
0.0
 11
192.15
 21
229.84451
 31
0.0
  0
LINE
  5
1BA
330
1E
100
AcDbEntity
  8
0
100
AcDbLine
 10
180.75
 20
226.534365072464
 30
0.0
 11
185.65
 21
227.24451
 31
0.0
  0
LINE
  5
1BB
330
1E
100
AcDbEntity
  8
0
100
AcDbLine
 10
180.75
 20
226.534365072464
 30
0.0
 11
180.75
 21
221.24451
 31
0.0
  0
LINE
  5
1BC
330
1E
100
AcDbEntity
  8
0
100
AcDbLine
 10
171.95
 20
227.74451
 30
0.0
 11
178.75
 21
226.74451
 31
0.0
  0
LINE
  5
1BD
330
1E
100
AcDbEntity
  8
0
100
AcDbLine
 10
171.85
 20
227.24451
 30
0.0
 11
176.75
 21
226.534365072464
 31
0.0
  0
LINE
  5
1BE
330
1E
100
AcDbEntity
  8
0
100
AcDbLine
 10
171.85
 20
227.24451
 30
0.0
 11
178.75
 21
226.24451
 31
0.0
  0
LINE
  5
1BF
330
1E
100
AcDbEntity
  8
0
100
AcDbLine
 10
192.15
 20
229.84451
 30
0.0
 11
197.75
 21
234.24451
 31
0.0
  0
LINE
  5
1C0
330
1E
100
AcDbEntity
  8
0
100
AcDbLine
 10
191.95
 20
230.24451
 30
0.0
 11
197.45
 21
234.54451
 31
0.0
  0
LINE
  5
1C1
330
1E
100
AcDbEntity
  8
0
100
AcDbLine
 10
197.45
 20
234.54451
 30
0.0
 11
201.75
 21
240.04451
 31
0.0
  0
LINE
  5
1C2
330
1E
100
AcDbEntity
  8
0
100
AcDbLine
 10
197.75
 20
234.24451
 30
0.0
 11
202.15
 21
239.84451
 31
0.0
  0
LINE
  5
1C3
330
1E
100
AcDbEntity
  8
0
100
AcDbLine
 10
165.55
 20
230.24451
 30
0.0
 11
171.95
 21
227.74451
 31
0.0
  0
LINE
  5
1C4
330
1E
100
AcDbEntity
  8
0
100
AcDbLine
 10
160.05
 20
234.54451
 30
0.0
 11
165.55
 21
230.24451
 31
0.0
  0
LINE
  5
1C5
330
1E
100
AcDbEntity
  8
0
100
AcDbLine
 10
165.35
 20
229.84451
 30
0.0
 11
171.85
 21
227.24451
 31
0.0
  0
LINE
  5
1C6
330
1E
100
AcDbEntity
  8
0
100
AcDbLine
 10
159.75
 20
234.24451
 30
0.0
 11
165.35
 21
229.84451
 31
0.0
  0
LINE
  5
1C7
330
1E
100
AcDbEntity
  8
0
100
AcDbLine
 10
202.75
 20
229.24451
 30
0.0
 11
208.15
 21
236.34451
 31
0.0
  0
LINE
  5
1C8
330
1E
100
AcDbEntity
  8
0
100
AcDbLine
 10
286.75
 20
226.534365072464
 30
0.0
 11
286.75
 21
221.24451
 31
0.0
  0
LINE
  5
1C9
330
1E
100
AcDbEntity
  8
0
100
AcDbLine
 10
288.75
 20
226.24451
 30
0.0
 11
295.65
 21
227.24451
 31
0.0
  0
LINE
  5
1CA
330
1E
100
AcDbEntity
  8
0
100
AcDbLine
 10
281.95
 20
227.74451
 30
0.0
 11
288.75
 21
226.74451
 31
0.0
  0
LINE
  5
1CB
330
1E
100
AcDbEntity
  8
0
100
AcDbLine
 10
281.85
 20
227.24451
 30
0.0
 11
286.75
 21
226.534365072464
 31
0.0
  0
LINE
  5
1CC
330
1E
100
AcDbEntity
  8
0
100
AcDbLine
 10
281.85
 20
227.24451
 30
0.0
 11
288.75
 21
226.24451
 31
0.0
  0
LINE
  5
1CD
330
1E
100
AcDbEntity
  8
0
100
AcDbLine
 10
288.75
 20
226.74451
 30
0.0
 11
295.55
 21
227.74451
 31
0.0
  0
LINE
  5
1CE
330
1E
100
AcDbEntity
  8
0
100
AcDbLine
 10
264.75
 20
229.24451
 30
0.0
 11
271.85
 21
223.84451
 31
0.0
  0
LINE
  5
1CF
330
1E
100
AcDbEntity
  8
0
100
AcDbLine
 10
264.05
 20
228.54451
 30
0.0
 11
271.35
 21
222.94451
 31
0.0
  0
LINE
  5
1D0
330
1E
100
AcDbEntity
  8
0
100
AcDbLine
 10
275.55
 20
230.24451
 30
0.0
 11
281.95
 21
227.74451
 31
0.0
  0
LINE
  5
1D1
330
1E
100
AcDbEntity
  8
0
100
AcDbLine
 10
275.35
 20
229.84451
 30
0.0
 11
281.85
 21
227.24451
 31
0.0
  0
LINE
  5
1D2
330
1E
100
AcDbEntity
  8
0
100
AcDbLine
 10
269.75
 20
234.24451
 30
0.0
 11
275.35
 21
229.84451
 31
0.0
  0
LINE
  5
1D3
330
1E
100
AcDbEntity
  8
0
100
AcDbLine
 10
295.55
 20
227.74451
 30
0.0
 11
301.95
 21
230.24451
 31
0.0
  0
LINE
  5
1D4
330
1E
100
AcDbEntity
  8
0
100
AcDbLine
 10
301.95
 20
230.24451
 30
0.0
 11
307.45
 21
234.54451
 31
0.0
  0
LINE
  5
1D5
330
1E
100
AcDbEntity
  8
0
100
AcDbLine
 10
295.65
 20
227.24451
 30
0.0
 11
302.15
 21
229.84451
 31
0.0
  0
LINE
  5
1D6
330
1E
100
AcDbEntity
  8
0
100
AcDbLine
 10
290.75
 20
226.534365072464
 30
0.0
 11
295.65
 21
227.24451
 31
0.0
  0
LINE
  5
1D7
330
1E
100
AcDbEntity
  8
0
100
AcDbLine
 10
290.75
 20
226.534365072464
 30
0.0
 11
290.75
 21
221.24451
 31
0.0
  0
LINE
  5
1D8
330
1E
100
AcDbEntity
  8
0
100
AcDbLine
 10
312.75
 20
229.24451
 30
0.0
 11
318.15
 21
236.34451
 31
0.0
  0
LINE
  5
1D9
330
1E
100
AcDbEntity
  8
0
100
AcDbLine
 10
313.45
 20
228.54451
 30
0.0
 11
319.05
 21
235.84451
 31
0.0
  0
LINE
  5
1DA
330
1E
100
AcDbEntity
  8
0
100
AcDbLine
 10
302.15
 20
229.84451
 30
0.0
 11
307.75
 21
234.24451
 31
0.0
  0
LINE
  5
1DB
330
1E
100
AcDbEntity
  8
0
100
AcDbLine
 10
258.45
 20
235.84451
 30
0.0
 11
264.05
 21
228.54451
 31
0.0
  0
LINE
  5
1DC
330
1E
100
AcDbEntity
  8
0
100
AcDbLine
 10
270.05
 20
234.54451
 30
0.0
 11
275.55
 21
230.24451
 31
0.0
  0
LINE
  5
1DD
330
1E
100
AcDbEntity
  8
0
100
AcDbLine
 10
319.05
 20
235.84451
 30
0.0
 11
322.45
 21
244.24451
 31
0.0
  0
LINE
  5
1DE
330
1E
100
AcDbEntity
  8
0
100
AcDbLine
 10
307.45
 20
234.54451
 30
0.0
 11
311.75
 21
240.04451
 31
0.0
  0
LINE
  5
1DF
330
1E
100
AcDbEntity
  8
0
100
AcDbLine
 10
307.75
 20
234.24451
 30
0.0
 11
312.15
 21
239.84451
 31
0.0
  0
LINE
  5
1E0
330
1E
100
AcDbEntity
  8
0
100
AcDbLine
 10
429.85
 20
232.04451
 30
0.0
 11
430.65
 21
242.44451
 31
0.0
  0
LINE
  5
1E1
330
1E
100
AcDbEntity
  8
0
100
AcDbLine
 10
367.65
 20
232.04451
 30
0.0
 11
368.85
 21
218.34551
 31
0.0
  0
LINE
  5
1E2
330
1E
100
AcDbEntity
  8
0
100
AcDbLine
 10
209.05
 20
235.84451
 30
0.0
 11
212.45
 21
244.24451
 31
0.0
  0
LINE
  5
1E3
330
1E
100
AcDbEntity
  8
0
100
AcDbLine
 10
203.45
 20
228.54451
 30
0.0
 11
209.05
 21
235.84451
 31
0.0
  0
LINE
  5
1E4
330
1E
100
AcDbEntity
  8
0
100
AcDbLine
 10
161.85
 20
223.84451
 30
0.0
 11
170.05
 21
220.44451
 31
0.0
  0
LINE
  5
1E5
330
1E
100
AcDbEntity
  8
0
100
AcDbLine
 10
154.75
 20
229.24451
 30
0.0
 11
161.85
 21
223.84451
 31
0.0
  0
LINE
  5
1E6
330
1E
100
AcDbEntity
  8
0
100
AcDbLine
 10
161.35
 20
222.94451
 30
0.0
 11
169.75
 21
219.54451
 31
0.0
  0
LINE
  5
1E7
330
1E
100
AcDbEntity
  8
0
100
AcDbLine
 10
154.05
 20
228.54451
 30
0.0
 11
161.35
 21
222.94451
 31
0.0
  0
LINE
  5
1E8
330
1E
100
AcDbEntity
  8
0
100
AcDbLine
 10
145.95
 20
261.94451
 30
0.0
 11
149.35
 21
270.14451
 31
0.0
  0
LINE
  5
1E9
330
1E
100
AcDbEntity
  8
0
100
AcDbLine
 10
259.35
 20
236.34451
 30
0.0
 11
264.75
 21
229.24451
 31
0.0
  0
LINE
  5
1EA
330
1E
100
AcDbEntity
  8
0
100
AcDbLine
 10
318.15
 20
236.34451
 30
0.0
 11
321.55
 21
244.54451
 31
0.0
  0
LINE
  5
1EB
330
1E
100
AcDbEntity
  8
0
100
AcDbLine
 10
208.15
 20
236.34451
 30
0.0
 11
211.55
 21
244.54451
 31
0.0
  0
LINE
  5
1EC
330
1E
100
AcDbEntity
  8
0
100
AcDbLine
 10
201.75
 20
240.04451
 30
0.0
 11
204.25
 21
246.44451
 31
0.0
  0
LINE
  5
1ED
330
1E
100
AcDbEntity
  8
0
100
AcDbLine
 10
202.15
 20
239.84451
 30
0.0
 11
204.75
 21
246.34451
 31
0.0
  0
LINE
  5
1EE
330
1E
100
AcDbEntity
  8
0
100
AcDbLine
 10
155.75
 20
240.04451
 30
0.0
 11
160.05
 21
234.54451
 31
0.0
  0
LINE
  5
1EF
330
1E
100
AcDbEntity
  8
0
100
AcDbLine
 10
155.35
 20
239.84451
 30
0.0
 11
159.75
 21
234.24451
 31
0.0
  0
LINE
  5
1F0
330
1E
100
AcDbEntity
  8
0
100
AcDbLine
 10
146.75
 20
251.24451
 30
0.0
 11
146.75
 21
251.31651
 31
0.0
  0
LINE
  5
1F1
330
1E
100
AcDbEntity
  8
0
100
AcDbLine
 10
146.75
 20
251.24451
 30
0.0
 11
152.039855072464
 21
251.24451
 31
0.0
  0
LINE
  5
1F2
330
1E
100
AcDbEntity
  8
0
100
AcDbLine
 10
146.75
 20
251.31651
 30
0.0
 11
146.75
 21
251.50851
 31
0.0
  0
LINE
  5
1F3
330
1E
100
AcDbEntity
  8
0
100
AcDbLine
 10
146.75
 20
251.31651
 30
0.0
 11
146.75
 21
251.24451
 31
0.0
  0
LINE
  5
1F4
330
1E
100
AcDbEntity
  8
0
100
AcDbLine
 10
146.75
 20
251.50851
 30
0.0
 11
146.75
 21
251.82851
 31
0.0
  0
LINE
  5
1F5
330
1E
100
AcDbEntity
  8
0
100
AcDbLine
 10
146.75
 20
251.50851
 30
0.0
 11
146.75
 21
251.31651
 31
0.0
  0
LINE
  5
1F6
330
1E
100
AcDbEntity
  8
0
100
AcDbLine
 10
146.75
 20
251.82851
 30
0.0
 11
146.75
 21
252.25251
 31
0.0
  0
LINE
  5
1F7
330
1E
100
AcDbEntity
  8
0
100
AcDbLine
 10
146.75
 20
251.82851
 30
0.0
 11
146.75
 21
251.50851
 31
0.0
  0
LINE
  5
1F8
330
1E
100
AcDbEntity
  8
0
100
AcDbLine
 10
146.75
 20
252.25251
 30
0.0
 11
146.75
 21
252.73251
 31
0.0
  0
LINE
  5
1F9
330
1E
100
AcDbEntity
  8
0
100
AcDbLine
 10
146.75
 20
252.25251
 30
0.0
 11
146.75
 21
251.82851
 31
0.0
  0
LINE
  5
1FA
330
1E
100
AcDbEntity
  8
0
100
AcDbLine
 10
146.75
 20
255.24451
 30
0.0
 11
146.75
 21
255.17251
 31
0.0
  0
LINE
  5
1FB
330
1E
100
AcDbEntity
  8
0
100
AcDbLine
 10
146.75
 20
255.24451
 30
0.0
 11
152.039855072464
 21
255.24451
 31
0.0
  0
LINE
  5
1FC
330
1E
100
AcDbEntity
  8
0
100
AcDbLine
 10
146.75
 20
255.17251
 30
0.0
 11
146.75
 21
254.98051
 31
0.0
  0
LINE
  5
1FD
330
1E
100
AcDbEntity
  8
0
100
AcDbLine
 10
146.75
 20
255.17251
 30
0.0
 11
146.75
 21
255.24451
 31
0.0
  0
LINE
  5
1FE
330
1E
100
AcDbEntity
  8
0
100
AcDbLine
 10
146.75
 20
254.98051
 30
0.0
 11
146.75
 21
254.66051
 31
0.0
  0
LINE
  5
1FF
330
1E
100
AcDbEntity
  8
0
100
AcDbLine
 10
146.75
 20
254.98051
 30
0.0
 11
146.75
 21
255.17251
 31
0.0
  0
LINE
  5
200
330
1E
100
AcDbEntity
  8
0
100
AcDbLine
 10
146.75
 20
254.66051
 30
0.0
 11
146.75
 21
254.23651
 31
0.0
  0
LINE
  5
201
330
1E
100
AcDbEntity
  8
0
100
AcDbLine
 10
146.75
 20
254.66051
 30
0.0
 11
146.75
 21
254.98051
 31
0.0
  0
LINE
  5
202
330
1E
100
AcDbEntity
  8
0
100
AcDbLine
 10
146.75
 20
254.23651
 30
0.0
 11
146.75
 21
253.75651
 31
0.0
  0
LINE
  5
203
330
1E
100
AcDbEntity
  8
0
100
AcDbLine
 10
146.75
 20
254.23651
 30
0.0
 11
146.75
 21
254.66051
 31
0.0
  0
LINE
  5
204
330
1E
100
AcDbEntity
  8
0
100
AcDbLine
 10
146.75
 20
253.75651
 30
0.0
 11
146.75
 21
253.24451
 31
0.0
  0
LINE
  5
205
330
1E
100
AcDbEntity
  8
0
100
AcDbLine
 10
146.75
 20
253.75651
 30
0.0
 11
146.75
 21
254.23651
 31
0.0
  0
LINE
  5
206
330
1E
100
AcDbEntity
  8
0
100
AcDbLine
 10
146.75
 20
253.24451
 30
0.0
 11
146.75
 21
252.73251
 31
0.0
  0
LINE
  5
207
330
1E
100
AcDbEntity
  8
0
100
AcDbLine
 10
146.75
 20
253.24451
 30
0.0
 11
146.75
 21
253.75651
 31
0.0
  0
LINE
  5
208
330
1E
100
AcDbEntity
  8
0
100
AcDbLine
 10
146.75
 20
252.73251
 30
0.0
 11
146.75
 21
253.24451
 31
0.0
  0
LINE
  5
209
330
1E
100
AcDbEntity
  8
0
100
AcDbLine
 10
146.75
 20
252.73251
 30
0.0
 11
146.75
 21
252.25251
 31
0.0
  0
LINE
  5
20A
330
1E
100
AcDbEntity
  8
0
100
AcDbLine
 10
204.25
 20
246.44451
 30
0.0
 11
205.25
 21
253.24451
 31
0.0
  0
LINE
  5
20B
330
1E
100
AcDbEntity
  8
0
100
AcDbLine
 10
204.75
 20
246.34451
 30
0.0
 11
205.75
 21
253.24451
 31
0.0
  0
LINE
  5
20C
330
1E
100
AcDbEntity
  8
0
100
AcDbLine
 10
205.460144927536
 20
251.24451
 30
0.0
 11
210.75
 21
251.24451
 31
0.0
  0
LINE
  5
20D
330
1E
100
AcDbEntity
  8
0
100
AcDbLine
 10
210.75
 20
251.24451
 30
0.0
 11
210.75
 21
251.31651
 31
0.0
  0
LINE
  5
20E
330
1E
100
AcDbEntity
  8
0
100
AcDbLine
 10
153.25
 20
246.44451
 30
0.0
 11
155.75
 21
240.04451
 31
0.0
  0
LINE
  5
20F
330
1E
100
AcDbEntity
  8
0
100
AcDbLine
 10
152.75
 20
246.34451
 30
0.0
 11
155.35
 21
239.84451
 31
0.0
  0
LINE
  5
210
330
1E
100
AcDbEntity
  8
0
100
AcDbLine
 10
210.75
 20
251.31651
 30
0.0
 11
210.75
 21
251.50851
 31
0.0
  0
LINE
  5
211
330
1E
100
AcDbEntity
  8
0
100
AcDbLine
 10
210.75
 20
251.31651
 30
0.0
 11
210.75
 21
251.24451
 31
0.0
  0
LINE
  5
212
330
1E
100
AcDbEntity
  8
0
100
AcDbLine
 10
210.75
 20
251.50851
 30
0.0
 11
210.75
 21
251.82851
 31
0.0
  0
LINE
  5
213
330
1E
100
AcDbEntity
  8
0
100
AcDbLine
 10
210.75
 20
251.50851
 30
0.0
 11
210.75
 21
251.31651
 31
0.0
  0
LINE
  5
214
330
1E
100
AcDbEntity
  8
0
100
AcDbLine
 10
210.75
 20
251.82851
 30
0.0
 11
210.75
 21
252.25251
 31
0.0
  0
LINE
  5
215
330
1E
100
AcDbEntity
  8
0
100
AcDbLine
 10
210.75
 20
251.82851
 30
0.0
 11
210.75
 21
251.50851
 31
0.0
  0
LINE
  5
216
330
1E
100
AcDbEntity
  8
0
100
AcDbLine
 10
210.75
 20
253.24451
 30
0.0
 11
210.75
 21
252.73251
 31
0.0
  0
LINE
  5
217
330
1E
100
AcDbEntity
  8
0
100
AcDbLine
 10
210.75
 20
253.24451
 30
0.0
 11
210.75
 21
253.75651
 31
0.0
  0
LINE
  5
218
330
1E
100
AcDbEntity
  8
0
100
AcDbLine
 10
210.75
 20
252.25251
 30
0.0
 11
210.75
 21
252.73251
 31
0.0
  0
LINE
  5
219
330
1E
100
AcDbEntity
  8
0
100
AcDbLine
 10
210.75
 20
252.25251
 30
0.0
 11
210.75
 21
251.82851
 31
0.0
  0
LINE
  5
21A
330
1E
100
AcDbEntity
  8
0
100
AcDbLine
 10
210.75
 20
252.73251
 30
0.0
 11
210.75
 21
253.24451
 31
0.0
  0
LINE
  5
21B
330
1E
100
AcDbEntity
  8
0
100
AcDbLine
 10
210.75
 20
252.73251
 30
0.0
 11
210.75
 21
252.25251
 31
0.0
  0
LINE
  5
21C
330
1E
100
AcDbEntity
  8
0
100
AcDbLine
 10
152.75
 20
260.14451
 30
0.0
 11
155.35
 21
266.64451
 31
0.0
  0
LINE
  5
21D
330
1E
100
AcDbEntity
  8
0
100
AcDbLine
 10
155.75
 20
266.44451
 30
0.0
 11
160.05
 21
271.94451
 31
0.0
  0
LINE
  5
21E
330
1E
100
AcDbEntity
  8
0
100
AcDbLine
 10
153.25
 20
260.04451
 30
0.0
 11
155.75
 21
266.44451
 31
0.0
  0
LINE
  5
21F
330
1E
100
AcDbEntity
  8
0
100
AcDbLine
 10
155.35
 20
266.64451
 30
0.0
 11
159.75
 21
272.24451
 31
0.0
  0
LINE
  5
220
330
1E
100
AcDbEntity
  8
0
100
AcDbLine
 10
201.75
 20
266.44451
 30
0.0
 11
204.25
 21
260.04451
 31
0.0
  0
LINE
  5
221
330
1E
100
AcDbEntity
  8
0
100
AcDbLine
 10
210.75
 20
255.24451
 30
0.0
 11
210.75
 21
255.17251
 31
0.0
  0
LINE
  5
222
330
1E
100
AcDbEntity
  8
0
100
AcDbLine
 10
210.75
 20
255.17251
 30
0.0
 11
210.75
 21
255.24451
 31
0.0
  0
LINE
  5
223
330
1E
100
AcDbEntity
  8
0
100
AcDbLine
 10
210.75
 20
255.17251
 30
0.0
 11
210.75
 21
254.98051
 31
0.0
  0
LINE
  5
224
330
1E
100
AcDbEntity
  8
0
100
AcDbLine
 10
210.75
 20
254.98051
 30
0.0
 11
210.75
 21
255.17251
 31
0.0
  0
LINE
  5
225
330
1E
100
AcDbEntity
  8
0
100
AcDbLine
 10
210.75
 20
254.98051
 30
0.0
 11
210.75
 21
254.66051
 31
0.0
  0
LINE
  5
226
330
1E
100
AcDbEntity
  8
0
100
AcDbLine
 10
210.75
 20
254.66051
 30
0.0
 11
210.75
 21
254.98051
 31
0.0
  0
LINE
  5
227
330
1E
100
AcDbEntity
  8
0
100
AcDbLine
 10
210.75
 20
254.66051
 30
0.0
 11
210.75
 21
254.23651
 31
0.0
  0
LINE
  5
228
330
1E
100
AcDbEntity
  8
0
100
AcDbLine
 10
210.75
 20
254.23651
 30
0.0
 11
210.75
 21
254.66051
 31
0.0
  0
LINE
  5
229
330
1E
100
AcDbEntity
  8
0
100
AcDbLine
 10
210.75
 20
254.23651
 30
0.0
 11
210.75
 21
253.75651
 31
0.0
  0
LINE
  5
22A
330
1E
100
AcDbEntity
  8
0
100
AcDbLine
 10
210.75
 20
253.75651
 30
0.0
 11
210.75
 21
254.23651
 31
0.0
  0
LINE
  5
22B
330
1E
100
AcDbEntity
  8
0
100
AcDbLine
 10
210.75
 20
253.75651
 30
0.0
 11
210.75
 21
253.24451
 31
0.0
  0
LINE
  5
22C
330
1E
100
AcDbEntity
  8
0
100
AcDbLine
 10
205.460144927536
 20
255.24451
 30
0.0
 11
210.75
 21
255.24451
 31
0.0
  0
LINE
  5
22D
330
1E
100
AcDbEntity
  8
0
100
AcDbLine
 10
204.25
 20
260.04451
 30
0.0
 11
205.25
 21
253.24451
 31
0.0
  0
LINE
  5
22E
330
1E
100
AcDbEntity
  8
0
100
AcDbLine
 10
204.75
 20
260.14451
 30
0.0
 11
205.75
 21
253.24451
 31
0.0
  0
LINE
  5
22F
330
1E
100
AcDbEntity
  8
0
100
AcDbLine
 10
202.15
 20
266.64451
 30
0.0
 11
204.75
 21
260.14451
 31
0.0
  0
LINE
  5
230
330
1E
100
AcDbEntity
  8
0
100
AcDbLine
 10
202.15
 20
266.64451
 30
0.0
 11
204.75
 21
260.14451
 31
0.0
  0
LINE
  5
231
330
1E
100
AcDbEntity
  8
0
100
AcDbLine
 10
152.25
 20
253.24451
 30
0.0
 11
153.25
 21
246.44451
 31
0.0
  0
LINE
  5
232
330
1E
100
AcDbEntity
  8
0
100
AcDbLine
 10
152.25
 20
253.24451
 30
0.0
 11
153.25
 21
260.04451
 31
0.0
  0
LINE
  5
233
330
1E
100
AcDbEntity
  8
0
100
AcDbLine
 10
151.75
 20
253.24451
 30
0.0
 11
152.75
 21
246.34451
 31
0.0
  0
LINE
  5
234
330
1E
100
AcDbEntity
  8
0
100
AcDbLine
 10
151.75
 20
253.24451
 30
0.0
 11
152.75
 21
260.14451
 31
0.0
  0
LINE
  5
235
330
1E
100
AcDbEntity
  8
0
100
AcDbLine
 10
152.039855072464
 20
251.24451
 30
0.0
 11
152.75
 21
246.34451
 31
0.0
  0
LINE
  5
236
330
1E
100
AcDbEntity
  8
0
100
AcDbLine
 10
149.35
 20
270.14451
 30
0.0
 11
154.75
 21
277.24451
 31
0.0
  0
LINE
  5
237
330
1E
100
AcDbEntity
  8
0
100
AcDbLine
 10
148.45
 20
270.64451
 30
0.0
 11
154.05
 21
277.94451
 31
0.0
  0
LINE
  5
238
330
1E
100
AcDbEntity
  8
0
100
AcDbLine
 10
208.15
 20
270.14451
 30
0.0
 11
211.55
 21
261.94451
 31
0.0
  0
LINE
  5
239
330
1E
100
AcDbEntity
  8
0
100
AcDbLine
 10
211.55
 20
261.94451
 30
0.0
 11
212.75
 21
253.24451
 31
0.0
  0
LINE
  5
23A
330
1E
100
AcDbEntity
  8
0
100
AcDbLine
 10
165.55
 20
276.24451
 30
0.0
 11
171.95
 21
278.74451
 31
0.0
  0
LINE
  5
23B
330
1E
100
AcDbEntity
  8
0
100
AcDbLine
 10
160.05
 20
271.94451
 30
0.0
 11
165.55
 21
276.24451
 31
0.0
  0
LINE
  5
23C
330
1E
100
AcDbEntity
  8
0
100
AcDbLine
 10
159.75
 20
272.24451
 30
0.0
 11
165.35
 21
276.64451
 31
0.0
  0
LINE
  5
23D
330
1E
100
AcDbEntity
  8
0
100
AcDbLine
 10
165.35
 20
276.64451
 30
0.0
 11
171.85
 21
279.24451
 31
0.0
  0
LINE
  5
23E
330
1E
100
AcDbEntity
  8
0
100
AcDbLine
 10
191.95
 20
276.24451
 30
0.0
 11
197.45
 21
271.94451
 31
0.0
  0
LINE
  5
23F
330
1E
100
AcDbEntity
  8
0
100
AcDbLine
 10
197.45
 20
271.94451
 30
0.0
 11
201.75
 21
266.44451
 31
0.0
  0
LINE
  5
240
330
1E
100
AcDbEntity
  8
0
100
AcDbLine
 10
192.15
 20
276.64451
 30
0.0
 11
197.75
 21
272.24451
 31
0.0
  0
LINE
  5
241
330
1E
100
AcDbEntity
  8
0
100
AcDbLine
 10
197.75
 20
272.24451
 30
0.0
 11
202.15
 21
266.64451
 31
0.0
  0
LINE
  5
242
330
1E
100
AcDbEntity
  8
0
100
AcDbLine
 10
171.95
 20
278.74451
 30
0.0
 11
178.75
 21
279.74451
 31
0.0
  0
LINE
  5
243
330
1E
100
AcDbEntity
  8
0
100
AcDbLine
 10
176.75
 20
279.954654927536
 30
0.0
 11
176.75
 21
285.24451
 31
0.0
  0
LINE
  5
244
330
1E
100
AcDbEntity
  8
0
100
AcDbLine
 10
171.85
 20
279.24451
 30
0.0
 11
176.75
 21
279.954654927536
 31
0.0
  0
LINE
  5
245
330
1E
100
AcDbEntity
  8
0
100
AcDbLine
 10
171.85
 20
279.24451
 30
0.0
 11
178.75
 21
280.24451
 31
0.0
  0
LINE
  5
246
330
1E
100
AcDbEntity
  8
0
100
AcDbLine
 10
178.75
 20
279.74451
 30
0.0
 11
185.55
 21
278.74451
 31
0.0
  0
LINE
  5
247
330
1E
100
AcDbEntity
  8
0
100
AcDbLine
 10
185.55
 20
278.74451
 30
0.0
 11
191.95
 21
276.24451
 31
0.0
  0
LINE
  5
248
330
1E
100
AcDbEntity
  8
0
100
AcDbLine
 10
185.65
 20
279.24451
 30
0.0
 11
192.15
 21
276.64451
 31
0.0
  0
LINE
  5
249
330
1E
100
AcDbEntity
  8
0
100
AcDbLine
 10
178.75
 20
280.24451
 30
0.0
 11
185.65
 21
279.24451
 31
0.0
  0
LINE
  5
24A
330
1E
100
AcDbEntity
  8
0
100
AcDbLine
 10
180.75
 20
279.954654927536
 30
0.0
 11
185.65
 21
279.24451
 31
0.0
  0
LINE
  5
24B
330
1E
100
AcDbEntity
  8
0
100
AcDbLine
 10
180.75
 20
279.954654927536
 30
0.0
 11
180.75
 21
285.24451
 31
0.0
  0
LINE
  5
24C
330
1E
100
AcDbEntity
  8
0
100
AcDbLine
 10
161.85
 20
282.64451
 30
0.0
 11
170.05
 21
286.04451
 31
0.0
  0
LINE
  5
24D
330
1E
100
AcDbEntity
  8
0
100
AcDbLine
 10
154.75
 20
277.24451
 30
0.0
 11
161.85
 21
282.64451
 31
0.0
  0
LINE
  5
24E
330
1E
100
AcDbEntity
  8
0
100
AcDbLine
 10
154.05
 20
277.94451
 30
0.0
 11
161.35
 21
283.54451
 31
0.0
  0
LINE
  5
24F
330
1E
100
AcDbEntity
  8
0
100
AcDbLine
 10
161.35
 20
283.54451
 30
0.0
 11
169.75
 21
286.94451
 31
0.0
  0
LINE
  5
250
330
1E
100
AcDbEntity
  8
0
100
AcDbLine
 10
195.65
 20
282.64451
 30
0.0
 11
202.75
 21
277.24451
 31
0.0
  0
LINE
  5
251
330
1E
100
AcDbEntity
  8
0
100
AcDbLine
 10
202.75
 20
277.24451
 30
0.0
 11
208.15
 21
270.14451
 31
0.0
  0
LINE
  5
252
330
1E
100
AcDbEntity
  8
0
100
AcDbLine
 10
176.75
 20
285.24451
 30
0.0
 11
176.822
 21
285.24451
 31
0.0
  0
LINE
  5
253
330
1E
100
AcDbEntity
  8
0
100
AcDbLine
 10
176.75
 20
285.24451
 30
0.0
 11
176.75
 21
279.954654927536
 31
0.0
  0
LINE
  5
254
330
1E
100
AcDbEntity
  8
0
100
AcDbLine
 10
176.822
 20
285.24451
 30
0.0
 11
177.014
 21
285.24451
 31
0.0
  0
LINE
  5
255
330
1E
100
AcDbEntity
  8
0
100
AcDbLine
 10
177.014
 20
285.24451
 30
0.0
 11
177.334
 21
285.24451
 31
0.0
  0
LINE
  5
256
330
1E
100
AcDbEntity
  8
0
100
AcDbLine
 10
177.334
 20
285.24451
 30
0.0
 11
177.758
 21
285.24451
 31
0.0
  0
LINE
  5
257
330
1E
100
AcDbEntity
  8
0
100
AcDbLine
 10
177.758
 20
285.24451
 30
0.0
 11
178.238
 21
285.24451
 31
0.0
  0
LINE
  5
258
330
1E
100
AcDbEntity
  8
0
100
AcDbLine
 10
180.678
 20
285.24451
 30
0.0
 11
180.75
 21
285.24451
 31
0.0
  0
LINE
  5
259
330
1E
100
AcDbEntity
  8
0
100
AcDbLine
 10
180.486
 20
285.24451
 30
0.0
 11
180.678
 21
285.24451
 31
0.0
  0
LINE
  5
25A
330
1E
100
AcDbEntity
  8
0
100
AcDbLine
 10
180.166
 20
285.24451
 30
0.0
 11
180.486
 21
285.24451
 31
0.0
  0
LINE
  5
25B
330
1E
100
AcDbEntity
  8
0
100
AcDbLine
 10
179.742
 20
285.24451
 30
0.0
 11
180.166
 21
285.24451
 31
0.0
  0
LINE
  5
25C
330
1E
100
AcDbEntity
  8
0
100
AcDbLine
 10
179.262
 20
285.24451
 30
0.0
 11
179.742
 21
285.24451
 31
0.0
  0
LINE
  5
25D
330
1E
100
AcDbEntity
  8
0
100
AcDbLine
 10
178.75
 20
285.24451
 30
0.0
 11
179.262
 21
285.24451
 31
0.0
  0
LINE
  5
25E
330
1E
100
AcDbEntity
  8
0
100
AcDbLine
 10
180.75
 20
285.24451
 30
0.0
 11
180.75
 21
279.954654927536
 31
0.0
  0
LINE
  5
25F
330
1E
100
AcDbEntity
  8
0
100
AcDbLine
 10
178.238
 20
285.24451
 30
0.0
 11
178.75
 21
285.24451
 31
0.0
  0
LINE
  5
260
330
1E
100
AcDbEntity
  8
0
100
AcDbLine
 10
170.05
 20
286.04451
 30
0.0
 11
178.75
 21
287.24451
 31
0.0
  0
LINE
  5
261
330
1E
100
AcDbEntity
  8
0
100
AcDbLine
 10
169.75
 20
286.94451
 30
0.0
 11
178.75
 21
288.24451
 31
0.0
  0
LINE
  5
262
330
1E
100
AcDbEntity
  8
0
100
AcDbLine
 10
178.75
 20
287.24451
 30
0.0
 11
187.45
 21
286.04451
 31
0.0
  0
LINE
  5
263
330
1E
100
AcDbEntity
  8
0
100
AcDbLine
 10
187.45
 20
286.04451
 30
0.0
 11
195.65
 21
282.64451
 31
0.0
  0
LINE
  5
264
330
1E
100
AcDbEntity
  8
0
100
AcDbLine
 10
178.75
 20
288.24451
 30
0.0
 11
187.75
 21
286.94451
 31
0.0
  0
LINE
  5
265
330
1E
100
AcDbEntity
  8
0
100
AcDbLine
 10
187.75
 20
286.94451
 30
0.0
 11
196.15
 21
283.54451
 31
0.0
  0
LINE
  5
266
330
1E
100
AcDbEntity
  8
0
100
AcDbLine
 10
196.15
 20
283.54451
 30
0.0
 11
203.45
 21
277.94451
 31
0.0
  0
LINE
  5
267
330
1E
100
AcDbEntity
  8
0
100
AcDbLine
 10
203.45
 20
277.94451
 30
0.0
 11
209.05
 21
270.64451
 31
0.0
  0
LINE
  5
268
330
1E
100
AcDbEntity
  8
0
100
AcDbLine
 10
209.05
 20
270.64451
 30
0.0
 11
212.45
 21
262.24451
 31
0.0
  0
LINE
  5
269
330
1E
100
AcDbEntity
  8
0
100
AcDbLine
 10
212.45
 20
262.24451
 30
0.0
 11
213.75
 21
253.24451
 31
0.0
  0
LINE
  5
26A
330
1E
100
AcDbEntity
  8
0
100
AcDbLine
 10
211.55
 20
244.54451
 30
0.0
 11
212.75
 21
253.24451
 31
0.0
  0
LINE
  5
26B
330
1E
100
AcDbEntity
  8
0
100
AcDbLine
 10
265.75
 20
240.04451
 30
0.0
 11
270.05
 21
234.54451
 31
0.0
  0
LINE
  5
26C
330
1E
100
AcDbEntity
  8
0
100
AcDbLine
 10
265.35
 20
239.84451
 30
0.0
 11
269.75
 21
234.24451
 31
0.0
  0
LINE
  5
26D
330
1E
100
AcDbEntity
  8
0
100
AcDbLine
 10
255.95
 20
244.54451
 30
0.0
 11
259.35
 21
236.34451
 31
0.0
  0
LINE
  5
26E
330
1E
100
AcDbEntity
  8
0
100
AcDbLine
 10
255.05
 20
244.24451
 30
0.0
 11
258.45
 21
235.84451
 31
0.0
  0
LINE
  5
26F
330
1E
100
AcDbEntity
  8
0
100
AcDbLine
 10
262.75
 20
246.34451
 30
0.0
 11
265.35
 21
239.84451
 31
0.0
  0
LINE
  5
270
330
1E
100
AcDbEntity
  8
0
100
AcDbLine
 10
311.75
 20
240.04451
 30
0.0
 11
314.25
 21
246.44451
 31
0.0
  0
LINE
  5
271
330
1E
100
AcDbEntity
  8
0
100
AcDbLine
 10
321.55
 20
244.54451
 30
0.0
 11
322.75
 21
253.24451
 31
0.0
  0
LINE
  5
272
330
1E
100
AcDbEntity
  8
0
100
AcDbLine
 10
322.45
 20
244.24451
 30
0.0
 11
323.75
 21
253.24451
 31
0.0
  0
LINE
  5
273
330
1E
100
AcDbEntity
  8
0
100
AcDbLine
 10
312.15
 20
239.84451
 30
0.0
 11
314.75
 21
246.34451
 31
0.0
  0
LINE
  5
274
330
1E
100
AcDbEntity
  8
0
100
AcDbLine
 10
256.75
 20
251.24451
 30
0.0
 11
256.75
 21
251.31651
 31
0.0
  0
LINE
  5
275
330
1E
100
AcDbEntity
  8
0
100
AcDbLine
 10
256.75
 20
251.24451
 30
0.0
 11
262.039855072464
 21
251.24451
 31
0.0
  0
LINE
  5
276
330
1E
100
AcDbEntity
  8
0
100
AcDbLine
 10
263.25
 20
246.44451
 30
0.0
 11
265.75
 21
240.04451
 31
0.0
  0
LINE
  5
277
330
1E
100
AcDbEntity
  8
0
100
AcDbLine
 10
256.75
 20
251.31651
 30
0.0
 11
256.75
 21
251.50851
 31
0.0
  0
LINE
  5
278
330
1E
100
AcDbEntity
  8
0
100
AcDbLine
 10
256.75
 20
251.31651
 30
0.0
 11
256.75
 21
251.24451
 31
0.0
  0
LINE
  5
279
330
1E
100
AcDbEntity
  8
0
100
AcDbLine
 10
256.75
 20
251.50851
 30
0.0
 11
256.75
 21
251.82851
 31
0.0
  0
LINE
  5
27A
330
1E
100
AcDbEntity
  8
0
100
AcDbLine
 10
256.75
 20
251.50851
 30
0.0
 11
256.75
 21
251.31651
 31
0.0
  0
LINE
  5
27B
330
1E
100
AcDbEntity
  8
0
100
AcDbLine
 10
256.75
 20
251.82851
 30
0.0
 11
256.75
 21
252.25251
 31
0.0
  0
LINE
  5
27C
330
1E
100
AcDbEntity
  8
0
100
AcDbLine
 10
256.75
 20
251.82851
 30
0.0
 11
256.75
 21
251.50851
 31
0.0
  0
LINE
  5
27D
330
1E
100
AcDbEntity
  8
0
100
AcDbLine
 10
262.039855072464
 20
251.24451
 30
0.0
 11
262.75
 21
246.34451
 31
0.0
  0
LINE
  5
27E
330
1E
100
AcDbEntity
  8
0
100
AcDbLine
 10
315.460144927536
 20
251.24451
 30
0.0
 11
320.75
 21
251.24451
 31
0.0
  0
LINE
  5
27F
330
1E
100
AcDbEntity
  8
0
100
AcDbLine
 10
320.75
 20
251.24451
 30
0.0
 11
320.75
 21
251.31651
 31
0.0
  0
LINE
  5
280
330
1E
100
AcDbEntity
  8
0
100
AcDbLine
 10
320.75
 20
251.31651
 30
0.0
 11
320.75
 21
251.50851
 31
0.0
  0
LINE
  5
281
330
1E
100
AcDbEntity
  8
0
100
AcDbLine
 10
320.75
 20
251.31651
 30
0.0
 11
320.75
 21
251.24451
 31
0.0
  0
LINE
  5
282
330
1E
100
AcDbEntity
  8
0
100
AcDbLine
 10
320.75
 20
251.50851
 30
0.0
 11
320.75
 21
251.82851
 31
0.0
  0
LINE
  5
283
330
1E
100
AcDbEntity
  8
0
100
AcDbLine
 10
320.75
 20
251.50851
 30
0.0
 11
320.75
 21
251.31651
 31
0.0
  0
LINE
  5
284
330
1E
100
AcDbEntity
  8
0
100
AcDbLine
 10
320.75
 20
251.82851
 30
0.0
 11
320.75
 21
252.25251
 31
0.0
  0
LINE
  5
285
330
1E
100
AcDbEntity
  8
0
100
AcDbLine
 10
320.75
 20
251.82851
 30
0.0
 11
320.75
 21
251.50851
 31
0.0
  0
LINE
  5
286
330
1E
100
AcDbEntity
  8
0
100
AcDbLine
 10
314.25
 20
246.44451
 30
0.0
 11
315.25
 21
253.24451
 31
0.0
  0
LINE
  5
287
330
1E
100
AcDbEntity
  8
0
100
AcDbLine
 10
314.75
 20
246.34451
 30
0.0
 11
315.75
 21
253.24451
 31
0.0
  0
LINE
  5
288
330
1E
100
AcDbEntity
  8
0
100
AcDbLine
 10
365.95
 20
244.54451
 30
0.0
 11
366.856666666667
 21
242.357843333333
 31
0.0
  0
LINE
  5
289
330
1E
100
AcDbEntity
  8
0
100
AcDbLine
 10
365.05
 20
244.24451
 30
0.0
 11
367.101396648045
 21
239.176353575419
 31
0.0
  0
LINE
  5
28A
330
1E
100
AcDbEntity
  8
0
100
AcDbLine
 10
256.75
 20
252.25251
 30
0.0
 11
256.75
 21
252.73251
 31
0.0
  0
LINE
  5
28B
330
1E
100
AcDbEntity
  8
0
100
AcDbLine
 10
256.75
 20
252.25251
 30
0.0
 11
256.75
 21
251.82851
 31
0.0
  0
LINE
  5
28C
330
1E
100
AcDbEntity
  8
0
100
AcDbLine
 10
256.75
 20
253.24451
 30
0.0
 11
256.75
 21
252.73251
 31
0.0
  0
LINE
  5
28D
330
1E
100
AcDbEntity
  8
0
100
AcDbLine
 10
256.75
 20
253.24451
 30
0.0
 11
256.75
 21
253.75651
 31
0.0
  0
LINE
  5
28E
330
1E
100
AcDbEntity
  8
0
100
AcDbLine
 10
256.75
 20
252.73251
 30
0.0
 11
256.75
 21
253.24451
 31
0.0
  0
LINE
  5
28F
330
1E
100
AcDbEntity
  8
0
100
AcDbLine
 10
256.75
 20
252.73251
 30
0.0
 11
256.75
 21
252.25251
 31
0.0
  0
LINE
  5
290
330
1E
100
AcDbEntity
  8
0
100
AcDbLine
 10
254.75
 20
253.24451
 30
0.0
 11
255.95
 21
244.54451
 31
0.0
  0
LINE
  5
291
330
1E
100
AcDbEntity
  8
0
100
AcDbLine
 10
254.75
 20
253.24451
 30
0.0
 11
255.95
 21
261.94451
 31
0.0
  0
LINE
  5
292
330
1E
100
AcDbEntity
  8
0
100
AcDbLine
 10
253.75
 20
253.24451
 30
0.0
 11
255.05
 21
244.24451
 31
0.0
  0
LINE
  5
293
330
1E
100
AcDbEntity
  8
0
100
AcDbLine
 10
253.75
 20
253.24451
 30
0.0
 11
255.05
 21
262.24451
 31
0.0
  0
LINE
  5
294
330
1E
100
AcDbEntity
  8
0
100
AcDbLine
 10
262.25
 20
253.24451
 30
0.0
 11
263.25
 21
246.44451
 31
0.0
  0
LINE
  5
295
330
1E
100
AcDbEntity
  8
0
100
AcDbLine
 10
262.25
 20
253.24451
 30
0.0
 11
263.25
 21
260.04451
 31
0.0
  0
LINE
  5
296
330
1E
100
AcDbEntity
  8
0
100
AcDbLine
 10
256.75
 20
255.24451
 30
0.0
 11
256.75
 21
255.17251
 31
0.0
  0
LINE
  5
297
330
1E
100
AcDbEntity
  8
0
100
AcDbLine
 10
256.75
 20
255.24451
 30
0.0
 11
262.039855072464
 21
255.24451
 31
0.0
  0
LINE
  5
298
330
1E
100
AcDbEntity
  8
0
100
AcDbLine
 10
256.75
 20
255.17251
 30
0.0
 11
256.75
 21
254.98051
 31
0.0
  0
LINE
  5
299
330
1E
100
AcDbEntity
  8
0
100
AcDbLine
 10
256.75
 20
255.17251
 30
0.0
 11
256.75
 21
255.24451
 31
0.0
  0
LINE
  5
29A
330
1E
100
AcDbEntity
  8
0
100
AcDbLine
 10
256.75
 20
254.98051
 30
0.0
 11
256.75
 21
254.66051
 31
0.0
  0
LINE
  5
29B
330
1E
100
AcDbEntity
  8
0
100
AcDbLine
 10
256.75
 20
254.98051
 30
0.0
 11
256.75
 21
255.17251
 31
0.0
  0
LINE
  5
29C
330
1E
100
AcDbEntity
  8
0
100
AcDbLine
 10
256.75
 20
254.66051
 30
0.0
 11
256.75
 21
254.23651
 31
0.0
  0
LINE
  5
29D
330
1E
100
AcDbEntity
  8
0
100
AcDbLine
 10
256.75
 20
254.66051
 30
0.0
 11
256.75
 21
254.98051
 31
0.0
  0
LINE
  5
29E
330
1E
100
AcDbEntity
  8
0
100
AcDbLine
 10
256.75
 20
254.23651
 30
0.0
 11
256.75
 21
253.75651
 31
0.0
  0
LINE
  5
29F
330
1E
100
AcDbEntity
  8
0
100
AcDbLine
 10
256.75
 20
254.23651
 30
0.0
 11
256.75
 21
254.66051
 31
0.0
  0
LINE
  5
2A0
330
1E
100
AcDbEntity
  8
0
100
AcDbLine
 10
256.75
 20
253.75651
 30
0.0
 11
256.75
 21
253.24451
 31
0.0
  0
LINE
  5
2A1
330
1E
100
AcDbEntity
  8
0
100
AcDbLine
 10
256.75
 20
253.75651
 30
0.0
 11
256.75
 21
254.23651
 31
0.0
  0
LINE
  5
2A2
330
1E
100
AcDbEntity
  8
0
100
AcDbLine
 10
263.25
 20
260.04451
 30
0.0
 11
265.75
 21
266.44451
 31
0.0
  0
LINE
  5
2A3
330
1E
100
AcDbEntity
  8
0
100
AcDbLine
 10
262.75
 20
260.14451
 30
0.0
 11
265.35
 21
266.64451
 31
0.0
  0
LINE
  5
2A4
330
1E
100
AcDbEntity
  8
0
100
AcDbLine
 10
261.75
 20
253.24451
 30
0.0
 11
262.75
 21
246.34451
 31
0.0
  0
LINE
  5
2A5
330
1E
100
AcDbEntity
  8
0
100
AcDbLine
 10
261.75
 20
253.24451
 30
0.0
 11
262.75
 21
260.14451
 31
0.0
  0
LINE
  5
2A6
330
1E
100
AcDbEntity
  8
0
100
AcDbLine
 10
320.75
 20
252.25251
 30
0.0
 11
320.75
 21
252.73251
 31
0.0
  0
LINE
  5
2A7
330
1E
100
AcDbEntity
  8
0
100
AcDbLine
 10
320.75
 20
252.25251
 30
0.0
 11
320.75
 21
251.82851
 31
0.0
  0
LINE
  5
2A8
330
1E
100
AcDbEntity
  8
0
100
AcDbLine
 10
320.75
 20
255.24451
 30
0.0
 11
320.75
 21
255.17251
 31
0.0
  0
LINE
  5
2A9
330
1E
100
AcDbEntity
  8
0
100
AcDbLine
 10
320.75
 20
255.17251
 30
0.0
 11
320.75
 21
255.24451
 31
0.0
  0
LINE
  5
2AA
330
1E
100
AcDbEntity
  8
0
100
AcDbLine
 10
320.75
 20
255.17251
 30
0.0
 11
320.75
 21
254.98051
 31
0.0
  0
LINE
  5
2AB
330
1E
100
AcDbEntity
  8
0
100
AcDbLine
 10
320.75
 20
254.98051
 30
0.0
 11
320.75
 21
255.17251
 31
0.0
  0
LINE
  5
2AC
330
1E
100
AcDbEntity
  8
0
100
AcDbLine
 10
320.75
 20
254.98051
 30
0.0
 11
320.75
 21
254.66051
 31
0.0
  0
LINE
  5
2AD
330
1E
100
AcDbEntity
  8
0
100
AcDbLine
 10
320.75
 20
254.66051
 30
0.0
 11
320.75
 21
254.98051
 31
0.0
  0
LINE
  5
2AE
330
1E
100
AcDbEntity
  8
0
100
AcDbLine
 10
320.75
 20
254.66051
 30
0.0
 11
320.75
 21
254.23651
 31
0.0
  0
LINE
  5
2AF
330
1E
100
AcDbEntity
  8
0
100
AcDbLine
 10
320.75
 20
254.23651
 30
0.0
 11
320.75
 21
254.66051
 31
0.0
  0
LINE
  5
2B0
330
1E
100
AcDbEntity
  8
0
100
AcDbLine
 10
320.75
 20
254.23651
 30
0.0
 11
320.75
 21
253.75651
 31
0.0
  0
LINE
  5
2B1
330
1E
100
AcDbEntity
  8
0
100
AcDbLine
 10
320.75
 20
253.75651
 30
0.0
 11
320.75
 21
254.23651
 31
0.0
  0
LINE
  5
2B2
330
1E
100
AcDbEntity
  8
0
100
AcDbLine
 10
320.75
 20
253.75651
 30
0.0
 11
320.75
 21
253.24451
 31
0.0
  0
LINE
  5
2B3
330
1E
100
AcDbEntity
  8
0
100
AcDbLine
 10
315.460144927536
 20
255.24451
 30
0.0
 11
320.75
 21
255.24451
 31
0.0
  0
LINE
  5
2B4
330
1E
100
AcDbEntity
  8
0
100
AcDbLine
 10
320.75
 20
253.24451
 30
0.0
 11
320.75
 21
252.73251
 31
0.0
  0
LINE
  5
2B5
330
1E
100
AcDbEntity
  8
0
100
AcDbLine
 10
320.75
 20
253.24451
 30
0.0
 11
320.75
 21
253.75651
 31
0.0
  0
LINE
  5
2B6
330
1E
100
AcDbEntity
  8
0
100
AcDbLine
 10
320.75
 20
252.73251
 30
0.0
 11
320.75
 21
253.24451
 31
0.0
  0
LINE
  5
2B7
330
1E
100
AcDbEntity
  8
0
100
AcDbLine
 10
320.75
 20
252.73251
 30
0.0
 11
320.75
 21
252.25251
 31
0.0
  0
LINE
  5
2B8
330
1E
100
AcDbEntity
  8
0
100
AcDbLine
 10
314.25
 20
260.04451
 30
0.0
 11
315.25
 21
253.24451
 31
0.0
  0
LINE
  5
2B9
330
1E
100
AcDbEntity
  8
0
100
AcDbLine
 10
314.75
 20
260.14451
 30
0.0
 11
315.75
 21
253.24451
 31
0.0
  0
LINE
  5
2BA
330
1E
100
AcDbEntity
  8
0
100
AcDbLine
 10
364.75
 20
253.24451
 30
0.0
 11
365.95
 21
244.54451
 31
0.0
  0
LINE
  5
2BB
330
1E
100
AcDbEntity
  8
0
100
AcDbLine
 10
364.75
 20
253.24451
 30
0.0
 11
365.95
 21
261.94451
 31
0.0
  0
LINE
  5
2BC
330
1E
100
AcDbEntity
  8
0
100
AcDbLine
 10
363.75
 20
253.24451
 30
0.0
 11
365.05
 21
244.24451
 31
0.0
  0
LINE
  5
2BD
330
1E
100
AcDbEntity
  8
0
100
AcDbLine
 10
363.75
 20
253.24451
 30
0.0
 11
365.05
 21
262.24451
 31
0.0
  0
LINE
  5
2BE
330
1E
100
AcDbEntity
  8
0
100
AcDbLine
 10
366.25
 20
252.04451
 30
0.0
 11
366.25
 21
253.24451
 31
0.0
  0
LINE
  5
2BF
330
1E
100
AcDbEntity
  8
0
100
AcDbLine
 10
366.25
 20
252.04451
 30
0.0
 11
366.45
 21
248.84551
 31
0.0
  0
LINE
  5
2C0
330
1E
100
AcDbEntity
  8
0
100
AcDbLine
 10
366.85
 20
242.44451
 30
0.0
 11
367.65
 21
232.04451
 31
0.0
  0
LINE
  5
2C1
330
1E
100
AcDbEntity
  8
0
100
AcDbLine
 10
430.15
 20
261.64551
 30
0.0
 11
431.25
 21
253.24451
 31
0.0
  0
LINE
  5
2C2
330
1E
100
AcDbEntity
  8
0
100
AcDbLine
 10
366.45
 20
248.84551
 30
0.0
 11
366.85
 21
242.44451
 31
0.0
  0
LINE
  5
2C3
330
1E
100
AcDbEntity
  8
0
100
AcDbLine
 10
366.25
 20
253.24451
 30
0.0
 11
366.25
 21
252.04451
 31
0.0
  0
LINE
  5
2C4
330
1E
100
AcDbEntity
  8
0
100
AcDbLine
 10
366.25
 20
253.24451
 30
0.0
 11
367.35
 21
261.64551
 31
0.0
  0
LINE
  5
2C5
330
1E
100
AcDbEntity
  8
0
100
AcDbLine
 10
255.95
 20
261.94451
 30
0.0
 11
259.35
 21
270.14451
 31
0.0
  0
LINE
  5
2C6
330
1E
100
AcDbEntity
  8
0
100
AcDbLine
 10
321.55
 20
261.94451
 30
0.0
 11
322.75
 21
253.24451
 31
0.0
  0
LINE
  5
2C7
330
1E
100
AcDbEntity
  8
0
100
AcDbLine
 10
365.95
 20
261.94451
 30
0.0
 11
369.35
 21
270.14451
 31
0.0
  0
LINE
  5
2C8
330
1E
100
AcDbEntity
  8
0
100
AcDbLine
 10
367.35
 20
261.64551
 30
0.0
 11
370.55
 21
269.34551
 31
0.0
  0
LINE
  5
2C9
330
1E
100
AcDbEntity
  8
0
100
AcDbLine
 10
430.65
 20
242.44451
 30
0.0
 11
431.05
 21
248.84551
 31
0.0
  0
LINE
  5
2CA
330
1E
100
AcDbEntity
  8
0
100
AcDbLine
 10
430.643333333333
 20
242.357843333333
 30
0.0
 11
431.55
 21
244.54451
 31
0.0
  0
LINE
  5
2CB
330
1E
100
AcDbEntity
  8
0
100
AcDbLine
 10
431.05
 20
248.84551
 30
0.0
 11
431.25
 21
252.04451
 31
0.0
  0
LINE
  5
2CC
330
1E
100
AcDbEntity
  8
0
100
AcDbLine
 10
431.25
 20
253.24451
 30
0.0
 11
431.25
 21
252.04451
 31
0.0
  0
LINE
  5
2CD
330
1E
100
AcDbEntity
  8
0
100
AcDbLine
 10
431.25
 20
252.04451
 30
0.0
 11
431.25
 21
253.24451
 31
0.0
  0
LINE
  5
2CE
330
1E
100
AcDbEntity
  8
0
100
AcDbLine
 10
431.55
 20
244.54451
 30
0.0
 11
432.75
 21
253.24451
 31
0.0
  0
LINE
  5
2CF
330
1E
100
AcDbEntity
  8
0
100
AcDbLine
 10
432.45
 20
244.24451
 30
0.0
 11
433.75
 21
253.24451
 31
0.0
  0
LINE
  5
2D0
330
1E
100
AcDbEntity
  8
0
100
AcDbLine
 10
430.398603351955
 20
239.176353575419
 30
0.0
 11
432.45
 21
244.24451
 31
0.0
  0
LINE
  5
2D1
330
1E
100
AcDbEntity
  8
0
100
AcDbLine
 10
255.05
 20
262.24451
 30
0.0
 11
258.45
 21
270.64451
 31
0.0
  0
LINE
  5
2D2
330
1E
100
AcDbEntity
  8
0
100
AcDbLine
 10
322.45
 20
262.24451
 30
0.0
 11
323.75
 21
253.24451
 31
0.0
  0
LINE
  5
2D3
330
1E
100
AcDbEntity
  8
0
100
AcDbLine
 10
265.75
 20
266.44451
 30
0.0
 11
270.05
 21
271.94451
 31
0.0
  0
LINE
  5
2D4
330
1E
100
AcDbEntity
  8
0
100
AcDbLine
 10
265.35
 20
266.64451
 30
0.0
 11
269.75
 21
272.24451
 31
0.0
  0
LINE
  5
2D5
330
1E
100
AcDbEntity
  8
0
100
AcDbLine
 10
311.75
 20
266.44451
 30
0.0
 11
314.25
 21
260.04451
 31
0.0
  0
LINE
  5
2D6
330
1E
100
AcDbEntity
  8
0
100
AcDbLine
 10
312.15
 20
266.64451
 30
0.0
 11
314.75
 21
260.14451
 31
0.0
  0
LINE
  5
2D7
330
1E
100
AcDbEntity
  8
0
100
AcDbLine
 10
365.05
 20
262.24451
 30
0.0
 11
368.45
 21
270.64451
 31
0.0
  0
LINE
  5
2D8
330
1E
100
AcDbEntity
  8
0
100
AcDbLine
 10
426.95
 20
269.34551
 30
0.0
 11
430.15
 21
261.64551
 31
0.0
  0
LINE
  5
2D9
330
1E
100
AcDbEntity
  8
0
100
AcDbLine
 10
259.35
 20
270.14451
 30
0.0
 11
264.75
 21
277.24451
 31
0.0
  0
LINE
  5
2DA
330
1E
100
AcDbEntity
  8
0
100
AcDbLine
 10
258.45
 20
270.64451
 30
0.0
 11
264.05
 21
277.94451
 31
0.0
  0
LINE
  5
2DB
330
1E
100
AcDbEntity
  8
0
100
AcDbLine
 10
318.15
 20
270.14451
 30
0.0
 11
321.55
 21
261.94451
 31
0.0
  0
LINE
  5
2DC
330
1E
100
AcDbEntity
  8
0
100
AcDbLine
 10
319.05
 20
270.64451
 30
0.0
 11
322.45
 21
262.24451
 31
0.0
  0
LINE
  5
2DD
330
1E
100
AcDbEntity
  8
0
100
AcDbLine
 10
369.35
 20
270.14451
 30
0.0
 11
374.75
 21
277.24451
 31
0.0
  0
LINE
  5
2DE
330
1E
100
AcDbEntity
  8
0
100
AcDbLine
 10
368.45
 20
270.64451
 30
0.0
 11
374.05
 21
277.94451
 31
0.0
  0
LINE
  5
2DF
330
1E
100
AcDbEntity
  8
0
100
AcDbLine
 10
370.55
 20
269.34551
 30
0.0
 11
375.75
 21
276.14551
 31
0.0
  0
LINE
  5
2E0
330
1E
100
AcDbEntity
  8
0
100
AcDbLine
 10
428.15
 20
270.14451
 30
0.0
 11
431.55
 21
261.94451
 31
0.0
  0
LINE
  5
2E1
330
1E
100
AcDbEntity
  8
0
100
AcDbLine
 10
431.55
 20
261.94451
 30
0.0
 11
432.75
 21
253.24451
 31
0.0
  0
LINE
  5
2E2
330
1E
100
AcDbEntity
  8
0
100
AcDbLine
 10
432.45
 20
262.24451
 30
0.0
 11
433.75
 21
253.24451
 31
0.0
  0
LINE
  5
2E3
330
1E
100
AcDbEntity
  8
0
100
AcDbLine
 10
270.05
 20
271.94451
 30
0.0
 11
275.55
 21
276.24451
 31
0.0
  0
LINE
  5
2E4
330
1E
100
AcDbEntity
  8
0
100
AcDbLine
 10
269.75
 20
272.24451
 30
0.0
 11
275.35
 21
276.64451
 31
0.0
  0
LINE
  5
2E5
330
1E
100
AcDbEntity
  8
0
100
AcDbLine
 10
307.45
 20
271.94451
 30
0.0
 11
311.75
 21
266.44451
 31
0.0
  0
LINE
  5
2E6
330
1E
100
AcDbEntity
  8
0
100
AcDbLine
 10
307.75
 20
272.24451
 30
0.0
 11
312.15
 21
266.64451
 31
0.0
  0
LINE
  5
2E7
330
1E
100
AcDbEntity
  8
0
100
AcDbLine
 10
275.55
 20
276.24451
 30
0.0
 11
281.95
 21
278.74451
 31
0.0
  0
LINE
  5
2E8
330
1E
100
AcDbEntity
  8
0
100
AcDbLine
 10
275.35
 20
276.64451
 30
0.0
 11
281.85
 21
279.24451
 31
0.0
  0
LINE
  5
2E9
330
1E
100
AcDbEntity
  8
0
100
AcDbLine
 10
301.95
 20
276.24451
 30
0.0
 11
307.45
 21
271.94451
 31
0.0
  0
LINE
  5
2EA
330
1E
100
AcDbEntity
  8
0
100
AcDbLine
 10
264.75
 20
277.24451
 30
0.0
 11
271.85
 21
282.64451
 31
0.0
  0
LINE
  5
2EB
330
1E
100
AcDbEntity
  8
0
100
AcDbLine
 10
264.05
 20
277.94451
 30
0.0
 11
271.35
 21
283.54451
 31
0.0
  0
LINE
  5
2EC
330
1E
100
AcDbEntity
  8
0
100
AcDbLine
 10
281.95
 20
278.74451
 30
0.0
 11
288.75
 21
279.74451
 31
0.0
  0
LINE
  5
2ED
330
1E
100
AcDbEntity
  8
0
100
AcDbLine
 10
286.75
 20
279.954654927536
 30
0.0
 11
286.75
 21
285.24451
 31
0.0
  0
LINE
  5
2EE
330
1E
100
AcDbEntity
  8
0
100
AcDbLine
 10
281.85
 20
279.24451
 30
0.0
 11
286.75
 21
279.954654927536
 31
0.0
  0
LINE
  5
2EF
330
1E
100
AcDbEntity
  8
0
100
AcDbLine
 10
281.85
 20
279.24451
 30
0.0
 11
288.75
 21
280.24451
 31
0.0
  0
LINE
  5
2F0
330
1E
100
AcDbEntity
  8
0
100
AcDbLine
 10
288.75
 20
279.74451
 30
0.0
 11
295.55
 21
278.74451
 31
0.0
  0
LINE
  5
2F1
330
1E
100
AcDbEntity
  8
0
100
AcDbLine
 10
271.85
 20
282.64451
 30
0.0
 11
280.05
 21
286.04451
 31
0.0
  0
LINE
  5
2F2
330
1E
100
AcDbEntity
  8
0
100
AcDbLine
 10
288.75
 20
280.24451
 30
0.0
 11
295.65
 21
279.24451
 31
0.0
  0
LINE
  5
2F3
330
1E
100
AcDbEntity
  8
0
100
AcDbLine
 10
312.75
 20
277.24451
 30
0.0
 11
318.15
 21
270.14451
 31
0.0
  0
LINE
  5
2F4
330
1E
100
AcDbEntity
  8
0
100
AcDbLine
 10
313.45
 20
277.94451
 30
0.0
 11
319.05
 21
270.64451
 31
0.0
  0
LINE
  5
2F5
330
1E
100
AcDbEntity
  8
0
100
AcDbLine
 10
295.55
 20
278.74451
 30
0.0
 11
301.95
 21
276.24451
 31
0.0
  0
LINE
  5
2F6
330
1E
100
AcDbEntity
  8
0
100
AcDbLine
 10
305.65
 20
282.64451
 30
0.0
 11
312.75
 21
277.24451
 31
0.0
  0
LINE
  5
2F7
330
1E
100
AcDbEntity
  8
0
100
AcDbLine
 10
295.65
 20
279.24451
 30
0.0
 11
302.15
 21
276.64451
 31
0.0
  0
LINE
  5
2F8
330
1E
100
AcDbEntity
  8
0
100
AcDbLine
 10
290.75
 20
279.954654927536
 30
0.0
 11
295.65
 21
279.24451
 31
0.0
  0
LINE
  5
2F9
330
1E
100
AcDbEntity
  8
0
100
AcDbLine
 10
290.75
 20
279.954654927536
 30
0.0
 11
290.75
 21
285.24451
 31
0.0
  0
LINE
  5
2FA
330
1E
100
AcDbEntity
  8
0
100
AcDbLine
 10
302.15
 20
276.64451
 30
0.0
 11
307.75
 21
272.24451
 31
0.0
  0
LINE
  5
2FB
330
1E
100
AcDbEntity
  8
0
100
AcDbLine
 10
381.85
 20
282.64451
 30
0.0
 11
390.05
 21
286.04451
 31
0.0
  0
LINE
  5
2FC
330
1E
100
AcDbEntity
  8
0
100
AcDbLine
 10
374.75
 20
277.24451
 30
0.0
 11
381.85
 21
282.64451
 31
0.0
  0
LINE
  5
2FD
330
1E
100
AcDbEntity
  8
0
100
AcDbLine
 10
374.05
 20
277.94451
 30
0.0
 11
381.35
 21
283.54451
 31
0.0
  0
LINE
  5
2FE
330
1E
100
AcDbEntity
  8
0
100
AcDbLine
 10
375.75
 20
276.14551
 30
0.0
 11
382.55
 21
281.24451
 31
0.0
  0
LINE
  5
2FF
330
1E
100
AcDbEntity
  8
0
100
AcDbLine
 10
421.75
 20
276.14551
 30
0.0
 11
426.95
 21
269.34551
 31
0.0
  0
LINE
  5
300
330
1E
100
AcDbEntity
  8
0
100
AcDbLine
 10
414.95
 20
281.24451
 30
0.0
 11
421.75
 21
276.14551
 31
0.0
  0
LINE
  5
301
330
1E
100
AcDbEntity
  8
0
100
AcDbLine
 10
382.55
 20
281.24451
 30
0.0
 11
390.35
 21
284.44451
 31
0.0
  0
LINE
  5
302
330
1E
100
AcDbEntity
  8
0
100
AcDbLine
 10
271.35
 20
283.54451
 30
0.0
 11
279.75
 21
286.94451
 31
0.0
  0
LINE
  5
303
330
1E
100
AcDbEntity
  8
0
100
AcDbLine
 10
306.15
 20
283.54451
 30
0.0
 11
313.45
 21
277.94451
 31
0.0
  0
LINE
  5
304
330
1E
100
AcDbEntity
  8
0
100
AcDbLine
 10
381.35
 20
283.54451
 30
0.0
 11
389.75
 21
286.94451
 31
0.0
  0
LINE
  5
305
330
1E
100
AcDbEntity
  8
0
100
AcDbLine
 10
415.65
 20
282.64451
 30
0.0
 11
422.75
 21
277.24451
 31
0.0
  0
LINE
  5
306
330
1E
100
AcDbEntity
  8
0
100
AcDbLine
 10
422.75
 20
277.24451
 30
0.0
 11
428.15
 21
270.14451
 31
0.0
  0
LINE
  5
307
330
1E
100
AcDbEntity
  8
0
100
AcDbLine
 10
286.75
 20
285.24451
 30
0.0
 11
286.822
 21
285.24451
 31
0.0
  0
LINE
  5
308
330
1E
100
AcDbEntity
  8
0
100
AcDbLine
 10
286.75
 20
285.24451
 30
0.0
 11
286.75
 21
279.954654927536
 31
0.0
  0
LINE
  5
309
330
1E
100
AcDbEntity
  8
0
100
AcDbLine
 10
286.822
 20
285.24451
 30
0.0
 11
287.014
 21
285.24451
 31
0.0
  0
LINE
  5
30A
330
1E
100
AcDbEntity
  8
0
100
AcDbLine
 10
287.014
 20
285.24451
 30
0.0
 11
287.334
 21
285.24451
 31
0.0
  0
LINE
  5
30B
330
1E
100
AcDbEntity
  8
0
100
AcDbLine
 10
287.334
 20
285.24451
 30
0.0
 11
287.758
 21
285.24451
 31
0.0
  0
LINE
  5
30C
330
1E
100
AcDbEntity
  8
0
100
AcDbLine
 10
290.678
 20
285.24451
 30
0.0
 11
290.75
 21
285.24451
 31
0.0
  0
LINE
  5
30D
330
1E
100
AcDbEntity
  8
0
100
AcDbLine
 10
290.486
 20
285.24451
 30
0.0
 11
290.678
 21
285.24451
 31
0.0
  0
LINE
  5
30E
330
1E
100
AcDbEntity
  8
0
100
AcDbLine
 10
290.166
 20
285.24451
 30
0.0
 11
290.486
 21
285.24451
 31
0.0
  0
LINE
  5
30F
330
1E
100
AcDbEntity
  8
0
100
AcDbLine
 10
289.742
 20
285.24451
 30
0.0
 11
290.166
 21
285.24451
 31
0.0
  0
LINE
  5
310
330
1E
100
AcDbEntity
  8
0
100
AcDbLine
 10
289.262
 20
285.24451
 30
0.0
 11
289.742
 21
285.24451
 31
0.0
  0
LINE
  5
311
330
1E
100
AcDbEntity
  8
0
100
AcDbLine
 10
288.75
 20
285.24451
 30
0.0
 11
289.262
 21
285.24451
 31
0.0
  0
LINE
  5
312
330
1E
100
AcDbEntity
  8
0
100
AcDbLine
 10
290.75
 20
285.24451
 30
0.0
 11
290.75
 21
279.954654927536
 31
0.0
  0
LINE
  5
313
330
1E
100
AcDbEntity
  8
0
100
AcDbLine
 10
287.758
 20
285.24451
 30
0.0
 11
288.238
 21
285.24451
 31
0.0
  0
LINE
  5
314
330
1E
100
AcDbEntity
  8
0
100
AcDbLine
 10
288.238
 20
285.24451
 30
0.0
 11
288.75
 21
285.24451
 31
0.0
  0
LINE
  5
315
330
1E
100
AcDbEntity
  8
0
100
AcDbLine
 10
280.05
 20
286.04451
 30
0.0
 11
288.75
 21
287.24451
 31
0.0
  0
LINE
  5
316
330
1E
100
AcDbEntity
  8
0
100
AcDbLine
 10
279.75
 20
286.94451
 30
0.0
 11
288.75
 21
288.24451
 31
0.0
  0
LINE
  5
317
330
1E
100
AcDbEntity
  8
0
100
AcDbLine
 10
297.45
 20
286.04451
 30
0.0
 11
305.65
 21
282.64451
 31
0.0
  0
LINE
  5
318
330
1E
100
AcDbEntity
  8
0
100
AcDbLine
 10
297.75
 20
286.94451
 30
0.0
 11
306.15
 21
283.54451
 31
0.0
  0
LINE
  5
319
330
1E
100
AcDbEntity
  8
0
100
AcDbLine
 10
390.05
 20
286.04451
 30
0.0
 11
398.75
 21
287.24451
 31
0.0
  0
LINE
  5
31A
330
1E
100
AcDbEntity
  8
0
100
AcDbLine
 10
288.75
 20
287.24451
 30
0.0
 11
297.45
 21
286.04451
 31
0.0
  0
LINE
  5
31B
330
1E
100
AcDbEntity
  8
0
100
AcDbLine
 10
389.75
 20
286.94451
 30
0.0
 11
398.75
 21
288.24451
 31
0.0
  0
LINE
  5
31C
330
1E
100
AcDbEntity
  8
0
100
AcDbLine
 10
407.15
 20
284.44451
 30
0.0
 11
414.95
 21
281.24451
 31
0.0
  0
LINE
  5
31D
330
1E
100
AcDbEntity
  8
0
100
AcDbLine
 10
398.75
 20
285.74451
 30
0.0
 11
407.15
 21
284.44451
 31
0.0
  0
LINE
  5
31E
330
1E
100
AcDbEntity
  8
0
100
AcDbLine
 10
390.35
 20
284.44451
 30
0.0
 11
398.75
 21
285.74451
 31
0.0
  0
LINE
  5
31F
330
1E
100
AcDbEntity
  8
0
100
AcDbLine
 10
288.75
 20
288.24451
 30
0.0
 11
297.75
 21
286.94451
 31
0.0
  0
LINE
  5
320
330
1E
100
AcDbEntity
  8
0
100
AcDbLine
 10
398.75
 20
287.24451
 30
0.0
 11
407.45
 21
286.04451
 31
0.0
  0
LINE
  5
321
330
1E
100
AcDbEntity
  8
0
100
AcDbLine
 10
407.45
 20
286.04451
 30
0.0
 11
415.65
 21
282.64451
 31
0.0
  0
LINE
  5
322
330
1E
100
AcDbEntity
  8
0
100
AcDbLine
 10
398.75
 20
288.24451
 30
0.0
 11
407.75
 21
286.94451
 31
0.0
  0
LINE
  5
323
330
1E
100
AcDbEntity
  8
0
100
AcDbLine
 10
407.75
 20
286.94451
 30
0.0
 11
416.15
 21
283.54451
 31
0.0
  0
LINE
  5
324
330
1E
100
AcDbEntity
  8
0
100
AcDbLine
 10
416.15
 20
283.54451
 30
0.0
 11
423.45
 21
277.94451
 31
0.0
  0
LINE
  5
325
330
1E
100
AcDbEntity
  8
0
100
AcDbLine
 10
423.45
 20
277.94451
 30
0.0
 11
429.05
 21
270.64451
 31
0.0
  0
LINE
  5
326
330
1E
100
AcDbEntity
  8
0
100
AcDbLine
 10
429.05
 20
270.64451
 30
0.0
 11
432.45
 21
262.24451
 31
0.0
  0
LINE
  5
327
330
1E
100
AcDbEntity
  8
0
100
AcDbLine
 10
212.45
 20
244.24451
 30
0.0
 11
213.75
 21
253.24451
 31
0.0
  0
LINE
  5
328
330
1E
100
AcDbEntity
  8
0
100
AcDbLine
 10
149.35
 20
236.34451
 30
0.0
 11
154.75
 21
229.24451
 31
0.0
  0
LINE
  5
329
330
1E
100
AcDbEntity
  8
0
100
AcDbLine
 10
145.95
 20
244.54451
 30
0.0
 11
149.35
 21
236.34451
 31
0.0
  0
LINE
  5
32A
330
1E
100
AcDbEntity
  8
0
100
AcDbLine
 10
148.45
 20
235.84451
 30
0.0
 11
154.05
 21
228.54451
 31
0.0
  0
LINE
  5
32B
330
1E
100
AcDbEntity
  8
0
100
AcDbLine
 10
145.05
 20
244.24451
 30
0.0
 11
148.45
 21
235.84451
 31
0.0
  0
LINE
  5
32C
330
1E
100
AcDbEntity
  8
0
100
AcDbLine
 10
169.75
 20
219.54451
 30
0.0
 11
178.75
 21
218.24451
 31
0.0
  0
LINE
  5
32D
330
1E
100
AcDbEntity
  8
0
100
AcDbLine
 10
143.75
 20
253.24451
 30
0.0
 11
145.05
 21
244.24451
 31
0.0
  0
LINE
  5
32E
330
1E
100
AcDbEntity
  8
0
100
AcDbLine
 10
143.75
 20
253.24451
 30
0.0
 11
145.05
 21
262.24451
 31
0.0
  0
LINE
  5
52E
330
1E
100
AcDbEntity
  8
0
100
AcDbLine
 10
37.572
 20
48.06783
 30
0.0
 11
43.046
 21
44.75979
 31
0.0
  0
LINE
  5
52F
330
1E
100
AcDbEntity
  8
0
100
AcDbLine
 10
43.046
 20
44.75979
 30
0.0
 11
48.813
 21
42.18011
 31
0.0
  0
LINE
  5
530
330
1E
100
AcDbEntity
  8
0
100
AcDbLine
 10
48.813
 20
42.18011
 30
0.0
 11
55.017
 21
40.32781
 31
0.0
  0
LINE
  5
531
330
1E
100
AcDbEntity
  8
0
100
AcDbLine
 10
55.017
 20
40.32781
 30
0.0
 11
61.514
 21
39.13691
 31
0.0
  0
LINE
  5
532
330
1E
100
AcDbEntity
  8
0
100
AcDbLine
 10
61.514
 20
39.13691
 30
0.0
 11
67.937
 21
38.67421
 31
0.0
  0
LINE
  5
533
330
1E
100
AcDbEntity
  8
0
100
AcDbLine
 10
61.514
 20
48.01183
 30
0.0
 11
67.937
 21
47.54928
 31
0.0
  0
LINE
  5
534
330
1E
100
AcDbEntity
  8
0
100
AcDbLine
 10
67.937
 20
38.67421
 30
0.0
 11
74.36
 21
39.13691
 31
0.0
  0
LINE
  5
535
330
1E
100
AcDbEntity
  8
0
100
AcDbLine
 10
92.828
 20
44.75979
 30
0.0
 11
98.302
 21
48.06783
 31
0.0
  0
LINE
  5
536
330
1E
100
AcDbEntity
  8
0
100
AcDbLine
 10
87.061
 20
42.18011
 30
0.0
 11
92.828
 21
44.75979
 31
0.0
  0
LINE
  5
537
330
1E
100
AcDbEntity
  8
0
100
AcDbLine
 10
80.857
 20
40.32781
 30
0.0
 11
87.061
 21
42.18011
 31
0.0
  0
LINE
  5
538
330
1E
100
AcDbEntity
  8
0
100
AcDbLine
 10
74.36
 20
39.13691
 30
0.0
 11
80.857
 21
40.32781
 31
0.0
  0
LINE
  5
539
330
1E
100
AcDbEntity
  8
0
100
AcDbLine
 10
98.302
 20
48.06783
 30
0.0
 11
103.265
 21
51.97128
 31
0.0
  0
LINE
  5
53A
330
1E
100
AcDbEntity
  8
0
100
AcDbLine
 10
74.36
 20
48.01183
 30
0.0
 11
80.857
 21
49.20276
 31
0.0
  0
LINE
  5
53B
330
1E
100
AcDbEntity
  8
0
100
AcDbLine
 10
67.937
 20
47.54928
 30
0.0
 11
74.36
 21
48.01183
 31
0.0
  0
LINE
  5
53C
330
1E
100
AcDbEntity
  8
0
100
AcDbLine
 10
18.448
 20
78.16771
 30
0.0
 11
19.762
 21
72.28001
 31
0.0
  0
LINE
  5
53D
330
1E
100
AcDbEntity
  8
0
100
AcDbLine
 10
18.448
 20
87.04261
 30
0.0
 11
19.762
 21
81.15491
 31
0.0
  0
LINE
  5
53E
330
1E
100
AcDbEntity
  8
0
100
AcDbLine
 10
17.937
 20
83.98941
 30
0.0
 11
17.937
 21
92.86441
 31
0.0
  0
LINE
  5
53F
330
1E
100
AcDbEntity
  8
0
100
AcDbLine
 10
17.937
 20
83.98941
 30
0.0
 11
18.448
 21
78.16771
 31
0.0
  0
LINE
  5
540
330
1E
100
AcDbEntity
  8
0
100
AcDbLine
 10
18.448
 20
98.68591
 30
0.0
 11
19.762
 21
104.57351
 31
0.0
  0
LINE
  5
541
330
1E
100
AcDbEntity
  8
0
100
AcDbLine
 10
17.937
 20
92.86441
 30
0.0
 11
18.448
 21
98.68591
 31
0.0
  0
LINE
  5
542
330
1E
100
AcDbEntity
  8
0
100
AcDbLine
 10
17.937
 20
92.86441
 30
0.0
 11
18.448
 21
87.04261
 31
0.0
  0
LINE
  5
543
330
1E
100
AcDbEntity
  8
0
100
AcDbLine
 10
17.937
 20
92.86441
 30
0.0
 11
17.937
 21
83.98941
 31
0.0
  0
LINE
  5
544
330
1E
100
AcDbEntity
  8
0
100
AcDbLine
 10
21.806
 20
66.65701
 30
0.0
 11
24.652
 21
61.43071
 31
0.0
  0
LINE
  5
545
330
1E
100
AcDbEntity
  8
0
100
AcDbLine
 10
19.762
 20
72.28001
 30
0.0
 11
21.806
 21
66.65701
 31
0.0
  0
LINE
  5
546
330
1E
100
AcDbEntity
  8
0
100
AcDbLine
 10
21.806
 20
75.53201
 30
0.0
 11
24.652
 21
70.30581
 31
0.0
  0
LINE
  5
547
330
1E
100
AcDbEntity
  8
0
100
AcDbLine
 10
19.762
 20
81.15491
 30
0.0
 11
21.806
 21
75.53201
 31
0.0
  0
LINE
  5
548
330
1E
100
AcDbEntity
  8
0
100
AcDbLine
 10
28.302
 20
56.46921
 30
0.0
 11
32.609
 21
51.97128
 31
0.0
  0
LINE
  5
549
330
1E
100
AcDbEntity
  8
0
100
AcDbLine
 10
24.652
 20
61.43071
 30
0.0
 11
28.302
 21
56.46921
 31
0.0
  0
LINE
  5
54A
330
1E
100
AcDbEntity
  8
0
100
AcDbLine
 10
28.302
 20
65.34421
 30
0.0
 11
32.609
 21
60.84631
 31
0.0
  0
LINE
  5
54B
330
1E
100
AcDbEntity
  8
0
100
AcDbLine
 10
24.652
 20
70.30581
 30
0.0
 11
28.302
 21
65.34421
 31
0.0
  0
LINE
  5
54C
330
1E
100
AcDbEntity
  8
0
100
AcDbLine
 10
32.609
 20
51.97128
 30
0.0
 11
37.572
 21
48.06783
 31
0.0
  0
LINE
  5
54D
330
1E
100
AcDbEntity
  8
0
100
AcDbLine
 10
32.609
 20
60.84631
 30
0.0
 11
37.572
 21
56.94281
 31
0.0
  0
LINE
  5
54E
330
1E
100
AcDbEntity
  8
0
100
AcDbLine
 10
33.119
 20
61.73151
 30
0.0
 11
38.01
 21
57.89491
 31
0.0
  0
LINE
  5
54F
330
1E
100
AcDbEntity
  8
0
100
AcDbLine
 10
28.886
 20
66.16341
 30
0.0
 11
33.119
 21
61.73151
 31
0.0
  0
LINE
  5
550
330
1E
100
AcDbEntity
  8
0
100
AcDbLine
 10
25.236
 20
71.05901
 30
0.0
 11
28.886
 21
66.16341
 31
0.0
  0
LINE
  5
551
330
1E
100
AcDbEntity
  8
0
100
AcDbLine
 10
22.536
 20
76.21941
 30
0.0
 11
25.236
 21
71.05901
 31
0.0
  0
LINE
  5
552
330
1E
100
AcDbEntity
  8
0
100
AcDbLine
 10
20.419
 20
82.04111
 30
0.0
 11
22.536
 21
76.21941
 31
0.0
  0
LINE
  5
553
330
1E
100
AcDbEntity
  8
0
100
AcDbLine
 10
19.178
 20
87.53121
 30
0.0
 11
20.419
 21
82.04111
 31
0.0
  0
LINE
  5
554
330
1E
100
AcDbEntity
  8
0
100
AcDbLine
 10
19.762
 20
104.57351
 30
0.0
 11
21.806
 21
110.19671
 31
0.0
  0
LINE
  5
555
330
1E
100
AcDbEntity
  8
0
100
AcDbLine
 10
21.806
 20
110.19671
 30
0.0
 11
24.652
 21
115.42271
 31
0.0
  0
LINE
  5
556
330
1E
100
AcDbEntity
  8
0
100
AcDbLine
 10
24.652
 20
115.42271
 30
0.0
 11
28.302
 21
120.38431
 31
0.0
  0
LINE
  5
557
330
1E
100
AcDbEntity
  8
0
100
AcDbLine
 10
28.302
 20
120.38431
 30
0.0
 11
32.609
 21
124.88281
 31
0.0
  0
LINE
  5
558
330
1E
100
AcDbEntity
  8
0
100
AcDbLine
 10
28.886
 20
120.40991
 30
0.0
 11
33.119
 21
124.84231
 31
0.0
  0
LINE
  5
559
330
1E
100
AcDbEntity
  8
0
100
AcDbLine
 10
25.236
 20
115.51461
 30
0.0
 11
28.886
 21
120.40991
 31
0.0
  0
LINE
  5
55A
330
1E
100
AcDbEntity
  8
0
100
AcDbLine
 10
22.536
 20
110.35461
 30
0.0
 11
25.236
 21
115.51461
 31
0.0
  0
LINE
  5
55B
330
1E
100
AcDbEntity
  8
0
100
AcDbLine
 10
20.419
 20
104.53301
 30
0.0
 11
22.536
 21
110.35461
 31
0.0
  0
LINE
  5
55C
330
1E
100
AcDbEntity
  8
0
100
AcDbLine
 10
19.178
 20
99.04231
 30
0.0
 11
20.419
 21
104.53301
 31
0.0
  0
LINE
  5
55D
330
1E
100
AcDbEntity
  8
0
100
AcDbLine
 10
18.667
 20
93.28701
 30
0.0
 11
19.178
 21
99.04231
 31
0.0
  0
LINE
  5
55E
330
1E
100
AcDbEntity
  8
0
100
AcDbLine
 10
18.667
 20
93.28701
 30
0.0
 11
19.178
 21
87.53121
 31
0.0
  0
LINE
  5
55F
330
1E
100
AcDbEntity
  8
0
100
AcDbLine
 10
32.609
 20
124.88281
 30
0.0
 11
37.572
 21
128.78571
 31
0.0
  0
LINE
  5
560
330
1E
100
AcDbEntity
  8
0
100
AcDbLine
 10
37.572
 20
56.94281
 30
0.0
 11
43.046
 21
53.63474
 31
0.0
  0
LINE
  5
561
330
1E
100
AcDbEntity
  8
0
100
AcDbLine
 10
43.046
 20
53.63474
 30
0.0
 11
48.813
 21
51.0551
 31
0.0
  0
LINE
  5
562
330
1E
100
AcDbEntity
  8
0
100
AcDbLine
 10
38.01
 20
57.89491
 30
0.0
 11
43.411
 21
54.58691
 31
0.0
  0
LINE
  5
563
330
1E
100
AcDbEntity
  8
0
100
AcDbLine
 10
43.411
 20
54.58691
 30
0.0
 11
49.105
 21
52.13912
 31
0.0
  0
LINE
  5
564
330
1E
100
AcDbEntity
  8
0
100
AcDbLine
 10
33.119
 20
124.84231
 30
0.0
 11
38.01
 21
128.67911
 31
0.0
  0
LINE
  5
565
330
1E
100
AcDbEntity
  8
0
100
AcDbLine
 10
37.572
 20
128.78571
 30
0.0
 11
43.046
 21
132.09351
 31
0.0
  0
LINE
  5
566
330
1E
100
AcDbEntity
  8
0
100
AcDbLine
 10
43.046
 20
132.09351
 30
0.0
 11
48.813
 21
134.67351
 31
0.0
  0
LINE
  5
567
330
1E
100
AcDbEntity
  8
0
100
AcDbLine
 10
38.01
 20
128.67911
 30
0.0
 11
43.411
 21
131.98691
 31
0.0
  0
LINE
  5
568
330
1E
100
AcDbEntity
  8
0
100
AcDbLine
 10
48.813
 20
51.0551
 30
0.0
 11
55.017
 21
49.20276
 31
0.0
  0
LINE
  5
569
330
1E
100
AcDbEntity
  8
0
100
AcDbLine
 10
55.017
 20
49.20276
 30
0.0
 11
61.514
 21
48.01183
 31
0.0
  0
LINE
  5
56A
330
1E
100
AcDbEntity
  8
0
100
AcDbLine
 10
49.105
 20
52.13912
 30
0.0
 11
55.528
 21
50.22089
 31
0.0
  0
LINE
  5
56B
330
1E
100
AcDbEntity
  8
0
100
AcDbLine
 10
55.528
 20
50.22089
 30
0.0
 11
61.587
 21
49.09585
 31
0.0
  0
LINE
  5
56C
330
1E
100
AcDbEntity
  8
0
100
AcDbLine
 10
43.411
 20
131.98691
 30
0.0
 11
49.105
 21
134.43461
 31
0.0
  0
LINE
  5
56D
330
1E
100
AcDbEntity
  8
0
100
AcDbLine
 10
48.813
 20
134.67351
 30
0.0
 11
55.017
 21
136.52581
 31
0.0
  0
LINE
  5
56E
330
1E
100
AcDbEntity
  8
0
100
AcDbLine
 10
55.017
 20
136.52581
 30
0.0
 11
61.514
 21
137.71661
 31
0.0
  0
LINE
  5
56F
330
1E
100
AcDbEntity
  8
0
100
AcDbLine
 10
49.105
 20
134.43461
 30
0.0
 11
55.528
 21
136.35311
 31
0.0
  0
LINE
  5
570
330
1E
100
AcDbEntity
  8
0
100
AcDbLine
 10
59.297
 20
137.310268057565
 30
0.0
 11
59.297
 21
146.81951
 31
0.0
  0
LINE
  5
571
330
1E
100
AcDbEntity
  8
0
100
AcDbLine
 10
61.587
 20
49.09585
 30
0.0
 11
67.937
 21
48.63331
 31
0.0
  0
LINE
  5
572
330
1E
100
AcDbEntity
  8
0
100
AcDbLine
 10
55.528
 20
136.35311
 30
0.0
 11
61.587
 21
137.47761
 31
0.0
  0
LINE
  5
573
330
1E
100
AcDbEntity
  8
0
100
AcDbLine
 10
61.514
 20
137.71661
 30
0.0
 11
67.937
 21
138.17971
 31
0.0
  0
LINE
  5
574
330
1E
100
AcDbEntity
  8
0
100
AcDbLine
 10
61.587
 20
137.47761
 30
0.0
 11
67.937
 21
137.94071
 31
0.0
  0
LINE
  5
575
330
1E
100
AcDbEntity
  8
0
100
AcDbLine
 10
74.287
 20
137.47761
 30
0.0
 11
80.346
 21
136.35311
 31
0.0
  0
LINE
  5
576
330
1E
100
AcDbEntity
  8
0
100
AcDbLine
 10
56.321
 20
145.43951
 30
0.0
 11
57.569
 21
144.13751
 31
0.0
  0
LINE
  5
577
330
1E
100
AcDbEntity
  8
0
100
AcDbLine
 10
55.937
 20
146.81951
 30
0.0
 11
56.321
 21
148.23951
 31
0.0
  0
LINE
  5
578
330
1E
100
AcDbEntity
  8
0
100
AcDbLine
 10
55.937
 20
146.81951
 30
0.0
 11
56.321
 21
145.43951
 31
0.0
  0
LINE
  5
579
330
1E
100
AcDbEntity
  8
0
100
AcDbLine
 10
55.937
 20
146.81951
 30
0.0
 11
55.937
 21
207.30051
 31
0.0
  0
LINE
  5
57A
330
1E
100
AcDbEntity
  8
0
100
AcDbLine
 10
57.569
 20
144.13751
 30
0.0
 11
59.297
 21
143.10827
 31
0.0
  0
LINE
  5
57B
330
1E
100
AcDbEntity
  8
0
100
AcDbLine
 10
56.321
 20
148.23951
 30
0.0
 11
57.569
 21
149.54151
 31
0.0
  0
LINE
  5
57C
330
1E
100
AcDbEntity
  8
0
100
AcDbLine
 10
57.569
 20
149.54151
 30
0.0
 11
59.489
 21
150.68451
 31
0.0
  0
LINE
  5
57D
330
1E
100
AcDbEntity
  8
0
100
AcDbLine
 10
59.489
 20
150.68451
 30
0.0
 11
61.985
 21
151.55251
 31
0.0
  0
LINE
  5
57E
330
1E
100
AcDbEntity
  8
0
100
AcDbLine
 10
65.729
 20
150.60551
 30
0.0
 11
67.937
 21
150.76351
 31
0.0
  0
LINE
  5
57F
330
1E
100
AcDbEntity
  8
0
100
AcDbLine
 10
63.617
 20
150.21051
 30
0.0
 11
65.729
 21
150.60551
 31
0.0
  0
LINE
  5
580
330
1E
100
AcDbEntity
  8
0
100
AcDbLine
 10
61.793
 20
149.58051
 30
0.0
 11
63.617
 21
150.21051
 31
0.0
  0
LINE
  5
581
330
1E
100
AcDbEntity
  8
0
100
AcDbLine
 10
60.449
 20
148.79151
 30
0.0
 11
61.793
 21
149.58051
 31
0.0
  0
LINE
  5
582
330
1E
100
AcDbEntity
  8
0
100
AcDbLine
 10
59.585
 20
147.84451
 30
0.0
 11
60.449
 21
148.79151
 31
0.0
  0
LINE
  5
583
330
1E
100
AcDbEntity
  8
0
100
AcDbLine
 10
59.297
 20
146.81951
 30
0.0
 11
59.297
 21
137.310268057565
 31
0.0
  0
LINE
  5
584
330
1E
100
AcDbEntity
  8
0
100
AcDbLine
 10
59.297
 20
146.81951
 30
0.0
 11
59.585
 21
147.84451
 31
0.0
  0
LINE
  5
585
330
1E
100
AcDbEntity
  8
0
100
AcDbLine
 10
52.54
 20
206.33551
 30
0.0
 11
54.002
 21
203.48051
 31
0.0
  0
LINE
  5
586
330
1E
100
AcDbEntity
  8
0
100
AcDbLine
 10
55.586
 20
201.70651
 30
0.0
 11
55.937
 21
201.431751803279
 31
0.0
  0
LINE
  5
587
330
1E
100
AcDbEntity
  8
0
100
AcDbLine
 10
54.002
 20
203.48051
 30
0.0
 11
54.459
 21
203.27551
 31
0.0
  0
LINE
  5
588
330
1E
100
AcDbEntity
  8
0
100
AcDbLine
 10
54.111049608484
 20
203.431592779564
 30
0.0
 11
55.586
 21
201.70651
 31
0.0
  0
LINE
  5
589
330
1E
100
AcDbEntity
  8
0
100
AcDbLine
 10
54.459
 20
203.27551
 30
0.0
 11
55.937
 21
201.695868841779
 31
0.0
  0
LINE
  5
58A
330
1E
100
AcDbEntity
  8
0
100
AcDbLine
 10
52.877
 20
205.65951
 30
0.0
 11
52.936767041061
 21
205.560701585343
 31
0.0
  0
LINE
  5
58B
330
1E
100
AcDbEntity
  8
0
100
AcDbLine
 10
51.904
 20
210.38651
 30
0.0
 11
52.427
 21
213.05851
 31
0.0
  0
LINE
  5
58C
330
1E
100
AcDbEntity
  8
0
100
AcDbLine
 10
51.904
 20
210.38651
 30
0.0
 11
52.087
 21
207.98451
 31
0.0
  0
LINE
  5
58D
330
1E
100
AcDbEntity
  8
0
100
AcDbLine
 10
52.087
 20
207.98451
 30
0.0
 11
52.54
 21
206.33551
 31
0.0
  0
LINE
  5
58E
330
1E
100
AcDbEntity
  8
0
100
AcDbLine
 10
55.937
 20
207.30051
 30
0.0
 11
55.937
 21
146.81951
 31
0.0
  0
LINE
  5
58F
330
1E
100
AcDbEntity
  8
0
100
AcDbLine
 10
55.937
 20
207.30051
 30
0.0
 11
56.321
 21
209.69451
 31
0.0
  0
LINE
  5
590
330
1E
100
AcDbEntity
  8
0
100
AcDbLine
 10
56.321
 20
209.69451
 30
0.0
 11
57.569
 21
211.92051
 31
0.0
  0
LINE
  5
591
330
1E
100
AcDbEntity
  8
0
100
AcDbLine
 10
52.427
 20
213.05851
 30
0.0
 11
53.732
 21
215.57451
 31
0.0
  0
LINE
  5
592
330
1E
100
AcDbEntity
  8
0
100
AcDbLine
 10
57.569
 20
211.92051
 30
0.0
 11
59.489
 21
213.85051
 31
0.0
  0
LINE
  5
593
330
1E
100
AcDbEntity
  8
0
100
AcDbLine
 10
59.489
 20
213.85051
 30
0.0
 11
61.985
 21
215.27451
 31
0.0
  0
LINE
  5
594
330
1E
100
AcDbEntity
  8
0
100
AcDbLine
 10
53.732
 20
215.57451
 30
0.0
 11
55.666
 21
217.84051
 31
0.0
  0
LINE
  5
595
330
1E
100
AcDbEntity
  8
0
100
AcDbLine
 10
61.985
 20
215.27451
 30
0.0
 11
64.865
 21
216.15451
 31
0.0
  0
LINE
  5
596
330
1E
100
AcDbEntity
  8
0
100
AcDbLine
 10
61.985
 20
151.55251
 30
0.0
 11
64.865
 21
152.06451
 31
0.0
  0
LINE
  5
597
330
1E
100
AcDbEntity
  8
0
100
AcDbLine
 10
64.865
 20
216.15451
 30
0.0
 11
67.937
 21
216.49151
 31
0.0
  0
LINE
  5
598
330
1E
100
AcDbEntity
  8
0
100
AcDbLine
 10
64.865
 20
152.06451
 30
0.0
 11
67.937
 21
152.26151
 31
0.0
  0
LINE
  5
599
330
1E
100
AcDbEntity
  8
0
100
AcDbLine
 10
55.666
 20
217.84051
 30
0.0
 11
58.551
 21
219.87751
 31
0.0
  0
LINE
  5
59A
330
1E
100
AcDbEntity
  8
0
100
AcDbLine
 10
58.551
 20
219.87751
 30
0.0
 11
62.365
 21
221.43051
 31
0.0
  0
LINE
  5
59B
330
1E
100
AcDbEntity
  8
0
100
AcDbLine
 10
67.937
 20
216.49151
 30
0.0
 11
71.009
 21
216.15451
 31
0.0
  0
LINE
  5
59C
330
1E
100
AcDbEntity
  8
0
100
AcDbLine
 10
67.937
 20
152.26151
 30
0.0
 11
71.009
 21
152.06451
 31
0.0
  0
LINE
  5
59D
330
1E
100
AcDbEntity
  8
0
100
AcDbLine
 10
67.937
 20
150.76351
 30
0.0
 11
70.145
 21
150.60551
 31
0.0
  0
LINE
  5
59E
330
1E
100
AcDbEntity
  8
0
100
AcDbLine
 10
74.081
 20
149.58051
 30
0.0
 11
75.425
 21
148.79151
 31
0.0
  0
LINE
  5
59F
330
1E
100
AcDbEntity
  8
0
100
AcDbLine
 10
72.257
 20
150.21051
 30
0.0
 11
74.081
 21
149.58051
 31
0.0
  0
LINE
  5
5A0
330
1E
100
AcDbEntity
  8
0
100
AcDbLine
 10
71.009
 20
216.15451
 30
0.0
 11
73.889
 21
215.27451
 31
0.0
  0
LINE
  5
5A1
330
1E
100
AcDbEntity
  8
0
100
AcDbLine
 10
73.889
 20
215.27451
 30
0.0
 11
76.385
 21
213.85051
 31
0.0
  0
LINE
  5
5A2
330
1E
100
AcDbEntity
  8
0
100
AcDbLine
 10
73.889
 20
151.55251
 30
0.0
 11
76.385
 21
150.68451
 31
0.0
  0
LINE
  5
5A3
330
1E
100
AcDbEntity
  8
0
100
AcDbLine
 10
71.009
 20
152.06451
 30
0.0
 11
73.889
 21
151.55251
 31
0.0
  0
LINE
  5
5A4
330
1E
100
AcDbEntity
  8
0
100
AcDbLine
 10
70.145
 20
150.60551
 30
0.0
 11
72.257
 21
150.21051
 31
0.0
  0
LINE
  5
5A5
330
1E
100
AcDbEntity
  8
0
100
AcDbLine
 10
67.937
 20
138.17971
 30
0.0
 11
74.36
 21
137.71661
 31
0.0
  0
LINE
  5
5A6
330
1E
100
AcDbEntity
  8
0
100
AcDbLine
 10
67.937
 20
137.94071
 30
0.0
 11
74.287
 21
137.47761
 31
0.0
  0
LINE
  5
5A7
330
1E
100
AcDbEntity
  8
0
100
AcDbLine
 10
80.857
 20
49.20276
 30
0.0
 11
87.061
 21
51.0551
 31
0.0
  0
LINE
  5
5A8
330
1E
100
AcDbEntity
  8
0
100
AcDbLine
 10
86.769
 20
134.43461
 30
0.0
 11
92.463
 21
131.98691
 31
0.0
  0
LINE
  5
5A9
330
1E
100
AcDbEntity
  8
0
100
AcDbLine
 10
76.577
 20
143.10827
 30
0.0
 11
78.305
 21
144.13751
 31
0.0
  0
LINE
  5
5AA
330
1E
100
AcDbEntity
  8
0
100
AcDbLine
 10
78.305
 20
144.13751
 30
0.0
 11
79.553
 21
145.43951
 31
0.0
  0
LINE
  5
5AB
330
1E
100
AcDbEntity
  8
0
100
AcDbLine
 10
79.937
 20
146.81951
 30
0.0
 11
79.937
 21
207.30051
 31
0.0
  0
LINE
  5
5AC
330
1E
100
AcDbEntity
  8
0
100
AcDbLine
 10
79.553
 20
145.43951
 30
0.0
 11
79.937
 21
146.81951
 31
0.0
  0
LINE
  5
5AD
330
1E
100
AcDbEntity
  8
0
100
AcDbLine
 10
76.385
 20
213.85051
 30
0.0
 11
78.305
 21
211.92051
 31
0.0
  0
LINE
  5
5AE
330
1E
100
AcDbEntity
  8
0
100
AcDbLine
 10
79.553
 20
148.23951
 30
0.0
 11
79.937
 21
146.81951
 31
0.0
  0
LINE
  5
5AF
330
1E
100
AcDbEntity
  8
0
100
AcDbLine
 10
79.937
 20
201.479073492063
 30
0.0
 11
80.658
 21
202.22051
 31
0.0
  0
LINE
  5
5B0
330
1E
100
AcDbEntity
  8
0
100
AcDbLine
 10
79.937
 20
202.166839273793
 30
0.0
 11
80.161
 21
202.36851
 31
0.0
  0
LINE
  5
5B1
330
1E
100
AcDbEntity
  8
0
100
AcDbLine
 10
80.658
 20
202.22051
 30
0.0
 11
82.548
 21
204.63351
 31
0.0
  0
LINE
  5
5B2
330
1E
100
AcDbEntity
  8
0
100
AcDbLine
 10
83.536
 20
207.01251
 30
0.0
 11
83.924
 21
209.10251
 31
0.0
  0
LINE
  5
5B3
330
1E
100
AcDbEntity
  8
0
100
AcDbLine
 10
82.548
 20
204.63351
 30
0.0
 11
83.536
 21
207.01251
 31
0.0
  0
LINE
  5
5B4
330
1E
100
AcDbEntity
  8
0
100
AcDbLine
 10
79.937
 20
207.30051
 30
0.0
 11
79.937
 21
146.81951
 31
0.0
  0
LINE
  5
5B5
330
1E
100
AcDbEntity
  8
0
100
AcDbLine
 10
78.868
 20
218.87551
 30
0.0
 11
80.723
 21
217.31251
 31
0.0
  0
LINE
  5
5B6
330
1E
100
AcDbEntity
  8
0
100
AcDbLine
 10
80.723
 20
217.31251
 30
0.0
 11
81.952
 21
215.77251
 31
0.0
  0
LINE
  5
5B7
330
1E
100
AcDbEntity
  8
0
100
AcDbLine
 10
83.695
 20
212.10451
 30
0.0
 11
83.924
 21
209.10251
 31
0.0
  0
LINE
  5
5B8
330
1E
100
AcDbEntity
  8
0
100
AcDbLine
 10
82.945
 20
214.13251
 30
0.0
 11
83.004989660265
 21
213.955806279193
 31
0.0
  0
LINE
  5
5B9
330
1E
100
AcDbEntity
  8
0
100
AcDbLine
 10
83.118
 20
213.86151
 30
0.0
 11
83.695
 21
212.10451
 31
0.0
  0
LINE
  5
5BA
330
1E
100
AcDbEntity
  8
0
100
AcDbLine
 10
81.952
 20
215.77251
 30
0.0
 11
82.945
 21
214.13251
 31
0.0
  0
LINE
  5
5BB
330
1E
100
AcDbEntity
  8
0
100
AcDbLine
 10
79.553
 20
209.69451
 30
0.0
 11
79.937
 21
207.30051
 31
0.0
  0
LINE
  5
5BC
330
1E
100
AcDbEntity
  8
0
100
AcDbLine
 10
78.305
 20
211.92051
 30
0.0
 11
79.553
 21
209.69451
 31
0.0
  0
LINE
  5
5BD
330
1E
100
AcDbEntity
  8
0
100
AcDbLine
 10
78.305
 20
149.54151
 30
0.0
 11
79.553
 21
148.23951
 31
0.0
  0
LINE
  5
5BE
330
1E
100
AcDbEntity
  8
0
100
AcDbLine
 10
76.385
 20
150.68451
 30
0.0
 11
78.305
 21
149.54151
 31
0.0
  0
LINE
  5
5BF
330
1E
100
AcDbEntity
  8
0
100
AcDbLine
 10
76.577
 20
146.81951
 30
0.0
 11
76.577
 21
137.310268057565
 31
0.0
  0
LINE
  5
5C0
330
1E
100
AcDbEntity
  8
0
100
AcDbLine
 10
76.289
 20
147.84451
 30
0.0
 11
76.577
 21
146.81951
 31
0.0
  0
LINE
  5
5C1
330
1E
100
AcDbEntity
  8
0
100
AcDbLine
 10
76.577
 20
137.310268057565
 30
0.0
 11
76.577
 21
146.81951
 31
0.0
  0
LINE
  5
5C2
330
1E
100
AcDbEntity
  8
0
100
AcDbLine
 10
75.425
 20
148.79151
 30
0.0
 11
76.289
 21
147.84451
 31
0.0
  0
LINE
  5
5C3
330
1E
100
AcDbEntity
  8
0
100
AcDbLine
 10
80.857
 20
136.52581
 30
0.0
 11
87.061
 21
134.67351
 31
0.0
  0
LINE
  5
5C4
330
1E
100
AcDbEntity
  8
0
100
AcDbLine
 10
74.36
 20
137.71661
 30
0.0
 11
80.857
 21
136.52581
 31
0.0
  0
LINE
  5
5C5
330
1E
100
AcDbEntity
  8
0
100
AcDbLine
 10
80.346
 20
136.35311
 30
0.0
 11
86.769
 21
134.43461
 31
0.0
  0
LINE
  5
5C6
330
1E
100
AcDbEntity
  8
0
100
AcDbLine
 10
103.265
 20
51.97128
 30
0.0
 11
107.572
 21
56.46921
 31
0.0
  0
LINE
  5
5C7
330
1E
100
AcDbEntity
  8
0
100
AcDbLine
 10
92.828
 20
53.63474
 30
0.0
 11
98.302
 21
56.94281
 31
0.0
  0
LINE
  5
5C8
330
1E
100
AcDbEntity
  8
0
100
AcDbLine
 10
87.061
 20
51.0551
 30
0.0
 11
92.828
 21
53.63474
 31
0.0
  0
LINE
  5
5C9
330
1E
100
AcDbEntity
  8
0
100
AcDbLine
 10
97.864
 20
128.67911
 30
0.0
 11
102.755
 21
124.84231
 31
0.0
  0
LINE
  5
5CA
330
1E
100
AcDbEntity
  8
0
100
AcDbLine
 10
92.828
 20
132.09351
 30
0.0
 11
98.302
 21
128.78571
 31
0.0
  0
LINE
  5
5CB
330
1E
100
AcDbEntity
  8
0
100
AcDbLine
 10
87.061
 20
134.67351
 30
0.0
 11
92.828
 21
132.09351
 31
0.0
  0
LINE
  5
5CC
330
1E
100
AcDbEntity
  8
0
100
AcDbLine
 10
92.463
 20
131.98691
 30
0.0
 11
97.864
 21
128.67911
 31
0.0
  0
LINE
  5
5CD
330
1E
100
AcDbEntity
  8
0
100
AcDbLine
 10
107.572
 20
56.46921
 30
0.0
 11
111.222
 21
61.43071
 31
0.0
  0
LINE
  5
5CE
330
1E
100
AcDbEntity
  8
0
100
AcDbLine
 10
103.265
 20
60.84631
 30
0.0
 11
107.572
 21
65.34421
 31
0.0
  0
LINE
  5
5CF
330
1E
100
AcDbEntity
  8
0
100
AcDbLine
 10
102.755
 20
61.73151
 30
0.0
 11
106.988
 21
66.16341
 31
0.0
  0
LINE
  5
5D0
330
1E
100
AcDbEntity
  8
0
100
AcDbLine
 10
111.222
 20
61.43071
 30
0.0
 11
114.068
 21
66.65701
 31
0.0
  0
LINE
  5
5D1
330
1E
100
AcDbEntity
  8
0
100
AcDbLine
 10
107.572
 20
65.34421
 30
0.0
 11
111.222
 21
70.30581
 31
0.0
  0
LINE
  5
5D2
330
1E
100
AcDbEntity
  8
0
100
AcDbLine
 10
111.222
 20
70.30581
 30
0.0
 11
114.068
 21
75.53201
 31
0.0
  0
LINE
  5
5D3
330
1E
100
AcDbEntity
  8
0
100
AcDbLine
 10
106.988
 20
66.16341
 30
0.0
 11
110.638
 21
71.05901
 31
0.0
  0
LINE
  5
5D4
330
1E
100
AcDbEntity
  8
0
100
AcDbLine
 10
110.638
 20
71.05901
 30
0.0
 11
113.338
 21
76.21941
 31
0.0
  0
LINE
  5
5D5
330
1E
100
AcDbEntity
  8
0
100
AcDbLine
 10
114.068
 20
66.65701
 30
0.0
 11
116.112
 21
72.28001
 31
0.0
  0
LINE
  5
5D6
330
1E
100
AcDbEntity
  8
0
100
AcDbLine
 10
116.112
 20
72.28001
 30
0.0
 11
117.426
 21
78.16771
 31
0.0
  0
LINE
  5
5D7
330
1E
100
AcDbEntity
  8
0
100
AcDbLine
 10
114.068
 20
75.53201
 30
0.0
 11
116.112
 21
81.15491
 31
0.0
  0
LINE
  5
5D8
330
1E
100
AcDbEntity
  8
0
100
AcDbLine
 10
116.112
 20
81.15491
 30
0.0
 11
117.426
 21
87.04261
 31
0.0
  0
LINE
  5
5D9
330
1E
100
AcDbEntity
  8
0
100
AcDbLine
 10
113.338
 20
76.21941
 30
0.0
 11
115.455
 21
82.04111
 31
0.0
  0
LINE
  5
5DA
330
1E
100
AcDbEntity
  8
0
100
AcDbLine
 10
111.222
 20
115.42271
 30
0.0
 11
114.068
 21
110.19671
 31
0.0
  0
LINE
  5
5DB
330
1E
100
AcDbEntity
  8
0
100
AcDbLine
 10
98.302
 20
128.78571
 30
0.0
 11
103.265
 21
124.88281
 31
0.0
  0
LINE
  5
5DC
330
1E
100
AcDbEntity
  8
0
100
AcDbLine
 10
103.265
 20
124.88281
 30
0.0
 11
107.572
 21
120.38431
 31
0.0
  0
LINE
  5
5DD
330
1E
100
AcDbEntity
  8
0
100
AcDbLine
 10
102.755
 20
124.84231
 30
0.0
 11
106.988
 21
120.40991
 31
0.0
  0
LINE
  5
5DE
330
1E
100
AcDbEntity
  8
0
100
AcDbLine
 10
107.572
 20
120.38431
 30
0.0
 11
111.222
 21
115.42271
 31
0.0
  0
LINE
  5
5DF
330
1E
100
AcDbEntity
  8
0
100
AcDbLine
 10
106.988
 20
120.40991
 30
0.0
 11
110.638
 21
115.51461
 31
0.0
  0
LINE
  5
5E0
330
1E
100
AcDbEntity
  8
0
100
AcDbLine
 10
110.638
 20
115.51461
 30
0.0
 11
113.338
 21
110.35461
 31
0.0
  0
LINE
  5
5E1
330
1E
100
AcDbEntity
  8
0
100
AcDbLine
 10
114.068
 20
110.19671
 30
0.0
 11
116.112
 21
104.57351
 31
0.0
  0
LINE
  5
5E2
330
1E
100
AcDbEntity
  8
0
100
AcDbLine
 10
116.112
 20
104.57351
 30
0.0
 11
117.426
 21
98.68591
 31
0.0
  0
LINE
  5
5E3
330
1E
100
AcDbEntity
  8
0
100
AcDbLine
 10
113.338
 20
110.35461
 30
0.0
 11
115.455
 21
104.53301
 31
0.0
  0
LINE
  5
5E4
330
1E
100
AcDbEntity
  8
0
100
AcDbLine
 10
115.455
 20
104.53301
 30
0.0
 11
116.696
 21
99.04231
 31
0.0
  0
LINE
  5
5E5
330
1E
100
AcDbEntity
  8
0
100
AcDbLine
 10
116.696
 20
99.04231
 30
0.0
 11
117.207
 21
93.28701
 31
0.0
  0
LINE
  5
5E6
330
1E
100
AcDbEntity
  8
0
100
AcDbLine
 10
115.455
 20
82.04111
 30
0.0
 11
116.696
 21
87.53121
 31
0.0
  0
LINE
  5
5E7
330
1E
100
AcDbEntity
  8
0
100
AcDbLine
 10
117.937
 20
83.98941
 30
0.0
 11
117.937
 21
92.86441
 31
0.0
  0
LINE
  5
5E8
330
1E
100
AcDbEntity
  8
0
100
AcDbLine
 10
117.426
 20
78.16771
 30
0.0
 11
117.937
 21
83.98941
 31
0.0
  0
LINE
  5
5E9
330
1E
100
AcDbEntity
  8
0
100
AcDbLine
 10
117.937
 20
92.86441
 30
0.0
 11
117.937
 21
83.98941
 31
0.0
  0
LINE
  5
5EA
330
1E
100
AcDbEntity
  8
0
100
AcDbLine
 10
117.426
 20
98.68591
 30
0.0
 11
117.937
 21
92.86441
 31
0.0
  0
LINE
  5
5EB
330
1E
100
AcDbEntity
  8
0
100
AcDbLine
 10
117.426
 20
87.04261
 30
0.0
 11
117.937
 21
92.86441
 31
0.0
  0
LINE
  5
5EC
330
1E
100
AcDbEntity
  8
0
100
AcDbLine
 10
116.696
 20
87.53121
 30
0.0
 11
117.207
 21
93.28701
 31
0.0
  0
LINE
  5
5ED
330
1E
100
AcDbEntity
  8
0
100
AcDbLine
 10
98.302
 20
56.94281
 30
0.0
 11
103.265
 21
60.84631
 31
0.0
  0
LINE
  5
5EE
330
1E
100
AcDbEntity
  8
0
100
AcDbLine
 10
97.864
 20
57.89491
 30
0.0
 11
102.755
 21
61.73151
 31
0.0
  0
LINE
  5
5EF
330
1E
100
AcDbEntity
  8
0
100
AcDbLine
 10
92.463
 20
54.58691
 30
0.0
 11
97.864
 21
57.89491
 31
0.0
  0
LINE
  5
5F0
330
1E
100
AcDbEntity
  8
0
100
AcDbLine
 10
86.769
 20
52.13912
 30
0.0
 11
92.463
 21
54.58691
 31
0.0
  0
LINE
  5
5F1
330
1E
100
AcDbEntity
  8
0
100
AcDbLine
 10
80.346
 20
50.22089
 30
0.0
 11
86.769
 21
52.13912
 31
0.0
  0
LINE
  5
5F2
330
1E
100
AcDbEntity
  8
0
100
AcDbLine
 10
74.287
 20
49.09585
 30
0.0
 11
80.346
 21
50.22089
 31
0.0
  0
LINE
  5
5F3
330
1E
100
AcDbEntity
  8
0
100
AcDbLine
 10
67.937
 20
48.63331
 30
0.0
 11
74.287
 21
49.09585
 31
0.0
  0
LINE
  5
5F4
330
1E
100
AcDbEntity
  8
0
100
AcDbLine
 10
45.592
 20
226.26251
 30
0.0
 11
48.311
 21
224.28551
 31
0.0
  0
LINE
  5
5F5
330
1E
100
AcDbEntity
  8
0
100
AcDbLine
 10
48.311
 20
224.28551
 30
0.0
 11
51.158
 21
222.61551
 31
0.0
  0
LINE
  5
5F6
330
1E
100
AcDbEntity
  8
0
100
AcDbLine
 10
43.151
 20
228.53451
 30
0.0
 11
44.185810987608
 21
227.571343034066
 31
0.0
  0
LINE
  5
5F7
330
1E
100
AcDbEntity
  8
0
100
AcDbLine
 10
44.185810987608
 20
227.571343034066
 30
0.0
 11
45.592
 21
226.26251
 31
0.0
  0
LINE
  5
5F8
330
1E
100
AcDbEntity
  8
0
100
AcDbLine
 10
51.919
 20
221.20151
 30
0.0
 11
51.946707367469
 21
210.604701368792
 31
0.0
  0
LINE
  5
5F9
330
1E
100
AcDbEntity
  8
0
100
AcDbLine
 10
51.919
 20
221.20151
 30
0.0
 11
52.141
 21
224.20651
 31
0.0
  0
LINE
  5
5FA
330
1E
100
AcDbEntity
  8
0
100
AcDbLine
 10
52.160618492412
 20
224.252153349202
 30
0.0
 11
52.304
 21
225.29851
 31
0.0
  0
LINE
  5
5FB
330
1E
100
AcDbEntity
  8
0
100
AcDbLine
 10
52.141
 20
224.20651
 30
0.0
 11
53.369
 21
227.06351
 31
0.0
  0
LINE
  5
5FC
330
1E
100
AcDbEntity
  8
0
100
AcDbLine
 10
62.365
 20
221.43051
 30
0.0
 11
66.19
 21
222.12451
 31
0.0
  0
LINE
  5
5FD
330
1E
100
AcDbEntity
  8
0
100
AcDbLine
 10
75.361
 20
220.82051
 30
0.0
 11
78.868
 21
218.87551
 31
0.0
  0
LINE
  5
5FE
330
1E
100
AcDbEntity
  8
0
100
AcDbLine
 10
66.19
 20
222.12451
 30
0.0
 11
71.283
 21
221.92251
 31
0.0
  0
LINE
  5
5FF
330
1E
100
AcDbEntity
  8
0
100
AcDbLine
 10
71.283
 20
221.92251
 30
0.0
 11
75.361
 21
220.82051
 31
0.0
  0
LINE
  5
600
330
1E
100
AcDbEntity
  8
0
100
AcDbLine
 10
83.890107158879
 20
222.227202505437
 30
0.0
 11
87.54
 21
224.30651
 31
0.0
  0
LINE
  5
601
330
1E
100
AcDbEntity
  8
0
100
AcDbLine
 10
83.714
 20
224.34751
 30
0.0
 11
83.911
 21
222.43051
 31
0.0
  0
LINE
  5
602
330
1E
100
AcDbEntity
  8
0
100
AcDbLine
 10
83.624
 20
224.42551
 30
0.0
 11
83.898
 21
220.82451
 31
0.0
  0
LINE
  5
603
330
1E
100
AcDbEntity
  8
0
100
AcDbLine
 10
83.911
 20
222.239104948335
 30
0.0
 11
83.911
 21
248.24951
 31
0.0
  0
LINE
  5
604
330
1E
100
AcDbEntity
  8
0
100
AcDbLine
 10
83.898
 20
220.82451
 30
0.0
 11
83.917
 21
209.40551
 31
0.0
  0
LINE
  5
605
330
1E
100
AcDbEntity
  8
0
100
AcDbLine
 10
52.304
 20
225.29851
 30
0.0
 11
53.654
 21
227.99551
 31
0.0
  0
LINE
  5
606
330
1E
100
AcDbEntity
  8
0
100
AcDbLine
 10
53.369
 20
227.06351
 30
0.0
 11
55.41
 21
229.62851
 31
0.0
  0
LINE
  5
607
330
1E
100
AcDbEntity
  8
0
100
AcDbLine
 10
82.959
 20
226.16351
 30
0.0
 11
83.624
 21
224.42551
 31
0.0
  0
LINE
  5
608
330
1E
100
AcDbEntity
  8
0
100
AcDbLine
 10
87.54
 20
224.30651
 30
0.0
 11
91.438
 21
227.39351
 31
0.0
  0
LINE
  5
609
330
1E
100
AcDbEntity
  8
0
100
AcDbLine
 10
82.736
 20
227.13851
 30
0.0
 11
83.714
 21
224.34751
 31
0.0
  0
LINE
  5
60A
330
1E
100
AcDbEntity
  8
0
100
AcDbLine
 10
53.654
 20
227.99451
 30
0.0
 11
54.966
 21
229.63451
 31
0.0
  0
LINE
  5
60B
330
1E
100
AcDbEntity
  8
0
100
AcDbLine
 10
91.438
 20
227.39351
 30
0.0
 11
93.792
 21
229.74751
 31
0.0
  0
LINE
  5
60C
330
1E
100
AcDbEntity
  8
0
100
AcDbLine
 10
81.995
 20
227.81251
 30
0.0
 11
82.959
 21
226.16351
 31
0.0
  0
LINE
  5
60D
330
1E
100
AcDbEntity
  8
0
100
AcDbLine
 10
51.156
 20
222.61751
 30
0.0
 11
51.930088335217
 21
222.239912246379
 31
0.0
  0
LINE
  5
60E
330
1E
100
AcDbEntity
  8
0
100
AcDbLine
 10
49.496
 20
231.59651
 30
0.0
 11
51.8
 21
229.83551
 31
0.0
  0
LINE
  5
60F
330
1E
100
AcDbEntity
  8
0
100
AcDbLine
 10
40.881
 20
230.97651
 30
0.0
 11
43.151
 21
228.53451
 31
0.0
  0
LINE
  5
610
330
1E
100
AcDbEntity
  8
0
100
AcDbLine
 10
55.41
 20
229.62851
 30
0.0
 11
58.872
 21
232.07751
 31
0.0
  0
LINE
  5
611
330
1E
100
AcDbEntity
  8
0
100
AcDbLine
 10
83.911
 20
229.767889603399
 30
0.0
 11
84.021
 21
229.83551
 31
0.0
  0
LINE
  5
612
330
1E
100
AcDbEntity
  8
0
100
AcDbLine
 10
84.021
 20
229.83551
 30
0.0
 11
86.325
 21
231.59751
 31
0.0
  0
LINE
  5
613
330
1E
100
AcDbEntity
  8
0
100
AcDbLine
 10
54.966
 20
229.63451
 30
0.0
 11
56.597
 21
231.09751
 31
0.0
  0
LINE
  5
614
330
1E
100
AcDbEntity
  8
0
100
AcDbLine
 10
93.792
 20
229.74751
 30
0.0
 11
94.913
 21
230.98151
 31
0.0
  0
LINE
  5
615
330
1E
100
AcDbEntity
  8
0
100
AcDbLine
 10
56.597
 20
231.09751
 30
0.0
 11
58.506
 21
232.34651
 31
0.0
  0
LINE
  5
616
330
1E
100
AcDbEntity
  8
0
100
AcDbLine
 10
80.113
 20
230.41551
 30
0.0
 11
82.736
 21
227.13851
 31
0.0
  0
LINE
  5
617
330
1E
100
AcDbEntity
  8
0
100
AcDbLine
 10
77.336
 20
231.83851
 30
0.0
 11
79.683
 21
230.23851
 31
0.0
  0
LINE
  5
618
330
1E
100
AcDbEntity
  8
0
100
AcDbLine
 10
86.325
 20
231.59751
 30
0.0
 11
88.437
 21
233.58451
 31
0.0
  0
LINE
  5
619
330
1E
100
AcDbEntity
  8
0
100
AcDbLine
 10
94.913
 20
230.98151
 30
0.0
 11
98.646
 21
236.49251
 31
0.0
  0
LINE
  5
61A
330
1E
100
AcDbEntity
  8
0
100
AcDbLine
 10
79.683
 20
230.23851
 30
0.0
 11
81.995
 21
227.81251
 31
0.0
  0
LINE
  5
61B
330
1E
100
AcDbEntity
  8
0
100
AcDbLine
 10
51.8
 20
229.83551
 30
0.0
 11
51.911
 21
229.767274872521
 31
0.0
  0
LINE
  5
61C
330
1E
100
AcDbEntity
  8
0
100
AcDbLine
 10
58.872
 20
232.07751
 30
0.0
 11
62.376
 21
233.43151
 31
0.0
  0
LINE
  5
61D
330
1E
100
AcDbEntity
  8
0
100
AcDbLine
 10
60.384
 20
232.66351
 30
0.0
 11
60.495777742498
 21
232.704962929036
 31
0.0
  0
LINE
  5
61E
330
1E
100
AcDbEntity
  8
0
100
AcDbLine
 10
58.506
 20
232.34651
 30
0.0
 11
60.647
 21
233.35151
 31
0.0
  0
LINE
  5
61F
330
1E
100
AcDbEntity
  8
0
100
AcDbLine
 10
74.627
 20
233.05751
 30
0.0
 11
77.336
 21
231.83851
 31
0.0
  0
LINE
  5
620
330
1E
100
AcDbEntity
  8
0
100
AcDbLine
 10
62.376
 20
233.43151
 30
0.0
 11
65.415
 21
234.03751
 31
0.0
  0
LINE
  5
621
330
1E
100
AcDbEntity
  8
0
100
AcDbLine
 10
60.647
 20
233.35151
 30
0.0
 11
62.967
 21
234.08751
 31
0.0
  0
LINE
  5
622
330
1E
100
AcDbEntity
  8
0
100
AcDbLine
 10
76.298
 20
232.91151
 30
0.0
 11
80.113
 21
230.41551
 31
0.0
  0
LINE
  5
623
330
1E
100
AcDbEntity
  8
0
100
AcDbLine
 10
47.384
 20
233.58451
 30
0.0
 11
49.496
 21
231.59651
 31
0.0
  0
LINE
  5
624
330
1E
100
AcDbEntity
  8
0
100
AcDbLine
 10
88.437
 20
233.58451
 30
0.0
 11
90.336
 21
235.77651
 31
0.0
  0
LINE
  5
625
330
1E
100
AcDbEntity
  8
0
100
AcDbLine
 10
38.914
 20
233.63151
 30
0.0
 11
40.881
 21
230.97651
 31
0.0
  0
LINE
  5
626
330
1E
100
AcDbEntity
  8
0
100
AcDbLine
 10
71.66
 20
233.84651
 30
0.0
 11
74.627
 21
233.05751
 31
0.0
  0
LINE
  5
627
330
1E
100
AcDbEntity
  8
0
100
AcDbLine
 10
65.415
 20
234.03751
 30
0.0
 11
68.549
 21
234.17751
 31
0.0
  0
LINE
  5
628
330
1E
100
AcDbEntity
  8
0
100
AcDbLine
 10
62.967
 20
234.08751
 30
0.0
 11
65.408
 21
234.53651
 31
0.0
  0
LINE
  5
629
330
1E
100
AcDbEntity
  8
0
100
AcDbLine
 10
68.549
 20
234.17751
 30
0.0
 11
71.66
 21
233.84651
 31
0.0
  0
LINE
  5
62A
330
1E
100
AcDbEntity
  8
0
100
AcDbLine
 10
70.413
 20
234.53651
 30
0.0
 11
72.855
 21
234.08751
 31
0.0
  0
LINE
  5
62B
330
1E
100
AcDbEntity
  8
0
100
AcDbLine
 10
72.855
 20
234.08751
 30
0.0
 11
76.298
 21
232.91151
 31
0.0
  0
LINE
  5
62C
330
1E
100
AcDbEntity
  8
0
100
AcDbLine
 10
67.911
 20
234.68751
 30
0.0
 11
70.413
 21
234.53651
 31
0.0
  0
LINE
  5
62D
330
1E
100
AcDbEntity
  8
0
100
AcDbLine
 10
83.911
 20
234.818839842932
 30
0.0
 11
84.778
 21
235.99451
 31
0.0
  0
LINE
  5
62E
330
1E
100
AcDbEntity
  8
0
100
AcDbLine
 10
65.408
 20
234.53651
 30
0.0
 11
67.911
 21
234.68751
 31
0.0
  0
LINE
  5
62F
330
1E
100
AcDbEntity
  8
0
100
AcDbLine
 10
51.251
 20
235.70251
 30
0.0
 11
51.911
 21
234.768517326007
 31
0.0
  0
LINE
  5
630
330
1E
100
AcDbEntity
  8
0
100
AcDbLine
 10
45.485
 20
235.77551
 30
0.0
 11
47.384
 21
233.58451
 31
0.0
  0
LINE
  5
631
330
1E
100
AcDbEntity
  8
0
100
AcDbLine
 10
90.336
 20
235.77651
 30
0.0
 11
92.002
 21
238.15051
 31
0.0
  0
LINE
  5
632
330
1E
100
AcDbEntity
  8
0
100
AcDbLine
 10
84.778
 20
235.99451
 30
0.0
 11
86.229
 21
238.56951
 31
0.0
  0
LINE
  5
633
330
1E
100
AcDbEntity
  8
0
100
AcDbLine
 10
37.233
 20
236.54051
 30
0.0
 11
38.914
 21
233.63151
 31
0.0
  0
LINE
  5
634
330
1E
100
AcDbEntity
  8
0
100
AcDbLine
 10
98.646
 20
236.49251
 30
0.0
 11
101.266
 21
242.51751
 31
0.0
  0
LINE
  5
635
330
1E
100
AcDbEntity
  8
0
100
AcDbLine
 10
43.82
 20
238.15051
 30
0.0
 11
45.485
 21
235.77551
 31
0.0
  0
LINE
  5
636
330
1E
100
AcDbEntity
  8
0
100
AcDbLine
 10
49.841
 20
238.08551
 30
0.0
 11
51.251
 21
235.70251
 31
0.0
  0
LINE
  5
637
330
1E
100
AcDbEntity
  8
0
100
AcDbLine
 10
92.002
 20
238.15051
 30
0.0
 11
93.417
 21
240.68151
 31
0.0
  0
LINE
  5
638
330
1E
100
AcDbEntity
  8
0
100
AcDbLine
 10
86.229
 20
238.56951
 30
0.0
 11
87.235
 21
240.78951
 31
0.0
  0
LINE
  5
639
330
1E
100
AcDbEntity
  8
0
100
AcDbLine
 10
42.404
 20
240.68051
 30
0.0
 11
43.82
 21
238.15051
 31
0.0
  0
LINE
  5
63A
330
1E
100
AcDbEntity
  8
0
100
AcDbLine
 10
48.666
 20
240.62251
 30
0.0
 11
49.841
 21
238.08551
 31
0.0
  0
LINE
  5
63B
330
1E
100
AcDbEntity
  8
0
100
AcDbLine
 10
93.417
 20
240.68151
 30
0.0
 11
94.567
 21
243.34351
 31
0.0
  0
LINE
  5
63C
330
1E
100
AcDbEntity
  8
0
100
AcDbLine
 10
87.235
 20
240.78951
 30
0.0
 11
88.63
 21
245.15451
 31
0.0
  0
LINE
  5
63D
330
1E
100
AcDbEntity
  8
0
100
AcDbLine
 10
35.781
 20
239.53251
 30
0.0
 11
37.233
 21
236.54051
 31
0.0
  0
LINE
  5
63E
330
1E
100
AcDbEntity
  8
0
100
AcDbLine
 10
34.598
 20
242.64351
 30
0.0
 11
35.781
 21
239.53251
 31
0.0
  0
LINE
  5
63F
330
1E
100
AcDbEntity
  8
0
100
AcDbLine
 10
101.266
 20
242.51751
 30
0.0
 11
102.375
 21
247.48051
 31
0.0
  0
LINE
  5
640
330
1E
100
AcDbEntity
  8
0
100
AcDbLine
 10
47.832
 20
242.96251
 30
0.0
 11
48.666
 21
240.62251
 31
0.0
  0
LINE
  5
641
330
1E
100
AcDbEntity
  8
0
100
AcDbLine
 10
41.254
 20
243.34351
 30
0.0
 11
42.404
 21
240.68051
 31
0.0
  0
LINE
  5
642
330
1E
100
AcDbEntity
  8
0
100
AcDbLine
 10
94.567
 20
243.34351
 30
0.0
 11
95.441
 21
246.10951
 31
0.0
  0
LINE
  5
643
330
1E
100
AcDbEntity
  8
0
100
AcDbLine
 10
88.63
 20
245.15451
 30
0.0
 11
89.214
 21
248.86251
 31
0.0
  0
LINE
  5
644
330
1E
100
AcDbEntity
  8
0
100
AcDbLine
 10
47.192
 20
245.36251
 30
0.0
 11
47.832
 21
242.96251
 31
0.0
  0
LINE
  5
645
330
1E
100
AcDbEntity
  8
0
100
AcDbLine
 10
33.758
 20
245.86051
 30
0.0
 11
34.598
 21
242.64351
 31
0.0
  0
LINE
  5
646
330
1E
100
AcDbEntity
  8
0
100
AcDbLine
 10
40.38
 20
246.10851
 30
0.0
 11
41.254
 21
243.34351
 31
0.0
  0
LINE
  5
647
330
1E
100
AcDbEntity
  8
0
100
AcDbLine
 10
95.441
 20
246.10951
 30
0.0
 11
96.028
 21
248.94951
 31
0.0
  0
LINE
  5
648
330
1E
100
AcDbEntity
  8
0
100
AcDbLine
 10
46.743
 20
247.79451
 30
0.0
 11
47.192
 21
245.35951
 31
0.0
  0
LINE
  5
649
330
1E
100
AcDbEntity
  8
0
100
AcDbLine
 10
46.744
 20
247.79551
 30
0.0
 11
47.192
 21
245.36251
 31
0.0
  0
LINE
  5
64A
330
1E
100
AcDbEntity
  8
0
100
AcDbLine
 10
102.375
 20
247.48051
 30
0.0
 11
102.792
 21
250.78251
 31
0.0
  0
LINE
  5
64B
330
1E
100
AcDbEntity
  8
0
100
AcDbLine
 10
39.793
 20
248.94951
 30
0.0
 11
40.38
 21
246.10851
 31
0.0
  0
LINE
  5
64C
330
1E
100
AcDbEntity
  8
0
100
AcDbLine
 10
89.214
 20
248.86251
 30
0.0
 11
89.361
 21
250.65051
 31
0.0
  0
LINE
  5
64D
330
1E
100
AcDbEntity
  8
0
100
AcDbLine
 10
96.028
 20
248.94951
 30
0.0
 11
96.324
 21
251.83351
 31
0.0
  0
LINE
  5
64E
330
1E
100
AcDbEntity
  8
0
100
AcDbLine
 10
51.911
 20
248.24951
 30
0.0
 11
51.92
 21
248.98851
 31
0.0
  0
LINE
  5
64F
330
1E
100
AcDbEntity
  8
0
100
AcDbLine
 10
51.911
 20
248.24951
 30
0.0
 11
51.930088335217
 21
222.239912246379
 31
0.0
  0
LINE
  5
650
330
1E
100
AcDbEntity
  8
0
100
AcDbLine
 10
46.532
 20
249.63751
 30
0.0
 11
46.744
 21
247.79551
 31
0.0
  0
LINE
  5
651
330
1E
100
AcDbEntity
  8
0
100
AcDbLine
 10
46.532
 20
249.63751
 30
0.0
 11
46.743
 21
247.79451
 31
0.0
  0
LINE
  5
652
330
1E
100
AcDbEntity
  8
0
100
AcDbLine
 10
52.002
 20
250.47151
 30
0.0
 11
52.695
 21
255.01251
 31
0.0
  0
LINE
  5
653
330
1E
100
AcDbEntity
  8
0
100
AcDbLine
 10
89.361
 20
250.65051
 30
0.0
 11
89.411
 21
252.44551
 31
0.0
  0
LINE
  5
654
330
1E
100
AcDbEntity
  8
0
100
AcDbLine
 10
102.792
 20
250.78251
 30
0.0
 11
102.85
 21
254.10951
 31
0.0
  0
LINE
  5
655
330
1E
100
AcDbEntity
  8
0
100
AcDbLine
 10
51.92
 20
248.98851
 30
0.0
 11
52.002
 21
250.47151
 31
0.0
  0
LINE
  5
656
330
1E
100
AcDbEntity
  8
0
100
AcDbLine
 10
46.424
 20
251.48751
 30
0.0
 11
46.532
 21
249.63751
 31
0.0
  0
LINE
  5
657
330
1E
100
AcDbEntity
  8
0
100
AcDbLine
 10
46.425
 20
251.48751
 30
0.0
 11
46.532
 21
249.63751
 31
0.0
  0
LINE
  5
658
330
1E
100
AcDbEntity
  8
0
100
AcDbLine
 10
39.497
 20
251.83451
 30
0.0
 11
39.793
 21
248.94951
 31
0.0
  0
LINE
  5
659
330
1E
100
AcDbEntity
  8
0
100
AcDbLine
 10
39.497
 20
251.83451
 30
0.0
 11
39.497
 21
254.73451
 31
0.0
  0
LINE
  5
65A
330
1E
100
AcDbEntity
  8
0
100
AcDbLine
 10
96.324
 20
251.83351
 30
0.0
 11
96.324
 21
254.73351
 31
0.0
  0
LINE
  5
65B
330
1E
100
AcDbEntity
  8
0
100
AcDbLine
 10
83.61
 20
252.45251
 30
0.0
 11
83.911
 21
248.24951
 31
0.0
  0
LINE
  5
65C
330
1E
100
AcDbEntity
  8
0
100
AcDbLine
 10
46.411
 20
252.44551
 30
0.0
 11
46.453
 21
254.10051
 31
0.0
  0
LINE
  5
65D
330
1E
100
AcDbEntity
  8
0
100
AcDbLine
 10
46.411
 20
252.44551
 30
0.0
 11
46.425
 21
251.48751
 31
0.0
  0
LINE
  5
65E
330
1E
100
AcDbEntity
  8
0
100
AcDbLine
 10
46.411
 20
252.44551
 30
0.0
 11
46.424
 21
251.48751
 31
0.0
  0
LINE
  5
65F
330
1E
100
AcDbEntity
  8
0
100
AcDbLine
 10
46.411
 20
252.44551
 30
0.0
 11
46.452
 21
254.10051
 31
0.0
  0
LINE
  5
660
330
1E
100
AcDbEntity
  8
0
100
AcDbLine
 10
32.989
 20
250.79451
 30
0.0
 11
33.149
 21
257.44451
 31
0.0
  0
LINE
  5
661
330
1E
100
AcDbEntity
  8
0
100
AcDbLine
 10
32.989
 20
250.79451
 30
0.0
 11
33.758
 21
245.86051
 31
0.0
  0
LINE
  5
662
330
1E
100
AcDbEntity
  8
0
100
AcDbLine
 10
33.149
 20
257.44451
 30
0.0
 11
34.499
 21
263.63551
 31
0.0
  0
LINE
  5
663
330
1E
100
AcDbEntity
  8
0
100
AcDbLine
 10
46.452
 20
254.10051
 30
0.0
 11
46.578
 21
255.75251
 31
0.0
  0
LINE
  5
664
330
1E
100
AcDbEntity
  8
0
100
AcDbLine
 10
39.497
 20
254.73451
 30
0.0
 11
39.793
 21
257.61851
 31
0.0
  0
LINE
  5
665
330
1E
100
AcDbEntity
  8
0
100
AcDbLine
 10
46.578
 20
255.75251
 30
0.0
 11
46.784
 21
257.36851
 31
0.0
  0
LINE
  5
666
330
1E
100
AcDbEntity
  8
0
100
AcDbLine
 10
89.397
 20
253.40251
 30
0.0
 11
89.411
 21
252.44551
 31
0.0
  0
LINE
  5
667
330
1E
100
AcDbEntity
  8
0
100
AcDbLine
 10
52.695
 20
255.01251
 30
0.0
 11
54.219
 21
259.05851
 31
0.0
  0
LINE
  5
668
330
1E
100
AcDbEntity
  8
0
100
AcDbLine
 10
46.784
 20
257.36851
 30
0.0
 11
47.072
 21
258.97351
 31
0.0
  0
LINE
  5
669
330
1E
100
AcDbEntity
  8
0
100
AcDbLine
 10
47.072
 20
258.97351
 30
0.0
 11
48.353
 21
263.59251
 31
0.0
  0
LINE
  5
66A
330
1E
100
AcDbEntity
  8
0
100
AcDbLine
 10
39.793
 20
257.61851
 30
0.0
 11
40.38
 21
260.45851
 31
0.0
  0
LINE
  5
66B
330
1E
100
AcDbEntity
  8
0
100
AcDbLine
 10
89.078
 20
257.09451
 30
0.0
 11
89.29
 21
255.25251
 31
0.0
  0
LINE
  5
66C
330
1E
100
AcDbEntity
  8
0
100
AcDbLine
 10
96.028
 20
257.61851
 30
0.0
 11
96.324
 21
254.73351
 31
0.0
  0
LINE
  5
66D
330
1E
100
AcDbEntity
  8
0
100
AcDbLine
 10
89.017520079663
 20
257.388549997313
 30
0.0
 11
89.087
 21
257.00451
 31
0.0
  0
LINE
  5
66E
330
1E
100
AcDbEntity
  8
0
100
AcDbLine
 10
81.653
 20
259.00851
 30
0.0
 11
82.802
 21
255.88751
 31
0.0
  0
LINE
  5
66F
330
1E
100
AcDbEntity
  8
0
100
AcDbLine
 10
82.802
 20
255.88851
 30
0.0
 11
83.61
 21
252.45251
 31
0.0
  0
LINE
  5
670
330
1E
100
AcDbEntity
  8
0
100
AcDbLine
 10
102.433
 20
259.01751
 30
0.0
 11
102.85
 21
254.10951
 31
0.0
  0
LINE
  5
671
330
1E
100
AcDbEntity
  8
0
100
AcDbLine
 10
40.38
 20
260.45851
 30
0.0
 11
41.254
 21
263.22451
 31
0.0
  0
LINE
  5
672
330
1E
100
AcDbEntity
  8
0
100
AcDbLine
 10
54.219
 20
259.05851
 30
0.0
 11
55.253
 21
261.02551
 31
0.0
  0
LINE
  5
673
330
1E
100
AcDbEntity
  8
0
100
AcDbLine
 10
95.441
 20
260.45951
 30
0.0
 11
96.028
 21
257.61851
 31
0.0
  0
LINE
  5
674
330
1E
100
AcDbEntity
  8
0
100
AcDbLine
 10
34.499
 20
263.63551
 30
0.0
 11
35.75
 21
267.09251
 31
0.0
  0
LINE
  5
675
330
1E
100
AcDbEntity
  8
0
100
AcDbLine
 10
41.254
 20
263.22451
 30
0.0
 11
42.404
 21
265.88651
 31
0.0
  0
LINE
  5
676
330
1E
100
AcDbEntity
  8
0
100
AcDbLine
 10
35.75
 20
267.09251
 30
0.0
 11
38.042
 21
271.49751
 31
0.0
  0
LINE
  5
677
330
1E
100
AcDbEntity
  8
0
100
AcDbLine
 10
48.353
 20
263.59251
 30
0.0
 11
50.243
 21
267.59451
 31
0.0
  0
LINE
  5
678
330
1E
100
AcDbEntity
  8
0
100
AcDbLine
 10
55.253
 20
261.02551
 30
0.0
 11
56.353
 21
262.69251
 31
0.0
  0
LINE
  5
679
330
1E
100
AcDbEntity
  8
0
100
AcDbLine
 10
78.911
 20
263.41651
 30
0.0
 11
79.805
 21
262.21851
 31
0.0
  0
LINE
  5
67A
330
1E
100
AcDbEntity
  8
0
100
AcDbLine
 10
80.221
 20
261.59751
 30
0.0
 11
81.653
 21
259.00851
 31
0.0
  0
LINE
  5
67B
330
1E
100
AcDbEntity
  8
0
100
AcDbLine
 10
87.99
 20
261.92651
 30
0.0
 11
88.63
 21
259.53051
 31
0.0
  0
LINE
  5
67C
330
1E
100
AcDbEntity
  8
0
100
AcDbLine
 10
79.805623970016
 20
262.154081044129
 30
0.0
 11
80.221
 21
261.59751
 31
0.0
  0
LINE
  5
67D
330
1E
100
AcDbEntity
  8
0
100
AcDbLine
 10
57.615
 20
264.23651
 30
0.0
 11
59.038
 21
265.63051
 31
0.0
  0
LINE
  5
67E
330
1E
100
AcDbEntity
  8
0
100
AcDbLine
 10
57.614
 20
264.23651
 30
0.0
 11
59.038
 21
265.63051
 31
0.0
  0
LINE
  5
67F
330
1E
100
AcDbEntity
  8
0
100
AcDbLine
 10
56.353
 20
262.69251
 30
0.0
 11
57.615
 21
264.23651
 31
0.0
  0
LINE
  5
680
330
1E
100
AcDbEntity
  8
0
100
AcDbLine
 10
56.353
 20
262.69251
 30
0.0
 11
57.614
 21
264.23651
 31
0.0
  0
LINE
  5
681
330
1E
100
AcDbEntity
  8
0
100
AcDbLine
 10
42.404
 20
265.88651
 30
0.0
 11
43.82
 21
268.41751
 31
0.0
  0
LINE
  5
682
330
1E
100
AcDbEntity
  8
0
100
AcDbLine
 10
76.072
 20
266.21551
 30
0.0
 11
76.93
 21
265.50151
 31
0.0
  0
LINE
  5
683
330
1E
100
AcDbEntity
  8
0
100
AcDbLine
 10
60.579
 20
266.81451
 30
0.0
 11
61.481759554752
 21
267.338867346173
 31
0.0
  0
LINE
  5
684
330
1E
100
AcDbEntity
  8
0
100
AcDbLine
 10
59.038
 20
265.63051
 30
0.0
 11
60.579
 21
266.81451
 31
0.0
  0
LINE
  5
685
330
1E
100
AcDbEntity
  8
0
100
AcDbLine
 10
85.983
 20
266.80251
 30
0.0
 11
87.155
 21
264.26651
 31
0.0
  0
LINE
  5
686
330
1E
100
AcDbEntity
  8
0
100
AcDbLine
 10
76.93
 20
265.50151
 30
0.0
 11
77.962
 21
264.49951
 31
0.0
  0
LINE
  5
687
330
1E
100
AcDbEntity
  8
0
100
AcDbLine
 10
85.982
 20
266.80251
 30
0.0
 11
87.155
 21
264.26651
 31
0.0
  0
LINE
  5
688
330
1E
100
AcDbEntity
  8
0
100
AcDbLine
 10
77.962
 20
264.49951
 30
0.0
 11
78.911
 21
263.41651
 31
0.0
  0
LINE
  5
689
330
1E
100
AcDbEntity
  8
0
100
AcDbLine
 10
94.567
 20
263.22451
 30
0.0
 11
95.441
 21
260.45951
 31
0.0
  0
LINE
  5
68A
330
1E
100
AcDbEntity
  8
0
100
AcDbLine
 10
93.417
 20
265.88751
 30
0.0
 11
94.567
 21
263.22451
 31
0.0
  0
LINE
  5
68B
330
1E
100
AcDbEntity
  8
0
100
AcDbLine
 10
101.203
 20
263.91751
 30
0.0
 11
102.433
 21
259.01751
 31
0.0
  0
LINE
  5
68C
330
1E
100
AcDbEntity
  8
0
100
AcDbLine
 10
50.243
 20
267.59451
 30
0.0
 11
51.994
 21
270.24551
 31
0.0
  0
LINE
  5
68D
330
1E
100
AcDbEntity
  8
0
100
AcDbLine
 10
43.82
 20
268.41751
 30
0.0
 11
45.485
 21
270.79151
 31
0.0
  0
LINE
  5
68E
330
1E
100
AcDbEntity
  8
0
100
AcDbLine
 10
72.428
 20
268.28551
 30
0.0
 11
73.374
 21
267.88051
 31
0.0
  0
LINE
  5
68F
330
1E
100
AcDbEntity
  8
0
100
AcDbLine
 10
71.455
 20
268.61651
 30
0.0
 11
72.428
 21
268.28551
 31
0.0
  0
LINE
  5
690
330
1E
100
AcDbEntity
  8
0
100
AcDbLine
 10
73.374
 20
267.88051
 30
0.0
 11
74.287
 21
267.40551
 31
0.0
  0
LINE
  5
691
330
1E
100
AcDbEntity
  8
0
100
AcDbLine
 10
64.038
 20
268.51451
 30
0.0
 11
65.633
 21
268.92351
 31
0.0
  0
LINE
  5
692
330
1E
100
AcDbEntity
  8
0
100
AcDbLine
 10
62.249
 20
267.78451
 30
0.0
 11
64.038
 21
268.51451
 31
0.0
  0
LINE
  5
693
330
1E
100
AcDbEntity
  8
0
100
AcDbLine
 10
61.491595267995
 20
267.344580305362
 30
0.0
 11
62.249
 21
267.78451
 31
0.0
  0
LINE
  5
694
330
1E
100
AcDbEntity
  8
0
100
AcDbLine
 10
75.165
 20
266.86551
 30
0.0
 11
76.072
 21
266.21551
 31
0.0
  0
LINE
  5
695
330
1E
100
AcDbEntity
  8
0
100
AcDbLine
 10
74.287
 20
267.40551
 30
0.0
 11
75.165
 21
266.86551
 31
0.0
  0
LINE
  5
696
330
1E
100
AcDbEntity
  8
0
100
AcDbLine
 10
51.994
 20
270.24551
 30
0.0
 11
53.645
 21
272.24051
 31
0.0
  0
LINE
  5
697
330
1E
100
AcDbEntity
  8
0
100
AcDbLine
 10
51.995
 20
270.24551
 30
0.0
 11
53.645
 21
272.24151
 31
0.0
  0
LINE
  5
698
330
1E
100
AcDbEntity
  8
0
100
AcDbLine
 10
69.445
 20
269.03951
 30
0.0
 11
70.459
 21
268.86951
 31
0.0
  0
LINE
  5
699
330
1E
100
AcDbEntity
  8
0
100
AcDbLine
 10
67.536
 20
269.13051
 30
0.0
 11
69.445
 21
269.03951
 31
0.0
  0
LINE
  5
69A
330
1E
100
AcDbEntity
  8
0
100
AcDbLine
 10
65.633
 20
268.92351
 30
0.0
 11
67.536
 21
269.13051
 31
0.0
  0
LINE
  5
69B
330
1E
100
AcDbEntity
  8
0
100
AcDbLine
 10
84.559
 20
269.20451
 30
0.0
 11
85.982
 21
266.80251
 31
0.0
  0
LINE
  5
69C
330
1E
100
AcDbEntity
  8
0
100
AcDbLine
 10
83.754
 20
270.34351
 30
0.0
 11
84.559
 21
269.20451
 31
0.0
  0
LINE
  5
69D
330
1E
100
AcDbEntity
  8
0
100
AcDbLine
 10
70.459
 20
268.86951
 30
0.0
 11
71.455
 21
268.61651
 31
0.0
  0
LINE
  5
69E
330
1E
100
AcDbEntity
  8
0
100
AcDbLine
 10
92.002
 20
268.41751
 30
0.0
 11
93.417
 21
265.88751
 31
0.0
  0
LINE
  5
69F
330
1E
100
AcDbEntity
  8
0
100
AcDbLine
 10
100.041
 20
267.03551
 30
0.0
 11
101.203
 21
263.91751
 31
0.0
  0
LINE
  5
6A0
330
1E
100
AcDbEntity
  8
0
100
AcDbLine
 10
38.042
 20
271.49751
 30
0.0
 11
40.907
 21
275.58651
 31
0.0
  0
LINE
  5
6A1
330
1E
100
AcDbEntity
  8
0
100
AcDbLine
 10
45.485
 20
270.79151
 30
0.0
 11
47.384
 21
272.98351
 31
0.0
  0
LINE
  5
6A2
330
1E
100
AcDbEntity
  8
0
100
AcDbLine
 10
53.645
 20
272.24151
 30
0.0
 11
55.503
 21
274.04051
 31
0.0
  0
LINE
  5
6A3
330
1E
100
AcDbEntity
  8
0
100
AcDbLine
 10
81.959
 20
272.47351
 30
0.0
 11
82.887
 21
271.43551
 31
0.0
  0
LINE
  5
6A4
330
1E
100
AcDbEntity
  8
0
100
AcDbLine
 10
90.336
 20
270.79251
 30
0.0
 11
92.002
 21
268.41751
 31
0.0
  0
LINE
  5
6A5
330
1E
100
AcDbEntity
  8
0
100
AcDbLine
 10
97.807
 20
271.50251
 30
0.0
 11
100.041
 21
267.03551
 31
0.0
  0
LINE
  5
6A6
330
1E
100
AcDbEntity
  8
0
100
AcDbLine
 10
82.887
 20
271.43551
 30
0.0
 11
83.754
 21
270.34351
 31
0.0
  0
LINE
  5
6A7
330
1E
100
AcDbEntity
  8
0
100
AcDbLine
 10
47.384
 20
272.98351
 30
0.0
 11
49.496
 21
274.97051
 31
0.0
  0
LINE
  5
6A8
330
1E
100
AcDbEntity
  8
0
100
AcDbLine
 10
88.437
 20
272.98451
 30
0.0
 11
90.336
 21
270.79251
 31
0.0
  0
LINE
  5
6A9
330
1E
100
AcDbEntity
  8
0
100
AcDbLine
 10
40.907
 20
275.58651
 30
0.0
 11
45.289
 21
280.01651
 31
0.0
  0
LINE
  5
6AA
330
1E
100
AcDbEntity
  8
0
100
AcDbLine
 10
51.8
 20
276.73251
 30
0.0
 11
54.271
 21
278.25151
 31
0.0
  0
LINE
  5
6AB
330
1E
100
AcDbEntity
  8
0
100
AcDbLine
 10
49.496
 20
274.97051
 30
0.0
 11
51.8
 21
276.73251
 31
0.0
  0
LINE
  5
6AC
330
1E
100
AcDbEntity
  8
0
100
AcDbLine
 10
57.787
 20
275.75651
 30
0.0
 11
59.608
 21
276.81251
 31
0.0
  0
LINE
  5
6AD
330
1E
100
AcDbEntity
  8
0
100
AcDbLine
 10
56.616
 20
274.93751
 30
0.0
 11
57.787
 21
275.75651
 31
0.0
  0
LINE
  5
6AE
330
1E
100
AcDbEntity
  8
0
100
AcDbLine
 10
55.503
 20
274.04051
 30
0.0
 11
56.616
 21
274.93751
 31
0.0
  0
LINE
  5
6AF
330
1E
100
AcDbEntity
  8
0
100
AcDbLine
 10
54.271
 20
278.25151
 30
0.0
 11
56.832
 21
279.48851
 31
0.0
  0
LINE
  5
6B0
330
1E
100
AcDbEntity
  8
0
100
AcDbLine
 10
59.608
 20
276.81251
 30
0.0
 11
61.607
 21
277.68651
 31
0.0
  0
LINE
  5
6B1
330
1E
100
AcDbEntity
  8
0
100
AcDbLine
 10
73.158
 20
278.04351
 30
0.0
 11
74.407
 21
277.61351
 31
0.0
  0
LINE
  5
6B2
330
1E
100
AcDbEntity
  8
0
100
AcDbLine
 10
64.014
 20
278.40051
 30
0.0
 11
65.316
 21
278.64151
 31
0.0
  0
LINE
  5
6B3
330
1E
100
AcDbEntity
  8
0
100
AcDbLine
 10
66.631
 20
278.78551
 30
0.0
 11
67.953
 21
278.83151
 31
0.0
  0
LINE
  5
6B4
330
1E
100
AcDbEntity
  8
0
100
AcDbLine
 10
65.316
 20
278.64151
 30
0.0
 11
66.631
 21
278.78551
 31
0.0
  0
LINE
  5
6B5
330
1E
100
AcDbEntity
  8
0
100
AcDbLine
 10
71.882
 20
278.38351
 30
0.0
 11
73.158
 21
278.04351
 31
0.0
  0
LINE
  5
6B6
330
1E
100
AcDbEntity
  8
0
100
AcDbLine
 10
70.626317971249
 20
278.598289524006
 30
0.0
 11
71.882
 21
278.38351
 31
0.0
  0
LINE
  5
6B7
330
1E
100
AcDbEntity
  8
0
100
AcDbLine
 10
62.964
 20
278.13351
 30
0.0
 11
64.014
 21
278.40051
 31
0.0
  0
LINE
  5
6B8
330
1E
100
AcDbEntity
  8
0
100
AcDbLine
 10
61.607
 20
277.68651
 30
0.0
 11
62.964
 21
278.13351
 31
0.0
  0
LINE
  5
6B9
330
1E
100
AcDbEntity
  8
0
100
AcDbLine
 10
74.407
 20
277.61351
 30
0.0
 11
75.624
 21
277.09651
 31
0.0
  0
LINE
  5
6BA
330
1E
100
AcDbEntity
  8
0
100
AcDbLine
 10
75.624
 20
277.09651
 30
0.0
 11
76.6842062358
 21
276.538246121021
 31
0.0
  0
LINE
  5
6BB
330
1E
100
AcDbEntity
  8
0
100
AcDbLine
 10
76.6842062358
 20
276.538246121021
 30
0.0
 11
79.031
 21
275.06751
 31
0.0
  0
LINE
  5
6BC
330
1E
100
AcDbEntity
  8
0
100
AcDbLine
 10
80.972
 20
273.45351
 30
0.0
 11
81.959
 21
272.47351
 31
0.0
  0
LINE
  5
6BD
330
1E
100
AcDbEntity
  8
0
100
AcDbLine
 10
79.031
 20
275.06751
 30
0.0
 11
80.972
 21
273.45351
 31
0.0
  0
LINE
  5
6BE
330
1E
100
AcDbEntity
  8
0
100
AcDbLine
 10
67.953
 20
278.83151
 30
0.0
 11
70.626317971249
 21
278.598289524006
 31
0.0
  0
LINE
  5
6BF
330
1E
100
AcDbEntity
  8
0
100
AcDbLine
 10
56.832
 20
279.48851
 30
0.0
 11
59.503
 21
280.46251
 31
0.0
  0
LINE
  5
6C0
330
1E
100
AcDbEntity
  8
0
100
AcDbLine
 10
45.289
 20
280.01651
 30
0.0
 11
49.66
 21
283.18351
 31
0.0
  0
LINE
  5
6C1
330
1E
100
AcDbEntity
  8
0
100
AcDbLine
 10
59.503
 20
280.46251
 30
0.0
 11
62.258
 21
281.16751
 31
0.0
  0
LINE
  5
6C2
330
1E
100
AcDbEntity
  8
0
100
AcDbLine
 10
65.071
 20
281.59251
 30
0.0
 11
67.91
 21
281.73351
 31
0.0
  0
LINE
  5
6C3
330
1E
100
AcDbEntity
  8
0
100
AcDbLine
 10
62.258
 20
281.16751
 30
0.0
 11
65.071
 21
281.59251
 31
0.0
  0
LINE
  5
6C4
330
1E
100
AcDbEntity
  8
0
100
AcDbLine
 10
76.318
 20
280.46251
 30
0.0
 11
78.989
 21
279.48851
 31
0.0
  0
LINE
  5
6C5
330
1E
100
AcDbEntity
  8
0
100
AcDbLine
 10
73.563
 20
281.16751
 30
0.0
 11
76.318
 21
280.46251
 31
0.0
  0
LINE
  5
6C6
330
1E
100
AcDbEntity
  8
0
100
AcDbLine
 10
67.91
 20
281.73351
 30
0.0
 11
70.75
 21
281.59251
 31
0.0
  0
LINE
  5
6C7
330
1E
100
AcDbEntity
  8
0
100
AcDbLine
 10
49.66
 20
283.18351
 30
0.0
 11
52.646
 21
284.72351
 31
0.0
  0
LINE
  5
6C8
330
1E
100
AcDbEntity
  8
0
100
AcDbLine
 10
70.75
 20
281.59251
 30
0.0
 11
73.563
 21
281.16751
 31
0.0
  0
LINE
  5
6C9
330
1E
100
AcDbEntity
  8
0
100
AcDbLine
 10
78.989
 20
279.48851
 30
0.0
 11
81.55
 21
278.25151
 31
0.0
  0
LINE
  5
6CA
330
1E
100
AcDbEntity
  8
0
100
AcDbLine
 10
86.325
 20
274.97151
 30
0.0
 11
88.437
 21
272.98451
 31
0.0
  0
LINE
  5
6CB
330
1E
100
AcDbEntity
  8
0
100
AcDbLine
 10
91.442
 20
279.19251
 30
0.0
 11
94.867
 21
275.52751
 31
0.0
  0
LINE
  5
6CC
330
1E
100
AcDbEntity
  8
0
100
AcDbLine
 10
84.021
 20
276.73251
 30
0.0
 11
86.325
 21
274.97151
 31
0.0
  0
LINE
  5
6CD
330
1E
100
AcDbEntity
  8
0
100
AcDbLine
 10
94.867
 20
275.52751
 30
0.0
 11
97.807
 21
271.50251
 31
0.0
  0
LINE
  5
6CE
330
1E
100
AcDbEntity
  8
0
100
AcDbLine
 10
87.578
 20
282.27151
 30
0.0
 11
91.442
 21
279.19251
 31
0.0
  0
LINE
  5
6CF
330
1E
100
AcDbEntity
  8
0
100
AcDbLine
 10
81.55
 20
278.25151
 30
0.0
 11
84.021
 21
276.73251
 31
0.0
  0
LINE
  5
6D0
330
1E
100
AcDbEntity
  8
0
100
AcDbLine
 10
84.664521434841
 20
283.951632630543
 30
0.0
 11
87.578
 21
282.27151
 31
0.0
  0
LINE
  5
6D1
330
1E
100
AcDbEntity
  8
0
100
AcDbLine
 10
52.646
 20
284.72351
 30
0.0
 11
55.707
 21
286.11851
 31
0.0
  0
LINE
  5
6D2
330
1E
100
AcDbEntity
  8
0
100
AcDbLine
 10
80.161
 20
286.09451
 30
0.0
 11
84.664521434841
 21
283.951632630543
 31
0.0
  0
LINE
  5
6D3
330
1E
100
AcDbEntity
  8
0
100
AcDbLine
 10
55.707
 20
286.11851
 30
0.0
 11
60.475
 21
287.50851
 31
0.0
  0
LINE
  5
6D4
330
1E
100
AcDbEntity
  8
0
100
AcDbLine
 10
60.475
 20
287.50851
 30
0.0
 11
62.881
 21
287.94951
 31
0.0
  0
LINE
  5
6D5
330
1E
100
AcDbEntity
  8
0
100
AcDbLine
 10
62.881
 20
287.94951
 30
0.0
 11
68.75
 21
288.24451
 31
0.0
  0
LINE
  5
6D6
330
1E
100
AcDbEntity
  8
0
100
AcDbLine
 10
73.849
 20
287.81251
 30
0.0
 11
80.161
 21
286.09451
 31
0.0
  0
LINE
  5
6D7
330
1E
100
AcDbEntity
  8
0
100
AcDbLine
 10
68.75
 20
288.24451
 30
0.0
 11
73.849
 21
287.81251
 31
0.0
  0
LINE
  5
6D8
330
1E
100
AcDbEntity
  8
0
100
AcDbLine
 10
87.155
 20
264.26651
 30
0.0
 11
87.99
 21
261.92651
 31
0.0
  0
LINE
  5
6D9
330
1E
100
AcDbEntity
  8
0
100
AcDbLine
 10
88.63
 20
259.53051
 30
0.0
 11
89.017520079663
 21
257.388549997313
 31
0.0
  0
LINE
  5
6DA
330
1E
100
AcDbEntity
  8
0
100
AcDbLine
 10
89.29
 20
255.25251
 30
0.0
 11
89.397
 21
253.40251
 31
0.0
  0
ENDSEC
  0
SECTION
  2
OBJECTS
  0
DICTIONARY
  5
C
330
0
100
AcDbDictionary
281
     1
  3
ACAD_GROUP
350
D
  3
ACAD_LAYOUT
350
19
  3
ACAD_MLEADERSTYLE
350
6DD
  3
ACAD_MLINESTYLE
350
16
  3
ACAD_PLOTSETTINGS
350
18
  3
ACAD_PLOTSTYLENAME
350
E
  3
ACAD_SCALELIST
350
35C
  3
ACDBVARIABLEDICTIONARY
350
333
  3
DWGPROPS
350
6E0
  0
DICTIONARY
  5
D
102
{ACAD_REACTORS
330
C
102
}
330
C
100
AcDbDictionary
281
     1
  0
DICTIONARY
  5
19
102
{ACAD_REACTORS
330
C
102
}
330
C
100
AcDbDictionary
281
     1
  3
Layout1
350
35B
  3
Model
350
35A
  0
DICTIONARY
  5
6DD
102
{ACAD_REACTORS
330
C
102
}
330
C
100
AcDbDictionary
281
     1
  0
DICTIONARY
  5
16
102
{ACAD_REACTORS
330
C
102
}
330
C
100
AcDbDictionary
281
     1
  3
STANDARD
350
17
  0
DICTIONARY
  5
18
102
{ACAD_REACTORS
330
C
102
}
330
C
100
AcDbDictionary
281
     1
  0
ACDBDICTIONARYWDFLT
  5
E
102
{ACAD_REACTORS
330
C
102
}
330
C
100
AcDbDictionary
281
     1
  3
Normal
350
F
100
AcDbDictionaryWithDefault
340
F
  0
DICTIONARY
  5
35C
102
{ACAD_REACTORS
330
C
102
}
330
C
100
AcDbDictionary
281
     1
  3
A0
350
35D
  3
A1
350
35E
  3
A2
350
35F
  3
A3
350
360
  3
A4
350
361
  3
A5
350
362
  3
A6
350
363
  3
A7
350
364
  3
A8
350
365
  3
A9
350
366
  3
B0
350
367
  3
B1
350
368
  3
B2
350
369
  3
B3
350
36A
  3
B4
350
36B
  3
B5
350
36C
  3
B6
350
36D
  3
B7
350
36E
  3
B8
350
36F
  3
B9
350
370
  3
C0
350
371
  3
C1
350
372
  3
C2
350
373
  3
C3
350
374
  3
C4
350
375
  3
C5
350
376
  3
C6
350
377
  3
C7
350
378
  3
C8
350
379
  3
C9
350
37A
  3
D0
350
37B
  3
D1
350
37C
  3
D2
350
37D
  0
DICTIONARY
  5
333
102
{ACAD_REACTORS
330
C
102
}
330
C
100
AcDbDictionary
281
     1
  3
CANNOSCALE
350
6DE
  3
DIMASSOC
350
334
  0
XRECORD
  5
6E0
102
{ACAD_REACTORS
330
C
102
}
330
C
100
AcDbXrecord
280
     1
  1
DWGPROPS COOKIE
  2

  3

  4

  6

  7

  8
MARTIN
  9

300
=
301
=
302
=
303
=
304
=
305
=
306
=
307
=
308
=
309
=
 40
0.0
 41
2454691.612123298
 42
2456209.657049144
  1

 90
        0
  0
LAYOUT
  5
35B
102
{ACAD_REACTORS
330
19
102
}
330
19
100
AcDbPlotSettings
  1

  2
none_device
  4

  6

 40
0.0
 41
0.0
 42
0.0
 43
0.0
 44
0.0
 45
0.0
 46
0.0
 47
0.0
 48
0.0
 49
0.0
140
0.0
141
0.0
142
1.0
143
1.0
 70
   688
 72
     0
 73
     0
 74
     5
  7

 75
    16
147
1.0
148
0.0
149
0.0
100
AcDbLayout
  1
Layout1
 70
     1
 71
     1
 10
0.0
 20
0.0
 11
0.0
 21
0.0
 12
0.0
 22
0.0
 32
0.0
 14
0.0
 24
0.0
 34
0.0
 15
0.0
 25
0.0
 35
0.0
146
0.0
 13
0.0
 23
0.0
 33
0.0
 16
1.0
 26
0.0
 36
0.0
 17
0.0
 27
1.0
 37
0.0
 76
     0
330
1A
  0
LAYOUT
  5
35A
102
{ACAD_REACTORS
330
19
102
}
330
19
100
AcDbPlotSettings
  1

  2
none_device
  4

  6

 40
0.0
 41
0.0
 42
0.0
 43
0.0
 44
0.0
 45
0.0
 46
0.0
 47
0.0
 48
0.0
 49
0.0
140
0.0
141
0.0
142
1.0
143
1.0
 70
   688
 72
     0
 73
     0
 74
     5
  7

 75
    16
147
1.0
148
0.0
149
0.0
100
AcDbLayout
  1
Model
 70
     1
 71
     0
 10
0.0
 20
0.0
 11
0.0
 21
0.0
 12
0.0
 22
0.0
 32
0.0
 14
17.937
 24
-0.24451
 34
0.0
 15
433.75
 25
288.24451
 35
0.0
146
0.0
 13
0.0
 23
0.0
 33
0.0
 16
1.0
 26
0.0
 36
0.0
 17
0.0
 27
1.0
 37
0.0
 76
     0
330
1E
331
335
  0
MLINESTYLE
  5
17
102
{ACAD_REACTORS
330
16
102
}
330
16
100
AcDbMlineStyle
  2
STANDARD
 70
     0
  3

 62
   256
 51
90.0
 52
90.0
 71
     2
 49
0.5
 62
   256
  6
BYLAYER
 49
-0.5
 62
   256
  6
BYLAYER
  0
ACDBPLACEHOLDER
  5
F
102
{ACAD_REACTORS
330
E
102
}
330
E
  0
SCALE
  5
35D
102
{ACAD_REACTORS
330
35C
102
}
330
35C
100
AcDbScale
 70
     0
300
1:1
140
1.0
141
1.0
290
     1
  0
SCALE
  5
35E
102
{ACAD_REACTORS
330
35C
102
}
330
35C
100
AcDbScale
 70
     0
300
1:2
140
1.0
141
2.0
290
     0
  0
SCALE
  5
35F
102
{ACAD_REACTORS
330
35C
102
}
330
35C
100
AcDbScale
 70
     0
300
1:4
140
1.0
141
4.0
290
     0
  0
SCALE
  5
360
102
{ACAD_REACTORS
330
35C
102
}
330
35C
100
AcDbScale
 70
     0
300
1:5
140
1.0
141
5.0
290
     0
  0
SCALE
  5
361
102
{ACAD_REACTORS
330
35C
102
}
330
35C
100
AcDbScale
 70
     0
300
1:8
140
1.0
141
8.0
290
     0
  0
SCALE
  5
362
102
{ACAD_REACTORS
330
35C
102
}
330
35C
100
AcDbScale
 70
     0
300
1:10
140
1.0
141
10.0
290
     0
  0
SCALE
  5
363
102
{ACAD_REACTORS
330
35C
102
}
330
35C
100
AcDbScale
 70
     0
300
1:16
140
1.0
141
16.0
290
     0
  0
SCALE
  5
364
102
{ACAD_REACTORS
330
35C
102
}
330
35C
100
AcDbScale
 70
     0
300
1:20
140
1.0
141
20.0
290
     0
  0
SCALE
  5
365
102
{ACAD_REACTORS
330
35C
102
}
330
35C
100
AcDbScale
 70
     0
300
1:30
140
1.0
141
30.0
290
     0
  0
SCALE
  5
366
102
{ACAD_REACTORS
330
35C
102
}
330
35C
100
AcDbScale
 70
     0
300
1:40
140
1.0
141
40.0
290
     0
  0
SCALE
  5
367
102
{ACAD_REACTORS
330
35C
102
}
330
35C
100
AcDbScale
 70
     0
300
1:50
140
1.0
141
50.0
290
     0
  0
SCALE
  5
368
102
{ACAD_REACTORS
330
35C
102
}
330
35C
100
AcDbScale
 70
     0
300
1:100
140
1.0
141
100.0
290
     0
  0
SCALE
  5
369
102
{ACAD_REACTORS
330
35C
102
}
330
35C
100
AcDbScale
 70
     0
300
2:1
140
2.0
141
1.0
290
     0
  0
SCALE
  5
36A
102
{ACAD_REACTORS
330
35C
102
}
330
35C
100
AcDbScale
 70
     0
300
4:1
140
4.0
141
1.0
290
     0
  0
SCALE
  5
36B
102
{ACAD_REACTORS
330
35C
102
}
330
35C
100
AcDbScale
 70
     0
300
8:1
140
8.0
141
1.0
290
     0
  0
SCALE
  5
36C
102
{ACAD_REACTORS
330
35C
102
}
330
35C
100
AcDbScale
 70
     0
300
10:1
140
10.0
141
1.0
290
     0
  0
SCALE
  5
36D
102
{ACAD_REACTORS
330
35C
102
}
330
35C
100
AcDbScale
 70
     0
300
100:1
140
100.0
141
1.0
290
     0
  0
SCALE
  5
36E
102
{ACAD_REACTORS
330
35C
102
}
330
35C
100
AcDbScale
 70
     0
300
1/128" = 1'-0"
140
0.0078125
141
12.0
290
     0
  0
SCALE
  5
36F
102
{ACAD_REACTORS
330
35C
102
}
330
35C
100
AcDbScale
 70
     0
300
1/64" = 1'-0"
140
0.015625
141
12.0
290
     0
  0
SCALE
  5
370
102
{ACAD_REACTORS
330
35C
102
}
330
35C
100
AcDbScale
 70
     0
300
1/32" = 1'-0"
140
0.03125
141
12.0
290
     0
  0
SCALE
  5
371
102
{ACAD_REACTORS
330
35C
102
}
330
35C
100
AcDbScale
 70
     0
300
1/16" = 1'-0"
140
0.0625
141
12.0
290
     0
  0
SCALE
  5
372
102
{ACAD_REACTORS
330
35C
102
}
330
35C
100
AcDbScale
 70
     0
300
3/32" = 1'-0"
140
0.09375
141
12.0
290
     0
  0
SCALE
  5
373
102
{ACAD_REACTORS
330
35C
102
}
330
35C
100
AcDbScale
 70
     0
300
1/8" = 1'-0"
140
0.125
141
12.0
290
     0
  0
SCALE
  5
374
102
{ACAD_REACTORS
330
35C
102
}
330
35C
100
AcDbScale
 70
     0
300
3/16" = 1'-0"
140
0.1875
141
12.0
290
     0
  0
SCALE
  5
375
102
{ACAD_REACTORS
330
35C
102
}
330
35C
100
AcDbScale
 70
     0
300
1/4" = 1'-0"
140
0.25
141
12.0
290
     0
  0
SCALE
  5
376
102
{ACAD_REACTORS
330
35C
102
}
330
35C
100
AcDbScale
 70
     0
300
3/8" = 1'-0"
140
0.375
141
12.0
290
     0
  0
SCALE
  5
377
102
{ACAD_REACTORS
330
35C
102
}
330
35C
100
AcDbScale
 70
     0
300
1/2" = 1'-0"
140
0.5
141
12.0
290
     0
  0
SCALE
  5
378
102
{ACAD_REACTORS
330
35C
102
}
330
35C
100
AcDbScale
 70
     0
300
3/4" = 1'-0"
140
0.75
141
12.0
290
     0
  0
SCALE
  5
379
102
{ACAD_REACTORS
330
35C
102
}
330
35C
100
AcDbScale
 70
     0
300
1" = 1'-0"
140
1.0
141
12.0
290
     0
  0
SCALE
  5
37A
102
{ACAD_REACTORS
330
35C
102
}
330
35C
100
AcDbScale
 70
     0
300
1-1/2" = 1'-0"
140
1.5
141
12.0
290
     0
  0
SCALE
  5
37B
102
{ACAD_REACTORS
330
35C
102
}
330
35C
100
AcDbScale
 70
     0
300
3" = 1'-0"
140
3.0
141
12.0
290
     0
  0
SCALE
  5
37C
102
{ACAD_REACTORS
330
35C
102
}
330
35C
100
AcDbScale
 70
     0
300
6" = 1'-0"
140
6.0
141
12.0
290
     0
  0
SCALE
  5
37D
102
{ACAD_REACTORS
330
35C
102
}
330
35C
100
AcDbScale
 70
     0
300
1'-0" = 1'-0"
140
12.0
141
12.0
290
     0
  0
DICTIONARYVAR
  5
6DE
102
{ACAD_REACTORS
330
333
102
}
330
333
100
DictionaryVariables
280
     0
  1
1:1
  0
DICTIONARYVAR
  5
334
102
{ACAD_REACTORS
330
333
102
}
330
333
100
DictionaryVariables
280
     0
  1
1
  0
ENDSEC
  0
SECTION
  2
THUMBNAILIMAGE
 90
    16364
310
28000000B40000005500000001000800000000000000000000000000000000000000000000000000FFFFFF000000FF0000FFFF0000FF0000FFFF0000FF000000FF00FF000000000080808000C0C0C0000000FF007F7FFF000000A5005252A50000007F003F3F7F0000004C0026264C000000260013132600003FFF007F9FFF
310
000029A5005267A500001F7F003F4F7F0000134C00262F4C000009260013172600007FFF007FBFFF000052A500527CA500003F7F003F5F7F0000264C0026394C0000132600131C260000BFFF007FDFFF00007CA5005291A500005F7F003F6F7F0000394C0026424C00001C26001321260000FFFF007FFFFF0000A5A50052A5
310
A500007F7F003F7F7F00004C4C00264C4C00002626001326260000FFBF007FFFDF0000A57C0052A59100007F5F003F7F6F00004C3900264C420000261C001326210000FF7F007FFFBF0000A5520052A57C00007F3F003F7F5F00004C2600264C39000026130013261C0000FF3F007FFF9F0000A5290052A56700007F1F003F
310
7F4F00004C1300264C2F00002609001326170000FF00007FFF7F0000A5000052A55200007F00003F7F3F00004C0000264C260000260000132613003FFF00009FFF7F0029A5000067A552001F7F00004F7F3F00134C00002F4C260009260000172613007FFF0000BFFF7F0052A500007CA552003F7F00005F7F3F00264C0000
310
394C2600132600001C261300BFFF0000DFFF7F007CA5000091A552005F7F00006F7F3F00394C0000424C26001C26000021261300FFFF0000FFFF7F00A5A50000A5A552007F7F00007F7F3F004C4C00004C4C26002626000026261300FFBF0000FFDF7F00A57C0000A59152007F5F00007F6F3F004C3900004C422600261C00
310
0026211300FF7F0000FFBF7F00A5520000A57C52007F3F00007F5F3F004C2600004C39260026130000261C1300FF3F0000FF9F7F00A5290000A56752007F1F00007F4F3F004C1300004C2F26002609000026171300FF000000FF7F7F00A5000000A55252007F0000007F3F3F004C0000004C2626002600000026131300FF00
310
3F00FF7F9F00A5002900A55267007F001F007F3F4F004C0013004C262F002600090026131700FF007F00FF7FBF00A5005200A5527C007F003F007F3F5F004C0026004C2639002600130026131C00FF00BF00FF7FDF00A5007C00A55291007F005F007F3F6F004C0039004C26420026001C0026132100FF00FF00FF7FFF00A5
310
00A500A552A5007F007F007F3F7F004C004C004C264C002600260026132600BF00FF00DF7FFF007C00A5009152A5005F007F006F3F7F0039004C0042264C001C002600211326007F00FF00BF7FFF005200A5007C52A5003F007F005F3F7F0026004C0039264C00130026001C1326003F00FF009F7FFF002900A5006752A500
310
1F007F004F3F7F0013004C002F264C000900260017132600000000002D2D2D005B5B5B0089898900B7B7B700B3B3B30000000000000000000000000000000000000000000000000000000000000000000000000000000000000000000000000000000000000000000000000000000000000000000000000000000000000000
310
00000000000000000000000000000000000000000000000000000000000000000000000000000000000000000000000000000000000000000000000000000000000000000000000000000000000000000000000000000000000000000000000000000000000000000000000000000000000000000000000000000000000000
310
00000000000000000000000000000000000000000000000000000000000000000000000000000000000000000000000000000000000000000000000000000000000000000000000000000000000000000000000000000000000000000000000000000000000000000000000000000000000000000000000000000000000000
310
00000000000000000000000000000000000000000000000000000000000000000000000000000000000000000000000000000000000000000000000000000000000000000000000000000000000000000000000000000000000000000000000000000000000000000000000000000000000000000000000000000000000000
310
00000000000000000000000000000000000000000000000000000000000000000000000000000000000000000000000000000000000000000000000000000000000000000000000000000000000000000000000000000000000000000000000000000000000000000000000000000000000000000000000000000000000000
310
00000000000000000000000000000000000000000000000000000000000000000000000000000000000000000000000000000000000000000000000000000000000000000000000000000000000000000000000000000000000707070707070700000000000000000000000000000000000000000000000000000000000000
310
00000000000000000000000000000000000000000000000000000000000000000000000000000000000000000000000000000000000000000000000000000000000000000000000000000000000000000000000000000000000000000000000000000000000000000000000000000000000000000000000000000000000000
310
00000000000000000000000000000700000007000007000000000000000000000000000000000000000000000000000000000000000000000000000000000000000000000000000000000000000000000000000000000000000000000000000000000000000000000000000000000000000000000000000000000000000000
310
00000000000000000000000000000000000000000000000000000000000000000000000000000000000000000000000000000000000000000000000000000000000000070707070007070707000000000000000000000000000000000000000000000000000000000000000000000000000000000000000000000000000000
310
00000000000000000000000000000000000000000000000000000000000000000000000000000000000000000000000000000000000000000000000000000000000000000000000000000000000000000000000000000000000000000000000000000000000000000000000000000000000000000000000007070000000000
310
07070000000000000000000000000000000000000000000000000000000000000000000000000000000000000000000000000000000000000000000000000000000000000000000000000000000000000000000000000000000000000000000000000000000000000000000000000000000000000000000000000000000000
310
00000000000000000000000000000000000000000000000000000000000000000000000000000000000000000000070000000000000007000000000000000000000000000000000000000000000000000000000000000000000000000000000000000000000000000000000000000000000000000000000000000000000000
310
00000000000000000000000000000000000000000000000000000000000000000000000000000000000000000000000000000000000000000000000000000000000000000000000000000000000000000000000000000000000000000000000000000007000000000000000700000000000000000000000000000000000000
310
00000000000000000000000000000000000000000000000000000000000000000000000000000000000000000000000000000000000000000000000000000000000000000000000000000000000000000000000000000000000000000000000000000000000000000000000000000000000000000000000000000000000000
310
00000000000000000000000000000000000000000000000000070000000000000007000000000000000000000000000000000000000000000000000000000000000000000000000000000000000000000000000000000000000000000000000000000000000000000000000000000000000000000000000000000000000000
310
00000000000000000000000000000000000000000000000000000000000000000000000000000000000000000000000000000000000000000000000000000000000000000000000000000000000007000000000000000700000000000000000000000000000000000000000000000000000000000000000000000000000000
310
00000000000000000000000000000000000000000000000000000000000000000000000000000000000000000000000000000000000000000000000000000000000000000000000000000000000000000000000000000000000000000000000000000000000000000000000000000000000000000000000000000000000000
310
00000000070000000000000007000000000000000000000000000000000000000000000000000000000000000000000000000000000000000000000000000000000000000000000000000000000000000000000000000000000000000000000000000000000000000000000000000000000000000000000000000000000000
310
00000000000000000000000000000000000000000000000000000000000000000000000000000000000000000000000000000000000000000007000000000000000700000000000000000000000000000000000000000000000000000000000000000000000000000000000000000000000000000000000000000000000000
310
00000000000000000000000000000000000000000000000707070707000000000000000000000000000000000000000000000000000000000000000000000000000000000000000000000000000000000000000000000000000000000000000000000000000000000000000000000700000000000000070000000000000000
310
00000000000000000000000000000000000000000000000000000000000000000000000000000000000000000000000000000000000000000000000000000000000000000000000000070707000000000007070700000000000000000000000000000000000000000000000000000000000000000000000000000000000000
310
00000000000000000000000000000000000000000000000000000000000000000000000007000000000000000700000000000000000000000000000000000000000000000000000000000000000000000000000000000000000000000000000000000000000000000000000000000000000000000000000000000000070700
310
00000000000000000000070700000000000000000000000000000000000000000000000000000000000000000000000000000000000000000000000000000000000000000000000000000000000000000000000000000000000700000000000000070000000000000000000000000000000000000000000000000000000000
310
00000000000000000000000000000000000000000000000000000000000000000000000000000000000000000000000000070000070707070707070707070700000700000000000000000000000000000000000000000000000000000000000000000000000000000000000000000000000000000000000000000000000000
310
00000000000000000000000000000700000000000000000700000000000000000000000000000000000000000000000000000000000000000000000000000000000000000000000000000000000000000000000000000000000000000000000000000000070700070707070000000000000007070707000700000000000000
310
00000000000000000000000000000000000000000000000000000000000000000000000000000000000000000000000000000000000000000000000000000000000000070000000000000000000700000000000000000000000000000000000000000000000000000000000000000000000000000000000000000000000000
310
00000000000000000000000000000000000000000000000000070000070000000000000000000000000000070700070700000000000000000000000000000000000000000000000000000000000000000000000000000000000000000000000000000000000000000000000000000000000000000000000007000000000000
310
00000007000000000000000000000000000000000000000000000000000000000000000000000000000000000000000000000000000000000000000000000000000000000000000000000000000700070700000000000000000000000000000000000700000700000000000000000000000000000000000000000000000000
310
00000000000000000000000000000000000000000000000000000000000000000000000000000000000000000000070000000000000000000700000000000000000000000000000000000000000000000000000000000000000000000000000000000000000000000000000000000000000000000000000000000000000000
310
00000700070700000000000000000000000000000000000007070707000000000000000000000000000000000000000000000000000000000000000000000000000000000000000000000000000000000000000000000000000000000000000000000007000000000000000000070000000000000000000000000000000000
310
00000000000000000000000000000000000000000000000000000000000000000000000000000000000000000000000000000000000000070707000000000000000000000000000000000000000007070700000000000000000000000000000000000000000000000000000000000000000000000000000000000000000000
310
00000000000000000000000000000000000000000000000000070000000000000000000700000000000000000000000000000000000000000000000000000000000000000000000000000000000000000000000000000000000000000000000000000000000000000000000007070000000000000000000000000000000000
310
00000000000707070000000000000000000000000000000000000000000000000000000000000000000000000000000000000000000000000000000000000000000000000000000000000000000007000000000000000000070000000000000000000000000000000000000000000000000000000000000000000000000000
310
00000000000000000000000000000000000000000000000000000000000000000000070700000000000000000000000000000000000000000000000707000000000000000000000000000000000000000000000000000000000000000000000000000000000000000000000000000000000000000000000000000000000000
310
00000000070000000000000000000700000000000000000000000000000000000000000000000000000000000000000000000000000000000000000000000000000000000000000000000000000000000000000000000007000000000000000000000000000000000000000000000000070700000000000000000000000000
310
00000000000000000000000000000000000000000000000000000000000000000000000000000000000000000000000000000000000000000007000000000000000000070000000000000000000000000000000000000000000000000000000000000000000000000000000000000000000000000000000000000000000000
310
00000000000000000000000007070000000000000000000000000000000000000000000000000007000000000000000000000000000000000000000000000000000000000000000000000000000000000000000000000000000000000000000000000000000000000000000000000700000000000000000007000000000000
310
00000000000000000000000000000000000000000000000000000000000000000000000000000000000000000000000000000000000000000000000000000000000707000000000000000000000000000000000000000000000000000700000000000000000000000000000000000000000000000000000000000000000000
310
00000000000000000000000000000000000000000000000000000000000000000000000007000000000000000000070000000000000000000000000000000000000000000000000000000000000000000000000000000000000000000000000000000000000000000000000000000000000000000000070700000000000000
310
00000000000000000000000000000000000007000000000000000000000000000000000000000000000000000000000000000000000000000000000000000000000000000000000000000000000000000000000000000000000700000000000000000007000000000000000000000000000000000000000000000000000000
310
00000000000000000000000000000000000000000000000000000000000000000000000000000000000000000707000000000000000000000000000000000000000000000000000700000000000000000000000000000000000000000000000000000000000000000000000000000000000000000000000000000000000000
310
00000000000000000000000000000007000000000000000000070000000000000000000000000000000000000000000000000000000000000000000000000000000000000000000000000000000000000000000000000000000000000000000000000700000000000000000000000000000000000000000000000000070000
310
00000000000000000000000000000000000000000000000000000000000000000000000000000000000000000000000000000000000000000000000000000000000000070000000000000000000000070000000000000000000000000000000000000000000000000000000000000000000000000000000000000000000000
310
00000000000000000000000000000000000000000000000007000000000000000000000000000000000000000000000000000700000000000000000000000000000000000000000000000000000000000000000000000000000000000000000000000000000000000000000000000000000000000000000007000000000000
310
00000000000700000000000000000000000000000000000000000000000000000000000000000000000000000000000000000000000000000000000000000000000000000000000000000000000700000000000000000000000000000000000000000000000000070000000000000000000000000000000000000000000000
310
00000000000000000000000000000000000000000000000000000000000000000000000000000000000000000000070000000000000000000000070000000000000000000000000000000000000000000000000000000000000000000000000000000000000000000000000000000000000000000000000000000000000000
310
00000007070000000000000000000000000000000000000000000000070000000000000000000000000000000000000000000000000000000000000000000000000000000000000000000000000000000000000000000000000000000000000000000007000000000000000000000007000000000000000000000000000000
310
00000000000000000000000000000000000000000000000000000000000000000000000000000000000000000000000000000000000000000707000000000000000000000000000000000000000000000707000000000000000000000000000000000000000000000000000000000000000000000000000000000000000000
310
00000000000000000000000000000000000000000000000000070000000000000000000000070000000000000000000000000000000000000000000000000000000000000000000000000000000000000000000000000000000000000000000000000000000000000000000000000700000000000000000000000000000000
310
00000000000007070000000000000000000000000000000000000000000000000000000000000000000000000000000000000000000000000000000000000000000000000000000000000000000007000000000000000000000007000000000000000000000000000000000000000000000000000000000000000000000000
310
00000000000000000000000000000000000000000000000000000000000000000000000000070000000000000000000000000000000000000000070700000000000000000000000000000000000000000000000000000000000000000000000000000000000000000000000000000000000000000000000000000000000000
310
00000000070000000000000000000000070000000000000000000000000000000000000000000000000000000000000000000000000000000000000000000000000000000000000000000000000000000000000000000000000000070700000000000000000000000000000000000707000000000000000000000000000000
310
00000000000000000000000000000000000000000000000000000000000000000000000000000000000000000000000000000000000000000007000000000000000000000007000000000000000000000000000000000000000000000000000000000000000000000000000000000000000000000000000000000000000000
310
00000000000000000000000000000000000007070000000000000000000000000000000700000000000000000000000000000000000000000000000000000000000000000000000000000000000000000000000000000000000000000000000000000000000000000000000000000700000000000000000000000700000000
310
00000000000000000000000000000000000000000000000000000000000000000000000000000000000000000000000000000000000000000000000000000000000000000000000000070000000000000000000000000707000000000000000000000000000000000000000000000000000000000000000000000000000000
310
00000000000000000000000000000000000000000000000000000000000000000000000007000000000000000000000007000000000000000000000000000000000000000000000000000000000000000000000000000000000000000000000000000000000000000000000000000000000000000000000000000000000000
310
07070707000000000007070707000000000000000000000000000000000000000000000000000000000000000000000000000000000000000000000000000000000000000000000000000000000000000000000000000000000700000000000000000000000700000000000000000000000000000000000000000000000000
310
00000000000000000000000000000000000000000000000000000000000000000000000000000000000000000000000000000000000000000707070707070000000000000000000000000000000000000000000000000000000000000000000000000000000000000000000000000000000000000000000000000000000000
310
00000000000000000000000000000700000000000000000000000007000000000000000000000000000000000000000000000000000000000000000000000000000000000000000000000000000000000000000000000000000000000000000000000000000000000000000000000700000007000000000000000000000000
310
00000000000000000000000000000000000000000000000000000000000000000000000000000000000000000000000000000000000000000000000000000000000000070000000000000000000000000007000000000000000000000000000000000000000000000000000000000000000000000000000000000000000000
310
00000000000000000000000000000000000000000000000000000000000000000000000707000000070700000000000000000000000000000000000000000000000000000000000000000000000000000000000000000000000000000000000000000000000000000000000000000000000000000000000007000000000000
310
00000000000000070000000000000000000000000000000000000000000000000000000000000000000000000000000000000000000000000000000000000000000000000000000000000000000000000000000000000000070707070707070000000000000000000000000000000000000000000000000000000000000000
310
00000000000000000000000000000000000000000000000000000000000000000000000000000000000000000000070000000000000000000000000007000000000000000000000000000000000000000000000000000000000000000000000000000000000000000000000000000000000000000000000000000000000000
310
00000000000000000000000000000707070707000700000000000000000000000000000000000000000000000000000000000000000000000000000000000000000000000000000000000000000000000000000000000000000000000000000000000007000000000000000000000000000700000000000000000000000000
310
00000000000000000000000000000000000000000000000000000000000000000000000000000000000000000000000000000000000000000000000000000000000000070000000000070000000000000000000000000000000000000000000000000000000000000000000000000000000000000000000000000000000000
310
00000000000000000000000000000000000000000000000000070000000000000000000000000007000000000000000000000000000000000000000000000000000000000000000000000000000000000000000000000000000000000000000000000000000000000000000000000000000000000000000007000000000007
310
00000000000000000000000000000000000000000000000000000000000000000000000000000000000000000000000000000000000000000000000000000000000000000000000000000000000007000000000000000000000000000700000000000000000000000000000000000000000000000000000000000000000000
310
00000000000000000000000000000000000000000000000000000000000000000000000000000000000000000000070000000000070000000000000000000000000000000000000000000000000000000000000000000000000000000000000000000000000000000000000000000000000000000000000000000000000000
310
00000000070000000000000000000000000007000000000000000000000000000000000000000000000000000000000000000000000000000000000000000000000000000000000000000000000000000000000000000000000000000000000000000007000000000007000000000000000000000000000000000000000000
310
00000000000000000000000000000000000000000000000000000000000000000000000000000000000000000000000000000000000000000007000000000000000000000000000700000000000000000000000000000000000000000000000000000000000000000000000000000000000000000000000000000000000000
310
00000000000000000000000000000000000000000000000000070000000000070000000000000000000000000000000000000000000000000000000000000000000000000000000000000000000000000000000000000000000000000000000000000000000000000000000000000700000000000000000000000000070000
310
00000000000000000000000000000000000000000000000000000000000000000000000000000000000000000000000000000000000000000000000000000000000000000000000000000000000007000000000007000000000000000000000000000000000000000000000000000000000000000000000000000000000000
310
00000000000000000000000000000000000000000000000000000000000000000000000007000000000000000000000000000700000000000000000000000000000000000000000000000000000000000000000000000000000000000000000000000000000000000000000000000000000000000000000000000000000000
310
00000000070000000000070000000000000000000000000000000000000000000000000000000000000000000000000000000000000000000000000000000000000000000000000000000000000000000000000000000000000700000000000000000000000000070000000000000000000000000000000000000000000000
310
00000000000000000000000000000000000000000000000000000000000000000000000000000000000000000000000000000000000000000007000000000007000000000000000000000000000000000000000000000000000000000000000000000000000000000000000000000000000000000000000000000000000000
310
00000000000000000000000000000007000000000000000000000000000700000000000000000000000000000000000000000000000000000000000000000000000000000000000000000000000000000000000000000000000000000000000000000000000000000000000000000700000000000700000000000000000000
310
00000000000000000000000000000000000000000000000000000000000000000000000000000000000000000000000000000000000000000000000000000000000000000700000000000000000000000000070000000000000000000000000000000000000000000000000000000000000000000000000000000000000000
310
00000000000000000000000000000000000000000000000000000000000000000000000007000000000007000000000000000000000000000000000000000000000000000000000000000000000000000000000000000000000000000000000000000000000000000000000000000000000000000000000000070000000000
310
00000000000000000700000000000000000000000000000000000000000000000000000000000000000000000000000000000000000000000000000000000000000000000000000000000000000000000000000000000000000700000000000700000000000000000000000000000000000000000000000000000000000000
310
00000000000000000000000000000000000000000000000000000000000000000000000000000000000000000000070000000000000000000000000000000700000000000000000000000000000000000000000000000000000000000000000000000000000000000000000000000000000000000000000000000000000000
310
00000000000000000000000000000007000000000007000000000000000000000000000000000000000000000000000000000000000000000000000000000000000000000000000000000000000000000000000000000000000000000000000000000007000000000000000000000000000000070000000000000000000000
310
00000000000000000000000000000000000000000000000000000000000000000000000000000000000000000000000000000000000000000000000000000000000000070700000000000700000000000000000000000000000000000000000000000000000000000000000000000000000000000000000000000000000000
310
00000000000000000000000000000000000000000000000000070000000000000000000000000000000700000000000000000000000000000000000000000000000000000000000000000000000000000000000000000000000000000000000000000000000000000000000000000000000000000000000007070000000000
310
07070000000000000000000000000000000000000000000000000000000000000000000000000000000000000000000000000000000000000000000000000000000000000000000000000000000007000000000000000000000000000000070000000000000000000000000000000000000000000000000000000000000000
310
00000000000000000000000000000000000000000000000000000000000000000000000000000000000000000000070700000000000700000000000000000000000000000000000000000000000000000000000000000000000000000000000000000000000000000000000000000000000000000000000000000000000000
310
00000000070000000000000000000000000000000700000000000000000000000000000000000000000000000000000000000000000000000000000000000000000000000000000000000000000000000000000000000000000000000000000000000007070700000007070700000000000000000000000000000000000000
310
00000000000000000000000000000000000000000000000000000000000000000000000000000000000000000000000000000000000000000007000000000000000000000000000000070000000000000000000000000000000000000000000000000000000000000000000000000000000000000000000000000000000000
310
00000000000000000000000000000000000000000000000000070707070707000707000000000000000000000000000000000000000000000000070700000000000000000000000000000000000000000000000000000000070700000000000000000000000000000000000000000700000000000000000000000000000007
310
00000000000000000000000000000000000000000000000000000000000000000000000000000000000000000000000000000000000000000000000000000000000000000000000000000000000007070700000707070700000000000000000000000000000000000000000000070707070707000000000000000000000000
310
00000000000000000000000007070707070700000000000000000000000000000000000007000000000000000000000000000000070000000000000000000000000000000000000000000000000000000000000000000000000000000000000000000000000000000000000000000000000000000000000000000000000000
310
00000007070000070700000007070000000000000000000000000000000000000007070000070700000707000000000000000000000000000000000000000007070000070700000707000000000000000000000000000000000700000000000000000000000000000007000000000000000000000000000000000000000000
310
00000000000000000000000000000000000000000000000000000000000000000000000000000000000000000000000000000000000007070007000000000000000700070000000000000000000000000000000007070000000707070707000007070000000000000000000000000000000007070000070707070700000007
310
07000000000000000000000000000007000000000000000000000000000000070000000000000000000000000000000000000000000000000000000000000000000000000000000000000000000000000000000000000000000000000000000000000000000000000000000700070707070000000707070700070000000000
310
00000000000000000007000000070700000000000700000007000000000000000000000000000007000000070700000000070700000707000000000000000000000000000700000000000000000000000000000007000000000000000000000000000000000000000000000000000000000000000000000000000000000000
310
00000000000000000000000000000000000000000000000000000000000000000700070707000707070700000707070007000000000000000000000000000700000700000000000000000707000007000000000000000000000000070000070700000000000000000700000707000000000000000000000000070000000000
310
00000000000000000000070000000000000000000000000000000000000000000000000000000000000000000000000000000000000000000000000000000000000000000000000000000000000000000000000007000700070700000000000000070707000700000000000000000000000007070707000000000000000000
310
00000700070000000000000000000000070700070000000000000000000000070707070000000000000000000000070000000000000000000000000000000007070000000000000000000000000000000000000000000000000000000000000000000000000000000000000000000000000000000000000000000000000000
310
00000000000000000000070007070707000000000000000707000700070000000000000000000000070007000000000000000000000000070000070000000000000000000007070700000000000000000000000000070007000000000000000000000007000000000000000000000000000000000007000000000000000000
310
00000000000000000000000000000000000000000000000000000000000000000000000000000000000000000000000000000000000000000000000000000007070007000700000000000000070700070007000000000000000000000007000700000000000000000000000000070007000000000000000000000707070000
310
00000000000000000000000700070000000000000000000000070000000000000000000000000000000000070000000000000000000000000000000000000000000000000000000000000000000000000000000000000000000000000000000000000000000000000000000000000000000000070007000700070000000000
310
00000000070700070000000000000000000007070707000000000000000000000000000707070000000000000000000007070700000000000000000000000000070707070000000000000000000007000000000000000000000000000000000007000000000000000000000000000000000000000000000000000000000000
310
00000000000000000000000000000000000000000000000000000000000000000000000000000000000700070007000700000000000000070007000700000000000000000000000707070700000000000000000000000000070700000000000000000000000707070000000000000000000000000000070700000000000000
310
00000000070000000000000000000000000000000000070000000000000000000000000000000000000000000000000000000000000000000000000000000000000000000000000000000000000000000000000000000000000000000000000707000700070000000000000007000707000700000000000000000000070707
310
07000000000000000000000000000700070000000000000000000007000700000000000000000000000000070007000000000000000000000007000000000000000000000000000000000707000000000000000000000000000000000000000000000000000000000000000000000000000000000000000000000000000000
310
00000000000000000000000000000000000000000007070007000707000000000007000700070007000000000000000000000007000700000000000000000000000000070007000000000000000000000707070000000000000000000000000007000700000000000000000000000707000000000000000000000000000000
310
07070000000000000000000000000000000000000000000000000000000000000000000000000000000000000000000000000000000000000000000000000000000000000000000000000700070007000700000000070700070007000700000000000000000000000700070700000000000000000000000700070700000000
310
00000000000007070707000000000000000000000000070707000000000000000000000007070000000000000000000000000000000707000000000000000000000000000000000000000000000000000000000000000000000000000000000000000000000000000000000000000000000000000000000000000000000000
310
07000700070700070707070700070707000007000000000000000000000000070707000000000000000000000707000700000000000000000000000007000700000000000000000000000707070700000000000000000000000007000000000000000000000000000000070000000000000000000000000000000000000000
310
00000000000000000000000000000000000000000000000000000000000000000000000000000000000000000000000000000000000007000700070000000000000707070700070000000000000000000000000007000707000000000000000000070007070000000000000000000000000707000700000000000000000007
310
07070007000000000000000000000000070700000000000000000000000000070700000000000000000000000000000000000000000000000000000000000000000000000000000000000000000000000000000000000000000000000000000000000000000000000000000007000707070700000007070707000700000000
310
00000000000000000000070700000700000000000007070007070000000000000000000000000000070700070700000000000007000007070000000000000000000000000007000700000000000000000000000707000000000000000000000000000000000000000000000000000000000000000000000000000000000000
310
00000000000000000000000000000000000000000000000000000000000000000000000700070707070707070707000700000000000000000000000000000000070700000707070707070000070700000000000000000000000000000000070700000707070707070000070700000000000000000000000000000007070707
310
00000000000000070700070000000000000000000000000000000000000000000000000000000000000000000000000000000000000000000000000000000000000000000000000000000000000000000000000000000000000707000007070700000707000000000000000000000000000000000000070700000007070000
310
00070700000000000000000000000000000000000007070000000707000000070700000000000000000000000000000000000707070707000000070707070700000000000000000000000000000000000000000000000000000000000000000000000000000000000000000000000000000000000000000000000000000000
310
00000000000000000000000000000000000707070707070700000000000000000000000000000000000000000000070707070707070700000000000000000000000000000000000000000000070707070707070700000000000000000000000000000000000000000000070707070707070000000000000000000000000000
310
00000000000000000000000000000000000000000000000000000000000000000000000000000000000000000000000000000000000000000000000000000000000000000000000000000000000000000000000000000000000000000000000000000000000000000000000000000000000000000000000000000000000000
310
00000000000000000000000000000000000000000000000000000000000000000000000000000000000000000000000000000000000000000000000000000000000000000000000000000000000000000000000000000000000000000000000000000000000000000000000000000000000000000000000000000000000000
310
00000000000000000000000000000000000000000000000000000000000000000000000000000000000000000000000000000000000000000000000000000000000000000000000000000000000000000000000000000000000000000000000000000000000000000000000000000000000000000000000000000000000000
310
00000000000000000000000000000000000000000000000000000000000000000000000000000000000000000000000000000000000000000000000000000000000000000000000000000000000000000000000000000000000000000000000000000000000000000000000000000000000000000000000000000000000000
310
00000000000000000000000000000000000000000000000000000000000000000000000000000000000000000000000000000000000000000000000000000000000000000000000000000000000000000000000000000000000000000000000000000000000000000000000000000000000000000000000000000000000000
310
000000000000000000000000000000000000000000000000000000000000000000000000000000000000000000000000000000000000000000000000000000000000000000000000000000000000000000000000000000000000000000000000000000000000000000000000
  0
ENDSEC
  0
EOF
