  0
SECTION
  2
HEADER
  9
$ACADVER
  1
AC1015
  9
$ACADMAINTVER
 70
     6
  9
$DWGCODEPAGE
  3
ANSI_1252
  9
$INSBASE
 10
0.0
 20
0.0
 30
0.0
  9
$EXTMIN
 10
-3.59585
 20
0.0755
 30
0.0
  9
$EXTMAX
 10
257.12145
 20
202.1435
 30
0.0
  9
$LIMMIN
 10
0.0
 20
0.0
  9
$LIMMAX
 10
12.0
 20
9.0
  9
$ORTHOMODE
 70
     0
  9
$REGENMODE
 70
     1
  9
$FILLMODE
 70
     1
  9
$QTEXTMODE
 70
     0
  9
$MIRRTEXT
 70
     1
  9
$LTSCALE
 40
1.0
  9
$ATTMODE
 70
     1
  9
$TEXTSIZE
 40
0.2
  9
$TRACEWID
 40
0.05
  9
$TEXTSTYLE
  7
Standard
  9
$CLAYER
  8
0
  9
$CELTYPE
  6
Continuous
  9
$CECOLOR
 62
   256
  9
$CELTSCALE
 40
1.0
  9
$DISPSILH
 70
     0
  9
$DIMSCALE
 40
1.0
  9
$DIMASZ
 40
0.18
  9
$DIMEXO
 40
0.0625
  9
$DIMDLI
 40
0.38
  9
$DIMRND
 40
0.0
  9
$DIMDLE
 40
0.0
  9
$DIMEXE
 40
0.18
  9
$DIMTP
 40
0.0
  9
$DIMTM
 40
0.0
  9
$DIMTXT
 40
0.18
  9
$DIMCEN
 40
0.09
  9
$DIMTSZ
 40
0.0
  9
$DIMTOL
 70
     0
  9
$DIMLIM
 70
     0
  9
$DIMTIH
 70
     1
  9
$DIMTOH
 70
     1
  9
$DIMSE1
 70
     0
  9
$DIMSE2
 70
     0
  9
$DIMTAD
 70
     0
  9
$DIMZIN
 70
     0
  9
$DIMBLK
  1

  9
$DIMASO
 70
     1
  9
$DIMSHO
 70
     1
  9
$DIMPOST
  1

  9
$DIMAPOST
  1

  9
$DIMALT
 70
     0
  9
$DIMALTD
 70
     2
  9
$DIMALTF
 40
25.4
  9
$DIMLFAC
 40
1.0
  9
$DIMTOFL
 70
     0
  9
$DIMTVP
 40
0.0
  9
$DIMTIX
 70
     0
  9
$DIMSOXD
 70
     0
  9
$DIMSAH
 70
     0
  9
$DIMBLK1
  1

  9
$DIMBLK2
  1

  9
$DIMSTYLE
  2
Standard
  9
$DIMCLRD
 70
     0
  9
$DIMCLRE
 70
     0
  9
$DIMCLRT
 70
     0
  9
$DIMTFAC
 40
1.0
  9
$DIMGAP
 40
0.09
  9
$DIMJUST
 70
     0
  9
$DIMSD1
 70
     0
  9
$DIMSD2
 70
     0
  9
$DIMTOLJ
 70
     1
  9
$DIMTZIN
 70
     0
  9
$DIMALTZ
 70
     0
  9
$DIMALTTZ
 70
     0
  9
$DIMUPT
 70
     0
  9
$DIMDEC
 70
     4
  9
$DIMTDEC
 70
     4
  9
$DIMALTU
 70
     2
  9
$DIMALTTD
 70
     2
  9
$DIMTXSTY
  7
Standard
  9
$DIMAUNIT
 70
     0
  9
$DIMADEC
 70
     0
  9
$DIMALTRND
 40
0.0
  9
$DIMAZIN
 70
     0
  9
$DIMDSEP
 70
    46
  9
$DIMATFIT
 70
     3
  9
$DIMFRAC
 70
     0
  9
$DIMLDRBLK
  1

  9
$DIMLUNIT
 70
     2
  9
$DIMLWD
 70
    -2
  9
$DIMLWE
 70
    -2
  9
$DIMTMOVE
 70
     0
  9
$LUNITS
 70
     2
  9
$LUPREC
 70
     4
  9
$SKETCHINC
 40
0.1
  9
$FILLETRAD
 40
0.0
  9
$AUNITS
 70
     0
  9
$AUPREC
 70
     0
  9
$MENU
  1
.
  9
$ELEVATION
 40
0.0
  9
$PELEVATION
 40
0.0
  9
$THICKNESS
 40
0.0
  9
$LIMCHECK
 70
     0
  9
$CHAMFERA
 40
0.0
  9
$CHAMFERB
 40
0.0
  9
$CHAMFERC
 40
0.0
  9
$CHAMFERD
 40
0.0
  9
$SKPOLY
 70
     0
  9
$TDCREATE
 40
2454745.6563075
  9
$TDUCREATE
 40
2454745.572974167
  9
$TDUPDATE
 40
2456209.592201597
  9
$TDUUPDATE
 40
2456209.508868264
  9
$TDINDWG
 40
0.0208718519
  9
$TDUSRTIMER
 40
0.0208718519
  9
$USRTIMER
 70
     1
  9
$ANGBASE
 50
0.0
  9
$ANGDIR
 70
     0
  9
$PDMODE
 70
     0
  9
$PDSIZE
 40
0.0
  9
$PLINEWID
 40
0.0
  9
$SPLFRAME
 70
     0
  9
$SPLINETYPE
 70
     6
  9
$SPLINESEGS
 70
     8
  9
$HANDSEED
  5
68A
  9
$SURFTAB1
 70
     6
  9
$SURFTAB2
 70
     6
  9
$SURFTYPE
 70
     6
  9
$SURFU
 70
     6
  9
$SURFV
 70
     6
  9
$UCSBASE
  2

  9
$UCSNAME
  2

  9
$UCSORG
 10
0.0
 20
0.0
 30
0.0
  9
$UCSXDIR
 10
1.0
 20
0.0
 30
0.0
  9
$UCSYDIR
 10
0.0
 20
1.0
 30
0.0
  9
$UCSORTHOREF
  2

  9
$UCSORTHOVIEW
 70
     1
  9
$UCSORGTOP
 10
0.0
 20
0.0
 30
0.0
  9
$UCSORGBOTTOM
 10
0.0
 20
0.0
 30
0.0
  9
$UCSORGLEFT
 10
0.0
 20
0.0
 30
0.0
  9
$UCSORGRIGHT
 10
0.0
 20
0.0
 30
0.0
  9
$UCSORGFRONT
 10
0.0
 20
0.0
 30
0.0
  9
$UCSORGBACK
 10
0.0
 20
0.0
 30
0.0
  9
$PUCSBASE
  2

  9
$PUCSNAME
  2

  9
$PUCSORG
 10
0.0
 20
0.0
 30
0.0
  9
$PUCSXDIR
 10
1.0
 20
0.0
 30
0.0
  9
$PUCSYDIR
 10
0.0
 20
1.0
 30
0.0
  9
$PUCSORTHOREF
  2

  9
$PUCSORTHOVIEW
 70
     0
  9
$PUCSORGTOP
 10
0.0
 20
0.0
 30
0.0
  9
$PUCSORGBOTTOM
 10
0.0
 20
0.0
 30
0.0
  9
$PUCSORGLEFT
 10
0.0
 20
0.0
 30
0.0
  9
$PUCSORGRIGHT
 10
0.0
 20
0.0
 30
0.0
  9
$PUCSORGFRONT
 10
0.0
 20
0.0
 30
0.0
  9
$PUCSORGBACK
 10
0.0
 20
0.0
 30
0.0
  9
$USERI1
 70
     0
  9
$USERI2
 70
     0
  9
$USERI3
 70
     0
  9
$USERI4
 70
     0
  9
$USERI5
 70
     0
  9
$USERR1
 40
0.0
  9
$USERR2
 40
0.0
  9
$USERR3
 40
0.0
  9
$USERR4
 40
0.0
  9
$USERR5
 40
0.0
  9
$WORLDVIEW
 70
     1
  9
$SHADEDGE
 70
     3
  9
$SHADEDIF
 70
    70
  9
$TILEMODE
 70
     1
  9
$MAXACTVP
 70
    64
  9
$PINSBASE
 10
0.0
 20
0.0
 30
0.0
  9
$PLIMCHECK
 70
     0
  9
$PEXTMIN
 10
1.000000000000E+20
 20
1.000000000000E+20
 30
1.000000000000E+20
  9
$PEXTMAX
 10
-1.000000000000E+20
 20
-1.000000000000E+20
 30
-1.000000000000E+20
  9
$PLIMMIN
 10
0.0
 20
0.0
  9
$PLIMMAX
 10
12.0
 20
9.0
  9
$UNITMODE
 70
     0
  9
$VISRETAIN
 70
     1
  9
$PLINEGEN
 70
     0
  9
$PSLTSCALE
 70
     1
  9
$TREEDEPTH
 70
  3020
  9
$CMLSTYLE
  2
Standard
  9
$CMLJUST
 70
     0
  9
$CMLSCALE
 40
1.0
  9
$PROXYGRAPHICS
 70
     1
  9
$MEASUREMENT
 70
     0
  9
$CELWEIGHT
370
    -1
  9
$ENDCAPS
280
     0
  9
$JOINSTYLE
280
     0
  9
$LWDISPLAY
290
     0
  9
$INSUNITS
 70
     0
  9
$HYPERLINKBASE
  1

  9
$STYLESHEET
  1

  9
$XEDIT
290
     1
  9
$CEPSNTYPE
380
     0
  9
$PSTYLEMODE
290
     1
  9
$FINGERPRINTGUID
  2
{A2BEE908-EB22-4DAD-BCDD-D87F9BBA60E2}
  9
$VERSIONGUID
  2
{B991F6C9-1C80-4DB5-A3AC-B044506EB26A}
  9
$EXTNAMES
290
     1
  9
$PSVPSCALE
 40
0.0
  9
$OLESTARTUP
290
     0
  0
ENDSEC
  0
SECTION
  2
CLASSES
  0
CLASS
  1
ACDBDICTIONARYWDFLT
  2
AcDbDictionaryWithDefault
  3
ObjectDBX Classes
 90
        0
280
     0
281
     0
  0
CLASS
  1
ACDBPLACEHOLDER
  2
AcDbPlaceHolder
  3
ObjectDBX Classes
 90
        0
280
     0
281
     0
  0
CLASS
  1
LAYOUT
  2
AcDbLayout
  3
ObjectDBX Classes
 90
        0
280
     0
281
     0
  0
CLASS
  1
DICTIONARYVAR
  2
AcDbDictionaryVar
  3
ObjectDBX Classes
 90
        0
280
     0
281
     0
  0
CLASS
  1
SCALE
  2
AcDbScale
  3
ObjectDBX Classes
 90
     1153
280
     0
281
     0
  0
ENDSEC
  0
SECTION
  2
TABLES
  0
TABLE
  2
VPORT
  5
8
330
0
100
AcDbSymbolTable
 70
     1
  0
VPORT
  5
1FB
330
8
100
AcDbSymbolTableRecord
100
AcDbViewportTableRecord
  2
*Active
 70
     0
 10
0.0
 20
0.0
 11
1.0
 21
1.0
 12
126.7628
 22
101.07175
 13
0.0
 23
0.0
 14
1.0
 24
1.0
 15
0.0
 25
0.0
 16
0.0
 26
0.0
 36
1.0
 17
0.0
 27
0.0
 37
0.0
 40
206.18637
 41
1.860689655172
 42
50.0
 43
0.0
 44
0.0
 50
0.0
 51
0.0
 71
    16
 72
   100
 73
     1
 74
     3
 75
     0
 76
     0
 77
     0
 78
     0
281
     0
 65
     1
110
0.0
120
0.0
130
0.0
111
1.0
121
0.0
131
0.0
112
0.0
122
1.0
132
0.0
 79
     1
146
0.0
  0
ENDTAB
  0
TABLE
  2
LTYPE
  5
5
330
0
100
AcDbSymbolTable
 70
     1
  0
LTYPE
  5
13
330
5
100
AcDbSymbolTableRecord
100
AcDbLinetypeTableRecord
  2
ByBlock
 70
     0
  3

 72
    65
 73
     0
 40
0.0
  0
LTYPE
  5
14
330
5
100
AcDbSymbolTableRecord
100
AcDbLinetypeTableRecord
  2
ByLayer
 70
     0
  3

 72
    65
 73
     0
 40
0.0
  0
LTYPE
  5
15
330
5
100
AcDbSymbolTableRecord
100
AcDbLinetypeTableRecord
  2
Continuous
 70
     0
  3
Solid line
 72
    65
 73
     0
 40
0.0
  0
ENDTAB
  0
TABLE
  2
LAYER
  5
2
330
0
100
AcDbSymbolTable
 70
     1
  0
LAYER
  5
10
330
2
100
AcDbSymbolTableRecord
100
AcDbLayerTableRecord
  2
0
 70
     0
 62
     7
  6
Continuous
370
    -3
390
F
  0
ENDTAB
  0
TABLE
  2
STYLE
  5
3
330
0
100
AcDbSymbolTable
 70
     1
  0
STYLE
  5
11
330
3
100
AcDbSymbolTableRecord
100
AcDbTextStyleTableRecord
  2
Standard
 70
     0
 40
0.0
 41
1.0
 50
0.0
 71
     0
 42
0.2
  3
txt
  4

  0
ENDTAB
  0
TABLE
  2
VIEW
  5
6
330
0
100
AcDbSymbolTable
 70
     0
  0
ENDTAB
  0
TABLE
  2
UCS
  5
7
330
0
100
AcDbSymbolTable
 70
     0
  0
ENDTAB
  0
TABLE
  2
APPID
  5
9
330
0
100
AcDbSymbolTable
 70
     1
  0
APPID
  5
12
330
9
100
AcDbSymbolTableRecord
100
AcDbRegAppTableRecord
  2
ACAD
 70
     0
  0
ENDTAB
  0
TABLE
  2
DIMSTYLE
  5
A
330
0
100
AcDbSymbolTable
 70
     1
100
AcDbDimStyleTable
  0
DIMSTYLE
105
1EF
330
A
100
AcDbSymbolTableRecord
100
AcDbDimStyleTableRecord
  2
Standard
 70
     0
340
11
  0
ENDTAB
  0
TABLE
  2
BLOCK_RECORD
  5
1
330
0
100
AcDbSymbolTable
 70
     1
  0
BLOCK_RECORD
  5
1E
330
1
100
AcDbSymbolTableRecord
100
AcDbBlockTableRecord
  2
*Model_Space
340
21
  0
BLOCK_RECORD
  5
1A
330
1
100
AcDbSymbolTableRecord
100
AcDbBlockTableRecord
  2
*Paper_Space
340
1D
  0
ENDTAB
  0
ENDSEC
  0
SECTION
  2
BLOCKS
  0
BLOCK
  5
1F
330
1E
100
AcDbEntity
  8
0
100
AcDbBlockBegin
  2
*Model_Space
 70
     0
 10
0.0
 20
0.0
 30
0.0
  3
*Model_Space
  1
*Model_Space
  0
ENDBLK
  5
20
330
1E
100
AcDbEntity
  8
0
100
AcDbBlockEnd
  0
BLOCK
  5
1B
330
1A
100
AcDbEntity
 67
     1
  8
0
100
AcDbBlockBegin
  2
*Paper_Space
 70
     0
 10
0.0
 20
0.0
 30
0.0
  3
*Paper_Space
  1
*Paper_Space
  0
ENDBLK
  5
1C
330
1A
100
AcDbEntity
 67
     1
  8
0
100
AcDbBlockEnd
  0
ENDSEC
  0
SECTION
  2
ENTITIES
  0
LINE
  5
22
330
1E
100
AcDbEntity
  8
0
100
AcDbLine
 10
186.64045
 20
0.0755
 30
0.0
 11
193.94045
 21
0.0755
 31
0.0
  0
LINE
  5
23
330
1E
100
AcDbEntity
  8
0
100
AcDbLine
 10
193.94045
 20
0.0755
 30
0.0
 11
202.34045
 21
0.0755
 31
0.0
  0
LINE
  5
24
330
1E
100
AcDbEntity
  8
0
100
AcDbLine
 10
202.34045
 20
0.0755
 30
0.0
 11
211.34045
 21
0.0755
 31
0.0
  0
LINE
  5
25
330
1E
100
AcDbEntity
  8
0
100
AcDbLine
 10
181.04045
 20
0.0755
 30
0.0
 11
186.64045
 21
0.0755
 31
0.0
  0
LINE
  5
26
330
1E
100
AcDbEntity
  8
0
100
AcDbLine
 10
2.64045
 20
106.3755
 30
0.0
 11
3.14045
 21
106.3755
 31
0.0
  0
LINE
  5
27
330
1E
100
AcDbEntity
  8
0
100
AcDbLine
 10
2.64045
 20
106.3755
 30
0.0
 11
3.34045
 21
106.0755
 31
0.0
  0
LINE
  5
29
330
1E
100
AcDbEntity
  8
0
100
AcDbLine
 10
3.34045
 20
106.0755
 30
0.0
 11
3.64045
 21
106.0755
 31
0.0
  0
LINE
  5
2A
330
1E
100
AcDbEntity
  8
0
100
AcDbLine
 10
3.64045
 20
106.0755
 30
0.0
 11
4.34045
 21
106.0755
 31
0.0
  0
LINE
  5
2B
330
1E
100
AcDbEntity
  8
0
100
AcDbLine
 10
3.14045
 20
106.3755
 30
0.0
 11
4.34045
 21
106.3755
 31
0.0
  0
LINE
  5
2C
330
1E
100
AcDbEntity
  8
0
100
AcDbLine
 10
4.34045
 20
106.3755
 30
0.0
 11
111.476159855887
 21
106.3755
 31
0.0
  0
LINE
  5
2D
330
1E
100
AcDbEntity
  8
0
100
AcDbLine
 10
4.34045
 20
106.0755
 30
0.0
 11
111.727926797794
 21
106.0755
 31
0.0
  0
LINE
  5
2E
330
1E
100
AcDbEntity
  8
0
100
AcDbLine
 10
2.64045
 20
117.7755
 30
0.0
 11
3.14045
 21
117.7755
 31
0.0
  0
LINE
  5
2F
330
1E
100
AcDbEntity
  8
0
100
AcDbLine
 10
2.64045
 20
117.7755
 30
0.0
 11
3.34045
 21
118.0755
 31
0.0
  0
LINE
  5
30
330
1E
100
AcDbEntity
  8
0
100
AcDbLine
 10
2.34045
 20
117.0755
 30
0.0
 11
2.64045
 21
117.7755
 31
0.0
  0
LINE
  5
31
330
1E
100
AcDbEntity
  8
0
100
AcDbLine
 10
2.34045
 20
107.0755
 30
0.0
 11
2.64045
 21
106.3755
 31
0.0
  0
LINE
  5
32
330
1E
100
AcDbEntity
  8
0
100
AcDbLine
 10
2.34045
 20
107.0755
 30
0.0
 11
2.34045
 21
117.0755
 31
0.0
  0
LINE
  5
33
330
1E
100
AcDbEntity
  8
0
100
AcDbLine
 10
3.34045
 20
118.0755
 30
0.0
 11
3.64045
 21
118.0755
 31
0.0
  0
LINE
  5
34
330
1E
100
AcDbEntity
  8
0
100
AcDbLine
 10
3.64045
 20
118.0755
 30
0.0
 11
4.34045
 21
118.0755
 31
0.0
  0
LINE
  5
35
330
1E
100
AcDbEntity
  8
0
100
AcDbLine
 10
3.14045
 20
117.7755
 30
0.0
 11
4.34045
 21
117.7755
 31
0.0
  0
LINE
  5
40
330
1E
100
AcDbEntity
  8
0
100
AcDbLine
 10
4.34045
 20
118.0755
 30
0.0
 11
101.657249121517
 21
118.0755
 31
0.0
  0
LINE
  5
43
330
1E
100
AcDbEntity
  8
0
100
AcDbLine
 10
4.34045
 20
118.0755
 30
0.0
 11
101.657249121517
 21
118.0755
 31
0.0
  0
LINE
  5
44
330
1E
100
AcDbEntity
  8
0
100
AcDbLine
 10
4.34045
 20
117.7755
 30
0.0
 11
101.909016063424
 21
117.7755
 31
0.0
  0
LINE
  5
45
330
1E
100
AcDbEntity
  8
0
100
AcDbLine
 10
4.34045
 20
117.7755
 30
0.0
 11
101.909016063424
 21
117.7755
 31
0.0
  0
LINE
  5
58
330
1E
100
AcDbEntity
  8
0
100
AcDbLine
 10
176.898113566823
 20
24.057367484017
 30
0.0
 11
177.02945
 21
23.2262
 31
0.0
  0
LINE
  5
10E
330
1E
100
AcDbEntity
  8
0
100
AcDbLine
 10
143.053248679113
 20
106.0755
 30
0.0
 11
242.34045
 21
106.0755
 31
0.0
  0
LINE
  5
10F
330
1E
100
AcDbEntity
  8
0
100
AcDbLine
 10
133.234906515917
 20
117.7755
 30
0.0
 11
242.34045
 21
117.7755
 31
0.0
  0
LINE
  5
118
330
1E
100
AcDbEntity
  8
0
100
AcDbLine
 10
132.983154152758
 20
118.0755
 30
0.0
 11
242.34045
 21
118.0755
 31
0.0
  0
LINE
  5
119
330
1E
100
AcDbEntity
  8
0
100
AcDbLine
 10
133.234906515917
 20
117.7755
 30
0.0
 11
242.34045
 21
117.7755
 31
0.0
  0
LINE
  5
11A
330
1E
100
AcDbEntity
  8
0
100
AcDbLine
 10
142.801496315954
 20
106.3755
 30
0.0
 11
242.34045
 21
106.3755
 31
0.0
  0
LINE
  5
11B
330
1E
100
AcDbEntity
  8
0
100
AcDbLine
 10
162.34045
 20
106.0755
 30
0.0
 11
182.34045
 21
106.0755
 31
0.0
  0
LINE
  5
11C
330
1E
100
AcDbEntity
  8
0
100
AcDbLine
 10
110.34045
 20
106.0755
 30
0.0
 11
112.911512815992
 21
104.665164700337
 31
0.0
  0
LINE
  5
11D
330
1E
100
AcDbEntity
  8
0
100
AcDbLine
 10
6.34045
 20
103.0755
 30
0.0
 11
12.34045
 21
106.0755
 31
0.0
  0
LINE
  5
11E
330
1E
100
AcDbEntity
  8
0
100
AcDbLine
 10
5.34045
 20
106.0755
 30
0.0
 11
6.34045
 21
103.0755
 31
0.0
  0
LINE
  5
121
330
1E
100
AcDbEntity
  8
0
100
AcDbLine
 10
176.34045
 20
0.0755
 30
0.0
 11
177.64045
 21
0.0755
 31
0.0
  0
LINE
  5
14E
330
1E
100
AcDbEntity
  8
0
100
AcDbLine
 10
177.02945
 20
23.2262
 30
0.0
 11
178.00745
 21
10.0755
 31
0.0
  0
LINE
  5
152
330
1E
100
AcDbEntity
  8
0
100
AcDbLine
 10
182.34045
 20
106.0755
 30
0.0
 11
199.51845
 21
106.0755
 31
0.0
  0
LINE
  5
153
330
1E
100
AcDbEntity
  8
0
100
AcDbLine
 10
193.54045
 20
56.5755
 30
0.0
 11
196.84045
 21
56.5755
 31
0.0
  0
LINE
  5
154
330
1E
100
AcDbEntity
  8
0
100
AcDbLine
 10
191.54045
 20
56.5755
 30
0.0
 11
193.54045
 21
56.5755
 31
0.0
  0
LINE
  5
155
330
1E
100
AcDbEntity
  8
0
100
AcDbLine
 10
196.84045
 20
56.5755
 30
0.0
 11
201.14045
 21
56.5755
 31
0.0
  0
LINE
  5
156
330
1E
100
AcDbEntity
  8
0
100
AcDbLine
 10
194.04045
 20
57.0755
 30
0.0
 11
197.24045
 21
57.0755
 31
0.0
  0
LINE
  5
157
330
1E
100
AcDbEntity
  8
0
100
AcDbLine
 10
192.04045
 20
57.0755
 30
0.0
 11
194.04045
 21
57.0755
 31
0.0
  0
LINE
  5
158
330
1E
100
AcDbEntity
  8
0
100
AcDbLine
 10
191.34045
 20
57.0755
 30
0.0
 11
192.04045
 21
57.0755
 31
0.0
  0
LINE
  5
159
330
1E
100
AcDbEntity
  8
0
100
AcDbLine
 10
199.51845
 20
106.0755
 30
0.0
 11
212.71845
 21
106.0755
 31
0.0
  0
LINE
  5
15A
330
1E
100
AcDbEntity
  8
0
100
AcDbLine
 10
197.24045
 20
57.0755
 30
0.0
 11
201.44045
 21
57.0755
 31
0.0
  0
LINE
  5
15B
330
1E
100
AcDbEntity
  8
0
100
AcDbLine
 10
201.44045
 20
57.0755
 30
0.0
 11
206.24045
 21
57.0755
 31
0.0
  0
LINE
  5
15C
330
1E
100
AcDbEntity
  8
0
100
AcDbLine
 10
201.14045
 20
56.5755
 30
0.0
 11
206.04045
 21
56.5755
 31
0.0
  0
LINE
  5
15D
330
1E
100
AcDbEntity
  8
0
100
AcDbLine
 10
191.132047279333
 20
56.867097279333
 30
0.0
 11
191.34045
 21
57.0755
 31
0.0
  0
LINE
  5
15E
330
1E
100
AcDbEntity
  8
0
100
AcDbLine
 10
191.377841379189
 20
56.5755
 30
0.0
 11
191.54045
 21
56.5755
 31
0.0
  0
LINE
  5
163
330
1E
100
AcDbEntity
  8
0
100
AcDbLine
 10
177.64045
 20
0.0755
 30
0.0
 11
181.04045
 21
0.0755
 31
0.0
  0
LINE
  5
165
330
1E
100
AcDbEntity
  8
0
100
AcDbLine
 10
220.34045
 20
0.0755
 30
0.0
 11
228.74045
 21
0.0755
 31
0.0
  0
LINE
  5
166
330
1E
100
AcDbEntity
  8
0
100
AcDbLine
 10
236.04045
 20
0.0755
 30
0.0
 11
241.64045
 21
0.0755
 31
0.0
  0
LINE
  5
167
330
1E
100
AcDbEntity
  8
0
100
AcDbLine
 10
228.74045
 20
0.0755
 30
0.0
 11
236.04045
 21
0.0755
 31
0.0
  0
LINE
  5
172
330
1E
100
AcDbEntity
  8
0
100
AcDbLine
 10
211.34045
 20
57.0755
 30
0.0
 11
216.44045
 21
57.0755
 31
0.0
  0
LINE
  5
174
330
1E
100
AcDbEntity
  8
0
100
AcDbLine
 10
221.54045
 20
56.5755
 30
0.0
 11
225.84045
 21
56.5755
 31
0.0
  0
LINE
  5
175
330
1E
100
AcDbEntity
  8
0
100
AcDbLine
 10
221.24045
 20
57.0755
 30
0.0
 11
225.44045
 21
57.0755
 31
0.0
  0
LINE
  5
176
330
1E
100
AcDbEntity
  8
0
100
AcDbLine
 10
216.44045
 20
57.0755
 30
0.0
 11
221.24045
 21
57.0755
 31
0.0
  0
LINE
  5
177
330
1E
100
AcDbEntity
  8
0
100
AcDbLine
 10
216.64045
 20
56.5755
 30
0.0
 11
221.54045
 21
56.5755
 31
0.0
  0
LINE
  5
178
330
1E
100
AcDbEntity
  8
0
100
AcDbLine
 10
211.34045
 20
56.5755
 30
0.0
 11
216.64045
 21
56.5755
 31
0.0
  0
LINE
  5
179
330
1E
100
AcDbEntity
  8
0
100
AcDbLine
 10
206.24045
 20
57.0755
 30
0.0
 11
211.34045
 21
57.0755
 31
0.0
  0
LINE
  5
17A
330
1E
100
AcDbEntity
  8
0
100
AcDbLine
 10
206.04045
 20
56.5755
 30
0.0
 11
211.34045
 21
56.5755
 31
0.0
  0
LINE
  5
17B
330
1E
100
AcDbEntity
  8
0
100
AcDbLine
 10
224.08445
 20
106.0755
 30
0.0
 11
232.88445
 21
106.0755
 31
0.0
  0
LINE
  5
17C
330
1E
100
AcDbEntity
  8
0
100
AcDbLine
 10
212.71845
 20
106.0755
 30
0.0
 11
224.08445
 21
106.0755
 31
0.0
  0
LINE
  5
17D
330
1E
100
AcDbEntity
  8
0
100
AcDbLine
 10
225.44045
 20
57.0755
 30
0.0
 11
228.64045
 21
57.0755
 31
0.0
  0
LINE
  5
17E
330
1E
100
AcDbEntity
  8
0
100
AcDbLine
 10
225.84045
 20
56.5755
 30
0.0
 11
229.14045
 21
56.5755
 31
0.0
  0
LINE
  5
18A
330
1E
100
AcDbEntity
  8
0
100
AcDbLine
 10
229.14045
 20
56.5755
 30
0.0
 11
231.14045
 21
56.5755
 31
0.0
  0
LINE
  5
18B
330
1E
100
AcDbEntity
  8
0
100
AcDbLine
 10
228.64045
 20
57.0755
 30
0.0
 11
230.64045
 21
57.0755
 31
0.0
  0
LINE
  5
18C
330
1E
100
AcDbEntity
  8
0
100
AcDbLine
 10
230.64045
 20
57.0755
 30
0.0
 11
231.34045
 21
57.0755
 31
0.0
  0
LINE
  5
18D
330
1E
100
AcDbEntity
  8
0
100
AcDbLine
 10
231.34045
 20
57.0755
 30
0.0
 11
231.84045
 21
56.5755
 31
0.0
  0
LINE
  5
18E
330
1E
100
AcDbEntity
  8
0
100
AcDbLine
 10
231.14045
 20
56.5755
 30
0.0
 11
231.84045
 21
56.5755
 31
0.0
  0
LINE
  5
190
330
1E
100
AcDbEntity
  8
0
100
AcDbLine
 10
234.96245
 20
36.3769
 30
0.0
 11
234.987331000065
 21
37.712420683903
 31
0.0
  0
LINE
  5
191
330
1E
100
AcDbEntity
  8
0
100
AcDbLine
 10
234.59645
 20
23.2262
 30
0.0
 11
234.96245
 21
36.3769
 31
0.0
  0
LINE
  5
192
330
1E
100
AcDbEntity
  8
0
100
AcDbLine
 10
234.422510727787
 20
9.546796463331
 30
0.0
 11
234.59645
 21
23.2262
 31
0.0
  0
LINE
  5
193
330
1E
100
AcDbEntity
  8
0
100
AcDbLine
 10
235.20745
 20
49.5276
 30
0.0
 11
236.18445
 21
62.6782
 31
0.0
  0
LINE
  5
195
330
1E
100
AcDbEntity
  8
0
100
AcDbLine
 10
235.178885085869
 20
47.994340341777
 30
0.0
 11
237.92745
 21
52.7277
 31
0.0
  0
LINE
  5
196
330
1E
100
AcDbEntity
  8
0
100
AcDbLine
 10
235.178885085869
 20
47.994340341777
 30
0.0
 11
235.20745
 21
49.5276
 31
0.0
  0
LINE
  5
197
330
1E
100
AcDbEntity
  8
0
100
AcDbLine
 10
234.987331000065
 20
37.712420683903
 30
0.0
 11
242.21045
 21
50.2552
 31
0.0
  0
LINE
  5
19C
330
1E
100
AcDbEntity
  8
0
100
AcDbLine
 10
232.88445
 20
106.0755
 30
0.0
 11
238.38445
 21
106.0755
 31
0.0
  0
LINE
  5
19D
330
1E
100
AcDbEntity
  8
0
100
AcDbLine
 10
237.04045
 20
75.8289
 30
0.0
 11
238.26245
 21
88.9796
 31
0.0
  0
LINE
  5
19E
330
1E
100
AcDbEntity
  8
0
100
AcDbLine
 10
236.18445
 20
62.6782
 30
0.0
 11
237.04045
 21
75.8289
 31
0.0
  0
LINE
  5
1A4
330
1E
100
AcDbEntity
  8
0
100
AcDbLine
 10
238.38445
 20
106.0755
 30
0.0
 11
240.34045
 21
106.0755
 31
0.0
  0
LINE
  5
1A5
330
1E
100
AcDbEntity
  8
0
100
AcDbLine
 10
238.26245
 20
88.9796
 30
0.0
 11
240.34045
 21
106.0755
 31
0.0
  0
LINE
  5
1A6
330
1E
100
AcDbEntity
  8
0
100
AcDbLine
 10
241.24045
 20
55.1126
 30
0.0
 11
242.22645
 21
55.2116
 31
0.0
  0
LINE
  5
1A7
330
1E
100
AcDbEntity
  8
0
100
AcDbLine
 10
240.29345
 20
54.8195
 30
0.0
 11
241.24045
 21
55.1126
 31
0.0
  0
LINE
  5
1A8
330
1E
100
AcDbEntity
  8
0
100
AcDbLine
 10
239.42345
 20
54.3439
 30
0.0
 11
240.29345
 21
54.8195
 31
0.0
  0
LINE
  5
1A9
330
1E
100
AcDbEntity
  8
0
100
AcDbLine
 10
238.66545
 20
53.7049
 30
0.0
 11
239.42345
 21
54.3439
 31
0.0
  0
LINE
  5
1AA
330
1E
100
AcDbEntity
  8
0
100
AcDbLine
 10
237.92745
 20
52.7277
 30
0.0
 11
238.66545
 21
53.7049
 31
0.0
  0
LINE
  5
1B0
330
1E
100
AcDbEntity
  8
0
100
AcDbLine
 10
231.45512058259
 20
10.554788717557
 30
0.0
 11
231.84045
 21
56.5755
 31
0.0
  0
LINE
  5
1B4
330
1E
100
AcDbEntity
  8
0
100
AcDbLine
 10
211.34045
 20
0.0755
 30
0.0
 11
220.34045
 21
0.0755
 31
0.0
  0
LINE
  5
1BA
330
1E
100
AcDbEntity
  8
0
100
AcDbLine
 10
242.22645
 20
50.2437
 30
0.0
 11
257.11945
 21
50.2436
 31
0.0
  0
LINE
  5
1BB
330
1E
100
AcDbEntity
  8
0
100
AcDbLine
 10
243.04045
 20
106.0755
 30
0.0
 11
243.34045
 21
106.0755
 31
0.0
  0
LINE
  5
1BC
330
1E
100
AcDbEntity
  8
0
100
AcDbLine
 10
243.34045
 20
106.0755
 30
0.0
 11
244.04045
 21
106.3755
 31
0.0
  0
LINE
  5
1BD
330
1E
100
AcDbEntity
  8
0
100
AcDbLine
 10
243.54045
 20
106.3755
 30
0.0
 11
244.04045
 21
106.3755
 31
0.0
  0
LINE
  5
1BF
330
1E
100
AcDbEntity
  8
0
100
AcDbLine
 10
242.34045
 20
106.0755
 30
0.0
 11
243.04045
 21
106.0755
 31
0.0
  0
LINE
  5
1C0
330
1E
100
AcDbEntity
  8
0
100
AcDbLine
 10
242.34045
 20
118.0755
 30
0.0
 11
243.04045
 21
118.0755
 31
0.0
  0
LINE
  5
1C1
330
1E
100
AcDbEntity
  8
0
100
AcDbLine
 10
243.34045
 20
118.0755
 30
0.0
 11
244.04045
 21
117.7755
 31
0.0
  0
LINE
  5
1C2
330
1E
100
AcDbEntity
  8
0
100
AcDbLine
 10
243.04045
 20
118.0755
 30
0.0
 11
243.34045
 21
118.0755
 31
0.0
  0
LINE
  5
1C4
330
1E
100
AcDbEntity
  8
0
100
AcDbLine
 10
243.54045
 20
117.7755
 30
0.0
 11
244.04045
 21
117.7755
 31
0.0
  0
LINE
  5
1C5
330
1E
100
AcDbEntity
  8
0
100
AcDbLine
 10
242.34045
 20
117.7755
 30
0.0
 11
243.54045
 21
117.7755
 31
0.0
  0
LINE
  5
1C7
330
1E
100
AcDbEntity
  8
0
100
AcDbLine
 10
244.34045
 20
117.0755
 30
0.0
 11
244.34045
 21
107.0755
 31
0.0
  0
LINE
  5
1C8
330
1E
100
AcDbEntity
  8
0
100
AcDbLine
 10
244.34045
 20
107.0755
 30
0.0
 11
244.34045
 21
117.0755
 31
0.0
  0
LINE
  5
1CA
330
1E
100
AcDbEntity
  8
0
100
AcDbLine
 10
242.34045
 20
106.3755
 30
0.0
 11
243.54045
 21
106.3755
 31
0.0
  0
LINE
  5
1CB
330
1E
100
AcDbEntity
  8
0
100
AcDbLine
 10
242.22645
 20
55.2116
 30
0.0
 11
257.11945
 21
55.2116
 31
0.0
  0
LINE
  5
1CE
330
1E
100
AcDbEntity
  8
0
100
AcDbLine
 10
257.11845
 20
50.974
 30
0.0
 11
257.11845
 21
50.4342
 31
0.0
  0
LINE
  5
1CF
330
1E
100
AcDbEntity
  8
0
100
AcDbLine
 10
257.11745
 20
53.6819
 30
0.0
 11
257.11845
 21
54.4869
 31
0.0
  0
LINE
  5
1D0
330
1E
100
AcDbEntity
  8
0
100
AcDbLine
 10
257.11745
 20
53.6819
 30
0.0
 11
257.11745
 21
52.7316
 31
0.0
  0
LINE
  5
1D1
330
1E
100
AcDbEntity
  8
0
100
AcDbLine
 10
257.11845
 20
55.0241
 30
0.0
 11
257.11945
 21
55.2116
 31
0.0
  0
LINE
  5
1D2
330
1E
100
AcDbEntity
  8
0
100
AcDbLine
 10
257.11845
 20
55.0241
 30
0.0
 11
257.11845
 21
54.4869
 31
0.0
  0
LINE
  5
1D3
330
1E
100
AcDbEntity
  8
0
100
AcDbLine
 10
257.11845
 20
54.4869
 30
0.0
 11
257.11845
 21
55.0241
 31
0.0
  0
LINE
  5
1D4
330
1E
100
AcDbEntity
  8
0
100
AcDbLine
 10
257.11745
 20
52.7316
 30
0.0
 11
257.11745
 21
53.6819
 31
0.0
  0
LINE
  5
1D5
330
1E
100
AcDbEntity
  8
0
100
AcDbLine
 10
257.11745
 20
52.7316
 30
0.0
 11
257.11745
 21
51.7806
 31
0.0
  0
LINE
  5
1D6
330
1E
100
AcDbEntity
  8
0
100
AcDbLine
 10
257.11745
 20
51.7806
 30
0.0
 11
257.11845
 21
50.974
 31
0.0
  0
LINE
  5
1D7
330
1E
100
AcDbEntity
  8
0
100
AcDbLine
 10
257.11745
 20
51.7806
 30
0.0
 11
257.11745
 21
52.7316
 31
0.0
  0
LINE
  5
1D8
330
1E
100
AcDbEntity
  8
0
100
AcDbLine
 10
257.11845
 20
50.4342
 30
0.0
 11
257.11945
 21
50.2436
 31
0.0
  0
LINE
  5
1D9
330
1E
100
AcDbEntity
  8
0
100
AcDbLine
 10
257.11845
 20
50.4342
 30
0.0
 11
257.11845
 21
50.974
 31
0.0
  0
LINE
  5
1DA
330
1E
100
AcDbEntity
  8
0
100
AcDbLine
 10
257.11945
 20
50.2436
 30
0.0
 11
257.12045
 21
50.4311
 31
0.0
  0
LINE
  5
1DB
330
1E
100
AcDbEntity
  8
0
100
AcDbLine
 10
257.12145
 20
50.9683
 30
0.0
 11
257.12145
 21
51.7734
 31
0.0
  0
LINE
  5
1DC
330
1E
100
AcDbEntity
  8
0
100
AcDbLine
 10
257.12045
 20
50.4311
 30
0.0
 11
257.12145
 21
50.9683
 31
0.0
  0
LINE
  5
1DD
330
1E
100
AcDbEntity
  8
0
100
AcDbLine
 10
257.12145
 20
51.7734
 30
0.0
 11
257.12145
 21
50.9683
 31
0.0
  0
LINE
  5
1DE
330
1E
100
AcDbEntity
  8
0
100
AcDbLine
 10
257.12145
 20
51.7734
 30
0.0
 11
257.12145
 21
52.7236
 31
0.0
  0
LINE
  5
1DF
330
1E
100
AcDbEntity
  8
0
100
AcDbLine
 10
257.12145
 20
52.7236
 30
0.0
 11
257.12145
 21
51.7734
 31
0.0
  0
LINE
  5
1E0
330
1E
100
AcDbEntity
  8
0
100
AcDbLine
 10
257.12145
 20
52.7236
 30
0.0
 11
257.12145
 21
53.6746
 31
0.0
  0
LINE
  5
1E1
330
1E
100
AcDbEntity
  8
0
100
AcDbLine
 10
257.12145
 20
53.6746
 30
0.0
 11
257.12145
 21
52.7236
 31
0.0
  0
LINE
  5
1E2
330
1E
100
AcDbEntity
  8
0
100
AcDbLine
 10
257.12145
 20
53.6746
 30
0.0
 11
257.12145
 21
54.4812
 31
0.0
  0
LINE
  5
1E3
330
1E
100
AcDbEntity
  8
0
100
AcDbLine
 10
257.12145
 20
54.4812
 30
0.0
 11
257.12145
 21
53.6746
 31
0.0
  0
LINE
  5
1E4
330
1E
100
AcDbEntity
  8
0
100
AcDbLine
 10
257.12045
 20
55.021
 30
0.0
 11
257.12145
 21
54.4812
 31
0.0
  0
LINE
  5
1E5
330
1E
100
AcDbEntity
  8
0
100
AcDbLine
 10
257.11945
 20
55.2116
 30
0.0
 11
257.12045
 21
55.021
 31
0.0
  0
LINE
  5
1EA
330
1E
100
AcDbEntity
  8
0
100
AcDbLine
 10
241.64045
 20
0.0755
 30
0.0
 11
245.04045
 21
0.0755
 31
0.0
  0
LINE
  5
1F3
330
1E
100
AcDbEntity
  8
0
100
AcDbLine
 10
235.178885085869
 20
47.994340341777
 30
0.0
 11
234.987331000065
 21
37.712420683903
 31
0.0
  0
LINE
  5
1F4
330
1E
100
AcDbEntity
  8
0
100
AcDbLine
 10
244.34045
 20
117.0755
 30
0.0
 11
244.04045
 21
117.7755
 31
0.0
  0
LINE
  5
1F5
330
1E
100
AcDbEntity
  8
0
100
AcDbLine
 10
244.34045
 20
107.0755
 30
0.0
 11
244.04045
 21
106.3755
 31
0.0
  0
LINE
  5
452
330
1E
100
AcDbEntity
  8
0
100
AcDbLine
 10
-2.89435
 20
181.0825
 30
0.0
 11
-1.76945
 21
180.5585
 31
0.0
  0
LINE
  5
453
330
1E
100
AcDbEntity
  8
0
100
AcDbLine
 10
-3.35705
 20
181.2995
 30
0.0
 11
-2.89435
 21
181.0825
 31
0.0
  0
LINE
  5
454
330
1E
100
AcDbEntity
  8
0
100
AcDbLine
 10
-0.40035
 20
178.8165
 30
0.0
 11
-0.011514434094
 21
179.650573451239
 31
0.0
  0
LINE
  5
455
330
1E
100
AcDbEntity
  8
0
100
AcDbLine
 10
-0.40035
 20
178.8165
 30
0.0
 11
0.26105
 21
178.5075
 31
0.0
  0
LINE
  5
456
330
1E
100
AcDbEntity
  8
0
100
AcDbLine
 10
-1.372438642761
 20
180.373270805021
 30
0.0
 11
-0.024676082978
 21
179.622340998061
 31
0.0
  0
LINE
  5
457
330
1E
100
AcDbEntity
  8
0
100
AcDbLine
 10
-1.372438642761
 20
180.373270805021
 30
0.0
 11
-0.024676082978
 21
179.622340998061
 31
0.0
  0
LINE
  5
458
330
1E
100
AcDbEntity
  8
0
100
AcDbLine
 10
1.65389
 20
177.8585
 30
0.0
 11
1.714006606623
 21
177.830461125723
 31
0.0
  0
LINE
  5
459
330
1E
100
AcDbEntity
  8
0
100
AcDbLine
 10
1.65389
 20
177.8585
 30
0.0
 11
1.714006606623
 21
177.830461125723
 31
0.0
  0
LINE
  5
45A
330
1E
100
AcDbEntity
  8
0
100
AcDbLine
 10
1.406967912894
 20
177.973559871842
 30
0.0
 11
1.48441
 21
177.9375
 31
0.0
  0
LINE
  5
45B
330
1E
100
AcDbEntity
  8
0
100
AcDbLine
 10
1.406978241592
 20
177.973582026414
 30
0.0
 11
1.48441
 21
177.9375
 31
0.0
  0
LINE
  5
45C
330
1E
100
AcDbEntity
  8
0
100
AcDbLine
 10
2.02857
 20
177.6835
 30
0.0
 11
2.432686906299
 21
178.550301480178
 31
0.0
  0
LINE
  5
45D
330
1E
100
AcDbEntity
  8
0
100
AcDbLine
 10
2.02857
 20
177.6835
 30
0.0
 11
3.17449
 21
177.1495
 31
0.0
  0
LINE
  5
45E
330
1E
100
AcDbEntity
  8
0
100
AcDbLine
 10
0.653579238476
 20
178.324576147496
 30
0.0
 11
0.82295
 21
178.2455
 31
0.0
  0
LINE
  5
45F
330
1E
100
AcDbEntity
  8
0
100
AcDbLine
 10
0.653579238475
 20
178.324576147496
 30
0.0
 11
0.82295
 21
178.2455
 31
0.0
  0
LINE
  5
460
330
1E
100
AcDbEntity
  8
0
100
AcDbLine
 10
0.26105
 20
178.5075
 30
0.0
 11
0.627752637489
 21
179.294087808673
 31
0.0
  0
LINE
  5
461
330
1E
100
AcDbEntity
  8
0
100
AcDbLine
 10
0.26105
 20
178.5075
 30
0.0
 11
1.40694
 21
177.9735
 31
0.0
  0
LINE
  5
462
330
1E
100
AcDbEntity
  8
0
100
AcDbLine
 10
0.82295
 20
178.2455
 30
0.0
 11
1.213496815683
 21
178.063647100005
 31
0.0
  0
LINE
  5
463
330
1E
100
AcDbEntity
  8
0
100
AcDbLine
 10
0.82295
 20
178.2455
 30
0.0
 11
1.213496815683
 21
178.063647100005
 31
0.0
  0
LINE
  5
464
330
1E
100
AcDbEntity
  8
0
100
AcDbLine
 10
1.36717
 20
177.9925
 30
0.0
 11
1.737835816734
 21
178.787122190055
 31
0.0
  0
LINE
  5
465
330
1E
100
AcDbEntity
  8
0
100
AcDbLine
 10
1.36717
 20
177.9925
 30
0.0
 11
2.02857
 21
177.6835
 31
0.0
  0
LINE
  5
466
330
1E
100
AcDbEntity
  8
0
100
AcDbLine
 10
0.14885
 20
179.6635
 30
0.0
 11
2.59664
 21
178.5225
 31
0.0
  0
LINE
  5
467
330
1E
100
AcDbEntity
  8
0
100
AcDbLine
 10
-1.76945
 20
180.5585
 30
0.0
 11
0.14885
 21
179.6635
 31
0.0
  0
LINE
  5
468
330
1E
100
AcDbEntity
  8
0
100
AcDbLine
 10
-1.76945
 20
180.5585
 30
0.0
 11
-1.372438642761
 21
180.373270805021
 31
0.0
  0
LINE
  5
469
330
1E
100
AcDbEntity
  8
0
100
AcDbLine
 10
-1.76945
 20
180.5585
 30
0.0
 11
-1.372438642761
 21
180.373270805021
 31
0.0
  0
LINE
  5
46A
330
1E
100
AcDbEntity
  8
0
100
AcDbLine
 10
2.633461253886
 20
177.401620000022
 30
0.0
 11
2.79881
 21
177.3245
 31
0.0
  0
LINE
  5
46B
330
1E
100
AcDbEntity
  8
0
100
AcDbLine
 10
2.633461253886
 20
177.401620000022
 30
0.0
 11
2.79881
 21
177.3245
 31
0.0
  0
LINE
  5
46C
330
1E
100
AcDbEntity
  8
0
100
AcDbLine
 10
2.79881
 20
177.3245
 30
0.0
 11
2.864004439891
 21
177.294186617825
 31
0.0
  0
LINE
  5
46D
330
1E
100
AcDbEntity
  8
0
100
AcDbLine
 10
2.79881
 20
177.3245
 30
0.0
 11
2.864004439891
 21
177.294186617825
 31
0.0
  0
LINE
  5
46E
330
1E
100
AcDbEntity
  8
0
100
AcDbLine
 10
3.17461280501
 20
177.149763410964
 30
0.0
 11
3.46122
 21
177.0165
 31
0.0
  0
LINE
  5
46F
330
1E
100
AcDbEntity
  8
0
100
AcDbLine
 10
3.174726120695
 20
177.150006467772
 30
0.0
 11
3.46122
 21
177.0165
 31
0.0
  0
LINE
  5
470
330
1E
100
AcDbEntity
  8
0
100
AcDbLine
 10
3.17449
 20
177.1495
 30
0.0
 11
3.536629992574
 21
177.926273231906
 31
0.0
  0
LINE
  5
471
330
1E
100
AcDbEntity
  8
0
100
AcDbLine
 10
3.429981512984
 20
177.697517264966
 30
0.0
 11
4.939766670734
 21
176.856313694774
 31
0.0
  0
LINE
  5
472
330
1E
100
AcDbEntity
  8
0
100
AcDbLine
 10
3.46122
 20
177.0165
 30
0.0
 11
3.70691697609
 21
177.543217761435
 31
0.0
  0
LINE
  5
473
330
1E
100
AcDbEntity
  8
0
100
AcDbLine
 10
3.429981512984
 20
177.697517264966
 30
0.0
 11
4.939766670734
 21
176.856313694774
 31
0.0
  0
LINE
  5
474
330
1E
100
AcDbEntity
  8
0
100
AcDbLine
 10
2.59664
 20
178.5225
 30
0.0
 11
5.90467
 21
176.9805
 31
0.0
  0
LINE
  5
475
330
1E
100
AcDbEntity
  8
0
100
AcDbLine
 10
2.48973
 20
179.6755
 30
0.0
 11
5.79777
 21
178.1335
 31
0.0
  0
LINE
  5
476
330
1E
100
AcDbEntity
  8
0
100
AcDbLine
 10
-0.08995
 20
180.8785
 30
0.0
 11
2.48973
 21
179.6755
 31
0.0
  0
LINE
  5
477
330
1E
100
AcDbEntity
  8
0
100
AcDbLine
 10
-1.94225
 20
181.7425
 30
0.0
 11
-0.08995
 21
180.8785
 31
0.0
  0
LINE
  5
478
330
1E
100
AcDbEntity
  8
0
100
AcDbLine
 10
-3.13315
 20
182.2975
 30
0.0
 11
-1.94225
 21
181.7425
 31
0.0
  0
LINE
  5
479
330
1E
100
AcDbEntity
  8
0
100
AcDbLine
 10
-3.59585
 20
182.5145
 30
0.0
 11
-3.13315
 21
182.2975
 31
0.0
  0
LINE
  5
47A
330
1E
100
AcDbEntity
  8
0
100
AcDbLine
 10
-3.59585
 20
182.5145
 30
0.0
 11
5.27922
 21
201.5465
 31
0.0
  0
LINE
  5
47B
330
1E
100
AcDbEntity
  8
0
100
AcDbLine
 10
-3.59585
 20
182.5145
 30
0.0
 11
-3.35705
 21
181.2995
 31
0.0
  0
LINE
  5
47C
330
1E
100
AcDbEntity
  8
0
100
AcDbLine
 10
4.211433472668
 20
177.769782662233
 30
0.0
 11
5.159684305409
 21
177.327766482184
 31
0.0
  0
LINE
  5
47D
330
1E
100
AcDbEntity
  8
0
100
AcDbLine
 10
4.73694
 20
176.4215
 30
0.0
 11
5.126991169576
 21
177.257679924367
 31
0.0
  0
LINE
  5
47E
330
1E
100
AcDbEntity
  8
0
100
AcDbLine
 10
4.73694
 20
176.4215
 30
0.0
 11
5.39834
 21
176.1125
 31
0.0
  0
LINE
  5
47F
330
1E
100
AcDbEntity
  8
0
100
AcDbLine
 10
4.73694
 20
176.4215
 30
0.0
 11
5.88186
 21
175.8865
 31
0.0
  0
LINE
  5
480
330
1E
100
AcDbEntity
  8
0
100
AcDbLine
 10
4.31709
 20
177.7205
 30
0.0
 11
7.49224
 21
176.2395
 31
0.0
  0
LINE
  5
481
330
1E
100
AcDbEntity
  8
0
100
AcDbLine
 10
4.211433472668
 20
177.769782662233
 30
0.0
 11
4.31709
 21
177.7205
 31
0.0
  0
LINE
  5
482
330
1E
100
AcDbEntity
  8
0
100
AcDbLine
 10
4.211433472668
 20
177.769782662233
 30
0.0
 11
5.159684305409
 21
177.327766482184
 31
0.0
  0
LINE
  5
483
330
1E
100
AcDbEntity
  8
0
100
AcDbLine
 10
4.211433472668
 20
177.769782662233
 30
0.0
 11
4.31709
 21
177.7205
 31
0.0
  0
LINE
  5
484
330
1E
100
AcDbEntity
  8
0
100
AcDbLine
 10
154.98445
 20
51.7319
 30
0.0
 11
155.42045
 21
52.1863
 31
0.0
  0
LINE
  5
485
330
1E
100
AcDbEntity
  8
0
100
AcDbLine
 10
155.42045
 20
52.1863
 30
0.0
 11
156.36545
 21
52.978
 31
0.0
  0
LINE
  5
486
330
1E
100
AcDbEntity
  8
0
100
AcDbLine
 10
154.93745
 20
50.8828
 30
0.0
 11
155.33545
 21
49.6753
 31
0.0
  0
LINE
  5
487
330
1E
100
AcDbEntity
  8
0
100
AcDbLine
 10
154.93745
 20
50.8828
 30
0.0
 11
154.98445
 21
51.7319
 31
0.0
  0
LINE
  5
488
330
1E
100
AcDbEntity
  8
0
100
AcDbLine
 10
155.33545
 20
49.6753
 30
0.0
 11
167.39945
 21
35.3819
 31
0.0
  0
LINE
  5
489
330
1E
100
AcDbEntity
  8
0
100
AcDbLine
 10
155.89045
 20
53.4524
 30
0.0
 11
156.26645
 21
53.8069
 31
0.0
  0
LINE
  5
48A
330
1E
100
AcDbEntity
  8
0
100
AcDbLine
 10
155.89045
 20
53.4524
 30
0.0
 11
156.833778535095
 21
53.367437959753
 31
0.0
  0
LINE
  5
48B
330
1E
100
AcDbEntity
  8
0
100
AcDbLine
 10
156.26645
 20
53.8069
 30
0.0
 11
157.14645
 21
54.561
 31
0.0
  0
LINE
  5
48C
330
1E
100
AcDbEntity
  8
0
100
AcDbLine
 10
157.14645
 20
54.561
 30
0.0
 11
158.57045
 21
55.8027
 31
0.0
  0
LINE
  5
48D
330
1E
100
AcDbEntity
  8
0
100
AcDbLine
 10
158.57045
 20
55.8027
 30
0.0
 11
160.46045
 21
57.3557
 31
0.0
  0
LINE
  5
48E
330
1E
100
AcDbEntity
  8
0
100
AcDbLine
 10
160.46045
 20
57.3557
 30
0.0
 11
162.72645
 21
59.2632
 31
0.0
  0
LINE
  5
48F
330
1E
100
AcDbEntity
  8
0
100
AcDbLine
 10
162.72645
 20
59.2632
 30
0.0
 11
165.03045
 21
61.259
 31
0.0
  0
LINE
  5
490
330
1E
100
AcDbEntity
  8
0
100
AcDbLine
 10
165.03045
 20
61.259
 30
0.0
 11
167.42445
 21
63.2115
 31
0.0
  0
LINE
  5
491
330
1E
100
AcDbEntity
  8
0
100
AcDbLine
 10
167.90345
 20
34.7612
 30
0.0
 11
185.11845
 21
14.275
 31
0.0
  0
LINE
  5
492
330
1E
100
AcDbEntity
  8
0
100
AcDbLine
 10
167.42445
 20
63.2115
 30
0.0
 11
169.65045
 21
65.0308
 31
0.0
  0
LINE
  5
493
330
1E
100
AcDbEntity
  8
0
100
AcDbLine
 10
169.65045
 20
65.0308
 30
0.0
 11
171.58045
 21
66.672
 31
0.0
  0
LINE
  5
494
330
1E
100
AcDbEntity
  8
0
100
AcDbLine
 10
171.658038653744
 20
65.72626344926
 30
0.0
 11
171.96445
 21
65.9792
 31
0.0
  0
LINE
  5
495
330
1E
100
AcDbEntity
  8
0
100
AcDbLine
 10
171.58045
 20
66.672
 30
0.0
 11
173.00445
 21
67.9137
 31
0.0
  0
LINE
  5
496
330
1E
100
AcDbEntity
  8
0
100
AcDbLine
 10
173.00445
 20
67.9137
 30
0.0
 11
173.88445
 21
68.6677
 31
0.0
  0
LINE
  5
497
330
1E
100
AcDbEntity
  8
0
100
AcDbLine
 10
174.169763101317
 20
67.881593027107
 30
0.0
 11
174.22145
 21
68.934
 31
0.0
  0
LINE
  5
498
330
1E
100
AcDbEntity
  8
0
100
AcDbLine
 10
173.88445
 20
68.6677
 30
0.0
 11
174.22145
 21
68.934
 31
0.0
  0
LINE
  5
499
330
1E
100
AcDbEntity
  8
0
100
AcDbLine
 10
5.39834
 20
176.1125
 30
0.0
 11
5.772769233982
 21
176.91563307606
 31
0.0
  0
LINE
  5
49A
330
1E
100
AcDbEntity
  8
0
100
AcDbLine
 10
5.39834
 20
176.1125
 30
0.0
 11
5.772769233982
 21
176.91563307606
 31
0.0
  0
LINE
  5
49B
330
1E
100
AcDbEntity
  8
0
100
AcDbLine
 10
5.39834
 20
176.1125
 30
0.0
 11
6.54426
 21
175.5785
 31
0.0
  0
LINE
  5
49C
330
1E
100
AcDbEntity
  8
0
100
AcDbLine
 10
5.88186
 20
175.8865
 30
0.0
 11
6.54426
 21
175.5785
 31
0.0
  0
LINE
  5
49D
330
1E
100
AcDbEntity
  8
0
100
AcDbLine
 10
5.90467
 20
176.9805
 30
0.0
 11
9.74123
 21
175.1905
 31
0.0
  0
LINE
  5
49E
330
1E
100
AcDbEntity
  8
0
100
AcDbLine
 10
5.79777
 20
178.1335
 30
0.0
 11
9.70122
 21
176.3135
 31
0.0
  0
LINE
  5
49F
330
1E
100
AcDbEntity
  8
0
100
AcDbLine
 10
5.27922
 20
201.5465
 30
0.0
 11
6.36325
 21
202.1435
 31
0.0
  0
LINE
  5
4A0
330
1E
100
AcDbEntity
  8
0
100
AcDbLine
 10
6.54426
 20
175.5785
 30
0.0
 11
6.881772531345
 21
176.302448487208
 31
0.0
  0
LINE
  5
4A1
330
1E
100
AcDbEntity
  8
0
100
AcDbLine
 10
6.54426
 20
175.5785
 30
0.0
 11
6.686312054006
 21
175.883194967008
 31
0.0
  0
LINE
  5
4A2
330
1E
100
AcDbEntity
  8
0
100
AcDbLine
 10
7.35539
 20
174.6485
 30
0.0
 11
7.682483806526
 21
175.350100813061
 31
0.0
  0
LINE
  5
4A3
330
1E
100
AcDbEntity
  8
0
100
AcDbLine
 10
7.35539
 20
174.6485
 30
0.0
 11
8.01679
 21
174.3405
 31
0.0
  0
LINE
  5
4A4
330
1E
100
AcDbEntity
  8
0
100
AcDbLine
 10
7.35539
 20
174.6485
 30
0.0
 11
8.232501838029
 21
174.239761336835
 31
0.0
  0
LINE
  5
4A5
330
1E
100
AcDbEntity
  8
0
100
AcDbLine
 10
6.686312054006
 20
175.883194967008
 30
0.0
 11
8.521884393489
 21
174.860473292078
 31
0.0
  0
LINE
  5
4A6
330
1E
100
AcDbEntity
  8
0
100
AcDbLine
 10
6.686312054006
 20
175.883194967008
 30
0.0
 11
8.521884393489
 21
174.860473292078
 31
0.0
  0
LINE
  5
4A7
330
1E
100
AcDbEntity
  8
0
100
AcDbLine
 10
6.966846023373
 20
176.484927121735
 30
0.0
 11
7.989177470235
 21
176.007944280366
 31
0.0
  0
LINE
  5
4A8
330
1E
100
AcDbEntity
  8
0
100
AcDbLine
 10
7.49224
 20
176.2395
 30
0.0
 11
11.19692
 21
174.5115
 31
0.0
  0
LINE
  5
4A9
330
1E
100
AcDbEntity
  8
0
100
AcDbLine
 10
8.01679
 20
174.3405
 30
0.0
 11
8.322197351285
 21
174.995223061531
 31
0.0
  0
LINE
  5
4AA
330
1E
100
AcDbEntity
  8
0
100
AcDbLine
 10
8.01679
 20
174.3405
 30
0.0
 11
8.322197351285
 21
174.995223061531
 31
0.0
  0
LINE
  5
4AB
330
1E
100
AcDbEntity
  8
0
100
AcDbLine
 10
8.01679
 20
174.3405
 30
0.0
 11
8.232512735508
 21
174.239784711414
 31
0.0
  0
LINE
  5
4AC
330
1E
100
AcDbEntity
  8
0
100
AcDbLine
 10
8.89379
 20
173.9305
 30
0.0
 11
9.105258167268
 21
174.384089261342
 31
0.0
  0
LINE
  5
4AD
330
1E
100
AcDbEntity
  8
0
100
AcDbLine
 10
8.89379
 20
173.9305
 30
0.0
 11
10.03871
 21
173.3965
 31
0.0
  0
LINE
  5
4AE
330
1E
100
AcDbEntity
  8
0
100
AcDbLine
 10
8.23238
 20
174.2395
 30
0.0
 11
8.561616743571
 21
174.945697312117
 31
0.0
  0
LINE
  5
4AF
330
1E
100
AcDbEntity
  8
0
100
AcDbLine
 10
8.23238
 20
174.2395
 30
0.0
 11
8.89379
 21
173.9305
 31
0.0
  0
LINE
  5
4B0
330
1E
100
AcDbEntity
  8
0
100
AcDbLine
 10
9.08937
 20
174.3915
 30
0.0
 11
9.51178134147
 21
175.297552437279
 31
0.0
  0
LINE
  5
4B1
330
1E
100
AcDbEntity
  8
0
100
AcDbLine
 10
9.08937
 20
174.3915
 30
0.0
 11
10.41218
 21
173.7745
 31
0.0
  0
LINE
  5
4B2
330
1E
100
AcDbEntity
  8
0
100
AcDbLine
 10
9.08937
 20
174.3915
 30
0.0
 11
9.443976419493
 21
175.152114072382
 31
0.0
  0
LINE
  5
4B3
330
1E
100
AcDbEntity
  8
0
100
AcDbLine
 10
9.08937
 20
174.3915
 30
0.0
 11
9.51178134147
 21
175.297552437279
 31
0.0
  0
LINE
  5
4B4
330
1E
100
AcDbEntity
  8
0
100
AcDbLine
 10
10.039174987035
 20
173.397497375294
 30
0.0
 11
10.3484
 21
173.2535
 31
0.0
  0
LINE
  5
4B5
330
1E
100
AcDbEntity
  8
0
100
AcDbLine
 10
10.3484
 20
173.2535
 30
0.0
 11
10.566582659217
 21
173.721233399391
 31
0.0
  0
LINE
  5
4B6
330
1E
100
AcDbEntity
  8
0
100
AcDbLine
 10
10.3484
 20
173.2535
 30
0.0
 11
10.566582659217
 21
173.721233399391
 31
0.0
  0
LINE
  5
4B7
330
1E
100
AcDbEntity
  8
0
100
AcDbLine
 10
10.039213986631
 20
173.397581027593
 30
0.0
 11
10.3484
 21
173.2535
 31
0.0
  0
LINE
  5
4B8
330
1E
100
AcDbEntity
  8
0
100
AcDbLine
 10
10.03871
 20
173.3965
 30
0.0
 11
10.250168006211
 21
173.850067466354
 31
0.0
  0
LINE
  5
4B9
330
1E
100
AcDbEntity
  8
0
100
AcDbLine
 10
10.41218
 20
173.7745
 30
0.0
 11
10.834700288444
 21
174.680775401301
 31
0.0
  0
LINE
  5
4BA
330
1E
100
AcDbEntity
  8
0
100
AcDbLine
 10
10.41218
 20
173.7745
 30
0.0
 11
10.722383970327
 21
174.439865037802
 31
0.0
  0
LINE
  5
4BB
330
1E
100
AcDbEntity
  8
0
100
AcDbLine
 10
10.7743
 20
173.6055
 30
0.0
 11
11.592436922777
 21
173.174093934635
 31
0.0
  0
LINE
  5
4BC
330
1E
100
AcDbEntity
  8
0
100
AcDbLine
 10
10.7743
 20
173.6055
 30
0.0
 11
11.592436922777
 21
173.174093934635
 31
0.0
  0
LINE
  5
4BD
330
1E
100
AcDbEntity
  8
0
100
AcDbLine
 10
10.424304509096
 20
173.800506193423
 30
0.0
 11
10.7743
 21
173.6055
 31
0.0
  0
LINE
  5
4BE
330
1E
100
AcDbEntity
  8
0
100
AcDbLine
 10
10.982122081609
 20
174.612054270828
 30
0.0
 11
12.033945494106
 21
174.121743493751
 31
0.0
  0
LINE
  5
4BF
330
1E
100
AcDbEntity
  8
0
100
AcDbLine
 10
10.982122081609
 20
174.612054270828
 30
0.0
 11
12.033945494106
 21
174.121743493751
 31
0.0
  0
LINE
  5
4C0
330
1E
100
AcDbEntity
  8
0
100
AcDbLine
 10
11.19692
 20
174.5115
 30
0.0
 11
15.36415
 21
172.5685
 31
0.0
  0
LINE
  5
4C1
330
1E
100
AcDbEntity
  8
0
100
AcDbLine
 10
9.74123
 20
175.1905
 30
0.0
 11
14.17325
 21
173.1245
 31
0.0
  0
LINE
  5
4C2
330
1E
100
AcDbEntity
  8
0
100
AcDbLine
 10
9.70122
 20
176.3135
 30
0.0
 11
14.19915
 21
174.2155
 31
0.0
  0
LINE
  5
4C3
330
1E
100
AcDbEntity
  8
0
100
AcDbLine
 10
12.06155
 20
172.4545
 30
0.0
 11
12.371055888934
 21
173.118040784132
 31
0.0
  0
LINE
  5
4C4
330
1E
100
AcDbEntity
  8
0
100
AcDbLine
 10
12.06155
 20
172.4545
 30
0.0
 11
13.20755
 21
171.9195
 31
0.0
  0
LINE
  5
4C5
330
1E
100
AcDbEntity
  8
0
100
AcDbLine
 10
11.40021
 20
172.7615
 30
0.0
 11
11.735524917539
 21
173.481216568162
 31
0.0
  0
LINE
  5
4C6
330
1E
100
AcDbEntity
  8
0
100
AcDbLine
 10
11.40021
 20
172.7615
 30
0.0
 11
12.06155
 21
172.4545
 31
0.0
  0
LINE
  5
4C7
330
1E
100
AcDbEntity
  8
0
100
AcDbLine
 10
11.40021
 20
172.7615
 30
0.0
 11
12.54615
 21
172.2275
 31
0.0
  0
LINE
  5
4C8
330
1E
100
AcDbEntity
  8
0
100
AcDbLine
 10
11.40021
 20
172.7615
 30
0.0
 11
11.592436922777
 21
173.174093934635
 31
0.0
  0
LINE
  5
4C9
330
1E
100
AcDbEntity
  8
0
100
AcDbLine
 10
12.54615
 20
172.2275
 30
0.0
 11
13.20755
 21
171.9195
 31
0.0
  0
LINE
  5
4CA
330
1E
100
AcDbEntity
  8
0
100
AcDbLine
 10
13.20755
 20
171.9195
 30
0.0
 11
13.472904762782
 21
172.488386453102
 31
0.0
  0
LINE
  5
4CB
330
1E
100
AcDbEntity
  8
0
100
AcDbLine
 10
13.35839749159
 20
172.242897603836
 30
0.0
 11
16.035334058796
 21
170.831340883268
 31
0.0
  0
LINE
  5
4CC
330
1E
100
AcDbEntity
  8
0
100
AcDbLine
 10
13.35839749159
 20
172.242897603836
 30
0.0
 11
16.035334058796
 21
170.831340883268
 31
0.0
  0
LINE
  5
4CD
330
1E
100
AcDbEntity
  8
0
100
AcDbLine
 10
13.841706552732
 20
173.279050016032
 30
0.0
 11
14.17325
 21
173.1245
 31
0.0
  0
LINE
  5
4CE
330
1E
100
AcDbEntity
  8
0
100
AcDbLine
 10
13.841706552732
 20
173.279050016032
 30
0.0
 11
14.17325
 21
173.1245
 31
0.0
  0
LINE
  5
4CF
330
1E
100
AcDbEntity
  8
0
100
AcDbLine
 10
14.17325
 20
173.1245
 30
0.0
 11
19.06885
 21
170.8415
 31
0.0
  0
LINE
  5
4D0
330
1E
100
AcDbEntity
  8
0
100
AcDbLine
 10
14.19915
 20
174.2155
 30
0.0
 11
19.16065
 21
171.9025
 31
0.0
  0
LINE
  5
4D1
330
1E
100
AcDbEntity
  8
0
100
AcDbLine
 10
29.14125
 20
162.6925
 30
0.0
 11
29.60495
 21
162.4765
 31
0.0
  0
LINE
  5
4D2
330
1E
100
AcDbEntity
  8
0
100
AcDbLine
 10
28.75625
 20
162.8715
 30
0.0
 11
29.14125
 21
162.6925
 31
0.0
  0
LINE
  5
4D3
330
1E
100
AcDbEntity
  8
0
100
AcDbLine
 10
28.52495
 20
162.9805
 30
0.0
 11
28.75625
 21
162.8715
 31
0.0
  0
LINE
  5
4D4
330
1E
100
AcDbEntity
  8
0
100
AcDbLine
 10
28.44435
 20
163.0175
 30
0.0
 11
28.52495
 21
162.9805
 31
0.0
  0
LINE
  5
4D5
330
1E
100
AcDbEntity
  8
0
100
AcDbLine
 10
31.92505
 20
161.3945
 30
0.0
 11
32.38865
 21
161.1785
 31
0.0
  0
LINE
  5
4D6
330
1E
100
AcDbEntity
  8
0
100
AcDbLine
 10
31.38085
 20
161.6485
 30
0.0
 11
31.92505
 21
161.3945
 31
0.0
  0
LINE
  5
4D7
330
1E
100
AcDbEntity
  8
0
100
AcDbLine
 10
32.38865
 20
161.1785
 30
0.0
 11
32.77275
 21
160.9985
 31
0.0
  0
LINE
  5
4D8
330
1E
100
AcDbEntity
  8
0
100
AcDbLine
 10
32.77275
 20
160.9985
 30
0.0
 11
33.00505
 21
160.8905
 31
0.0
  0
LINE
  5
4D9
330
1E
100
AcDbEntity
  8
0
100
AcDbLine
 10
33.08465
 20
160.8535
 30
0.0
 11
34.052597969856
 21
161.647331707244
 31
0.0
  0
LINE
  5
4DA
330
1E
100
AcDbEntity
  8
0
100
AcDbLine
 10
33.00505
 20
160.8905
 30
0.0
 11
33.08465
 21
160.8535
 31
0.0
  0
LINE
  5
4DB
330
1E
100
AcDbEntity
  8
0
100
AcDbLine
 10
32.29295
 20
161.9165
 30
0.0
 11
32.50421833096
 21
162.369682068187
 31
0.0
  0
LINE
  5
4DC
330
1E
100
AcDbEntity
  8
0
100
AcDbLine
 10
34.72545
 20
160.6405
 30
0.0
 11
34.92115
 21
160.5495
 31
0.0
  0
LINE
  5
4DD
330
1E
100
AcDbEntity
  8
0
100
AcDbLine
 10
34.72545
 20
160.6405
 30
0.0
 11
34.990894043887
 21
161.209891920926
 31
0.0
  0
LINE
  5
4DE
330
1E
100
AcDbEntity
  8
0
100
AcDbLine
 10
34.92115
 20
160.5495
 30
0.0
 11
35.44335
 21
160.3065
 31
0.0
  0
LINE
  5
4DF
330
1E
100
AcDbEntity
  8
0
100
AcDbLine
 10
35.44335
 20
160.3065
 30
0.0
 11
36.31295
 21
159.9005
 31
0.0
  0
LINE
  5
4E0
330
1E
100
AcDbEntity
  8
0
100
AcDbLine
 10
34.052597969856
 20
161.647331707244
 30
0.0
 11
34.69565
 21
161.3475
 31
0.0
  0
LINE
  5
4E1
330
1E
100
AcDbEntity
  8
0
100
AcDbLine
 10
30.14905
 20
162.2225
 30
0.0
 11
30.76545
 21
161.9355
 31
0.0
  0
LINE
  5
4E2
330
1E
100
AcDbEntity
  8
0
100
AcDbLine
 10
29.60495
 20
162.4765
 30
0.0
 11
30.14905
 21
162.2225
 31
0.0
  0
LINE
  5
4E3
330
1E
100
AcDbEntity
  8
0
100
AcDbLine
 10
30.76545
 20
161.9355
 30
0.0
 11
31.38085
 21
161.6485
 31
0.0
  0
LINE
  5
4E4
330
1E
100
AcDbEntity
  8
0
100
AcDbLine
 10
31.69635
 20
162.7465
 30
0.0
 11
31.907656494778
 21
163.199763931653
 31
0.0
  0
LINE
  5
4E5
330
1E
100
AcDbEntity
  8
0
100
AcDbLine
 10
31.69635
 20
162.7465
 30
0.0
 11
33.01915
 21
162.1295
 31
0.0
  0
LINE
  5
4E6
330
1E
100
AcDbEntity
  8
0
100
AcDbLine
 10
30.97015
 20
162.5335
 30
0.0
 11
31.341645382726
 21
163.33037781458
 31
0.0
  0
LINE
  5
4E7
330
1E
100
AcDbEntity
  8
0
100
AcDbLine
 10
30.97015
 20
162.5335
 30
0.0
 11
32.29295
 21
161.9165
 31
0.0
  0
LINE
  5
4E8
330
1E
100
AcDbEntity
  8
0
100
AcDbLine
 10
30.97015
 20
162.5335
 30
0.0
 11
31.299474344668
 21
163.239918642787
 31
0.0
  0
LINE
  5
4E9
330
1E
100
AcDbEntity
  8
0
100
AcDbLine
 10
32.56905
 20
162.8915
 30
0.0
 11
32.838277991133
 21
163.468690156097
 31
0.0
  0
LINE
  5
4EA
330
1E
100
AcDbEntity
  8
0
100
AcDbLine
 10
31.24525
 20
163.5085
 30
0.0
 11
31.456422542398
 21
163.961226747309
 31
0.0
  0
LINE
  5
4EB
330
1E
100
AcDbEntity
  8
0
100
AcDbLine
 10
31.24525
 20
163.5085
 30
0.0
 11
32.56905
 21
162.8915
 31
0.0
  0
LINE
  5
4EC
330
1E
100
AcDbEntity
  8
0
100
AcDbLine
 10
33.01915
 20
162.1295
 30
0.0
 11
33.414462040474
 21
162.977465841671
 31
0.0
  0
LINE
  5
4ED
330
1E
100
AcDbEntity
  8
0
100
AcDbLine
 10
32.63285
 20
163.4125
 30
0.0
 11
33.055631295192
 21
164.319388888054
 31
0.0
  0
LINE
  5
4EE
330
1E
100
AcDbEntity
  8
0
100
AcDbLine
 10
33.43885
 20
161.9335
 30
0.0
 11
34.69565
 21
161.3475
 31
0.0
  0
LINE
  5
4EF
330
1E
100
AcDbEntity
  8
0
100
AcDbLine
 10
29.27165
 20
163.8765
 30
0.0
 11
29.80015
 21
163.6295
 31
0.0
  0
LINE
  5
4F0
330
1E
100
AcDbEntity
  8
0
100
AcDbLine
 10
31.31005
 20
164.0295
 30
0.0
 11
31.68295708645
 21
164.829405995899
 31
0.0
  0
LINE
  5
4F1
330
1E
100
AcDbEntity
  8
0
100
AcDbLine
 10
31.31005
 20
164.0295
 30
0.0
 11
32.63285
 21
163.4125
 31
0.0
  0
LINE
  5
4F2
330
1E
100
AcDbEntity
  8
0
100
AcDbLine
 10
29.00685
 20
164.0005
 30
0.0
 11
29.27165
 21
163.8765
 31
0.0
  0
LINE
  5
4F3
330
1E
100
AcDbEntity
  8
0
100
AcDbLine
 10
33.864268934547
 20
163.942326110191
 30
0.0
 11
35.54095
 21
163.1605
 31
0.0
  0
LINE
  5
4F4
330
1E
100
AcDbEntity
  8
0
100
AcDbLine
 10
36.31295
 20
159.9005
 30
0.0
 11
37.46625
 21
159.3625
 31
0.0
  0
LINE
  5
4F5
330
1E
100
AcDbEntity
  8
0
100
AcDbLine
 10
38.77125
 20
158.7545
 30
0.0
 11
40.16305
 21
158.1055
 31
0.0
  0
LINE
  5
4F6
330
1E
100
AcDbEntity
  8
0
100
AcDbLine
 10
37.46625
 20
159.3625
 30
0.0
 11
38.77125
 21
158.7545
 31
0.0
  0
LINE
  5
4F7
330
1E
100
AcDbEntity
  8
0
100
AcDbLine
 10
40.16305
 20
158.1055
 30
0.0
 11
41.55495
 21
157.4555
 31
0.0
  0
LINE
  5
4F8
330
1E
100
AcDbEntity
  8
0
100
AcDbLine
 10
41.55495
 20
157.4555
 30
0.0
 11
42.219515427228
 21
157.145878712832
 31
0.0
  0
LINE
  5
4F9
330
1E
100
AcDbEntity
  8
0
100
AcDbLine
 10
41.11285
 20
158.3555
 30
0.0
 11
41.324074794227
 21
158.808535078592
 31
0.0
  0
LINE
  5
4FA
330
1E
100
AcDbEntity
  8
0
100
AcDbLine
 10
40.90155
 20
157.9025
 30
0.0
 11
41.112754269183
 21
158.355544652188
 31
0.0
  0
LINE
  5
4FB
330
1E
100
AcDbEntity
  8
0
100
AcDbLine
 10
39.79005
 20
158.9725
 30
0.0
 11
40.212605763783
 21
159.878905110907
 31
0.0
  0
LINE
  5
4FC
330
1E
100
AcDbEntity
  8
0
100
AcDbLine
 10
39.57885
 20
158.5185
 30
0.0
 11
40.90155
 21
157.9025
 31
0.0
  0
LINE
  5
4FD
330
1E
100
AcDbEntity
  8
0
100
AcDbLine
 10
39.57885
 20
158.5185
 30
0.0
 11
39.790302968041
 21
158.972382006894
 31
0.0
  0
LINE
  5
4FE
330
1E
100
AcDbEntity
  8
0
100
AcDbLine
 10
40.00135
 20
159.4255
 30
0.0
 11
41.32415
 21
158.8085
 31
0.0
  0
LINE
  5
4FF
330
1E
100
AcDbEntity
  8
0
100
AcDbLine
 10
40.00135
 20
159.4255
 30
0.0
 11
40.21293719245
 21
159.879366043437
 31
0.0
  0
LINE
  5
500
330
1E
100
AcDbEntity
  8
0
100
AcDbLine
 10
41.32415
 20
158.8085
 30
0.0
 11
41.585252434163
 21
159.36851267377
 31
0.0
  0
LINE
  5
501
330
1E
100
AcDbEntity
  8
0
100
AcDbLine
 10
41.53545
 20
159.2625
 30
0.0
 11
41.957932610513
 21
160.168141180942
 31
0.0
  0
LINE
  5
502
330
1E
100
AcDbEntity
  8
0
100
AcDbLine
 10
40.21265
 20
159.8795
 30
0.0
 11
41.53545
 21
159.2625
 31
0.0
  0
LINE
  5
503
330
1E
100
AcDbEntity
  8
0
100
AcDbLine
 10
40.21265
 20
159.8795
 30
0.0
 11
40.635070476942
 21
160.785007990321
 31
0.0
  0
LINE
  5
504
330
1E
100
AcDbEntity
  8
0
100
AcDbLine
 10
41.29665
 20
160.4765
 30
0.0
 11
47.05255
 21
157.7925
 31
0.0
  0
LINE
  5
505
330
1E
100
AcDbEntity
  8
0
100
AcDbLine
 10
41.29665
 20
160.4765
 30
0.0
 11
46.91965
 21
157.8535
 31
0.0
  0
LINE
  5
506
330
1E
100
AcDbEntity
  8
0
100
AcDbLine
 10
42.53985
 20
156.4445
 30
0.0
 11
42.66864805985
 21
156.384823906609
 31
0.0
  0
LINE
  5
507
330
1E
100
AcDbEntity
  8
0
100
AcDbLine
 10
42.481921803853
 20
156.471680385289
 30
0.0
 11
42.53985
 21
156.4445
 31
0.0
  0
LINE
  5
508
330
1E
100
AcDbEntity
  8
0
100
AcDbLine
 10
42.33055
 20
156.5415
 30
0.0
 11
42.54085
 21
156.4445
 31
0.0
  0
LINE
  5
509
330
1E
100
AcDbEntity
  8
0
100
AcDbLine
 10
42.29285
 20
156.5595
 30
0.0
 11
42.53255
 21
156.4485
 31
0.0
  0
LINE
  5
50A
330
1E
100
AcDbEntity
  8
0
100
AcDbLine
 10
42.22275
 20
156.5925
 30
0.0
 11
42.29285
 21
156.5595
 31
0.0
  0
LINE
  5
50B
330
1E
100
AcDbEntity
  8
0
100
AcDbLine
 10
42.2154495371
 20
157.841481255966
 30
0.0
 11
42.22275
 21
156.5925
 31
0.0
  0
LINE
  5
50C
330
1E
100
AcDbEntity
  8
0
100
AcDbLine
 10
42.53255
 20
156.4485
 30
0.0
 11
42.88735
 21
156.2825
 31
0.0
  0
LINE
  5
50D
330
1E
100
AcDbEntity
  8
0
100
AcDbLine
 10
42.53255
 20
156.4485
 30
0.0
 11
42.90925
 21
156.2725
 31
0.0
  0
LINE
  5
50E
330
1E
100
AcDbEntity
  8
0
100
AcDbLine
 10
43.517745958728
 20
155.988714617368
 30
0.0
 11
43.95475
 21
155.7845
 31
0.0
  0
LINE
  5
50F
330
1E
100
AcDbEntity
  8
0
100
AcDbLine
 10
42.90925
 20
156.2725
 30
0.0
 11
43.38235
 21
156.0515
 31
0.0
  0
LINE
  5
510
330
1E
100
AcDbEntity
  8
0
100
AcDbLine
 10
43.38235
 20
156.0515
 30
0.0
 11
43.94735
 21
155.7895
 31
0.0
  0
LINE
  5
511
330
1E
100
AcDbEntity
  8
0
100
AcDbLine
 10
43.95475
 20
155.7845
 30
0.0
 11
44.404364918338
 21
155.575394595049
 31
0.0
  0
LINE
  5
512
330
1E
100
AcDbEntity
  8
0
100
AcDbLine
 10
43.94735
 20
155.7895
 30
0.0
 11
44.54075
 21
155.5115
 31
0.0
  0
LINE
  5
513
330
1E
100
AcDbEntity
  8
0
100
AcDbLine
 10
44.54075
 20
155.5115
 30
0.0
 11
45.12785
 21
155.2375
 31
0.0
  0
LINE
  5
514
330
1E
100
AcDbEntity
  8
0
100
AcDbLine
 10
42.88735
 20
156.2825
 30
0.0
 11
43.046056727656
 21
156.208593242841
 31
0.0
  0
LINE
  5
515
330
1E
100
AcDbEntity
  8
0
100
AcDbLine
 10
41.71935
 20
161.3835
 30
0.0
 11
47.54105
 21
158.6685
 31
0.0
  0
LINE
  5
516
330
1E
100
AcDbEntity
  8
0
100
AcDbLine
 10
35.67375
 20
163.0985
 30
0.0
 11
41.296649999996
 21
160.476500000002
 31
0.0
  0
LINE
  5
517
330
1E
100
AcDbEntity
  8
0
100
AcDbLine
 10
35.67375
 20
163.0985
 30
0.0
 11
41.29665
 21
160.4765
 31
0.0
  0
LINE
  5
518
330
1E
100
AcDbEntity
  8
0
100
AcDbLine
 10
35.54095
 20
163.1605
 30
0.0
 11
41.29665
 21
160.4765
 31
0.0
  0
LINE
  5
519
330
1E
100
AcDbEntity
  8
0
100
AcDbLine
 10
35.54095
 20
163.1605
 30
0.0
 11
40.635029531862
 21
160.785027083844
 31
0.0
  0
LINE
  5
51A
330
1E
100
AcDbEntity
  8
0
100
AcDbLine
 10
19.20935
 20
168.5695
 30
0.0
 11
19.87075
 21
168.2615
 31
0.0
  0
LINE
  5
51B
330
1E
100
AcDbEntity
  8
0
100
AcDbLine
 10
19.87075
 20
168.2615
 30
0.0
 11
20.155936996522
 21
168.872904209297
 31
0.0
  0
LINE
  5
51C
330
1E
100
AcDbEntity
  8
0
100
AcDbLine
 10
23.56715
 20
165.9855
 30
0.0
 11
23.778281928297
 21
166.438389477049
 31
0.0
  0
LINE
  5
51D
330
1E
100
AcDbEntity
  8
0
100
AcDbLine
 10
23.56715
 20
165.9855
 30
0.0
 11
24.71315
 21
165.4505
 31
0.0
  0
LINE
  5
51E
330
1E
100
AcDbEntity
  8
0
100
AcDbLine
 10
22.90575
 20
166.2945
 30
0.0
 11
23.252696263959
 21
167.038308128601
 31
0.0
  0
LINE
  5
51F
330
1E
100
AcDbEntity
  8
0
100
AcDbLine
 10
22.90575
 20
166.2945
 30
0.0
 11
23.56715
 21
165.9855
 31
0.0
  0
LINE
  5
520
330
1E
100
AcDbEntity
  8
0
100
AcDbLine
 10
22.90575
 20
166.2945
 30
0.0
 11
24.05175
 21
165.7585
 31
0.0
  0
LINE
  5
521
330
1E
100
AcDbEntity
  8
0
100
AcDbLine
 10
23.52935
 20
166.5545
 30
0.0
 11
23.740468805543
 21
167.007307753992
 31
0.0
  0
LINE
  5
522
330
1E
100
AcDbEntity
  8
0
100
AcDbLine
 10
23.52935
 20
166.5545
 30
0.0
 11
24.85215
 21
165.9375
 31
0.0
  0
LINE
  5
523
330
1E
100
AcDbEntity
  8
0
100
AcDbLine
 10
23.81295
 20
166.9735
 30
0.0
 11
24.095429963889
 21
167.57943489651
 31
0.0
  0
LINE
  5
524
330
1E
100
AcDbEntity
  8
0
100
AcDbLine
 10
22.49015
 20
167.5905
 30
0.0
 11
22.701796246235
 21
168.044492717019
 31
0.0
  0
LINE
  5
525
330
1E
100
AcDbEntity
  8
0
100
AcDbLine
 10
22.49015
 20
167.5905
 30
0.0
 11
23.81295
 21
166.9735
 31
0.0
  0
LINE
  5
526
330
1E
100
AcDbEntity
  8
0
100
AcDbLine
 10
24.05175
 20
165.7585
 30
0.0
 11
24.71315
 21
165.4505
 31
0.0
  0
LINE
  5
527
330
1E
100
AcDbEntity
  8
0
100
AcDbLine
 10
23.87665
 20
167.4965
 30
0.0
 11
24.299350446232
 21
168.402715343791
 31
0.0
  0
LINE
  5
528
330
1E
100
AcDbEntity
  8
0
100
AcDbLine
 10
22.55385
 20
168.1135
 30
0.0
 11
22.976464760033
 21
169.019531643611
 31
0.0
  0
LINE
  5
529
330
1E
100
AcDbEntity
  8
0
100
AcDbLine
 10
22.55385
 20
168.1135
 30
0.0
 11
23.87665
 21
167.4965
 31
0.0
  0
LINE
  5
52A
330
1E
100
AcDbEntity
  8
0
100
AcDbLine
 10
22.55385
 20
168.1135
 30
0.0
 11
22.849540411864
 21
168.747422179718
 31
0.0
  0
LINE
  5
52B
330
1E
100
AcDbEntity
  8
0
100
AcDbLine
 10
20.075684024554
 20
168.700852168117
 30
0.0
 11
23.639602985773
 21
166.821586957692
 31
0.0
  0
LINE
  5
52C
330
1E
100
AcDbEntity
  8
0
100
AcDbLine
 10
17.59765
 20
169.3215
 30
0.0
 11
17.854500376536
 21
169.87208900069
 31
0.0
  0
LINE
  5
52D
330
1E
100
AcDbEntity
  8
0
100
AcDbLine
 10
17.543377593835
 20
169.346773512396
 30
0.0
 11
17.59765
 21
169.3215
 31
0.0
  0
LINE
  5
52E
330
1E
100
AcDbEntity
  8
0
100
AcDbLine
 10
17.5433844649
 20
169.346788241333
 30
0.0
 11
17.59765
 21
169.3215
 31
0.0
  0
LINE
  5
52F
330
1E
100
AcDbEntity
  8
0
100
AcDbLine
 10
17.54325
 20
169.3465
 30
0.0
 11
17.754476000402
 21
169.799287782714
 31
0.0
  0
LINE
  5
530
330
1E
100
AcDbEntity
  8
0
100
AcDbLine
 10
18.72485
 20
168.7955
 30
0.0
 11
19.038872066565
 21
169.46872288762
 31
0.0
  0
LINE
  5
531
330
1E
100
AcDbEntity
  8
0
100
AcDbLine
 10
18.72485
 20
168.7955
 30
0.0
 11
19.87075
 21
168.2615
 31
0.0
  0
LINE
  5
532
330
1E
100
AcDbEntity
  8
0
100
AcDbLine
 10
18.06335
 20
169.1035
 30
0.0
 11
18.388959002278
 21
169.801866403797
 31
0.0
  0
LINE
  5
533
330
1E
100
AcDbEntity
  8
0
100
AcDbLine
 10
18.06335
 20
169.1035
 30
0.0
 11
18.72485
 21
168.7955
 31
0.0
  0
LINE
  5
534
330
1E
100
AcDbEntity
  8
0
100
AcDbLine
 10
18.06335
 20
169.1035
 30
0.0
 11
19.20935
 21
168.5695
 31
0.0
  0
LINE
  5
535
330
1E
100
AcDbEntity
  8
0
100
AcDbLine
 10
18.06335
 20
169.1035
 30
0.0
 11
18.309770814616
 21
169.632023526439
 31
0.0
  0
LINE
  5
536
330
1E
100
AcDbEntity
  8
0
100
AcDbLine
 10
20.075684024554
 20
168.700852168117
 30
0.0
 11
23.639602985773
 21
166.821586957692
 31
0.0
  0
LINE
  5
537
330
1E
100
AcDbEntity
  8
0
100
AcDbLine
 10
24.71315
 20
165.4505
 30
0.0
 11
25.018691543808
 21
166.105980793898
 31
0.0
  0
LINE
  5
538
330
1E
100
AcDbEntity
  8
0
100
AcDbLine
 10
25.87255
 20
164.9105
 30
0.0
 11
26.53395
 21
164.6015
 31
0.0
  0
LINE
  5
539
330
1E
100
AcDbEntity
  8
0
100
AcDbLine
 10
26.53395
 20
164.6015
 30
0.0
 11
26.858613727934
 21
165.297838978759
 31
0.0
  0
LINE
  5
53A
330
1E
100
AcDbEntity
  8
0
100
AcDbLine
 10
24.85215
 20
165.9375
 30
0.0
 11
25.173330471665
 21
166.625988128069
 31
0.0
  0
LINE
  5
53B
330
1E
100
AcDbEntity
  8
0
100
AcDbLine
 10
24.85215
 20
165.9375
 30
0.0
 11
25.107456162115
 21
166.484778795401
 31
0.0
  0
LINE
  5
53C
330
1E
100
AcDbEntity
  8
0
100
AcDbLine
 10
25.38905
 20
165.1365
 30
0.0
 11
25.742122206277
 21
165.893351813289
 31
0.0
  0
LINE
  5
53D
330
1E
100
AcDbEntity
  8
0
100
AcDbLine
 10
25.38905
 20
165.1365
 30
0.0
 11
26.53395
 21
164.6015
 31
0.0
  0
LINE
  5
53E
330
1E
100
AcDbEntity
  8
0
100
AcDbLine
 10
24.72765
 20
165.4445
 30
0.0
 11
25.082810900155
 21
166.206249333943
 31
0.0
  0
LINE
  5
53F
330
1E
100
AcDbEntity
  8
0
100
AcDbLine
 10
24.72765
 20
165.4445
 30
0.0
 11
25.38905
 21
165.1365
 31
0.0
  0
LINE
  5
540
330
1E
100
AcDbEntity
  8
0
100
AcDbLine
 10
24.72765
 20
165.4445
 30
0.0
 11
25.87255
 21
164.9105
 31
0.0
  0
LINE
  5
541
330
1E
100
AcDbEntity
  8
0
100
AcDbLine
 10
24.94376906811
 20
166.133896251527
 30
0.0
 11
25.028295702703
 21
166.089325102331
 31
0.0
  0
LINE
  5
542
330
1E
100
AcDbEntity
  8
0
100
AcDbLine
 10
24.94376906811
 20
166.133896251527
 30
0.0
 11
25.028295702703
 21
166.089325102331
 31
0.0
  0
LINE
  5
543
330
1E
100
AcDbEntity
  8
0
100
AcDbLine
 10
28.429992375552
 20
164.305042224797
 30
0.0
 11
28.44435
 21
163.0175
 31
0.0
  0
LINE
  5
544
330
1E
100
AcDbEntity
  8
0
100
AcDbLine
 10
26.793628941042
 20
165.158459564781
 30
0.0
 11
28.430098288182
 21
164.295544345476
 31
0.0
  0
LINE
  5
545
330
1E
100
AcDbEntity
  8
0
100
AcDbLine
 10
26.793628941042
 20
165.158459564781
 30
0.0
 11
28.430098288182
 21
164.295544345476
 31
0.0
  0
LINE
  5
546
330
1E
100
AcDbEntity
  8
0
100
AcDbLine
 10
25.02235
 20
168.0655
 30
0.0
 11
30.97705
 21
165.2885
 31
0.0
  0
LINE
  5
547
330
1E
100
AcDbEntity
  8
0
100
AcDbLine
 10
24.22905
 20
168.4355
 30
0.0
 11
30.05085
 21
165.7205
 31
0.0
  0
LINE
  5
548
330
1E
100
AcDbEntity
  8
0
100
AcDbLine
 10
15.79035
 20
170.1635
 30
0.0
 11
16.177149999994
 21
169.983375415787
 31
0.0
  0
LINE
  5
549
330
1E
100
AcDbEntity
  8
0
100
AcDbLine
 10
15.79035
 20
170.1635
 30
0.0
 11
16.177149999994
 21
169.983375415787
 31
0.0
  0
LINE
  5
54A
330
1E
100
AcDbEntity
  8
0
100
AcDbLine
 10
15.79035
 20
170.1635
 30
0.0
 11
16.285307141256
 21
169.932845393637
 31
0.0
  0
LINE
  5
54B
330
1E
100
AcDbEntity
  8
0
100
AcDbLine
 10
16.631449999976
 20
169.771407234499
 30
0.0
 11
16.88185
 21
169.6545
 31
0.0
  0
LINE
  5
54C
330
1E
100
AcDbEntity
  8
0
100
AcDbLine
 10
16.631449999977
 20
169.771407234499
 30
0.0
 11
16.88185
 21
169.6545
 31
0.0
  0
LINE
  5
54D
330
1E
100
AcDbEntity
  8
0
100
AcDbLine
 10
16.88185
 20
169.6545
 30
0.0
 11
17.54325
 21
169.3465
 31
0.0
  0
LINE
  5
54E
330
1E
100
AcDbEntity
  8
0
100
AcDbLine
 10
16.39735
 20
169.8805
 30
0.0
 11
16.608651594774
 21
170.333699800457
 31
0.0
  0
LINE
  5
54F
330
1E
100
AcDbEntity
  8
0
100
AcDbLine
 10
16.39735
 20
169.8805
 30
0.0
 11
17.54325
 21
169.3465
 31
0.0
  0
LINE
  5
550
330
1E
100
AcDbEntity
  8
0
100
AcDbLine
 10
15.73595
 20
170.1895
 30
0.0
 11
16.055706599372
 21
170.875016987769
 31
0.0
  0
LINE
  5
551
330
1E
100
AcDbEntity
  8
0
100
AcDbLine
 10
15.73595
 20
170.1895
 30
0.0
 11
16.39735
 21
169.8805
 31
0.0
  0
LINE
  5
552
330
1E
100
AcDbEntity
  8
0
100
AcDbLine
 10
17.77975
 20
169.7875
 30
0.0
 11
18.069473063294
 21
170.40897173894
 31
0.0
  0
LINE
  5
553
330
1E
100
AcDbEntity
  8
0
100
AcDbLine
 10
16.45685
 20
170.4045
 30
0.0
 11
16.809587882819
 21
171.161052444754
 31
0.0
  0
LINE
  5
554
330
1E
100
AcDbEntity
  8
0
100
AcDbLine
 10
16.45685
 20
170.4045
 30
0.0
 11
17.77975
 21
169.7875
 31
0.0
  0
LINE
  5
555
330
1E
100
AcDbEntity
  8
0
100
AcDbLine
 10
16.45685
 20
170.4045
 30
0.0
 11
16.767914779489
 21
171.071671945124
 31
0.0
  0
LINE
  5
556
330
1E
100
AcDbEntity
  8
0
100
AcDbLine
 10
17.826152886728
 20
169.887036717509
 30
0.0
 11
18.309770814616
 21
169.632023526439
 31
0.0
  0
LINE
  5
557
330
1E
100
AcDbEntity
  8
0
100
AcDbLine
 10
15.19575
 20
171.5445
 30
0.0
 11
15.604082576731
 21
172.41980891877
 31
0.0
  0
LINE
  5
558
330
1E
100
AcDbEntity
  8
0
100
AcDbLine
 10
15.19575
 20
171.5445
 30
0.0
 11
16.51965
 21
170.9275
 31
0.0
  0
LINE
  5
559
330
1E
100
AcDbEntity
  8
0
100
AcDbLine
 10
16.51965
 20
170.9275
 30
0.0
 11
16.880846051296
 21
171.701857838321
 31
0.0
  0
LINE
  5
55A
330
1E
100
AcDbEntity
  8
0
100
AcDbLine
 10
18.442720964574
 20
171.133009035617
 30
0.0
 11
18.908364061711
 21
170.915886719368
 31
0.0
  0
LINE
  5
55B
330
1E
100
AcDbEntity
  8
0
100
AcDbLine
 10
15.36415
 20
172.5685
 30
0.0
 11
20.06085
 21
170.3785
 31
0.0
  0
LINE
  5
55C
330
1E
100
AcDbEntity
  8
0
100
AcDbLine
 10
15.36415
 20
172.5685
 30
0.0
 11
15.61818814529
 21
172.450045864504
 31
0.0
  0
LINE
  5
55D
330
1E
100
AcDbEntity
  8
0
100
AcDbLine
 10
15.36415
 20
172.5685
 30
0.0
 11
15.61818814529
 21
172.450045864504
 31
0.0
  0
LINE
  5
55E
330
1E
100
AcDbEntity
  8
0
100
AcDbLine
 10
19.06885
 20
170.8415
 30
0.0
 11
24.22905
 21
168.4355
 31
0.0
  0
LINE
  5
55F
330
1E
100
AcDbEntity
  8
0
100
AcDbLine
 10
20.692815380995
 20
170.084308281331
 30
0.0
 11
22.976464760033
 21
169.019531643611
 31
0.0
  0
LINE
  5
560
330
1E
100
AcDbEntity
  8
0
100
AcDbLine
 10
20.692815380995
 20
170.084308281331
 30
0.0
 11
22.976464760033
 21
169.019531643611
 31
0.0
  0
LINE
  5
561
330
1E
100
AcDbEntity
  8
0
100
AcDbLine
 10
19.23666138213
 20
170.763256097553
 30
0.0
 11
19.57005
 21
170.6075
 31
0.0
  0
LINE
  5
562
330
1E
100
AcDbEntity
  8
0
100
AcDbLine
 10
19.23666138213
 20
170.763256097553
 30
0.0
 11
19.57005
 21
170.6075
 31
0.0
  0
LINE
  5
563
330
1E
100
AcDbEntity
  8
0
100
AcDbLine
 10
19.57005
 20
170.6075
 30
0.0
 11
20.71595
 21
170.0735
 31
0.0
  0
LINE
  5
564
330
1E
100
AcDbEntity
  8
0
100
AcDbLine
 10
20.06085
 20
170.3785
 30
0.0
 11
25.02235
 21
168.0655
 31
0.0
  0
LINE
  5
565
330
1E
100
AcDbEntity
  8
0
100
AcDbLine
 10
19.16065
 20
171.9025
 30
0.0
 11
24.38695
 21
169.4655
 31
0.0
  0
LINE
  5
566
330
1E
100
AcDbEntity
  8
0
100
AcDbLine
 10
24.38695
 20
169.4655
 30
0.0
 11
30.00995
 21
166.8425
 31
0.0
  0
LINE
  5
567
330
1E
100
AcDbEntity
  8
0
100
AcDbLine
 10
33.090221875216
 20
165.406396547469
 30
0.0
 11
35.89765
 21
164.0975
 31
0.0
  0
LINE
  5
568
330
1E
100
AcDbEntity
  8
0
100
AcDbLine
 10
33.090221875217
 20
165.406396547468
 30
0.0
 11
35.89765
 21
164.0975
 31
0.0
  0
LINE
  5
569
330
1E
100
AcDbEntity
  8
0
100
AcDbLine
 10
30.97705
 20
165.2885
 30
0.0
 11
35.67375
 21
163.0985
 31
0.0
  0
LINE
  5
56A
330
1E
100
AcDbEntity
  8
0
100
AcDbLine
 10
30.05085
 20
165.7205
 30
0.0
 11
35.54095
 21
163.1605
 31
0.0
  0
LINE
  5
56B
330
1E
100
AcDbEntity
  8
0
100
AcDbLine
 10
30.05085
 20
165.7205
 30
0.0
 11
31.732759890353
 21
164.936235720788
 31
0.0
  0
LINE
  5
56C
330
1E
100
AcDbEntity
  8
0
100
AcDbLine
 10
30.00995
 20
166.8425
 30
0.0
 11
35.89765
 21
164.0975
 31
0.0
  0
LINE
  5
56D
330
1E
100
AcDbEntity
  8
0
100
AcDbLine
 10
30.00995
 20
166.8425
 30
0.0
 11
32.155175298077
 21
165.84233976031
 31
0.0
  0
LINE
  5
56E
330
1E
100
AcDbEntity
  8
0
100
AcDbLine
 10
35.89765
 20
164.0975
 30
0.0
 11
41.71935
 21
161.3835
 31
0.0
  0
LINE
  5
56F
330
1E
100
AcDbEntity
  8
0
100
AcDbLine
 10
45.656040563277
 20
154.991594367228
 30
0.0
 11
45.70975
 21
154.9665
 31
0.0
  0
LINE
  5
570
330
1E
100
AcDbEntity
  8
0
100
AcDbLine
 10
46.29217170133
 20
154.694733270318
 30
0.0
 11
46.55845
 21
154.5705
 31
0.0
  0
LINE
  5
571
330
1E
100
AcDbEntity
  8
0
100
AcDbLine
 10
46.322413417723
 20
154.680750632911
 30
0.0
 11
46.55845
 21
154.5705
 31
0.0
  0
LINE
  5
572
330
1E
100
AcDbEntity
  8
0
100
AcDbLine
 10
46.418741909718
 20
154.63621194476
 30
0.0
 11
46.55015
 21
154.5745
 31
0.0
  0
LINE
  5
573
330
1E
100
AcDbEntity
  8
0
100
AcDbLine
 10
46.86825
 20
154.4265
 30
0.0
 11
47.828767924951
 21
155.223109582376
 31
0.0
  0
LINE
  5
574
330
1E
100
AcDbEntity
  8
0
100
AcDbLine
 10
46.55845
 20
154.5705
 30
0.0
 11
46.79705
 21
154.4595
 31
0.0
  0
LINE
  5
575
330
1E
100
AcDbEntity
  8
0
100
AcDbLine
 10
46.55015
 20
154.5745
 30
0.0
 11
46.78965
 21
154.4635
 31
0.0
  0
LINE
  5
576
330
1E
100
AcDbEntity
  8
0
100
AcDbLine
 10
46.78965
 20
154.4635
 30
0.0
 11
46.86095
 21
154.4295
 31
0.0
  0
LINE
  5
577
330
1E
100
AcDbEntity
  8
0
100
AcDbLine
 10
46.76035
 20
154.4775
 30
0.0
 11
46.86095
 21
154.4295
 31
0.0
  0
LINE
  5
578
330
1E
100
AcDbEntity
  8
0
100
AcDbLine
 10
46.86095
 20
154.4295
 30
0.0
 11
47.821778294337
 21
155.226366988532
 31
0.0
  0
LINE
  5
579
330
1E
100
AcDbEntity
  8
0
100
AcDbLine
 10
46.55005
 20
154.5755
 30
0.0
 11
46.76035
 21
154.4775
 31
0.0
  0
LINE
  5
57A
330
1E
100
AcDbEntity
  8
0
100
AcDbLine
 10
45.70975
 20
154.9665
 30
0.0
 11
45.782893976652
 21
154.932369112133
 31
0.0
  0
LINE
  5
57B
330
1E
100
AcDbEntity
  8
0
100
AcDbLine
 10
46.19535
 20
154.7395
 30
0.0
 11
46.55005
 21
154.5755
 31
0.0
  0
LINE
  5
57C
330
1E
100
AcDbEntity
  8
0
100
AcDbLine
 10
45.70135
 20
154.9705
 30
0.0
 11
46.19535
 21
154.7395
 31
0.0
  0
LINE
  5
57D
330
1E
100
AcDbEntity
  8
0
100
AcDbLine
 10
45.12785
 20
155.2375
 30
0.0
 11
45.70135
 21
154.9705
 31
0.0
  0
LINE
  5
57E
330
1E
100
AcDbEntity
  8
0
100
AcDbLine
 10
49.51025
 20
153.8875
 30
0.0
 11
49.881906243721
 21
154.684722870169
 31
0.0
  0
LINE
  5
57F
330
1E
100
AcDbEntity
  8
0
100
AcDbLine
 10
49.20655
 20
154.5815
 30
0.0
 11
49.417690387154
 21
155.034354042246
 31
0.0
  0
LINE
  5
580
330
1E
100
AcDbEntity
  8
0
100
AcDbLine
 10
50.08035
 20
154.7255
 30
0.0
 11
50.291720069075
 21
155.178846664182
 31
0.0
  0
LINE
  5
581
330
1E
100
AcDbEntity
  8
0
100
AcDbLine
 10
48.75655
 20
155.3425
 30
0.0
 11
50.08035
 21
154.7255
 31
0.0
  0
LINE
  5
582
330
1E
100
AcDbEntity
  8
0
100
AcDbLine
 10
48.75655
 20
155.3425
 30
0.0
 11
49.026087254986
 21
155.920603683058
 31
0.0
  0
LINE
  5
583
330
1E
100
AcDbEntity
  8
0
100
AcDbLine
 10
50.43825
 20
155.1105
 30
0.0
 11
50.81080311763
 21
155.90920592658
 31
0.0
  0
LINE
  5
584
330
1E
100
AcDbEntity
  8
0
100
AcDbLine
 10
47.88285
 20
155.1975
 30
0.0
 11
48.398623437542
 21
154.957478516639
 31
0.0
  0
LINE
  5
585
330
1E
100
AcDbEntity
  8
0
100
AcDbLine
 10
47.88285
 20
155.1975
 30
0.0
 11
49.20655
 21
154.5815
 31
0.0
  0
LINE
  5
586
330
1E
100
AcDbEntity
  8
0
100
AcDbLine
 10
47.88285
 20
155.1975
 30
0.0
 11
48.278447502085
 21
156.046546224304
 31
0.0
  0
LINE
  5
587
330
1E
100
AcDbEntity
  8
0
100
AcDbLine
 10
47.88285
 20
155.1975
 30
0.0
 11
48.103676688362
 21
155.671446536547
 31
0.0
  0
LINE
  5
588
330
1E
100
AcDbEntity
  8
0
100
AcDbLine
 10
48.18745
 20
154.5045
 30
0.0
 11
49.51025
 21
153.8875
 31
0.0
  0
LINE
  5
589
330
1E
100
AcDbEntity
  8
0
100
AcDbLine
 10
48.18745
 20
154.5045
 30
0.0
 11
48.398623437542
 21
154.957478516639
 31
0.0
  0
LINE
  5
58A
330
1E
100
AcDbEntity
  8
0
100
AcDbLine
 10
47.828767924951
 20
155.223109582376
 30
0.0
 11
47.883005225679
 21
155.197833151186
 31
0.0
  0
LINE
  5
58B
330
1E
100
AcDbEntity
  8
0
100
AcDbLine
 10
50.50645
 20
153.9745
 30
0.0
 11
52.02805
 21
153.2655
 31
0.0
  0
LINE
  5
58C
330
1E
100
AcDbEntity
  8
0
100
AcDbLine
 10
52.02805
 20
153.2655
 30
0.0
 11
54.205429325247
 21
152.37701063214
 31
0.0
  0
LINE
  5
58D
330
1E
100
AcDbEntity
  8
0
100
AcDbLine
 10
47.46315
 20
155.3935
 30
0.0
 11
47.883005225679
 21
155.197833151186
 31
0.0
  0
LINE
  5
58E
330
1E
100
AcDbEntity
  8
0
100
AcDbLine
 10
49.11545
 20
155.7275
 30
0.0
 11
50.43825
 21
155.1105
 31
0.0
  0
LINE
  5
58F
330
1E
100
AcDbEntity
  8
0
100
AcDbLine
 10
49.11545
 20
155.7275
 30
0.0
 11
49.538060181389
 21
156.633521827588
 31
0.0
  0
LINE
  5
590
330
1E
100
AcDbEntity
  8
0
100
AcDbLine
 10
51.61645
 20
155.6635
 30
0.0
 11
57.57045
 21
152.8885
 31
0.0
  0
LINE
  5
591
330
1E
100
AcDbEntity
  8
0
100
AcDbLine
 10
52.54265
 20
155.2325
 30
0.0
 11
58.36425
 21
152.5185
 31
0.0
  0
LINE
  5
592
330
1E
100
AcDbEntity
  8
0
100
AcDbLine
 10
52.54265
 20
155.2325
 30
0.0
 11
58.146635319895
 21
152.619950845439
 31
0.0
  0
LINE
  5
593
330
1E
100
AcDbEntity
  8
0
100
AcDbLine
 10
46.91965
 20
157.8535
 30
0.0
 11
51.61645
 21
155.6635
 31
0.0
  0
LINE
  5
594
330
1E
100
AcDbEntity
  8
0
100
AcDbLine
 10
47.05255
 20
157.7925
 30
0.0
 11
52.54265
 21
155.2325
 31
0.0
  0
LINE
  5
595
330
1E
100
AcDbEntity
  8
0
100
AcDbLine
 10
55.76725
 20
150.9705
 30
0.0
 11
56.91325
 21
150.4355
 31
0.0
  0
LINE
  5
596
330
1E
100
AcDbEntity
  8
0
100
AcDbLine
 10
56.05075
 20
151.3905
 30
0.0
 11
57.37345
 21
150.7735
 31
0.0
  0
LINE
  5
597
330
1E
100
AcDbEntity
  8
0
100
AcDbLine
 10
56.05075
 20
151.3905
 30
0.0
 11
56.371385193401
 21
152.077819259957
 31
0.0
  0
LINE
  5
598
330
1E
100
AcDbEntity
  8
0
100
AcDbLine
 10
56.05075
 20
151.3905
 30
0.0
 11
56.305491775298
 21
151.936568965858
 31
0.0
  0
LINE
  5
599
330
1E
100
AcDbEntity
  8
0
100
AcDbLine
 10
54.60675
 20
151.5105
 30
0.0
 11
55.75275
 21
150.9765
 31
0.0
  0
LINE
  5
59A
330
1E
100
AcDbEntity
  8
0
100
AcDbLine
 10
55.09125
 20
151.2855
 30
0.0
 11
55.75275
 21
150.9765
 31
0.0
  0
LINE
  5
59B
330
1E
100
AcDbEntity
  8
0
100
AcDbLine
 10
53.94535
 20
151.8195
 30
0.0
 11
55.09125
 21
151.2855
 31
0.0
  0
LINE
  5
59C
330
1E
100
AcDbEntity
  8
0
100
AcDbLine
 10
53.94535
 20
151.8195
 30
0.0
 11
54.270021015981
 21
152.515470520476
 31
0.0
  0
LINE
  5
59D
330
1E
100
AcDbEntity
  8
0
100
AcDbLine
 10
53.94535
 20
151.8195
 30
0.0
 11
54.60675
 21
151.5105
 31
0.0
  0
LINE
  5
59E
330
1E
100
AcDbEntity
  8
0
100
AcDbLine
 10
53.94535
 20
151.8195
 30
0.0
 11
54.205429325247
 21
152.37701063214
 31
0.0
  0
LINE
  5
59F
330
1E
100
AcDbEntity
  8
0
100
AcDbLine
 10
53.42875
 20
155.9225
 30
0.0
 11
59.05145
 21
153.3005
 31
0.0
  0
LINE
  5
5A0
330
1E
100
AcDbEntity
  8
0
100
AcDbLine
 10
47.54105
 20
158.6685
 30
0.0
 11
53.42875
 21
155.9225
 31
0.0
  0
LINE
  5
5A1
330
1E
100
AcDbEntity
  8
0
100
AcDbLine
 10
62.83915
 20
148.2235
 30
0.0
 11
63.164563996383
 21
148.921915747088
 31
0.0
  0
LINE
  5
5A2
330
1E
100
AcDbEntity
  8
0
100
AcDbLine
 10
61.69325
 20
148.7585
 30
0.0
 11
62.83915
 21
148.2235
 31
0.0
  0
LINE
  5
5A3
330
1E
100
AcDbEntity
  8
0
100
AcDbLine
 10
57.57425
 20
150.1275
 30
0.0
 11
57.921477350804
 21
150.87232156532
 31
0.0
  0
LINE
  5
5A4
330
1E
100
AcDbEntity
  8
0
100
AcDbLine
 10
56.91325
 20
150.4355
 30
0.0
 11
57.57425
 21
150.1275
 31
0.0
  0
LINE
  5
5A5
330
1E
100
AcDbEntity
  8
0
100
AcDbLine
 10
56.91325
 20
150.4355
 30
0.0
 11
57.124794896002
 21
150.889490170989
 31
0.0
  0
LINE
  5
5A6
330
1E
100
AcDbEntity
  8
0
100
AcDbLine
 10
61.03175
 20
149.0675
 30
0.0
 11
62.17755
 21
148.5325
 31
0.0
  0
LINE
  5
5A7
330
1E
100
AcDbEntity
  8
0
100
AcDbLine
 10
61.03175
 20
149.0675
 30
0.0
 11
61.316710820573
 21
149.678684156748
 31
0.0
  0
LINE
  5
5A8
330
1E
100
AcDbEntity
  8
0
100
AcDbLine
 10
61.03175
 20
149.0675
 30
0.0
 11
61.69325
 21
148.7585
 31
0.0
  0
LINE
  5
5A9
330
1E
100
AcDbEntity
  8
0
100
AcDbLine
 10
61.03175
 20
149.0675
 30
0.0
 11
61.237010359768
 21
149.507742555613
 31
0.0
  0
LINE
  5
5AA
330
1E
100
AcDbEntity
  8
0
100
AcDbLine
 10
62.17755
 20
148.5325
 30
0.0
 11
62.83915
 21
148.2235
 31
0.0
  0
LINE
  5
5AB
330
1E
100
AcDbEntity
  8
0
100
AcDbLine
 10
62.17755
 20
148.5325
 30
0.0
 11
62.491425171543
 21
149.205779325612
 31
0.0
  0
LINE
  5
5AC
330
1E
100
AcDbEntity
  8
0
100
AcDbLine
 10
63.30475
 20
148.0075
 30
0.0
 11
63.359791025285
 21
147.981802340058
 31
0.0
  0
LINE
  5
5AD
330
1E
100
AcDbEntity
  8
0
100
AcDbLine
 10
63.30475
 20
148.0075
 30
0.0
 11
63.561884410723
 21
148.559067305537
 31
0.0
  0
LINE
  5
5AE
330
1E
100
AcDbEntity
  8
0
100
AcDbLine
 10
63.35965
 20
147.9815
 30
0.0
 11
64.50535
 21
147.4475
 31
0.0
  0
LINE
  5
5AF
330
1E
100
AcDbEntity
  8
0
100
AcDbLine
 10
63.35965
 20
147.9815
 30
0.0
 11
63.571045547751
 21
148.434704842078
 31
0.0
  0
LINE
  5
5B0
330
1E
100
AcDbEntity
  8
0
100
AcDbLine
 10
63.35965
 20
147.9815
 30
0.0
 11
64.02115
 21
147.6725
 31
0.0
  0
LINE
  5
5B1
330
1E
100
AcDbEntity
  8
0
100
AcDbLine
 10
63.08598250825
 20
148.753261204408
 30
0.0
 11
63.592445272083
 21
148.546596809434
 31
0.0
  0
LINE
  5
5B2
330
1E
100
AcDbEntity
  8
0
100
AcDbLine
 10
63.08598250825
 20
148.753261204408
 30
0.0
 11
63.592445272083
 21
148.546596809434
 31
0.0
  0
LINE
  5
5B3
330
1E
100
AcDbEntity
  8
0
100
AcDbLine
 10
57.37345
 20
150.7735
 30
0.0
 11
57.584859937821
 21
151.226735692537
 31
0.0
  0
LINE
  5
5B4
330
1E
100
AcDbEntity
  8
0
100
AcDbLine
 10
58.83565
 20
150.6435
 30
0.0
 11
59.046779730142
 21
151.096134963343
 31
0.0
  0
LINE
  5
5B5
330
1E
100
AcDbEntity
  8
0
100
AcDbLine
 10
57.51245
 20
151.2605
 30
0.0
 11
58.83565
 21
150.6435
 31
0.0
  0
LINE
  5
5B6
330
1E
100
AcDbEntity
  8
0
100
AcDbLine
 10
57.51245
 20
151.2605
 30
0.0
 11
57.794425653505
 21
151.864947987876
 31
0.0
  0
LINE
  5
5B7
330
1E
100
AcDbEntity
  8
0
100
AcDbLine
 10
59.19395
 20
151.0275
 30
0.0
 11
59.616678670733
 21
151.934276005726
 31
0.0
  0
LINE
  5
5B8
330
1E
100
AcDbEntity
  8
0
100
AcDbLine
 10
59.19395
 20
151.0275
 30
0.0
 11
59.489556997984
 21
151.661593099082
 31
0.0
  0
LINE
  5
5B9
330
1E
100
AcDbEntity
  8
0
100
AcDbLine
 10
57.87095
 20
151.6445
 30
0.0
 11
59.19395
 21
151.0275
 31
0.0
  0
LINE
  5
5BA
330
1E
100
AcDbEntity
  8
0
100
AcDbLine
 10
57.87095
 20
151.6445
 30
0.0
 11
58.293726151944
 21
152.551377855508
 31
0.0
  0
LINE
  5
5BB
330
1E
100
AcDbEntity
  8
0
100
AcDbLine
 10
57.647472716987
 20
150.972469438139
 30
0.0
 11
61.237010359768
 21
149.507742555613
 31
0.0
  0
LINE
  5
5BC
330
1E
100
AcDbEntity
  8
0
100
AcDbLine
 10
59.616678670733
 20
151.934276005726
 30
0.0
 11
61.876810311792
 21
150.879985916573
 31
0.0
  0
LINE
  5
5BD
330
1E
100
AcDbEntity
  8
0
100
AcDbLine
 10
62.53205
 20
150.5735
 30
0.0
 11
67.22895
 21
148.3835
 31
0.0
  0
LINE
  5
5BE
330
1E
100
AcDbEntity
  8
0
100
AcDbLine
 10
63.54575
 20
148.4465
 30
0.0
 11
64.86895
 21
147.8295
 31
0.0
  0
LINE
  5
5BF
330
1E
100
AcDbEntity
  8
0
100
AcDbLine
 10
63.54575
 20
148.4465
 30
0.0
 11
63.835556416471
 21
149.067734149587
 31
0.0
  0
LINE
  5
5C0
330
1E
100
AcDbEntity
  8
0
100
AcDbLine
 10
63.54575
 20
148.4465
 30
0.0
 11
63.812415766011
 21
149.018129442816
 31
0.0
  0
LINE
  5
5C1
330
1E
100
AcDbEntity
  8
0
100
AcDbLine
 10
64.02115
 20
147.6725
 30
0.0
 11
65.16695
 21
147.1385
 31
0.0
  0
LINE
  5
5C2
330
1E
100
AcDbEntity
  8
0
100
AcDbLine
 10
63.68386114297
 20
150.036450796673
 30
0.0
 11
64.149425316403
 21
149.819374525129
 31
0.0
  0
LINE
  5
5C3
330
1E
100
AcDbEntity
  8
0
100
AcDbLine
 10
63.684095990744
 20
150.036954835791
 30
0.0
 11
64.14964401355
 21
149.819843642412
 31
0.0
  0
LINE
  5
5C4
330
1E
100
AcDbEntity
  8
0
100
AcDbLine
 10
63.52425
 20
150.1115
 30
0.0
 11
68.41965
 21
147.8285
 31
0.0
  0
LINE
  5
5C5
330
1E
100
AcDbEntity
  8
0
100
AcDbLine
 10
57.57045
 20
152.8885
 30
0.0
 11
62.53205
 21
150.5735
 31
0.0
  0
LINE
  5
5C6
330
1E
100
AcDbEntity
  8
0
100
AcDbLine
 10
58.36425
 20
152.5185
 30
0.0
 11
63.52425
 21
150.1115
 31
0.0
  0
LINE
  5
5C7
330
1E
100
AcDbEntity
  8
0
100
AcDbLine
 10
65.16695
 20
147.1385
 30
0.0
 11
65.487431350213
 21
147.825949938401
 31
0.0
  0
LINE
  5
5C8
330
1E
100
AcDbEntity
  8
0
100
AcDbLine
 10
64.86895
 20
147.8295
 30
0.0
 11
65.221837972878
 21
148.586046387665
 31
0.0
  0
LINE
  5
5C9
330
1E
100
AcDbEntity
  8
0
100
AcDbLine
 10
65.22875
 20
148.2125
 30
0.0
 11
66.55185
 21
147.5955
 31
0.0
  0
LINE
  5
5CA
330
1E
100
AcDbEntity
  8
0
100
AcDbLine
 10
65.22875
 20
148.2125
 30
0.0
 11
65.590354202371
 21
148.988160694391
 31
0.0
  0
LINE
  5
5CB
330
1E
100
AcDbEntity
  8
0
100
AcDbLine
 10
65.22875
 20
148.2125
 30
0.0
 11
65.563856730766
 21
148.931322175674
 31
0.0
  0
LINE
  5
5CC
330
1E
100
AcDbEntity
  8
0
100
AcDbLine
 10
64.50535
 20
147.4475
 30
0.0
 11
65.16695
 21
147.1385
 31
0.0
  0
LINE
  5
5CD
330
1E
100
AcDbEntity
  8
0
100
AcDbLine
 10
64.50535
 20
147.4475
 30
0.0
 11
64.716656340896
 21
147.900513594065
 31
0.0
  0
LINE
  5
5CE
330
1E
100
AcDbEntity
  8
0
100
AcDbLine
 10
66.55185
 20
147.5955
 30
0.0
 11
66.960396771058
 21
148.471855059072
 31
0.0
  0
LINE
  5
5CF
330
1E
100
AcDbEntity
  8
0
100
AcDbLine
 10
65.466824837908
 20
147.781747847996
 30
0.0
 11
68.268935603721
 21
146.638334022888
 31
0.0
  0
LINE
  5
5D0
330
1E
100
AcDbEntity
  8
0
100
AcDbLine
 10
65.466824837908
 20
147.781747847996
 30
0.0
 11
68.268935603721
 21
146.638334022888
 31
0.0
  0
LINE
  5
5D1
330
1E
100
AcDbEntity
  8
0
100
AcDbLine
 10
65.502887766773
 20
149.188580967101
 30
0.0
 11
65.651528558194
 21
149.119383017044
 31
0.0
  0
LINE
  5
5D2
330
1E
100
AcDbEntity
  8
0
100
AcDbLine
 10
66.974512971326
 20
148.502135076922
 30
0.0
 11
67.22895
 21
148.3835
 31
0.0
  0
LINE
  5
5D3
330
1E
100
AcDbEntity
  8
0
100
AcDbLine
 10
66.974633019275
 20
148.502392586305
 30
0.0
 11
68.41965
 21
147.8285
 31
0.0
  0
LINE
  5
5D4
330
1E
100
AcDbEntity
  8
0
100
AcDbLine
 10
67.22895
 20
148.3835
 30
0.0
 11
69.175641101849
 21
147.475944079254
 31
0.0
  0
LINE
  5
5D5
330
1E
100
AcDbEntity
  8
0
100
AcDbLine
 10
64.27775
 20
150.8635
 30
0.0
 11
69.23935
 21
148.5495
 31
0.0
  0
LINE
  5
5D6
330
1E
100
AcDbEntity
  8
0
100
AcDbLine
 10
59.05145
 20
153.3005
 30
0.0
 11
64.27775
 21
150.8635
 31
0.0
  0
LINE
  5
5D7
330
1E
100
AcDbEntity
  8
0
100
AcDbLine
 10
68.11795
 20
146.3145
 30
0.0
 11
69.26375
 21
145.7805
 31
0.0
  0
LINE
  5
5D8
330
1E
100
AcDbEntity
  8
0
100
AcDbLine
 10
68.11795
 20
146.3145
 30
0.0
 11
68.382846927568
 21
146.882651105739
 31
0.0
  0
LINE
  5
5D9
330
1E
100
AcDbEntity
  8
0
100
AcDbLine
 10
68.11795
 20
146.3145
 30
0.0
 11
69.130436946205
 21
145.84263053825
 31
0.0
  0
LINE
  5
5DA
330
1E
100
AcDbEntity
  8
0
100
AcDbLine
 10
68.11795
 20
146.3145
 30
0.0
 11
68.268935603721
 21
146.638334022888
 31
0.0
  0
LINE
  5
5DB
330
1E
100
AcDbEntity
  8
0
100
AcDbLine
 10
68.11795
 20
146.3145
 30
0.0
 11
69.130436946205
 21
145.84263053825
 31
0.0
  0
LINE
  5
5DC
330
1E
100
AcDbEntity
  8
0
100
AcDbLine
 10
76.164272605326
 20
143.114113026838
 30
0.0
 11
77.01155
 21
142.7185
 31
0.0
  0
LINE
  5
5DD
330
1E
100
AcDbEntity
  8
0
100
AcDbLine
 10
76.164272605326
 20
143.114113026838
 30
0.0
 11
77.01155
 21
142.7185
 31
0.0
  0
LINE
  5
5DE
330
1E
100
AcDbEntity
  8
0
100
AcDbLine
 10
72.12295
 20
144.4465
 30
0.0
 11
72.37085477865
 21
144.331073436396
 31
0.0
  0
LINE
  5
5DF
330
1E
100
AcDbEntity
  8
0
100
AcDbLine
 10
72.12295
 20
144.4465
 30
0.0
 11
72.37085477865
 21
144.331073436396
 31
0.0
  0
LINE
  5
5E0
330
1E
100
AcDbEntity
  8
0
100
AcDbLine
 10
71.94775
 20
144.5285
 30
0.0
 11
72.097450000006
 21
144.458732326756
 31
0.0
  0
LINE
  5
5E1
330
1E
100
AcDbEntity
  8
0
100
AcDbLine
 10
71.94775
 20
144.5285
 30
0.0
 11
72.097450000006
 21
144.458732326756
 31
0.0
  0
LINE
  5
5E2
330
1E
100
AcDbEntity
  8
0
100
AcDbLine
 10
73.96975
 20
143.5855
 30
0.0
 11
74.288987713733
 21
144.270201259906
 31
0.0
  0
LINE
  5
5E3
330
1E
100
AcDbEntity
  8
0
100
AcDbLine
 10
73.30815
 20
143.8945
 30
0.0
 11
73.96975
 21
143.5855
 31
0.0
  0
LINE
  5
5E4
330
1E
100
AcDbEntity
  8
0
100
AcDbLine
 10
72.82395
 20
144.1195
 30
0.0
 11
73.96975
 21
143.5855
 31
0.0
  0
LINE
  5
5E5
330
1E
100
AcDbEntity
  8
0
100
AcDbLine
 10
72.474649999991
 20
144.282665079369
 30
0.0
 11
72.82395
 21
144.1195
 31
0.0
  0
LINE
  5
5E6
330
1E
100
AcDbEntity
  8
0
100
AcDbLine
 10
73.093558828742
 20
143.994518927687
 30
0.0
 11
73.30815
 21
143.8945
 31
0.0
  0
LINE
  5
5E7
330
1E
100
AcDbEntity
  8
0
100
AcDbLine
 10
72.43205
 20
144.3025
 30
0.0
 11
73.09355
 21
143.9945
 31
0.0
  0
LINE
  5
5E8
330
1E
100
AcDbEntity
  8
0
100
AcDbLine
 10
75.20415
 20
143.5615
 30
0.0
 11
76.35015
 21
143.0275
 31
0.0
  0
LINE
  5
5E9
330
1E
100
AcDbEntity
  8
0
100
AcDbLine
 10
75.20415
 20
143.5615
 30
0.0
 11
75.541765253302
 21
144.285617418948
 31
0.0
  0
LINE
  5
5EA
330
1E
100
AcDbEntity
  8
0
100
AcDbLine
 10
75.20415
 20
143.5615
 30
0.0
 11
75.346523593837
 21
143.866862978382
 31
0.0
  0
LINE
  5
5EB
330
1E
100
AcDbEntity
  8
0
100
AcDbLine
 10
76.35015
 20
143.0275
 30
0.0
 11
77.01155
 21
142.7185
 31
0.0
  0
LINE
  5
5EC
330
1E
100
AcDbEntity
  8
0
100
AcDbLine
 10
73.383275763746
 20
144.615634741963
 30
0.0
 11
75.346523593837
 21
143.866862978382
 31
0.0
  0
LINE
  5
5ED
330
1E
100
AcDbEntity
  8
0
100
AcDbLine
 10
76.728633506517
 20
142.850600125688
 30
0.0
 11
80.03255
 21
137.9915
 31
0.0
  0
LINE
  5
5EE
330
1E
100
AcDbEntity
  8
0
100
AcDbLine
 10
77.01155
 20
142.7185
 30
0.0
 11
77.401701594427
 21
143.555297398198
 31
0.0
  0
LINE
  5
5EF
330
1E
100
AcDbEntity
  8
0
100
AcDbLine
 10
76.68885
 20
143.9725
 30
0.0
 11
79.99665
 21
142.4305
 31
0.0
  0
LINE
  5
5F0
330
1E
100
AcDbEntity
  8
0
100
AcDbLine
 10
69.92535
 20
145.4715
 30
0.0
 11
70.260304219225
 21
146.189995030118
 31
0.0
  0
LINE
  5
5F1
330
1E
100
AcDbEntity
  8
0
100
AcDbLine
 10
72.65865
 20
144.7485
 30
0.0
 11
73.081324081655
 21
145.654551621861
 31
0.0
  0
LINE
  5
5F2
330
1E
100
AcDbEntity
  8
0
100
AcDbLine
 10
71.63865
 20
144.6725
 30
0.0
 11
71.771963053828
 21
144.610369461735
 31
0.0
  0
LINE
  5
5F3
330
1E
100
AcDbEntity
  8
0
100
AcDbLine
 10
71.33555
 20
145.3655
 30
0.0
 11
72.65865
 21
144.7485
 31
0.0
  0
LINE
  5
5F4
330
1E
100
AcDbEntity
  8
0
100
AcDbLine
 10
71.33555
 20
145.3655
 30
0.0
 11
71.758185576974
 21
146.271576272453
 31
0.0
  0
LINE
  5
5F5
330
1E
100
AcDbEntity
  8
0
100
AcDbLine
 10
71.33555
 20
145.3655
 30
0.0
 11
71.645992978708
 21
146.031049783978
 31
0.0
  0
LINE
  5
5F6
330
1E
100
AcDbEntity
  8
0
100
AcDbLine
 10
70.97705
 20
144.9815
 30
0.0
 11
72.12295
 21
144.4465
 31
0.0
  0
LINE
  5
5F7
330
1E
100
AcDbEntity
  8
0
100
AcDbLine
 10
70.97705
 20
144.9815
 30
0.0
 11
71.195481423329
 21
145.450047291169
 31
0.0
  0
LINE
  5
5F8
330
1E
100
AcDbEntity
  8
0
100
AcDbLine
 10
70.97705
 20
144.9815
 30
0.0
 11
71.63865
 21
144.6725
 31
0.0
  0
LINE
  5
5F9
330
1E
100
AcDbEntity
  8
0
100
AcDbLine
 10
71.28625
 20
144.8375
 30
0.0
 11
72.43205
 21
144.3025
 31
0.0
  0
LINE
  5
5FA
330
1E
100
AcDbEntity
  8
0
100
AcDbLine
 10
71.28625
 20
144.8375
 30
0.0
 11
71.94775
 21
144.5285
 31
0.0
  0
LINE
  5
5FB
330
1E
100
AcDbEntity
  8
0
100
AcDbLine
 10
70.97405
 20
145.5345
 30
0.0
 11
71.34787579922
 21
145.391924926866
 31
0.0
  0
LINE
  5
5FC
330
1E
100
AcDbEntity
  8
0
100
AcDbLine
 10
69.130436946205
 20
145.84263053825
 30
0.0
 11
69.92535
 21
145.4715
 31
0.0
  0
LINE
  5
5FD
330
1E
100
AcDbEntity
  8
0
100
AcDbLine
 10
69.130436946205
 20
145.84263053825
 30
0.0
 11
69.92535
 21
145.4715
 31
0.0
  0
LINE
  5
5FE
330
1E
100
AcDbEntity
  8
0
100
AcDbLine
 10
69.26375
 20
145.7805
 30
0.0
 11
69.92535
 21
145.4715
 31
0.0
  0
LINE
  5
5FF
330
1E
100
AcDbEntity
  8
0
100
AcDbLine
 10
70.117635853599
 20
145.883963621125
 30
0.0
 11
70.97405
 21
145.5345
 31
0.0
  0
LINE
  5
600
330
1E
100
AcDbEntity
  8
0
100
AcDbLine
 10
72.85195
 20
145.7615
 30
0.0
 11
76.68885
 21
143.9725
 31
0.0
  0
LINE
  5
601
330
1E
100
AcDbEntity
  8
0
100
AcDbLine
 10
73.73775
 20
146.4515
 30
0.0
 11
77.64075
 21
144.6325
 31
0.0
  0
LINE
  5
602
330
1E
100
AcDbEntity
  8
0
100
AcDbLine
 10
77.64075
 20
144.6325
 30
0.0
 11
80.94845
 21
143.0895
 31
0.0
  0
LINE
  5
603
330
1E
100
AcDbEntity
  8
0
100
AcDbLine
 10
68.41965
 20
147.8285
 30
0.0
 11
72.85195
 21
145.7615
 31
0.0
  0
LINE
  5
604
330
1E
100
AcDbEntity
  8
0
100
AcDbLine
 10
68.41965
 20
147.8285
 30
0.0
 11
68.751654539288
 21
147.673669915685
 31
0.0
  0
LINE
  5
605
330
1E
100
AcDbEntity
  8
0
100
AcDbLine
 10
69.23935
 20
148.5495
 30
0.0
 11
73.73775
 21
146.4515
 31
0.0
  0
LINE
  5
606
330
1E
100
AcDbEntity
  8
0
100
AcDbLine
 10
84.24385
 20
136.0005
 30
0.0
 11
84.48525
 21
136.9915
 31
0.0
  0
LINE
  5
607
330
1E
100
AcDbEntity
  8
0
100
AcDbLine
 10
83.68225
 20
135.2695
 30
0.0
 11
84.24385
 21
136.0005
 31
0.0
  0
LINE
  5
608
330
1E
100
AcDbEntity
  8
0
100
AcDbLine
 10
83.01775
 20
135.0275
 30
0.0
 11
83.68225
 21
135.2695
 31
0.0
  0
LINE
  5
609
330
1E
100
AcDbEntity
  8
0
100
AcDbLine
 10
82.06915
 20
135.3595
 30
0.0
 11
83.01775
 21
135.0275
 31
0.0
  0
LINE
  5
60A
330
1E
100
AcDbEntity
  8
0
100
AcDbLine
 10
81.38035
 20
136.0115
 30
0.0
 11
82.06915
 21
135.3595
 31
0.0
  0
LINE
  5
60B
330
1E
100
AcDbEntity
  8
0
100
AcDbLine
 10
80.03255
 20
137.9915
 30
0.0
 11
81.38035
 21
136.0115
 31
0.0
  0
LINE
  5
60C
330
1E
100
AcDbEntity
  8
0
100
AcDbLine
 10
84.220873190457
 20
140.460616486516
 30
0.0
 11
84.48525
 21
136.9915
 31
0.0
  0
LINE
  5
60D
330
1E
100
AcDbEntity
  8
0
100
AcDbLine
 10
82.14825
 20
140.3235
 30
0.0
 11
82.537076312405
 21
141.157553601977
 31
0.0
  0
LINE
  5
60E
330
1E
100
AcDbEntity
  8
0
100
AcDbLine
 10
84.36275
 20
140.3945
 30
0.0
 11
85.48735
 21
139.8705
 31
0.0
  0
LINE
  5
60F
330
1E
100
AcDbEntity
  8
0
100
AcDbLine
 10
85.48735
 20
139.8705
 30
0.0
 11
85.95045
 21
139.6545
 31
0.0
  0
LINE
  5
610
330
1E
100
AcDbEntity
  8
0
100
AcDbLine
 10
85.95045
 20
139.6545
 30
0.0
 11
87.03465
 21
140.2515
 31
0.0
  0
LINE
  5
611
330
1E
100
AcDbEntity
  8
0
100
AcDbLine
 10
80.38080642782
 20
141.147835546188
 30
0.0
 11
81.00235
 21
140.8575
 31
0.0
  0
LINE
  5
612
330
1E
100
AcDbEntity
  8
0
100
AcDbLine
 10
81.00235
 20
140.8575
 30
0.0
 11
82.14825
 21
140.3235
 31
0.0
  0
LINE
  5
613
330
1E
100
AcDbEntity
  8
0
100
AcDbLine
 10
81.48675
 20
140.6325
 30
0.0
 11
82.14825
 21
140.3235
 31
0.0
  0
LINE
  5
614
330
1E
100
AcDbEntity
  8
0
100
AcDbLine
 10
79.569449999981
 20
141.52626767325
 30
0.0
 11
80.38065
 21
141.1475
 31
0.0
  0
LINE
  5
615
330
1E
100
AcDbEntity
  8
0
100
AcDbLine
 10
79.569449999981
 20
141.52626767325
 30
0.0
 11
80.38065
 21
141.1475
 31
0.0
  0
LINE
  5
616
330
1E
100
AcDbEntity
  8
0
100
AcDbLine
 10
79.71915
 20
141.4565
 30
0.0
 11
80.38065
 21
141.1475
 31
0.0
  0
LINE
  5
617
330
1E
100
AcDbEntity
  8
0
100
AcDbLine
 10
82.44435
 20
141.2885
 30
0.0
 11
84.36275
 21
140.3945
 31
0.0
  0
LINE
  5
618
330
1E
100
AcDbEntity
  8
0
100
AcDbLine
 10
78.57335
 20
141.9905
 30
0.0
 11
79.71915
 21
141.4565
 31
0.0
  0
LINE
  5
619
330
1E
100
AcDbEntity
  8
0
100
AcDbLine
 10
78.57335
 20
141.9905
 30
0.0
 11
78.935117112133
 21
142.766510144696
 31
0.0
  0
LINE
  5
61A
330
1E
100
AcDbEntity
  8
0
100
AcDbLine
 10
80.65815
 20
142.1215
 30
0.0
 11
82.44435
 21
141.2885
 31
0.0
  0
LINE
  5
61B
330
1E
100
AcDbEntity
  8
0
100
AcDbLine
 10
78.82108382344
 20
142.978514705924
 30
0.0
 11
80.65815
 21
142.1215
 31
0.0
  0
LINE
  5
61C
330
1E
100
AcDbEntity
  8
0
100
AcDbLine
 10
78.821083823441
 20
142.978514705924
 30
0.0
 11
80.65815
 21
142.1215
 31
0.0
  0
LINE
  5
61D
330
1E
100
AcDbEntity
  8
0
100
AcDbLine
 10
82.99324294193
 20
142.13605584917
 30
0.0
 11
83.52845
 21
141.8865
 31
0.0
  0
LINE
  5
61E
330
1E
100
AcDbEntity
  8
0
100
AcDbLine
 10
80.94845
 20
143.0895
 30
0.0
 11
83.52845
 21
141.8865
 31
0.0
  0
LINE
  5
61F
330
1E
100
AcDbEntity
  8
0
100
AcDbLine
 10
83.52845
 20
141.8865
 30
0.0
 11
85.38075
 21
141.0235
 31
0.0
  0
LINE
  5
620
330
1E
100
AcDbEntity
  8
0
100
AcDbLine
 10
85.38075
 20
141.0235
 30
0.0
 11
86.57155
 21
140.4675
 31
0.0
  0
LINE
  5
621
330
1E
100
AcDbEntity
  8
0
100
AcDbLine
 10
86.57155
 20
140.4675
 30
0.0
 11
87.03465
 21
140.2515
 31
0.0
  0
LINE
  5
622
330
1E
100
AcDbEntity
  8
0
100
AcDbLine
 10
87.241409564881
 20
140.694908991366
 30
0.0
 11
100.64495
 21
124.5565
 31
0.0
  0
LINE
  5
623
330
1E
100
AcDbEntity
  8
0
100
AcDbLine
 10
95.271910048768
 20
157.999404245797
 30
0.0
 11
108.493258615507
 21
142.11972986486
 31
0.0
  0
LINE
  5
624
330
1E
100
AcDbEntity
  8
0
100
AcDbLine
 10
95.296592418702
 20
157.969759161144
 30
0.0
 11
95.90965
 21
159.2845
 31
0.0
  0
LINE
  5
625
330
1E
100
AcDbEntity
  8
0
100
AcDbLine
 10
87.03465
 20
140.2515
 30
0.0
 11
87.244694603247
 21
140.70195396435
 31
0.0
  0
LINE
  5
626
330
1E
100
AcDbEntity
  8
0
100
AcDbLine
 10
99.10685
 20
121.1145
 30
0.0
 11
99.30405
 21
121.5555
 31
0.0
  0
LINE
  5
627
330
1E
100
AcDbEntity
  8
0
100
AcDbLine
 10
99.10685
 20
121.1145
 30
0.0
 11
155.89045
 21
53.4524
 31
0.0
  0
LINE
  5
628
330
1E
100
AcDbEntity
  8
0
100
AcDbLine
 10
99.30405
 20
121.5555
 30
0.0
 11
99.85615
 21
122.7915
 31
0.0
  0
LINE
  5
629
330
1E
100
AcDbEntity
  8
0
100
AcDbLine
 10
99.85615
 20
122.7915
 30
0.0
 11
101.095258904114
 21
125.563915525124
 31
0.0
  0
LINE
  5
62A
330
1E
100
AcDbEntity
  8
0
100
AcDbLine
 10
108.493258615507
 20
142.11972986486
 30
0.0
 11
109.28245
 21
143.8845
 31
0.0
  0
LINE
  5
62B
330
1E
100
AcDbEntity
  8
0
100
AcDbLine
 10
108.493258615507
 20
142.11972986486
 30
0.0
 11
109.28245
 21
143.8845
 31
0.0
  0
LINE
  5
62C
330
1E
100
AcDbEntity
  8
0
100
AcDbLine
 10
109.28245
 20
143.8845
 30
0.0
 11
109.79445
 21
145.0325
 31
0.0
  0
LINE
  5
62D
330
1E
100
AcDbEntity
  8
0
100
AcDbLine
 10
109.79445
 20
145.0325
 30
0.0
 11
109.99145
 21
145.4735
 31
0.0
  0
LINE
  5
62E
330
1E
100
AcDbEntity
  8
0
100
AcDbLine
 10
95.67065
 20
160.4985
 30
0.0
 11
95.90965
 21
159.2845
 31
0.0
  0
LINE
  5
62F
330
1E
100
AcDbEntity
  8
0
100
AcDbLine
 10
82.57225
 20
166.6065
 30
0.0
 11
86.40905
 21
164.8185
 31
0.0
  0
LINE
  5
630
330
1E
100
AcDbEntity
  8
0
100
AcDbLine
 10
86.40905
 20
164.8185
 30
0.0
 11
89.71685
 21
163.2755
 31
0.0
  0
LINE
  5
631
330
1E
100
AcDbEntity
  8
0
100
AcDbLine
 10
89.71685
 20
163.2755
 30
0.0
 11
92.16455
 21
162.1335
 31
0.0
  0
LINE
  5
632
330
1E
100
AcDbEntity
  8
0
100
AcDbLine
 10
92.16455
 20
162.1335
 30
0.0
 11
94.08305
 21
161.2395
 31
0.0
  0
LINE
  5
633
330
1E
100
AcDbEntity
  8
0
100
AcDbLine
 10
94.08305
 20
161.2395
 30
0.0
 11
95.20755
 21
160.7155
 31
0.0
  0
LINE
  5
634
330
1E
100
AcDbEntity
  8
0
100
AcDbLine
 10
95.20755
 20
160.7155
 30
0.0
 11
95.67065
 21
160.4985
 31
0.0
  0
LINE
  5
635
330
1E
100
AcDbEntity
  8
0
100
AcDbLine
 10
78.13985
 20
168.6745
 30
0.0
 11
82.57225
 21
166.6065
 31
0.0
  0
LINE
  5
636
330
1E
100
AcDbEntity
  8
0
100
AcDbLine
 10
73.24455
 20
170.9565
 30
0.0
 11
78.13985
 21
168.6745
 31
0.0
  0
LINE
  5
637
330
1E
100
AcDbEntity
  8
0
100
AcDbLine
 10
68.08455
 20
173.3625
 30
0.0
 11
73.24455
 21
170.9565
 31
0.0
  0
LINE
  5
638
330
1E
100
AcDbEntity
  8
0
100
AcDbLine
 10
62.26295
 20
176.0775
 30
0.0
 11
68.08455
 21
173.3625
 31
0.0
  0
LINE
  5
639
330
1E
100
AcDbEntity
  8
0
100
AcDbLine
 10
56.77225
 20
178.6375
 30
0.0
 11
62.26295
 21
176.0775
 31
0.0
  0
LINE
  5
63A
330
1E
100
AcDbEntity
  8
0
100
AcDbLine
 10
51.86225
 20
183.1335
 30
0.0
 11
95.67065
 21
160.4985
 31
0.0
  0
LINE
  5
63B
330
1E
100
AcDbEntity
  8
0
100
AcDbLine
 10
51.01695
 20
181.3215
 30
0.0
 11
56.77225
 21
178.6375
 31
0.0
  0
LINE
  5
63C
330
1E
100
AcDbEntity
  8
0
100
AcDbLine
 10
19.46145
 20
196.0365
 30
0.0
 11
23.89335
 21
193.9695
 31
0.0
  0
LINE
  5
63D
330
1E
100
AcDbEntity
  8
0
100
AcDbLine
 10
23.89335
 20
193.9695
 30
0.0
 11
28.78895
 21
191.6865
 31
0.0
  0
LINE
  5
63E
330
1E
100
AcDbEntity
  8
0
100
AcDbLine
 10
28.78895
 20
191.6865
 30
0.0
 11
33.94935
 21
189.2805
 31
0.0
  0
LINE
  5
63F
330
1E
100
AcDbEntity
  8
0
100
AcDbLine
 10
33.94935
 20
189.2805
 30
0.0
 11
39.77105
 21
186.5665
 31
0.0
  0
LINE
  5
640
330
1E
100
AcDbEntity
  8
0
100
AcDbLine
 10
39.77105
 20
186.5665
 30
0.0
 11
45.26115
 21
184.0045
 31
0.0
  0
LINE
  5
641
330
1E
100
AcDbEntity
  8
0
100
AcDbLine
 10
45.26115
 20
184.0045
 30
0.0
 11
51.01695
 21
181.3215
 31
0.0
  0
LINE
  5
642
330
1E
100
AcDbEntity
  8
0
100
AcDbLine
 10
15.62485
 20
197.8255
 30
0.0
 11
19.46145
 21
196.0365
 31
0.0
  0
LINE
  5
643
330
1E
100
AcDbEntity
  8
0
100
AcDbLine
 10
12.31685
 20
199.3685
 30
0.0
 11
15.62485
 21
197.8255
 31
0.0
  0
LINE
  5
644
330
1E
100
AcDbEntity
  8
0
100
AcDbLine
 10
9.86906
 20
200.5095
 30
0.0
 11
12.31685
 21
199.3685
 31
0.0
  0
LINE
  5
645
330
1E
100
AcDbEntity
  8
0
100
AcDbLine
 10
7.95083
 20
201.4035
 30
0.0
 11
9.86906
 21
200.5095
 31
0.0
  0
LINE
  5
646
330
1E
100
AcDbEntity
  8
0
100
AcDbLine
 10
6.82579
 20
201.9285
 30
0.0
 11
7.95083
 21
201.4035
 31
0.0
  0
LINE
  5
647
330
1E
100
AcDbEntity
  8
0
100
AcDbLine
 10
6.36325
 20
202.1435
 30
0.0
 11
6.82579
 21
201.9285
 31
0.0
  0
LINE
  5
648
330
1E
100
AcDbEntity
  8
0
100
AcDbLine
 10
6.36325
 20
202.1435
 30
0.0
 11
51.86225
 21
183.1335
 31
0.0
  0
LINE
  5
649
330
1E
100
AcDbEntity
  8
0
100
AcDbLine
 10
6.36325
 20
202.1435
 30
0.0
 11
51.86225
 21
183.1335
 31
0.0
  0
LINE
  5
64A
330
1E
100
AcDbEntity
  8
0
100
AcDbLine
 10
109.99145
 20
145.4735
 30
0.0
 11
174.22145
 21
68.934
 31
0.0
  0
LINE
  5
64B
330
1E
100
AcDbEntity
  8
0
100
AcDbLine
 10
245.45245
 20
0.0755
 30
0.0
 11
245.60945
 21
0.0755
 31
0.0
  0
LINE
  5
64C
330
1E
100
AcDbEntity
  8
0
100
AcDbLine
 10
245.45245
 20
0.0755
 30
0.0
 11
245.68745
 21
0.0755
 31
0.0
  0
LINE
  5
64D
330
1E
100
AcDbEntity
  8
0
100
AcDbLine
 10
245.45145
 20
0.0755
 30
0.0
 11
245.68845
 21
0.0755
 31
0.0
  0
LINE
  5
64E
330
1E
100
AcDbEntity
  8
0
100
AcDbLine
 10
245.68745
 20
0.0755
 30
0.0
 11
245.97445
 21
0.272846
 31
0.0
  0
LINE
  5
64F
330
1E
100
AcDbEntity
  8
0
100
AcDbLine
 10
245.68745
 20
0.0755
 30
0.0
 11
245.97445
 21
0.272846
 31
0.0
  0
LINE
  5
650
330
1E
100
AcDbEntity
  8
0
100
AcDbLine
 10
176.11445
 20
0.213112
 30
0.0
 11
176.39545
 21
7.15828
 31
0.0
  0
LINE
  5
651
330
1E
100
AcDbEntity
  8
0
100
AcDbLine
 10
176.11445
 20
0.213112
 30
0.0
 11
176.39545
 21
7.15828
 31
0.0
  0
LINE
  5
652
330
1E
100
AcDbEntity
  8
0
100
AcDbLine
 10
176.11445
 20
0.213112
 30
0.0
 11
176.34045
 21
0.0755
 31
0.0
  0
LINE
  5
653
330
1E
100
AcDbEntity
  8
0
100
AcDbLine
 10
176.11445
 20
0.213112
 30
0.0
 11
176.34045
 21
0.0755
 31
0.0
  0
LINE
  5
654
330
1E
100
AcDbEntity
  8
0
100
AcDbLine
 10
176.34045
 20
0.0755
 30
0.0
 11
176.41845
 21
0.0755
 31
0.0
  0
LINE
  5
655
330
1E
100
AcDbEntity
  8
0
100
AcDbLine
 10
176.39545
 20
7.15828
 30
0.0
 11
176.52645
 21
7.86736
 31
0.0
  0
LINE
  5
656
330
1E
100
AcDbEntity
  8
0
100
AcDbLine
 10
177.20145
 20
8.72683
 30
0.0
 11
178.27945
 21
9.05087
 31
0.0
  0
LINE
  5
657
330
1E
100
AcDbEntity
  8
0
100
AcDbLine
 10
178.40745
 20
9.05087
 30
0.0
 11
182.56445
 21
9.2755
 31
0.0
  0
LINE
  5
658
330
1E
100
AcDbEntity
  8
0
100
AcDbLine
 10
178.27945
 20
9.05087
 30
0.0
 11
178.40845
 21
9.05087
 31
0.0
  0
LINE
  5
659
330
1E
100
AcDbEntity
  8
0
100
AcDbLine
 10
178.27945
 20
9.05087
 30
0.0
 11
178.40745
 21
9.05087
 31
0.0
  0
LINE
  5
65A
330
1E
100
AcDbEntity
  8
0
100
AcDbLine
 10
176.52645
 20
7.86736
 30
0.0
 11
177.20145
 21
8.72683
 31
0.0
  0
LINE
  5
65B
330
1E
100
AcDbEntity
  8
0
100
AcDbLine
 10
182.56445
 20
9.2755
 30
0.0
 11
182.70645
 21
9.2755
 31
0.0
  0
LINE
  5
65C
330
1E
100
AcDbEntity
  8
0
100
AcDbLine
 10
182.71845
 20
9.2755
 30
0.0
 11
182.86745
 21
9.2755
 31
0.0
  0
LINE
  5
65D
330
1E
100
AcDbEntity
  8
0
100
AcDbLine
 10
182.86745
 20
9.2755
 30
0.0
 11
183.42745
 21
9.2755
 31
0.0
  0
LINE
  5
65E
330
1E
100
AcDbEntity
  8
0
100
AcDbLine
 10
184.00148157751
 20
9.2755
 30
0.0
 11
184.746106785869
 21
9.453996777647
 31
0.0
  0
LINE
  5
65F
330
1E
100
AcDbEntity
  8
0
100
AcDbLine
 10
183.13045
 20
9.2755
 30
0.0
 11
183.83545
 21
9.2755
 31
0.0
  0
LINE
  5
660
330
1E
100
AcDbEntity
  8
0
100
AcDbLine
 10
184.746106785869
 20
9.453996777647
 30
0.0
 11
185.39645
 21
10.1478
 31
0.0
  0
LINE
  5
661
330
1E
100
AcDbEntity
  8
0
100
AcDbLine
 10
182.70645
 20
9.2755
 30
0.0
 11
183.13045
 21
9.2755
 31
0.0
  0
LINE
  5
662
330
1E
100
AcDbEntity
  8
0
100
AcDbLine
 10
185.39645
 20
10.1478
 30
0.0
 11
185.866074425727
 21
11.044997990046
 31
0.0
  0
LINE
  5
663
330
1E
100
AcDbEntity
  8
0
100
AcDbLine
 10
233.78745
 20
9.65586
 30
0.0
 11
236.002229621111
 21
9.2755
 31
0.0
  0
LINE
  5
664
330
1E
100
AcDbEntity
  8
0
100
AcDbLine
 10
185.866074425727
 20
11.044997990046
 30
0.0
 11
186.00445
 21
12.3266
 31
0.0
  0
LINE
  5
665
330
1E
100
AcDbEntity
  8
0
100
AcDbLine
 10
185.60945
 20
13.589
 30
0.0
 11
186.00445
 21
12.3266
 31
0.0
  0
LINE
  5
666
330
1E
100
AcDbEntity
  8
0
100
AcDbLine
 10
231.45512058259
 20
10.554788717557
 30
0.0
 11
233.78745
 21
9.65586
 31
0.0
  0
LINE
  5
667
330
1E
100
AcDbEntity
  8
0
100
AcDbLine
 10
228.79845
 20
12.2607
 30
0.0
 11
229.42045
 21
11.7934
 31
0.0
  0
LINE
  5
668
330
1E
100
AcDbEntity
  8
0
100
AcDbLine
 10
229.42045
 20
11.7934
 30
0.0
 11
231.45512058259
 21
10.554788717557
 31
0.0
  0
LINE
  5
669
330
1E
100
AcDbEntity
  8
0
100
AcDbLine
 10
185.866074425727
 20
11.044997990046
 30
0.0
 11
186.00445
 21
12.3266
 31
0.0
  0
LINE
  5
66A
330
1E
100
AcDbEntity
  8
0
100
AcDbLine
 10
185.11845
 20
14.275
 30
0.0
 11
185.60945
 21
13.589
 31
0.0
  0
LINE
  5
66B
330
1E
100
AcDbEntity
  8
0
100
AcDbLine
 10
226.86045
 20
14.2755
 30
0.0
 11
227.279677285216
 21
13.732519420048
 31
0.0
  0
LINE
  5
66C
330
1E
100
AcDbEntity
  8
0
100
AcDbLine
 10
192.41645
 20
55.3298
 30
0.0
 11
226.86045
 21
14.2755
 31
0.0
  0
LINE
  5
66D
330
1E
100
AcDbEntity
  8
0
100
AcDbLine
 10
178.98945
 20
70.9292
 30
0.0
 11
179.85445
 21
70.2459
 31
0.0
  0
LINE
  5
66E
330
1E
100
AcDbEntity
  8
0
100
AcDbLine
 10
177.72345
 20
70.9105
 30
0.0
 11
178.98945
 21
70.9292
 31
0.0
  0
LINE
  5
66F
330
1E
100
AcDbEntity
  8
0
100
AcDbLine
 10
177.44445
 20
70.6537
 30
0.0
 11
177.72345
 21
70.9105
 31
0.0
  0
LINE
  5
670
330
1E
100
AcDbEntity
  8
0
100
AcDbLine
 10
179.855331746159
 20
70.245203471503
 30
0.0
 11
191.90745
 21
55.9472
 31
0.0
  0
LINE
  5
671
330
1E
100
AcDbEntity
  8
0
100
AcDbLine
 10
243.58245
 20
9.13787
 30
0.0
 11
245.01045
 21
8.4684
 31
0.0
  0
LINE
  5
672
330
1E
100
AcDbEntity
  8
0
100
AcDbLine
 10
245.63245
 20
7.15828
 30
0.0
 11
245.97445
 21
0.272846
 31
0.0
  0
LINE
  5
673
330
1E
100
AcDbEntity
  8
0
100
AcDbLine
 10
245.63245
 20
7.15828
 30
0.0
 11
245.97445
 21
0.272846
 31
0.0
  0
LINE
  5
674
330
1E
100
AcDbEntity
  8
0
100
AcDbLine
 10
245.01045
 20
8.4684
 30
0.0
 11
245.42245
 21
7.86938
 31
0.0
  0
LINE
  5
675
330
1E
100
AcDbEntity
  8
0
100
AcDbLine
 10
245.42245
 20
7.86938
 30
0.0
 11
245.63245
 21
7.15828
 31
0.0
  0
LINE
  5
676
330
1E
100
AcDbEntity
  8
0
100
AcDbLine
 10
227.279677285216
 20
13.732519420048
 30
0.0
 11
228.79845
 21
12.2607
 31
0.0
  0
LINE
  5
677
330
1E
100
AcDbEntity
  8
0
100
AcDbLine
 10
176.41845
 20
0.0755
 30
0.0
 11
245.45145
 21
0.0755
 31
0.0
  0
LINE
  5
678
330
1E
100
AcDbEntity
  8
0
100
AcDbLine
 10
236.002229621111
 20
9.2755
 30
0.0
 11
243.58245
 21
9.13787
 31
0.0
  0
LINE
  5
679
330
1E
100
AcDbEntity
  8
0
100
AcDbLine
 10
236.002229621111
 20
9.2755
 30
0.0
 11
183.83545
 21
9.2755
 31
0.0
  0
LINE
  5
67A
330
1E
100
AcDbEntity
  8
0
100
AcDbLine
 10
156.36545
 20
52.978
 30
0.0
 11
171.658038653744
 21
65.72626344926
 31
0.0
  0
LINE
  5
67B
330
1E
100
AcDbEntity
  8
0
100
AcDbLine
 10
171.96445
 20
65.9792
 30
0.0
 11
174.169763101317
 21
67.881593027107
 31
0.0
  0
LINE
  5
67C
330
1E
100
AcDbEntity
  8
0
100
AcDbLine
 10
174.169763101317
 20
67.881593027107
 30
0.0
 11
177.44445
 21
70.6537
 31
0.0
  0
LINE
  5
67D
330
1E
100
AcDbEntity
  8
0
100
AcDbLine
 10
167.39945
 20
35.3819
 30
0.0
 11
191.90745
 21
55.9472
 31
0.0
  0
LINE
  5
67E
330
1E
100
AcDbEntity
  8
0
100
AcDbLine
 10
191.90745
 20
55.9472
 30
0.0
 11
192.41645
 21
55.3298
 31
0.0
  0
LINE
  5
67F
330
1E
100
AcDbEntity
  8
0
100
AcDbLine
 10
192.41645
 20
55.3298
 30
0.0
 11
167.90345
 21
34.7612
 31
0.0
  0
LINE
  5
680
330
1E
100
AcDbEntity
  8
0
100
AcDbLine
 10
167.90345
 20
34.7612
 30
0.0
 11
167.39945
 21
35.3819
 31
0.0
  0
LINE
  5
681
330
1E
100
AcDbEntity
  8
0
100
AcDbLine
 10
108.493258615507
 20
142.11972986486
 30
0.0
 11
101.095258904114
 21
125.563915525124
 31
0.0
  0
LINE
  5
682
330
1E
100
AcDbEntity
  8
0
100
AcDbLine
 10
95.296592418702
 20
157.969759161144
 30
0.0
 11
87.244694603247
 21
140.70195396435
 31
0.0
  0
LINE
  5
683
330
1E
100
AcDbEntity
  8
0
100
AcDbLine
 10
178.00745
 20
10.0755
 30
0.0
 11
178.00745
 21
8.96910851577
 31
0.0
  0
ENDSEC
  0
SECTION
  2
OBJECTS
  0
DICTIONARY
  5
C
330
0
100
AcDbDictionary
281
     1
  3
ACAD_GROUP
350
D
  3
ACAD_LAYOUT
350
19
  3
ACAD_MLEADERSTYLE
350
686
  3
ACAD_MLINESTYLE
350
16
  3
ACAD_PLOTSETTINGS
350
18
  3
ACAD_PLOTSTYLENAME
350
E
  3
ACAD_SCALELIST
350
1FC
  3
AcDbVariableDictionary
350
1F9
  3
DWGPROPS
350
689
  0
DICTIONARY
  5
D
102
{ACAD_REACTORS
330
C
102
}
330
C
100
AcDbDictionary
281
     1
  0
DICTIONARY
  5
19
102
{ACAD_REACTORS
330
C
102
}
330
C
100
AcDbDictionary
281
     1
  3
Layout1
350
1D
  3
Model
350
21
  0
DICTIONARY
  5
686
102
{ACAD_REACTORS
330
C
102
}
330
C
100
AcDbDictionary
281
     1
  0
DICTIONARY
  5
16
102
{ACAD_REACTORS
330
C
102
}
330
C
100
AcDbDictionary
281
     1
  3
Standard
350
17
  0
DICTIONARY
  5
18
102
{ACAD_REACTORS
330
C
102
}
330
C
100
AcDbDictionary
281
     1
  0
ACDBDICTIONARYWDFLT
  5
E
102
{ACAD_REACTORS
330
C
102
}
330
C
100
AcDbDictionary
281
     1
  3
Normal
350
F
100
AcDbDictionaryWithDefault
340
F
  0
DICTIONARY
  5
1FC
102
{ACAD_REACTORS
330
C
102
}
330
C
100
AcDbDictionary
281
     1
  3
A0
350
1FD
  3
A1
350
1FE
  3
A2
350
1FF
  3
A3
350
200
  3
A4
350
201
  3
A5
350
202
  3
A6
350
203
  3
A7
350
204
  3
A8
350
205
  3
A9
350
206
  3
B0
350
207
  3
B1
350
208
  3
B2
350
209
  3
B3
350
20A
  3
B4
350
20B
  3
B5
350
20C
  3
B6
350
20D
  3
B7
350
20E
  3
B8
350
20F
  3
B9
350
210
  3
C0
350
211
  3
C1
350
212
  3
C2
350
213
  3
C3
350
214
  3
C4
350
215
  3
C5
350
216
  3
C6
350
217
  3
C7
350
218
  3
C8
350
219
  3
C9
350
21A
  3
D0
350
21B
  3
D1
350
21C
  3
D2
350
21D
  0
DICTIONARY
  5
1F9
102
{ACAD_REACTORS
330
C
102
}
330
C
100
AcDbDictionary
281
     1
  3
CANNOSCALE
350
687
  3
DIMASSOC
350
1FA
  0
XRECORD
  5
689
102
{ACAD_REACTORS
330
C
102
}
330
C
100
AcDbXrecord
280
     1
  1
DWGPROPS COOKIE
  2

  3

  4

  6

  7

  8
MARTIN
  9

300
=
301
=
302
=
303
=
304
=
305
=
306
=
307
=
308
=
309
=
 40
0.0
 41
2454745.572974167
 42
2456209.508868264
  1

 90
        0
  0
LAYOUT
  5
1D
102
{ACAD_REACTORS
330
19
102
}
330
19
100
AcDbPlotSettings
  1

  2
hp deskjet 980c series
  4

  6

 40
0.0
 41
0.0
 42
0.0
 43
0.0
 44
0.0
 45
0.0
 46
0.0
 47
0.0
 48
0.0
 49
0.0
140
0.0
141
0.0
142
1.0
143
1.0
 70
   688
 72
     0
 73
     0
 74
     5
  7

 75
    16
147
1.0
148
0.0
149
0.0
100
AcDbLayout
  1
Layout1
 70
     1
 71
     1
 10
0.0
 20
0.0
 11
12.0
 21
9.0
 12
0.0
 22
0.0
 32
0.0
 14
1.000000000000E+20
 24
1.000000000000E+20
 34
1.000000000000E+20
 15
-1.000000000000E+20
 25
-1.000000000000E+20
 35
-1.000000000000E+20
146
0.0
 13
0.0
 23
0.0
 33
0.0
 16
1.0
 26
0.0
 36
0.0
 17
0.0
 27
1.0
 37
0.0
 76
     0
330
1A
  0
LAYOUT
  5
21
102
{ACAD_REACTORS
330
19
102
}
330
19
100
AcDbPlotSettings
  1

  2
hp deskjet 980c series
  4

  6

 40
0.0
 41
0.0
 42
0.0
 43
0.0
 44
0.0
 45
0.0
 46
0.0
 47
0.0
 48
0.0
 49
0.0
140
0.0
141
0.0
142
1.0
143
1.0
 70
  1712
 72
     0
 73
     0
 74
     0
  7

 75
     0
147
1.0
148
0.0
149
0.0
100
AcDbLayout
  1
Model
 70
     1
 71
     0
 10
0.0
 20
0.0
 11
12.0
 21
9.0
 12
0.0
 22
0.0
 32
0.0
 14
-3.59585
 24
0.0755
 34
0.0
 15
257.12145
 25
202.1435
 35
0.0
146
0.0
 13
0.0
 23
0.0
 33
0.0
 16
1.0
 26
0.0
 36
0.0
 17
0.0
 27
1.0
 37
0.0
 76
     0
330
1E
331
1FB
  0
MLINESTYLE
  5
17
102
{ACAD_REACTORS
330
16
102
}
330
16
100
AcDbMlineStyle
  2
STANDARD
 70
     0
  3

 62
   256
 51
90.0
 52
90.0
 71
     2
 49
0.5
 62
   256
  6
BYLAYER
 49
-0.5
 62
   256
  6
BYLAYER
  0
ACDBPLACEHOLDER
  5
F
102
{ACAD_REACTORS
330
E
102
}
330
E
  0
SCALE
  5
1FD
102
{ACAD_REACTORS
330
1FC
102
}
330
1FC
100
AcDbScale
 70
     0
300
1:1
140
1.0
141
1.0
290
     1
  0
SCALE
  5
1FE
102
{ACAD_REACTORS
330
1FC
102
}
330
1FC
100
AcDbScale
 70
     0
300
1:2
140
1.0
141
2.0
290
     0
  0
SCALE
  5
1FF
102
{ACAD_REACTORS
330
1FC
102
}
330
1FC
100
AcDbScale
 70
     0
300
1:4
140
1.0
141
4.0
290
     0
  0
SCALE
  5
200
102
{ACAD_REACTORS
330
1FC
102
}
330
1FC
100
AcDbScale
 70
     0
300
1:5
140
1.0
141
5.0
290
     0
  0
SCALE
  5
201
102
{ACAD_REACTORS
330
1FC
102
}
330
1FC
100
AcDbScale
 70
     0
300
1:8
140
1.0
141
8.0
290
     0
  0
SCALE
  5
202
102
{ACAD_REACTORS
330
1FC
102
}
330
1FC
100
AcDbScale
 70
     0
300
1:10
140
1.0
141
10.0
290
     0
  0
SCALE
  5
203
102
{ACAD_REACTORS
330
1FC
102
}
330
1FC
100
AcDbScale
 70
     0
300
1:16
140
1.0
141
16.0
290
     0
  0
SCALE
  5
204
102
{ACAD_REACTORS
330
1FC
102
}
330
1FC
100
AcDbScale
 70
     0
300
1:20
140
1.0
141
20.0
290
     0
  0
SCALE
  5
205
102
{ACAD_REACTORS
330
1FC
102
}
330
1FC
100
AcDbScale
 70
     0
300
1:30
140
1.0
141
30.0
290
     0
  0
SCALE
  5
206
102
{ACAD_REACTORS
330
1FC
102
}
330
1FC
100
AcDbScale
 70
     0
300
1:40
140
1.0
141
40.0
290
     0
  0
SCALE
  5
207
102
{ACAD_REACTORS
330
1FC
102
}
330
1FC
100
AcDbScale
 70
     0
300
1:50
140
1.0
141
50.0
290
     0
  0
SCALE
  5
208
102
{ACAD_REACTORS
330
1FC
102
}
330
1FC
100
AcDbScale
 70
     0
300
1:100
140
1.0
141
100.0
290
     0
  0
SCALE
  5
209
102
{ACAD_REACTORS
330
1FC
102
}
330
1FC
100
AcDbScale
 70
     0
300
2:1
140
2.0
141
1.0
290
     0
  0
SCALE
  5
20A
102
{ACAD_REACTORS
330
1FC
102
}
330
1FC
100
AcDbScale
 70
     0
300
4:1
140
4.0
141
1.0
290
     0
  0
SCALE
  5
20B
102
{ACAD_REACTORS
330
1FC
102
}
330
1FC
100
AcDbScale
 70
     0
300
8:1
140
8.0
141
1.0
290
     0
  0
SCALE
  5
20C
102
{ACAD_REACTORS
330
1FC
102
}
330
1FC
100
AcDbScale
 70
     0
300
10:1
140
10.0
141
1.0
290
     0
  0
SCALE
  5
20D
102
{ACAD_REACTORS
330
1FC
102
}
330
1FC
100
AcDbScale
 70
     0
300
100:1
140
100.0
141
1.0
290
     0
  0
SCALE
  5
20E
102
{ACAD_REACTORS
330
1FC
102
}
330
1FC
100
AcDbScale
 70
     0
300
1/128" = 1'-0"
140
0.0078125
141
12.0
290
     0
  0
SCALE
  5
20F
102
{ACAD_REACTORS
330
1FC
102
}
330
1FC
100
AcDbScale
 70
     0
300
1/64" = 1'-0"
140
0.015625
141
12.0
290
     0
  0
SCALE
  5
210
102
{ACAD_REACTORS
330
1FC
102
}
330
1FC
100
AcDbScale
 70
     0
300
1/32" = 1'-0"
140
0.03125
141
12.0
290
     0
  0
SCALE
  5
211
102
{ACAD_REACTORS
330
1FC
102
}
330
1FC
100
AcDbScale
 70
     0
300
1/16" = 1'-0"
140
0.0625
141
12.0
290
     0
  0
SCALE
  5
212
102
{ACAD_REACTORS
330
1FC
102
}
330
1FC
100
AcDbScale
 70
     0
300
3/32" = 1'-0"
140
0.09375
141
12.0
290
     0
  0
SCALE
  5
213
102
{ACAD_REACTORS
330
1FC
102
}
330
1FC
100
AcDbScale
 70
     0
300
1/8" = 1'-0"
140
0.125
141
12.0
290
     0
  0
SCALE
  5
214
102
{ACAD_REACTORS
330
1FC
102
}
330
1FC
100
AcDbScale
 70
     0
300
3/16" = 1'-0"
140
0.1875
141
12.0
290
     0
  0
SCALE
  5
215
102
{ACAD_REACTORS
330
1FC
102
}
330
1FC
100
AcDbScale
 70
     0
300
1/4" = 1'-0"
140
0.25
141
12.0
290
     0
  0
SCALE
  5
216
102
{ACAD_REACTORS
330
1FC
102
}
330
1FC
100
AcDbScale
 70
     0
300
3/8" = 1'-0"
140
0.375
141
12.0
290
     0
  0
SCALE
  5
217
102
{ACAD_REACTORS
330
1FC
102
}
330
1FC
100
AcDbScale
 70
     0
300
1/2" = 1'-0"
140
0.5
141
12.0
290
     0
  0
SCALE
  5
218
102
{ACAD_REACTORS
330
1FC
102
}
330
1FC
100
AcDbScale
 70
     0
300
3/4" = 1'-0"
140
0.75
141
12.0
290
     0
  0
SCALE
  5
219
102
{ACAD_REACTORS
330
1FC
102
}
330
1FC
100
AcDbScale
 70
     0
300
1" = 1'-0"
140
1.0
141
12.0
290
     0
  0
SCALE
  5
21A
102
{ACAD_REACTORS
330
1FC
102
}
330
1FC
100
AcDbScale
 70
     0
300
1-1/2" = 1'-0"
140
1.5
141
12.0
290
     0
  0
SCALE
  5
21B
102
{ACAD_REACTORS
330
1FC
102
}
330
1FC
100
AcDbScale
 70
     0
300
3" = 1'-0"
140
3.0
141
12.0
290
     0
  0
SCALE
  5
21C
102
{ACAD_REACTORS
330
1FC
102
}
330
1FC
100
AcDbScale
 70
     0
300
6" = 1'-0"
140
6.0
141
12.0
290
     0
  0
SCALE
  5
21D
102
{ACAD_REACTORS
330
1FC
102
}
330
1FC
100
AcDbScale
 70
     0
300
1'-0" = 1'-0"
140
12.0
141
12.0
290
     0
  0
DICTIONARYVAR
  5
687
102
{ACAD_REACTORS
330
1F9
102
}
330
1F9
100
DictionaryVariables
280
     0
  1
1:1
  0
DICTIONARYVAR
  5
1FA
102
{ACAD_REACTORS
330
1F9
102
}
330
1F9
100
DictionaryVariables
280
     0
  1
1
  0
ENDSEC
  0
SECTION
  2
THUMBNAILIMAGE
 90
    16364
310
28000000B40000005500000001000800000000000000000000000000000000000000000000000000FFFFFF000000FF0000FFFF0000FF0000FFFF0000FF000000FF00FF000000000080808000C0C0C0000000FF007F7FFF000000A5005252A50000007F003F3F7F0000004C0026264C000000260013132600003FFF007F9FFF
310
000029A5005267A500001F7F003F4F7F0000134C00262F4C000009260013172600007FFF007FBFFF000052A500527CA500003F7F003F5F7F0000264C0026394C0000132600131C260000BFFF007FDFFF00007CA5005291A500005F7F003F6F7F0000394C0026424C00001C26001321260000FFFF007FFFFF0000A5A50052A5
310
A500007F7F003F7F7F00004C4C00264C4C00002626001326260000FFBF007FFFDF0000A57C0052A59100007F5F003F7F6F00004C3900264C420000261C001326210000FF7F007FFFBF0000A5520052A57C00007F3F003F7F5F00004C2600264C39000026130013261C0000FF3F007FFF9F0000A5290052A56700007F1F003F
310
7F4F00004C1300264C2F00002609001326170000FF00007FFF7F0000A5000052A55200007F00003F7F3F00004C0000264C260000260000132613003FFF00009FFF7F0029A5000067A552001F7F00004F7F3F00134C00002F4C260009260000172613007FFF0000BFFF7F0052A500007CA552003F7F00005F7F3F00264C0000
310
394C2600132600001C261300BFFF0000DFFF7F007CA5000091A552005F7F00006F7F3F00394C0000424C26001C26000021261300FFFF0000FFFF7F00A5A50000A5A552007F7F00007F7F3F004C4C00004C4C26002626000026261300FFBF0000FFDF7F00A57C0000A59152007F5F00007F6F3F004C3900004C422600261C00
310
0026211300FF7F0000FFBF7F00A5520000A57C52007F3F00007F5F3F004C2600004C39260026130000261C1300FF3F0000FF9F7F00A5290000A56752007F1F00007F4F3F004C1300004C2F26002609000026171300FF000000FF7F7F00A5000000A55252007F0000007F3F3F004C0000004C2626002600000026131300FF00
310
3F00FF7F9F00A5002900A55267007F001F007F3F4F004C0013004C262F002600090026131700FF007F00FF7FBF00A5005200A5527C007F003F007F3F5F004C0026004C2639002600130026131C00FF00BF00FF7FDF00A5007C00A55291007F005F007F3F6F004C0039004C26420026001C0026132100FF00FF00FF7FFF00A5
310
00A500A552A5007F007F007F3F7F004C004C004C264C002600260026132600BF00FF00DF7FFF007C00A5009152A5005F007F006F3F7F0039004C0042264C001C002600211326007F00FF00BF7FFF005200A5007C52A5003F007F005F3F7F0026004C0039264C00130026001C1326003F00FF009F7FFF002900A5006752A500
310
1F007F004F3F7F0013004C002F264C000900260017132600000000002D2D2D005B5B5B0089898900B7B7B700B3B3B30000000000000000000000000000000000000000000000000000000000000000000000000000000000000000000000000000000000000000000000000000000000000000000000000000000000000000
310
00000000000000000000000000000000000000000000000000000000000000070707070707070707070707070707070707070707070707070707070707000000000000000000000000000000000000000000000000000000000000000000000000000000000000000000000000000000000000000000000000000000000000
310
00000000000000000000000000000000000000000000000000000000000000000000000000000000000000000000000000000000000000000000000000000000000000000000000000000000000000000000000007000000000000000000000000000000000000000000000000000000000700000000000000000000000000
310
00000000000000000000000000000000000000000000000000000000000000000000000000000000000000000000000000000000000000000000000000000000000000000000000000000000000000000000000000000000000000000000000000000000000000000000000000000000000000000000000000000000000000
310
00000000000000000000070000000000000000000000000000000000000000000000000000000007000000000000000000000000000000000000000000000000000000000000000000000000000000000000000000000000000000000000000000000000000000000000000000000000000000000000000000000000000000
310
00000000000000000000000000000000000000000000000000000000000000000000000000000000000000000000000000000000000000000000000000000007070000000000000000000000000000000000000000000000000000000700000000000000000000000000000000000000000000000000000000000000000000
310
00000000000000000000000000000000000000000000000000000000000000000000000000000000000000000000000000000000000000000000000000000000000000000000000000000000000000000000000000000000000000000000000000000000000000000000000000000000000000000007070707070707070707
310
07070707070707070707070707070707070700000000000000000000000000000000000000000000000000000000000000000000000000000000000000000000000000000000000000000000000000000000000000000000000000000000000000000000000000000000000000000000000000000000000000000000000000
310
00000000000000000000000000000000000000000000000000000000000000000000000000000000000000070000070000000000000000000000000000000007070707000000000000000000000000000000000000000000000000000000000000000000000000000000000000000000000000000000000000000000000000
310
00000000000000000000000000000000000000000000000000000000000000000000000000000000000000000000000000000000000000000000000000000000000000000000000000000000000000000000000000000000000000000000000007000007000000000000000000000000000000000700070700000000000000
310
00000000000000000000000000000000000000000000000000000000000000000000000000000000000000000000000000000000000000000000000000000000000000000000000000000000000000000000000000000000000000000000000000000000000000000000000000000000000000000000000000000000000000
310
00000000000000000000000000000000000000000000070007000000000000000000000000000000000700000707000000000000000000000000000000000000000000000000000000000000000000000000000000000000000000000000000000000000000000000000000000000000000000000000000000000000000000
310
00000000000000000000000000000000000000000000000000000000000000000000000000000000000000000000000000000000000000000000000000000000000000000000000000000007070000000000000000000000000000000007000000070700000000000000000000000000000000000000000000000000000000
310
00000000000000000000000000000000000000000000000000000000000000000000000000000000000000000000000000000000000000000000000000000000000000000000000000000000000000000000000000000000000000000000000000000000000000000000000000000000000000000000000000000000000000
310
00070000000000000000000000000000000000070000000707000000000000000000000000000000000000000000000000000000000000000000000000000000000000000000000000000000000000000000000000000000000000000000000000000000000000000000000000000000000000000000000000000000000000
310
00000000000000000000000000000000000000000000000000000000000000000000000000000000000000000000000000000000000707000000000000000000000000000000000700000000070700000000000000000000000000000000000000000000000000000000000000000000000000000000000000000000000000
310
00000000000000000000000000000000000000000000000000000000000000000000000000000000000000000000000000000000000000000000000000000000000000000000000000000000000000000000000000000000000000000000000000000000000000000000070000000000000000000000000000000007000000
310
00000707000000000000000000000000000000000000000000000000000000000000000000000000000000000000000000000000000000000000000000000000000000000000000000000000000000000000000000000000000000000000000000000000000000000000000000000000000000000000000000000000000000
310
00000000000000000000000000000000000000000000000000000000000000070000000000000000000000000000000007000000000000070700000000000000000000000000000000000000000000000000000000000000000000000000000000000000000000000000000000000000000000000000000000000000000000
310
00000000000000000000000000000000000000000000000000000000000000000000000000000000000000000000000000000000000000000000000000000000000000000000000000000000000000000000000700000000000000000000000000000000070000000000000007000700000000000000000000000000000000
310
00000000000000000000000000000000000000000000000000000000000000000000000000000000000000000000000000000000000000000000000000000000000000000000000000000000000000000000000000000000000000000000000000000000000000000000000000000000000000000000000000000000000000
310
00000000000000000700000000000000000000000000000000070000000000000000070007000000000000000000000000000000000000000000000000000000000000000000000000000000000000000000000000000000000000000000000000000000000000000000000000000000000000000000000000000000000000
310
00000000000000000000000000000000000000000000000000000000000000000000000000000000000000000000000000000000000000000000000007000700000000000000000000000000000007000000000000000007000700000000000000000000000000000000000000000000000000000000000000000000000000
310
00000000000000000000000000000000000000000000000000000000000000000000000000000000000000000000000000000000000000000000000000000000000000000000000000000000000000000000000000000000000000000000000000000000000000000000000000000000070000000700000000000000000000
310
00000007000000000000000000070007000000000000000000000000000000000000000000000000000000000000000000000000000000000000000000000000000000000000000000000000000000000000000000000000000000000000000000000000000000000000000000000000000000000000000000000000000000
310
00000000000000000000000000000000000000000000000000000000000000000000000000070000000000070000000000000000000000070000000000000000000007000707000000000000000000000000000000000000000000000000000000000000000000000000000000000000000000000000000000000000000000
310
00000000000000000000000000000000000000000000000000000000000000000000000000000000000000000000000000000000000000000000000000000000000000000000000000000000000000000000000000000000000007000000000000070000000000000000000700000000000000000000000700070700000000
310
00000000000000000000000000000000000000000000000000000000000000000000000000000000000000000000000000000000000000000000000000000000000000000000000000000000000000000000000000000000000000000000000000000000000000000000000000000000000000000000000000000000000000
310
00000000000000000000000000000007000000000000000007070000000000000700000000000000000000000007000700070000000000000000000000000000000000000000000000000000000000000000000000000000000000000000000000000000000000000000000000000000000000000000000000000000000000
310
00000000000000000000000000000000000000000000000000000000000000000000000000000000000000000000000000000000000000000000000000000000000000070000000000000000000000070000000007000000000000000000000000000700070007000000000000000000000000000000000000000000000000
310
00000000000000000000000000000000000000000000000000000000000000000000000000000000000000000000000000000000000000000000000000000000000000000000000000000000000000000000000000000000000000000000000000000000000000000000000000000000000000000000000007000000000000
310
00000000000007000000070000000000000000000000000007000700000707070707070700000000000000000000000000000000000000000000000000000000000000000000000000000000000000000000000000000000000000000000000000000000000000000000000000000000000000000000000000000000000000
310
00000000000000000000000000000000000000000000000000000000000000000000000000000000000000000000070700000000000000000000000007000700000000000000000000000000000700070707000000000000070000000000000000000000000000000000000000000000000000000000000000000000000000
310
00000000000000000000000000000000000000000000000000000000000000000000000000000000000000000000000000000000000000000000000000000000000000000000000000000000000000000000000000000000000000000000000000000700070700000000000000000000000007070707070707070707070707
310
07070707000700070707070707070700000000000000000000000000000000000000000000000000000000000000000000000000000000000000000000000000000000000000000000000000000000000000000000000000000000000000000000000000000000000000000000000000000000000000000000000000000000
310
00000000000000000000000000000000000000000000000700000000070000000000000000000007000000000000000000000000000000000000070000000000000000000000000000000000000000000000000000000000000000000000000000000000000000000000000000000000000000000000000000000000000000
310
00000000000000000000000000000000000000000000000000000000000000000000000000000000000000000000000000000000000000000000000000000000000000000000000000000000070000000000070000000000000000070000000000000000000000000000000000000007000000000000000000000000000000
310
00000000000000000000000000000000000000000000000000000000000000000000000000000000000000000000000000000000000000000000000000000000000000000000000000000000000000000000000000000000000000000000000000000000000000000000000000000000000000000000000000000000000000
310
00070000000000000007070000000000070000000000000000000000000000000000000000070000000000000000000000000000000000000000000000000000000000000000000000000000000000000000000000000000000000000000000000000000000000000000000000000000000000000000000000000000000000
310
00000000000000000000000000000000000000000000000000000000000000000000000000000000000000000000000000000000000700000000000000000007070000000007000000000000000000000000000000000000000007000000000000000000000000000000000000000000000000000000000000000000000000
310
00000000000000000000000000000000000000000000000000000000000000000000000000000000000000000000000000000000000000000000000000000000000000000000000000000000000000000000000000000000000000000000000000000000000000000007000000000000000000000007070000070000000000
310
00000000000000000000000000000000070000000000000000000000000000000000000000000000000000000000000000000000000000000000000000000000000000000000000000000000000000000000000000000000000000000000000000000000000000000000000000000000000000000000000000000000000000
310
00000000000000000000000000000000000000000000000000000000000007000000000000000000000000070007070000000000000000000000000000000000000000000007000000000000000000000000000000000000000000000000000000000000000000000000000000000000000000000000000000000000000000
310
00000000000000000000000000000000000000000000000000000000000000000000000000000000000000000000000000000000000000000000000000000000000000000000000000000000000000000000070000000000000000000000000700000000000000000000000000000000000000000000000000000700000000
310
00000000000000000000000000000000000000000000000000000000000000000000000000000000000000000000000000000000000000000000000000000000000000000000000000000000000000000000000000000000000000000000000000000000000000000000000000000000000000000000000000000000000000
310
00000000000000000700000000000000000000000700000000000000000000000000000000000000000000000000000007000000000000000000000000000000000000000000000000000000000000000000000000000000000000000000000000000000000000000000000000000000000000000000000000000000000000
310
00000000000000000000000000000000000000000000000000000000000000000000000000000000000000000000000000000000000000000000000007000000000000000000000000070000000000000000000000000000000000000000000000000000000700000000000000000000000000000000000000000000000000
310
00000000000000000000000000000000000000000000000000000000000000000000000000000000000000000000000000000000000000000000000000000000000000000000000000000000000000000000000000000000000000000000000000000000000000000000000000000000070000000000000000000000000700
310
00000000000000000000000000000000000000000000000000000007000000000000000000000000000000000000000000000000000000000000000000000000000000000000000000000000000000000000000000000000000000000000000000000000000000000000000000000000000000000000000000000000000000
310
00000000000000000000000000000000000000000000000000000000000000000000000000070000000000000000000000000700000000000000000000000000000000000000000000000000000000000700000000000000000000000000000000000000000000000000000000000000000000000000000000000000000000
310
00000000000000000000000000000000000000000000000000000000000000000000000000000000000000000000000000000000000000000000000000000000000000000000000000000000000000000000000000000000000700000000000000000000000007000000000000000000000000000000000000000000000000
310
00000000000000070000000000000000000000000000000000000000000000000000000000000000000000000000000000000000000000000000000000000000000000000000000000000000000000000000000000000000000000000000000000000000000000000000000000000000000000000000000000000000000000
310
00000000000000000000000000000700000000000000000000000007000000000000000000000000000000000000000000000000000000000000000007000000000000000000000000000000000000000000000000000000000000000000000000000000000000000000000000000000000000000000000000000000000000
310
00000000000000000000000000000000000000000000000000000000000000000000000000000000000000000000000000000000000000000000000000000000000000070000000000000000000000070000000000000000000000000000000000000000000000000000000000000000000700000000000000000000000000
310
00000000000000000000000000000000000000000000000000000000000000000000000000000000000000000000000000000000000000000000000000000000000000000000000000000000000000000000000000000000000000000000000000000000000000000000000000000000000000000000000700000000000000
310
00000000000700000000000000000000000000000000000000000000000000000000000000000007000000000000000000000000000000000000000000000000000000000000000000000000000000000000000000000000000000000000000000000000000000000000000000000000000000000000000000000000000000
310
00000000000000000000000000000000000000000000000000000000000000000000000000000000000000000700000000000000000000000007000000000000000000000000000000000000000000000000000000000000000000000700000000000000000000000000000000000000000000000000000000000000000000
310
00000000000000000000000000000000000000000000000000000000000000000000000000000000000000000000000000000000000000000000000000000000000000000000000000000000000000000000000000000000000000000000000007000000000000000000000000070000000000000000000000000000000000
310
00000000000000000000000000000000000007000000000000000000000000000000000000000000000000000000000000000000000000000000000000000000000000000000000000000000000000000000000000000000000000000000000000000000000000000000000000000000000000000000000000000000000000
310
00000000000000000000000000000000000000000007000000000000000000000000070000000000000000000000000000000000000000000000000000000000000000000000000007000000000000000000000000000000000000000000000000000000000000000000000000000000000000000000000000000000000000
310
00000000000000000000000000000000000000000000000000000000070000000000000000000000000000000000000000000000000000000000000000000000000000000000000000000700000000000000000000000700000000000000000000000000000000000000000000000000000000000000000000000000000700
310
00000000000000000000000000000000000000000000000000000000000000000000000000000000000000000000000000000000000000000000000000000000000000000000000000000000000000000007070700000000000000000000000000000000000000000000000000000000000000000000000000000000000007
310
00000000000000000000000700000000000000000000000000000000000000000000000000000000000000000000000000000007000000000000000000000000000000000000000000000000000000000000000000000000000000000000000000000000000000000000000000000000000000000000000000000000000000
310
00000000000007070707070707070707070707070707070707070707070707070707070707070707070707070707070707070707000000000000000000000007070707070707070707070707070707070707070707070707070707070707070707070707070707070707000000000000000000000000000000000000000000
310
00000000000000000000000000000000000000000000000000000000000000000000000000000000000000000000000000000000000000000000000700000000000000000000000000000000000000000000000000000000000000000000000000000000000000070000000000000000000000000700000000000000000000
310
00000000000000000000000000000000000000000000000000000000000000070000000000000000000000000000000000000000000000000000000000000000000000000000000000000000000000000000000000000000000000000000000000000000000000000000000000000000070000000000000000000000000000
310
00000000000000000000000000000000000000000000000000000000070000000000000000000000000700000000000000000000000000000000000000000000000000000000000000000000000000000000000007000000000000000000000000000000000000000000000000000000000000000000000000000000000000
310
00000000000000000000000000000000000000000000000000000000000000000000000000000700000000000000000000000000000000000000000000000000000000000000000000000000000000000700000000000000000000000007000000000000000000000000000000000000000000000000000000000000000000
310
00000000000000000000070000000000000000000000000000000000000000000000000000000000000000000000000000000000000000000000000000000000000000000000000000000000000000000000000000000000000000070707070707070707070707070707070707070707070707070707070707070707070707
310
07070707070007000000000000000000000007070707070707070707070707070707070707070707070707070707070707070707070707070707070707070707000000000000000000000000000000000000000000000000000000000000000000000000000000000000000000000000000000000000000000000000000000
310
00000000000000000000000000000000000707070707070707070707070707070707070707070707070707070707070707070707070707070707070000000000000000000000070707070707070707070707070707070707070707070707070707070707070707070707070707070707070707070700000000000000000000
310
00000000000000000000000000000000000000000000000000000000000000000000000000000000000000000000000000000000000000000000000000000000000000000000000000000000000000000000000000000000000000000000000000000000000000000000000000000700000000000000000000000700000000
310
00000000000000000000000000000000000000000000000000000000000000000000000000000000000000000000000000000000000000000000000000000000000000000000000000000000000000000000000000000000000000000000000000000000000000000000000000000000000000000000000000000000000000
310
00000000000000000000000000000000000000000000000000000000000000000000000007000000000000000000000007000000000000000000000000000000000000000000000000000000000000000000000000000000000000000000000000000000000000000000000000000000000000000000000000000000000000
310
00000000000000000000000000000000000000000000000000000000000000000000000000000000000000000000000000000000000000000000000000000000000000000000000000000000000000000000000000000000070000000000000000000000070000000000000000000000000000000000000000000000000000
310
00000000000000000000000000000000000000000000000000000000000000000000000000000000000000000000000000000000000000000000000000000000000000000000000000000000000000000000000000000000000000000000000000000000000000000000000000000000000000000000000000000000000000
310
00000000000000000000000000000707000000000000000000070000000000000000000000000000000000000000000000000000000000000000000000000000000000000000000000000000000000000000000000000000000000000000000000000000000000000000000000000000000000000000000000000000000000
310
00000000000000000000000000000000000000000000000000000000000000000000000000000000000000000000000000000000000000000000000000000000000007000007000000000000000700000000000000000000000000000000000000000000000000000000000000000000000000000000000000000000000000
310
00000000000000000000000000000000000000000000000000000000000000000000000000000000000000000000000000000000000000000000000000000000000000000000000000000000000000000000000000000000000000000000000000000000000000000000000000000000000007000000070000000700000000
310
00000700000000000000000000000000000000000000000000000000000000000000000000000000000000000000000000000000000000000000000000000000000000000000000000000000000000000000000000000000000000000000000000000000000000000000000000000000000000000000000000000000000000
310
00000000000000000000000000000000000000000000000000000000000000000000000000000007070000070000000000070000000007000000000000000000000000000000000000000000000000000000000000000000000000000000000000000000000000000000000000000000000000000000000000000000000000
310
00000000000000000000000000000000000000000000000000000000000000000000000000000000000000000000000000000000000000000000000000000000000000000000000000000000000000000000000000000000000000000707070007000000000007000000000700000000000000000000000000000000000000
310
00000000000000000000000000000000000000000000000000000000000000000000000000000000000000000000000000000000000000000000000000000000000000000000000000000000000000000000000000000000000000000000000000000000000000000000000000000000000000000000000000000000000000
310
00000000000000000000000000000000000707070707000000000000000700000700000000000000000000000000000000000000000000000000000000000000000000000000000000000000000000000000000000000000000000000000000000000000000000000000000000000000000000000000000000000000000000
310
00000000000000000000000000000000000000000000000000000000000000000000000000000000000000000000000000000000000000000000000000000000000000070707070700000700000000000007000707000000000000000000000000000000000000000000000000000000000000000000000000000000000000
310
00000000000000000000000000000000000000000000000000000000000000000000000000000000000000000000000000000000000000000000000000000000000000000000000000000000000000000000000000000000000000000000000000000000000000000000000000000000000000000000070707070700000000
310
00070000000000070007000000000000000000000000000000000000000000000000000000000000000000000000000000000000000000000000000000000000000000000000000000000000000000000000000000000000000000000000000000000000000000000000000000000000000000000000000000000000000000
310
00000000000000000000000000000000000000000000000000000000000000000000000000000000000007070707070000000000000007000000000700000000000000000000000000000000000000000000000000000000000000000000000000000000000000000000000000000000000000000000000000000000000000
310
00000000000000000000000000000000000000000000000000000000000000000000000000000000000000000000000000000000000000000000000000000000000000000000000000000000000000000000000000000000000000000707070707070000000000000000000007000007000000000000000000000000000000
310
00000000000000000000000000000000000000000000000000000000000000000000000000000000000000000000000000000000000000000000000000000000000000000000000000000000000000000000000000000000000000000000000000000000000000000000000000000000000000000000000000000000000000
310
00000000000000000000000000000007070700070707000000000000000000000000070007000000000000000000000000000000000000000000000000000000000000000000000000000000000000000000000000000000000000000000000000000000000000000000000000000000000000000000000000000000000000
310
00000000000000000000000000000000000000000000000000000000000000000000000000000000000000000000000000000000000000000000000000000000000007070707070707000000000000000000000000000000070700000000000000000000000000000000000000000000000000000000000000000000000000
310
00000000000000000000000000000000000000000000000000000000000000000000000000000000000000000000000000000000000000000000000000000000000000000000000000000000000000000000000000000000000000000000000000000000000000000000000000000000000000000000070700070700000000
310
00000000000000000000000000000700000000000000000000000000000000000000000000000000000000000000000000000000000000000000000000000000000000000000000000000000000000000000000000000000000000000000000000000000000000000000000000000000000000000000000000000000000000
310
00000000000000000000000000000000000000000000000000000000000000000000000000000000000707070707070000000000000000000000000000000000000000070000000000000000000000000000000000000000000000000000000000000000000000000000000000000000000000000000000000000000000000
310
00000000000000000000000000000000000000000000000000000000000000000000000000000000000000000000000000000000000000000000000000000000000000000000000000000000000000000000000000000000000000000707070707070000000000000000000000000000000000000000070700000000000000
310
00000000000000000000000000000000000000000000000000000000000000000000000000000000000000000000000000000000000000000000000000000000000000000000000000000000000000000000000000000000000000000000000000000000000000000000000000000000000000000000000000000000000000
310
00000000000000000000000000000000070707070707000000000000000000000000000000000000000007070000000000000000000000000000000000000000000000000000000000000000000000000000000000000000000000000000000000000000000000000000000000000000000000000000000000000000000000
310
00000000000000000000000000000000000000000000000000000000000000000000000000000000000000000000000000000000000000000000000000000000000000070707070707000000000000000000000000000000000000000707070000000000000000000000000000000000000000000000000000000000000000
310
00000000000000000000000000000000000000000000000000000000000000000000000000000000000000000000000000000000000000000000000000000000000000000000000000000000000000000000000000000000000000000000000000000000000000000000000000000000000000000000000707070707070000
310
00000000000000000000000000000000070707000000000000000000000000000000000000000000000000000000000000000000000000000000000000000000000000000000000000000000000000000000000000000000000000000000000000000000000000000000000000000000000000000000000000000000000000
310
00000000000000000000000000000000000000000000000000000000000000000000000000000000000000070707070707000000000000000000000000000000000007070707000000000000000000000000000000000000000000000000000000000000000000000000000000000000000000000000000000000000000000
310
00000000000000000000000000000000000000000000000000000000000000000000000000000000000000000000000000000000000000000000000000000000000000000000000000000000000000000000000000000000000000000000070707070707000000000000000000000000000000000007070707000000000000
310
00000000000000000000000000000000000000000000000000000000000000000000000000000000000000000000000000000000000000000000000000000000000000000000000000000000000000000000000000000000000000000000000000000000000000000000000000000000000000000000000000000000000000
310
00000000000000000000000000000000000007070707070700000000000000000000000000000000000707070700000000000000000000000000000000000000000000000000000000000000000000000000000000000000000000000000000000000000000000000000000000000000000000000000000000000000000000
310
00000000000000000000000000000000000000000000000000000000000000000000000000000000000000000000000000000000000000000000000000000000000000000000070707000000000000000000000000000000000000000007070700000000000000000000000000000000000000000000000000000000000000
310
00000000000000000000000000000000000000000000000000000000000000000000000000000000000000000000000000000000000000000000000000000000000000000000000000000000000000000000000000000000000000000000000000000000000000000000000000000000000000000000000000000707000000
310
00000000000000000000000000000000000707070000000000000000000000000000000000000000000000000000000000000000000000000000000000000000000000000000000000000000000000000000000000000000000000000000000000000000000000000000000000000000000000000000000000000000000000
310
00000000000000000000000000000000000000000000000000000000000000000000000000000000000000000000000007000000000000000000000000000000000000000707000000000000000000000000000000000000000000000000000000000000000000000000000000000000000000000000000000000000000000
310
00000000000000000000000000000000000000000000000000000000000000000000000000000000000000000000000000000000000000000000000000000000000000000000000000000000000000000000000000000000000000000000000000000000000007000000000000000000000000000000000707000000000000
310
00000000000000000000000000000000000000000000000000000000000000000000000000000000000000000000000000000000000000000000000000000000000000000000000000000000000000000000000000000000000000000000000000000000000000000000000000000000000000000000000000000000000000
310
00000000000000000000000000000000000000000000000000000000070000000000000000000000000007070700000000000000000000000000000000000000000000000000000000000000000000000000000000000000000000000000000000000000000000000000000000000000000000000000000000000000000000
310
00000000000000000000000000000000000000000000000000000000000000000000000000000000000000000000000000000000000000000000000000000000000000000000000000000000000000000000070000000000000000000007070700000000000000000000000000000000000000000000000000000000000000
310
00000000000000000000000000000000000000000000000000000000000000000000000000000000000000000000000000000000000000000000000000000000000000000000000000000000000000000000000000000000000000000000000000000000000000000000000000000000000000000000000000000000000000
310
00000000000000000700000000000000070707070000000000000000000000000000000000000000000000000000000000000000000000000000000000000000000000000000000000000000000000000000000000000000000000000000000000000000000000000000000000000000000000000000000000000000000000
310
00000000000000000000000000000000000000000000000000000000000000000000000000000000000000000000000000000000000000000000000000000700000000070707070000000000000000000000000000000000000000000000000000000000000000000000000000000000000000000000000000000000000000
310
00000000000000000000000000000000000000000000000000000000000000000000000000000000000000000000000000000000000000000000000000000000000000000000000000000000000000000000000000000000000000000000000000000000000000000000000000000000000000070000070700000000000000
310
00000000000000000000000000000000000000000000000000000000000000000000000000000000000000000000000000000000000000000000000000000000000000000000000000000000000000000000000000000000000000000000000000000000000000000000000000000000000000000000000000000000000000
310
00000000000000000000000000000000000000000000000000000000000000000000000000000000000007070000000000000000000000000000000000000000000000000000000000000000000000000000000000000000000000000000000000000000000000000000000000000000000000000000000000000000000000
310
00000000000000000000000000000000000000000000000000000000000000000000000000000000000000000000000000000000000000000000000000000000000000000000000000000000000000000000000000000000000000000000000000000000000000000000000000000000000000000000000000000000000000
310
000000000000000000000000000000000000000000000000000000000000000000000000000000000000000000000000000000000000000000000000000000000000000000000000000000000000000000000000000000000000000000000000000000000000000000000000
  0
ENDSEC
  0
EOF
