  0
SECTION
  2
HEADER
  9
$ACADVER
  1
AC1015
  9
$ACADMAINTVER
 70
     6
  9
$DWGCODEPAGE
  3
ANSI_1252
  9
$INSBASE
 10
0.0
 20
0.0
 30
0.0
  9
$EXTMIN
 10
0.0
 20
0.0078
 30
0.0
  9
$EXTMAX
 10
256.0
 20
83.0
 30
0.0
  9
$LIMMIN
 10
0.0
 20
0.0
  9
$LIMMAX
 10
12.0
 20
9.0
  9
$ORTHOMODE
 70
     0
  9
$REGENMODE
 70
     1
  9
$FILLMODE
 70
     1
  9
$QTEXTMODE
 70
     0
  9
$MIRRTEXT
 70
     1
  9
$LTSCALE
 40
1.0
  9
$ATTMODE
 70
     1
  9
$TEXTSIZE
 40
0.2
  9
$TRACEWID
 40
0.05
  9
$TEXTSTYLE
  7
Standard
  9
$CLAYER
  8
0
  9
$CELTYPE
  6
ByBlock
  9
$CECOLOR
 62
   256
  9
$CELTSCALE
 40
1.0
  9
$DISPSILH
 70
     0
  9
$DIMSCALE
 40
1.0
  9
$DIMASZ
 40
0.18
  9
$DIMEXO
 40
0.0625
  9
$DIMDLI
 40
0.38
  9
$DIMRND
 40
0.0
  9
$DIMDLE
 40
0.0
  9
$DIMEXE
 40
0.18
  9
$DIMTP
 40
0.0
  9
$DIMTM
 40
0.0
  9
$DIMTXT
 40
0.18
  9
$DIMCEN
 40
0.09
  9
$DIMTSZ
 40
0.0
  9
$DIMTOL
 70
     0
  9
$DIMLIM
 70
     0
  9
$DIMTIH
 70
     1
  9
$DIMTOH
 70
     1
  9
$DIMSE1
 70
     0
  9
$DIMSE2
 70
     0
  9
$DIMTAD
 70
     0
  9
$DIMZIN
 70
     0
  9
$DIMBLK
  1

  9
$DIMASO
 70
     1
  9
$DIMSHO
 70
     1
  9
$DIMPOST
  1

  9
$DIMAPOST
  1

  9
$DIMALT
 70
     0
  9
$DIMALTD
 70
     2
  9
$DIMALTF
 40
25.4
  9
$DIMLFAC
 40
1.0
  9
$DIMTOFL
 70
     0
  9
$DIMTVP
 40
0.0
  9
$DIMTIX
 70
     0
  9
$DIMSOXD
 70
     0
  9
$DIMSAH
 70
     0
  9
$DIMBLK1
  1

  9
$DIMBLK2
  1

  9
$DIMSTYLE
  2
Standard
  9
$DIMCLRD
 70
     0
  9
$DIMCLRE
 70
     0
  9
$DIMCLRT
 70
     0
  9
$DIMTFAC
 40
1.0
  9
$DIMGAP
 40
0.09
  9
$DIMJUST
 70
     0
  9
$DIMSD1
 70
     0
  9
$DIMSD2
 70
     0
  9
$DIMTOLJ
 70
     1
  9
$DIMTZIN
 70
     0
  9
$DIMALTZ
 70
     0
  9
$DIMALTTZ
 70
     0
  9
$DIMUPT
 70
     0
  9
$DIMDEC
 70
     4
  9
$DIMTDEC
 70
     4
  9
$DIMALTU
 70
     2
  9
$DIMALTTD
 70
     2
  9
$DIMTXSTY
  7
Standard
  9
$DIMAUNIT
 70
     0
  9
$DIMADEC
 70
     0
  9
$DIMALTRND
 40
0.0
  9
$DIMAZIN
 70
     0
  9
$DIMDSEP
 70
    46
  9
$DIMATFIT
 70
     3
  9
$DIMFRAC
 70
     0
  9
$DIMLDRBLK
  1

  9
$DIMLUNIT
 70
     2
  9
$DIMLWD
 70
    -2
  9
$DIMLWE
 70
    -2
  9
$DIMTMOVE
 70
     2
  9
$LUNITS
 70
     2
  9
$LUPREC
 70
     4
  9
$SKETCHINC
 40
0.1
  9
$FILLETRAD
 40
0.5
  9
$AUNITS
 70
     0
  9
$AUPREC
 70
     0
  9
$MENU
  1
.
  9
$ELEVATION
 40
0.0
  9
$PELEVATION
 40
0.0
  9
$THICKNESS
 40
0.0
  9
$LIMCHECK
 70
     0
  9
$CHAMFERA
 40
0.5
  9
$CHAMFERB
 40
0.5
  9
$CHAMFERC
 40
1.0
  9
$CHAMFERD
 40
0.0
  9
$SKPOLY
 70
     0
  9
$TDCREATE
 40
2456182.877498183
  9
$TDUCREATE
 40
2456182.794164849
  9
$TDUPDATE
 40
2456182.902696759
  9
$TDUUPDATE
 40
2456182.819363426
  9
$TDINDWG
 40
0.0049061574
  9
$TDUSRTIMER
 40
0.0049061574
  9
$USRTIMER
 70
     1
  9
$ANGBASE
 50
0.0
  9
$ANGDIR
 70
     0
  9
$PDMODE
 70
     0
  9
$PDSIZE
 40
0.0
  9
$PLINEWID
 40
0.0
  9
$SPLFRAME
 70
     0
  9
$SPLINETYPE
 70
     6
  9
$SPLINESEGS
 70
     8
  9
$HANDSEED
  5
C3C
  9
$SURFTAB1
 70
     6
  9
$SURFTAB2
 70
     6
  9
$SURFTYPE
 70
     6
  9
$SURFU
 70
     6
  9
$SURFV
 70
     6
  9
$UCSBASE
  2

  9
$UCSNAME
  2

  9
$UCSORG
 10
0.0
 20
0.0
 30
0.0
  9
$UCSXDIR
 10
1.0
 20
0.0
 30
0.0
  9
$UCSYDIR
 10
0.0
 20
1.0
 30
0.0
  9
$UCSORTHOREF
  2

  9
$UCSORTHOVIEW
 70
     0
  9
$UCSORGTOP
 10
0.0
 20
0.0
 30
0.0
  9
$UCSORGBOTTOM
 10
0.0
 20
0.0
 30
0.0
  9
$UCSORGLEFT
 10
0.0
 20
0.0
 30
0.0
  9
$UCSORGRIGHT
 10
0.0
 20
0.0
 30
0.0
  9
$UCSORGFRONT
 10
0.0
 20
0.0
 30
0.0
  9
$UCSORGBACK
 10
0.0
 20
0.0
 30
0.0
  9
$PUCSBASE
  2

  9
$PUCSNAME
  2

  9
$PUCSORG
 10
0.0
 20
0.0
 30
0.0
  9
$PUCSXDIR
 10
1.0
 20
0.0
 30
0.0
  9
$PUCSYDIR
 10
0.0
 20
1.0
 30
0.0
  9
$PUCSORTHOREF
  2

  9
$PUCSORTHOVIEW
 70
     0
  9
$PUCSORGTOP
 10
0.0
 20
0.0
 30
0.0
  9
$PUCSORGBOTTOM
 10
0.0
 20
0.0
 30
0.0
  9
$PUCSORGLEFT
 10
0.0
 20
0.0
 30
0.0
  9
$PUCSORGRIGHT
 10
0.0
 20
0.0
 30
0.0
  9
$PUCSORGFRONT
 10
0.0
 20
0.0
 30
0.0
  9
$PUCSORGBACK
 10
0.0
 20
0.0
 30
0.0
  9
$USERI1
 70
     0
  9
$USERI2
 70
     0
  9
$USERI3
 70
     0
  9
$USERI4
 70
     0
  9
$USERI5
 70
     0
  9
$USERR1
 40
0.0
  9
$USERR2
 40
0.0
  9
$USERR3
 40
0.0
  9
$USERR4
 40
0.0
  9
$USERR5
 40
0.0
  9
$WORLDVIEW
 70
     1
  9
$SHADEDGE
 70
     3
  9
$SHADEDIF
 70
    70
  9
$TILEMODE
 70
     1
  9
$MAXACTVP
 70
    64
  9
$PINSBASE
 10
0.0
 20
0.0
 30
0.0
  9
$PLIMCHECK
 70
     0
  9
$PEXTMIN
 10
1.000000000000E+20
 20
1.000000000000E+20
 30
1.000000000000E+20
  9
$PEXTMAX
 10
-1.000000000000E+20
 20
-1.000000000000E+20
 30
-1.000000000000E+20
  9
$PLIMMIN
 10
0.0
 20
0.0
  9
$PLIMMAX
 10
12.0
 20
9.0
  9
$UNITMODE
 70
     0
  9
$VISRETAIN
 70
     1
  9
$PLINEGEN
 70
     0
  9
$PSLTSCALE
 70
     1
  9
$TREEDEPTH
 70
  3020
  9
$CMLSTYLE
  2
Standard
  9
$CMLJUST
 70
     0
  9
$CMLSCALE
 40
1.0
  9
$PROXYGRAPHICS
 70
     1
  9
$MEASUREMENT
 70
     0
  9
$CELWEIGHT
370
    -1
  9
$ENDCAPS
280
     0
  9
$JOINSTYLE
280
     0
  9
$LWDISPLAY
290
     0
  9
$INSUNITS
 70
     0
  9
$HYPERLINKBASE
  1

  9
$STYLESHEET
  1

  9
$XEDIT
290
     1
  9
$CEPSNTYPE
380
     0
  9
$PSTYLEMODE
290
     1
  9
$FINGERPRINTGUID
  2
{D82ABFC2-E247-49D3-B9D4-227E488FD8DF}
  9
$VERSIONGUID
  2
{FAEB1C32-E019-11D5-929B-00C0DF256EC4}
  9
$EXTNAMES
290
     1
  9
$PSVPSCALE
 40
0.0
  9
$OLESTARTUP
290
     0
  0
ENDSEC
  0
SECTION
  2
CLASSES
  0
CLASS
  1
ACDBDICTIONARYWDFLT
  2
AcDbDictionaryWithDefault
  3
ObjectDBX Classes
 90
        0
280
     0
281
     0
  0
CLASS
  1
SCALE
  2
AcDbScale
  3
ObjectDBX Classes
 90
     1153
280
     0
281
     0
  0
CLASS
  1
ACDBPLACEHOLDER
  2
AcDbPlaceHolder
  3
ObjectDBX Classes
 90
        0
280
     0
281
     0
  0
CLASS
  1
LAYOUT
  2
AcDbLayout
  3
ObjectDBX Classes
 90
        0
280
     0
281
     0
  0
ENDSEC
  0
SECTION
  2
TABLES
  0
TABLE
  2
VPORT
  5
8
330
0
100
AcDbSymbolTable
 70
     1
  0
VPORT
  5
619
330
8
100
AcDbSymbolTableRecord
100
AcDbViewportTableRecord
  2
*Active
 70
     0
 10
0.0
 20
0.0
 11
1.0
 21
1.0
 12
128.0
 22
41.5
 13
0.0
 23
0.0
 14
0.5
 24
0.5
 15
0.5
 25
0.5
 16
0.0
 26
0.0
 36
1.0
 17
0.0
 27
0.0
 37
0.0
 40
114.943533697632
 41
2.271724137931
 42
50.0
 43
0.0
 44
0.0
 50
0.0
 51
0.0
 71
    16
 72
   100
 73
     1
 74
     3
 75
     0
 76
     0
 77
     0
 78
     0
281
     0
 65
     1
110
0.0
120
0.0
130
0.0
111
1.0
121
0.0
131
0.0
112
0.0
122
1.0
132
0.0
 79
     0
146
0.0
  0
ENDTAB
  0
TABLE
  2
LTYPE
  5
5
330
0
100
AcDbSymbolTable
 70
     1
  0
LTYPE
  5
14
330
5
100
AcDbSymbolTableRecord
100
AcDbLinetypeTableRecord
  2
ByBlock
 70
     0
  3

 72
    65
 73
     0
 40
0.0
  0
LTYPE
  5
15
330
5
100
AcDbSymbolTableRecord
100
AcDbLinetypeTableRecord
  2
ByLayer
 70
     0
  3

 72
    65
 73
     0
 40
0.0
  0
LTYPE
  5
16
330
5
100
AcDbSymbolTableRecord
100
AcDbLinetypeTableRecord
  2
Continuous
 70
     0
  3
Solid line
 72
    65
 73
     0
 40
0.0
  0
ENDTAB
  0
TABLE
  2
LAYER
  5
2
330
0
100
AcDbSymbolTable
 70
     1
  0
LAYER
  5
10
330
2
100
AcDbSymbolTableRecord
100
AcDbLayerTableRecord
  2
0
 70
     0
 62
     7
  6
Continuous
370
    -3
390
F
  0
ENDTAB
  0
TABLE
  2
STYLE
  5
3
330
0
100
AcDbSymbolTable
 70
     1
  0
STYLE
  5
11
330
3
100
AcDbSymbolTableRecord
100
AcDbTextStyleTableRecord
  2
Standard
 70
     0
 40
0.0
 41
1.0
 50
0.0
 71
     0
 42
0.2
  3
txt
  4

  0
ENDTAB
  0
TABLE
  2
VIEW
  5
6
330
0
100
AcDbSymbolTable
 70
     0
  0
ENDTAB
  0
TABLE
  2
UCS
  5
7
330
0
100
AcDbSymbolTable
 70
     0
  0
ENDTAB
  0
TABLE
  2
APPID
  5
9
330
0
100
AcDbSymbolTable
 70
     1
  0
APPID
  5
12
330
9
100
AcDbSymbolTableRecord
100
AcDbRegAppTableRecord
  2
ACAD
 70
     0
  0
ENDTAB
  0
TABLE
  2
DIMSTYLE
  5
A
330
0
100
AcDbSymbolTable
 70
     1
100
AcDbDimStyleTable
  0
DIMSTYLE
105
20
330
A
100
AcDbSymbolTableRecord
100
AcDbDimStyleTableRecord
  2
Standard
 70
     0
340
11
  0
ENDTAB
  0
TABLE
  2
BLOCK_RECORD
  5
1
330
0
100
AcDbSymbolTable
 70
     0
  0
BLOCK_RECORD
  5
1D
330
1
100
AcDbSymbolTableRecord
100
AcDbBlockTableRecord
  2
*Model_Space
340
1E
  0
BLOCK_RECORD
  5
1B
330
1
100
AcDbSymbolTableRecord
100
AcDbBlockTableRecord
  2
*Paper_Space
340
1C
  0
ENDTAB
  0
ENDSEC
  0
SECTION
  2
BLOCKS
  0
BLOCK
  5
61C
330
1D
100
AcDbEntity
  8
0
100
AcDbBlockBegin
  2
*Model_Space
 70
     0
 10
0.0
 20
0.0
 30
0.0
  3
*Model_Space
  1
*Model_Space
  0
ENDBLK
  5
61D
330
1D
100
AcDbEntity
  8
0
100
AcDbBlockEnd
  0
BLOCK
  5
61A
330
1B
100
AcDbEntity
 67
     1
  8
0
100
AcDbBlockBegin
  2
*Paper_Space
 70
     0
 10
0.0
 20
0.0
 30
0.0
  3
*Paper_Space
  1
*Paper_Space
  0
ENDBLK
  5
61B
330
1B
100
AcDbEntity
 67
     1
  8
0
100
AcDbBlockEnd
  0
ENDSEC
  0
SECTION
  2
ENTITIES
  0
LINE
  5
22
330
1D
100
AcDbEntity
  8
0
100
AcDbLine
 10
0.0
 20
0.5068
 30
0.0
 11
0.066996
 21
0.2573
 31
0.0
  0
LINE
  5
50
330
1D
100
AcDbEntity
  8
0
100
AcDbLine
 10
0.249997
 20
0.0746
 30
0.0
 11
0.500008
 21
0.0078
 31
0.0
  0
LINE
  5
51
330
1D
100
AcDbEntity
  8
0
100
AcDbLine
 10
0.249997
 20
0.0746
 30
0.0
 11
0.500008
 21
0.0078
 31
0.0
  0
LINE
  5
52
330
1D
100
AcDbEntity
  8
0
100
AcDbLine
 10
0.066996
 20
0.2573
 30
0.0
 11
0.249997
 21
0.0746
 31
0.0
  0
LINE
  5
2AC
330
1D
100
AcDbEntity
  8
0
100
AcDbLine
 10
99.745
 20
73.6599
 30
0.0
 11
99.7549
 21
73.2794
 31
0.0
  0
LINE
  5
2AD
330
1D
100
AcDbEntity
  8
0
100
AcDbLine
 10
99.7549
 20
73.2794
 30
0.0
 11
99.813
 21
73.0362
 31
0.0
  0
LINE
  5
2AF
330
1D
100
AcDbEntity
  8
0
100
AcDbLine
 10
99.813
 20
73.0362
 30
0.0
 11
99.966
 21
72.8096
 31
0.0
  0
LINE
  5
2B0
330
1D
100
AcDbEntity
  8
0
100
AcDbLine
 10
99.966
 20
72.8096
 30
0.0
 11
100.192
 21
72.6551
 31
0.0
  0
LINE
  5
2B1
330
1D
100
AcDbEntity
  8
0
100
AcDbLine
 10
99.576
 20
82.7428
 30
0.0
 11
99.7595
 21
82.9309
 31
0.0
  0
LINE
  5
2B2
330
1D
100
AcDbEntity
  8
0
100
AcDbLine
 10
99.745
 20
73.66
 30
0.0
 11
99.7549
 21
73.2794
 31
0.0
  0
LINE
  5
2B4
330
1D
100
AcDbEntity
  8
0
100
AcDbLine
 10
99.5134
 20
82.4877
 30
0.0
 11
99.576
 21
82.7428
 31
0.0
  0
LINE
  5
2B5
330
1D
100
AcDbEntity
  8
0
100
AcDbLine
 10
99.5134
 20
82.4877
 30
0.0
 11
99.745
 21
73.66
 31
0.0
  0
LINE
  5
2B6
330
1D
100
AcDbEntity
  8
0
100
AcDbLine
 10
99.5134
 20
82.4877
 30
0.0
 11
99.745
 21
73.6599
 31
0.0
  0
LINE
  5
2B7
330
1D
100
AcDbEntity
  8
0
100
AcDbLine
 10
99.7595
 20
82.9309
 30
0.0
 11
100.013
 21
83.0
 31
0.0
  0
LINE
  5
2B8
330
1D
100
AcDbEntity
  8
0
100
AcDbLine
 10
100.459
 20
72.5634
 30
0.0
 11
101.799
 21
72.5166
 31
0.0
  0
LINE
  5
2B9
330
1D
100
AcDbEntity
  8
0
100
AcDbLine
 10
100.192
 20
72.6551
 30
0.0
 11
100.459
 21
72.5634
 31
0.0
  0
LINE
  5
2BE
330
1D
100
AcDbEntity
  8
0
100
AcDbLine
 10
101.799
 20
72.5166
 30
0.0
 11
101.963
 21
72.5166
 31
0.0
  0
LINE
  5
2BF
330
1D
100
AcDbEntity
  8
0
100
AcDbLine
 10
101.799
 20
72.5166
 30
0.0
 11
103.376
 21
72.4066
 31
0.0
  0
LINE
  5
2C0
330
1D
100
AcDbEntity
  8
0
100
AcDbLine
 10
104.935
 20
72.1929
 30
0.0
 11
106.481
 21
71.8915
 31
0.0
  0
LINE
  5
2C1
330
1D
100
AcDbEntity
  8
0
100
AcDbLine
 10
103.376
 20
72.4066
 30
0.0
 11
104.935
 21
72.1929
 31
0.0
  0
LINE
  5
2C3
330
1D
100
AcDbEntity
  8
0
100
AcDbLine
 10
108.0
 20
71.5182
 30
0.0
 11
108.812
 21
71.274
 31
0.0
  0
LINE
  5
2C4
330
1D
100
AcDbEntity
  8
0
100
AcDbLine
 10
108.812
 20
71.274
 30
0.0
 11
109.599
 21
70.9851
 31
0.0
  0
LINE
  5
2C8
330
1D
100
AcDbEntity
  8
0
100
AcDbLine
 10
110.478
 20
70.6013
 30
0.0
 11
111.323
 21
70.1694
 31
0.0
  0
LINE
  5
2C9
330
1D
100
AcDbEntity
  8
0
100
AcDbLine
 10
109.599
 20
70.9851
 30
0.0
 11
110.478
 21
70.6013
 31
0.0
  0
LINE
  5
2CC
330
1D
100
AcDbEntity
  8
0
100
AcDbLine
 10
114.18
 20
68.2114
 30
0.0
 11
115.438
 21
67.043
 31
0.0
  0
LINE
  5
2CD
330
1D
100
AcDbEntity
  8
0
100
AcDbLine
 10
115.438
 20
67.043
 30
0.0
 11
116.587
 21
65.755
 31
0.0
  0
LINE
  5
2CE
330
1D
100
AcDbEntity
  8
0
100
AcDbLine
 10
112.808
 20
69.2544
 30
0.0
 11
114.18
 21
68.2114
 31
0.0
  0
LINE
  5
2CF
330
1D
100
AcDbEntity
  8
0
100
AcDbLine
 10
111.323
 20
70.1694
 30
0.0
 11
112.808
 21
69.2544
 31
0.0
  0
LINE
  5
2D0
330
1D
100
AcDbEntity
  8
0
100
AcDbLine
 10
117.626
 20
64.359
 30
0.0
 11
118.558
 21
62.871
 31
0.0
  0
LINE
  5
2D1
330
1D
100
AcDbEntity
  8
0
100
AcDbLine
 10
116.587
 20
65.755
 30
0.0
 11
117.626
 21
64.359
 31
0.0
  0
LINE
  5
2D5
330
1D
100
AcDbEntity
  8
0
100
AcDbLine
 10
118.558
 20
62.871
 30
0.0
 11
119.635
 21
60.7805
 31
0.0
  0
LINE
  5
2D6
330
1D
100
AcDbEntity
  8
0
100
AcDbLine
 10
121.745
 20
54.3056
 30
0.0
 11
122.085
 21
52.2481
 31
0.0
  0
LINE
  5
2D7
330
1D
100
AcDbEntity
  8
0
100
AcDbLine
 10
121.226
 20
56.4441
 30
0.0
 11
121.745
 21
54.3056
 31
0.0
  0
LINE
  5
2D8
330
1D
100
AcDbEntity
  8
0
100
AcDbLine
 10
120.524
 20
58.6198
 30
0.0
 11
121.226
 21
56.4441
 31
0.0
  0
LINE
  5
2D9
330
1D
100
AcDbEntity
  8
0
100
AcDbLine
 10
119.635
 20
60.7805
 30
0.0
 11
120.524
 21
58.6198
 31
0.0
  0
LINE
  5
2DA
330
1D
100
AcDbEntity
  8
0
100
AcDbLine
 10
122.085
 20
52.2481
 30
0.0
 11
122.254
 21
50.3028
 31
0.0
  0
LINE
  5
2E0
330
1D
100
AcDbEntity
  8
0
100
AcDbLine
 10
122.254
 20
50.3027
 30
0.0
 11
123.265008326273
 21
26.9204
 31
0.0
  0
LINE
  5
2E1
330
1D
100
AcDbEntity
  8
0
100
AcDbLine
 10
122.254
 20
50.3027
 30
0.0
 11
123.265008326273
 21
26.9204
 31
0.0
  0
LINE
  5
2E3
330
1D
100
AcDbEntity
  8
0
100
AcDbLine
 10
106.481
 20
71.8915
 30
0.0
 11
108.0
 21
71.5182
 31
0.0
  0
LINE
  5
30F
330
1D
100
AcDbEntity
  8
0
100
AcDbLine
 10
133.746
 20
50.3028
 30
0.0
 11
133.915
 21
52.2481
 31
0.0
  0
LINE
  5
310
330
1D
100
AcDbEntity
  8
0
100
AcDbLine
 10
133.915
 20
52.2481
 30
0.0
 11
134.255
 21
54.3056
 31
0.0
  0
LINE
  5
314
330
1D
100
AcDbEntity
  8
0
100
AcDbLine
 10
132.734991673727
 20
26.9204
 30
0.0
 11
133.746
 21
50.3027
 31
0.0
  0
LINE
  5
318
330
1D
100
AcDbEntity
  8
0
100
AcDbLine
 10
134.774
 20
56.4441
 30
0.0
 11
135.476
 21
58.6198
 31
0.0
  0
LINE
  5
319
330
1D
100
AcDbEntity
  8
0
100
AcDbLine
 10
134.255
 20
54.3056
 30
0.0
 11
134.774
 21
56.4441
 31
0.0
  0
LINE
  5
31A
330
1D
100
AcDbEntity
  8
0
100
AcDbLine
 10
137.442
 20
62.871
 30
0.0
 11
138.374
 21
64.359
 31
0.0
  0
LINE
  5
31B
330
1D
100
AcDbEntity
  8
0
100
AcDbLine
 10
138.374
 20
64.359
 30
0.0
 11
139.413
 21
65.755
 31
0.0
  0
LINE
  5
31C
330
1D
100
AcDbEntity
  8
0
100
AcDbLine
 10
136.365
 20
60.7805
 30
0.0
 11
137.442
 21
62.871
 31
0.0
  0
LINE
  5
31D
330
1D
100
AcDbEntity
  8
0
100
AcDbLine
 10
135.476
 20
58.6198
 30
0.0
 11
136.365
 21
60.7805
 31
0.0
  0
LINE
  5
32E
330
1D
100
AcDbEntity
  8
0
100
AcDbLine
 10
139.413
 20
65.755
 30
0.0
 11
140.562
 21
67.043
 31
0.0
  0
LINE
  5
32F
330
1D
100
AcDbEntity
  8
0
100
AcDbLine
 10
141.82
 20
68.2114
 30
0.0
 11
143.192
 21
69.2544
 31
0.0
  0
LINE
  5
330
330
1D
100
AcDbEntity
  8
0
100
AcDbLine
 10
143.192
 20
69.2544
 30
0.0
 11
144.678
 21
70.1694
 31
0.0
  0
LINE
  5
331
330
1D
100
AcDbEntity
  8
0
100
AcDbLine
 10
140.562
 20
67.043
 30
0.0
 11
141.82
 21
68.2114
 31
0.0
  0
LINE
  5
337
330
1D
100
AcDbEntity
  8
0
100
AcDbLine
 10
146.401
 20
70.9851
 30
0.0
 11
147.188
 21
71.274
 31
0.0
  0
LINE
  5
338
330
1D
100
AcDbEntity
  8
0
100
AcDbLine
 10
145.522
 20
70.6013
 30
0.0
 11
146.401
 21
70.9851
 31
0.0
  0
LINE
  5
339
330
1D
100
AcDbEntity
  8
0
100
AcDbLine
 10
144.678
 20
70.1694
 30
0.0
 11
145.522
 21
70.6013
 31
0.0
  0
LINE
  5
33B
330
1D
100
AcDbEntity
  8
0
100
AcDbLine
 10
147.188
 20
71.274
 30
0.0
 11
147.758825493104
 21
71.458385694995
 31
0.0
  0
LINE
  5
342
330
1D
100
AcDbEntity
  8
0
100
AcDbLine
 10
147.758825493104
 20
71.458385694995
 30
0.0
 11
148.746574074074
 21
71.708306481482
 31
0.0
  0
LINE
  5
347
330
1D
100
AcDbEntity
  8
0
100
AcDbLine
 10
148.746574074074
 20
71.708306481482
 30
0.0
 11
151.065
 21
72.1929
 31
0.0
  0
LINE
  5
348
330
1D
100
AcDbEntity
  8
0
100
AcDbLine
 10
152.624
 20
72.4066
 30
0.0
 11
154.201
 21
72.5166
 31
0.0
  0
LINE
  5
34B
330
1D
100
AcDbEntity
  8
0
100
AcDbLine
 10
154.201
 20
72.5166
 30
0.0
 11
155.541
 21
72.5645
 31
0.0
  0
LINE
  5
34C
330
1D
100
AcDbEntity
  8
0
100
AcDbLine
 10
151.065
 20
72.1929
 30
0.0
 11
152.624
 21
72.4066
 31
0.0
  0
LINE
  5
36F
330
1D
100
AcDbEntity
  8
0
100
AcDbLine
 10
155.541
 20
72.5645
 30
0.0
 11
155.807
 21
72.6335
 31
0.0
  0
LINE
  5
370
330
1D
100
AcDbEntity
  8
0
100
AcDbLine
 10
155.807
 20
72.6335
 30
0.0
 11
156.033
 21
72.7883
 31
0.0
  0
LINE
  5
373
330
1D
100
AcDbEntity
  8
0
100
AcDbLine
 10
100.025
 20
83.0
 30
0.0
 11
100.119
 21
83.0
 31
0.0
  0
LINE
  5
374
330
1D
100
AcDbEntity
  8
0
100
AcDbLine
 10
100.119
 20
83.0
 30
0.0
 11
100.288
 21
83.0
 31
0.0
  0
LINE
  5
381
330
1D
100
AcDbEntity
  8
0
100
AcDbLine
 10
155.487
 20
83.0
 30
0.0
 11
155.596
 21
83.0
 31
0.0
  0
LINE
  5
382
330
1D
100
AcDbEntity
  8
0
100
AcDbLine
 10
155.596
 20
83.0
 30
0.0
 11
155.794
 21
83.0
 31
0.0
  0
LINE
  5
384
330
1D
100
AcDbEntity
  8
0
100
AcDbLine
 10
155.794
 20
83.0
 30
0.0
 11
155.933
 21
83.0
 31
0.0
  0
LINE
  5
385
330
1D
100
AcDbEntity
  8
0
100
AcDbLine
 10
155.933
 20
83.0
 30
0.0
 11
155.987
 21
83.0
 31
0.0
  0
LINE
  5
386
330
1D
100
AcDbEntity
  8
0
100
AcDbLine
 10
100.513
 20
83.0
 30
0.0
 11
155.487
 21
83.0
 31
0.0
  0
LINE
  5
387
330
1D
100
AcDbEntity
  8
0
100
AcDbLine
 10
156.033
 20
72.7883
 30
0.0
 11
156.186
 21
73.0145
 31
0.0
  0
LINE
  5
389
330
1D
100
AcDbEntity
  8
0
100
AcDbLine
 10
156.186
 20
73.0145
 30
0.0
 11
156.245
 21
73.2805
 31
0.0
  0
LINE
  5
604
330
1D
100
AcDbEntity
  8
0
100
AcDbLine
 10
156.253
 20
73.5742
 30
0.0
 11
156.255
 21
73.66
 31
0.0
  0
LINE
  5
605
330
1D
100
AcDbEntity
  8
0
100
AcDbLine
 10
156.253
 20
73.5742
 30
0.0
 11
156.255
 21
73.6599
 31
0.0
  0
LINE
  5
606
330
1D
100
AcDbEntity
  8
0
100
AcDbLine
 10
156.245
 20
73.2805
 30
0.0
 11
156.253
 21
73.5742
 31
0.0
  0
LINE
  5
614
330
1D
100
AcDbEntity
  8
0
100
AcDbLine
 10
156.241
 20
82.9309
 30
0.0
 11
156.424
 21
82.7428
 31
0.0
  0
LINE
  5
615
330
1D
100
AcDbEntity
  8
0
100
AcDbLine
 10
156.424
 20
82.7428
 30
0.0
 11
156.487
 21
82.4877
 31
0.0
  0
LINE
  5
616
330
1D
100
AcDbEntity
  8
0
100
AcDbLine
 10
156.255
 20
73.66
 30
0.0
 11
156.487
 21
82.4877
 31
0.0
  0
LINE
  5
617
330
1D
100
AcDbEntity
  8
0
100
AcDbLine
 10
155.987
 20
83.0
 30
0.0
 11
156.241
 21
82.9309
 31
0.0
  0
LINE
  5
618
330
1D
100
AcDbEntity
  8
0
100
AcDbLine
 10
100.288
 20
83.0
 30
0.0
 11
100.513
 21
83.0
 31
0.0
  0
LINE
  5
640
330
1D
100
AcDbEntity
  8
0
100
AcDbLine
 10
101.799
 20
72.5166
 30
0.0
 11
155.541
 21
72.5645
 31
0.0
  0
LINE
  5
93C
330
1D
100
AcDbEntity
  8
0
100
AcDbLine
 10
0.0
 20
0.5072
 30
0.0
 11
0.066996
 21
0.2577
 31
0.0
  0
LINE
  5
93D
330
1D
100
AcDbEntity
  8
0
100
AcDbLine
 10
0.0
 20
0.5072
 30
0.0
 11
0.0
 21
0.631
 31
0.0
  0
LINE
  5
93E
330
1D
100
AcDbEntity
  8
0
100
AcDbLine
 10
0.0
 20
0.7072
 30
0.0
 11
0.0
 21
0.5328
 31
0.0
  0
LINE
  5
93F
330
1D
100
AcDbEntity
  8
0
100
AcDbLine
 10
0.0
 20
0.631
 30
0.0
 11
0.0
 21
0.5074
 31
0.0
  0
LINE
  5
940
330
1D
100
AcDbEntity
  8
0
100
AcDbLine
 10
0.0
 20
0.631
 30
0.0
 11
0.0
 21
0.9026
 31
0.0
  0
LINE
  5
941
330
1D
100
AcDbEntity
  8
0
100
AcDbLine
 10
0.0
 20
0.5328
 30
0.0
 11
0.0
 21
0.7073
 31
0.0
  0
LINE
  5
942
330
1D
100
AcDbEntity
  8
0
100
AcDbLine
 10
0.0
 20
1.0291
 30
0.0
 11
0.0
 21
0.7072
 31
0.0
  0
LINE
  5
943
330
1D
100
AcDbEntity
  8
0
100
AcDbLine
 10
0.0
 20
1.4946
 30
0.0
 11
0.0
 21
1.0291
 31
0.0
  0
LINE
  5
944
330
1D
100
AcDbEntity
  8
0
100
AcDbLine
 10
0.0
 20
1.3194
 30
0.0
 11
0.0
 21
1.8776
 31
0.0
  0
LINE
  5
945
330
1D
100
AcDbEntity
  8
0
100
AcDbLine
 10
0.0
 20
1.3193
 30
0.0
 11
0.0
 21
0.9026
 31
0.0
  0
LINE
  5
946
330
1D
100
AcDbEntity
  8
0
100
AcDbLine
 10
0.0
 20
0.9026
 30
0.0
 11
0.0
 21
0.631
 31
0.0
  0
LINE
  5
947
330
1D
100
AcDbEntity
  8
0
100
AcDbLine
 10
0.0
 20
0.9026
 30
0.0
 11
0.0
 21
1.3194
 31
0.0
  0
LINE
  5
948
330
1D
100
AcDbEntity
  8
0
100
AcDbLine
 10
0.0
 20
0.7073
 30
0.0
 11
0.0
 21
1.0288
 31
0.0
  0
LINE
  5
949
330
1D
100
AcDbEntity
  8
0
100
AcDbLine
 10
2.50001
 20
0.0078
 30
0.0
 11
2.75001
 21
0.0748
 31
0.0
  0
LINE
  5
94A
330
1D
100
AcDbEntity
  8
0
100
AcDbLine
 10
0.500008
 20
0.0078
 30
0.0
 11
2.50001
 21
0.0078
 31
0.0
  0
LINE
  5
94B
330
1D
100
AcDbEntity
  8
0
100
AcDbLine
 10
2.75001
 20
0.0748
 30
0.0
 11
2.93302
 21
0.2577
 31
0.0
  0
LINE
  5
94C
330
1D
100
AcDbEntity
  8
0
100
AcDbLine
 10
0.500008
 20
0.0078
 30
0.0
 11
2.50001
 21
0.0078
 31
0.0
  0
LINE
  5
94D
330
1D
100
AcDbEntity
  8
0
100
AcDbLine
 10
0.249997
 20
0.0748
 30
0.0
 11
0.500008
 21
0.0078
 31
0.0
  0
LINE
  5
94E
330
1D
100
AcDbEntity
  8
0
100
AcDbLine
 10
0.249997
 20
0.0748
 30
0.0
 11
0.500008
 21
0.0078
 31
0.0
  0
LINE
  5
94F
330
1D
100
AcDbEntity
  8
0
100
AcDbLine
 10
0.066996
 20
0.2577
 30
0.0
 11
0.249997
 21
0.0748
 31
0.0
  0
LINE
  5
950
330
1D
100
AcDbEntity
  8
0
100
AcDbLine
 10
3.00001
 20
1.0288
 30
0.0
 11
3.00001
 21
0.7073
 31
0.0
  0
LINE
  5
951
330
1D
100
AcDbEntity
  8
0
100
AcDbLine
 10
3.00001
 20
0.7073
 30
0.0
 11
3.00001
 21
0.5328
 31
0.0
  0
LINE
  5
952
330
1D
100
AcDbEntity
  8
0
100
AcDbLine
 10
3.00001
 20
1.4947
 30
0.0
 11
3.00001
 21
1.0288
 31
0.0
  0
LINE
  5
953
330
1D
100
AcDbEntity
  8
0
100
AcDbLine
 10
3.00001
 20
1.4946
 30
0.0
 11
3.00001
 21
2.1001
 31
0.0
  0
LINE
  5
954
330
1D
100
AcDbEntity
  8
0
100
AcDbLine
 10
3.00001
 20
1.0291
 30
0.0
 11
3.00001
 21
1.4946
 31
0.0
  0
LINE
  5
955
330
1D
100
AcDbEntity
  8
0
100
AcDbLine
 10
3.00001
 20
0.7072
 30
0.0
 11
3.00001
 21
1.0291
 31
0.0
  0
LINE
  5
956
330
1D
100
AcDbEntity
  8
0
100
AcDbLine
 10
3.00001
 20
0.5328
 30
0.0
 11
3.00001
 21
0.7072
 31
0.0
  0
LINE
  5
957
330
1D
100
AcDbEntity
  8
0
100
AcDbLine
 10
2.93302
 20
0.2577
 30
0.0
 11
3.00001
 21
0.5072
 31
0.0
  0
LINE
  5
958
330
1D
100
AcDbEntity
  8
0
100
AcDbLine
 10
0.0
 20
1.0288
 30
0.0
 11
0.0
 21
1.4947
 31
0.0
  0
LINE
  5
959
330
1D
100
AcDbEntity
  8
0
100
AcDbLine
 10
0.0
 20
1.8776
 30
0.0
 11
0.0
 21
2.5716
 31
0.0
  0
LINE
  5
95A
330
1D
100
AcDbEntity
  8
0
100
AcDbLine
 10
0.0
 20
1.8774
 30
0.0
 11
0.0
 21
1.3193
 31
0.0
  0
LINE
  5
95B
330
1D
100
AcDbEntity
  8
0
100
AcDbLine
 10
0.0
 20
1.4947
 30
0.0
 11
0.0
 21
2.1001
 31
0.0
  0
LINE
  5
95C
330
1D
100
AcDbEntity
  8
0
100
AcDbLine
 10
0.0
 20
2.5716
 30
0.0
 11
0.0
 21
3.3952
 31
0.0
  0
LINE
  5
95D
330
1D
100
AcDbEntity
  8
0
100
AcDbLine
 10
0.0
 20
3.3952
 30
0.0
 11
0.0
 21
2.572
 31
0.0
  0
LINE
  5
95E
330
1D
100
AcDbEntity
  8
0
100
AcDbLine
 10
0.0
 20
2.572
 30
0.0
 11
0.0
 21
1.8774
 31
0.0
  0
LINE
  5
95F
330
1D
100
AcDbEntity
  8
0
100
AcDbLine
 10
0.0
 20
2.1001
 30
0.0
 11
0.0
 21
2.8396
 31
0.0
  0
LINE
  5
960
330
1D
100
AcDbEntity
  8
0
100
AcDbLine
 10
0.0
 20
2.1001
 30
0.0
 11
0.0
 21
1.4946
 31
0.0
  0
LINE
  5
961
330
1D
100
AcDbEntity
  8
0
100
AcDbLine
 10
0.0
 20
2.8396
 30
0.0
 11
0.0
 21
3.7053
 31
0.0
  0
LINE
  5
962
330
1D
100
AcDbEntity
  8
0
100
AcDbLine
 10
0.0
 20
2.8396
 30
0.0
 11
0.0
 21
2.1001
 31
0.0
  0
LINE
  5
963
330
1D
100
AcDbEntity
  8
0
100
AcDbLine
 10
0.0
 20
3.7055
 30
0.0
 11
0.0
 21
2.8396
 31
0.0
  0
LINE
  5
964
330
1D
100
AcDbEntity
  8
0
100
AcDbLine
 10
0.0
 20
4.6898
 30
0.0
 11
0.0
 21
3.7055
 31
0.0
  0
LINE
  5
965
330
1D
100
AcDbEntity
  8
0
100
AcDbLine
 10
0.0
 20
4.3399
 30
0.0
 11
0.0
 21
5.3972
 31
0.0
  0
LINE
  5
966
330
1D
100
AcDbEntity
  8
0
100
AcDbLine
 10
0.0
 20
5.3972
 30
0.0
 11
0.0
 21
4.3399
 31
0.0
  0
LINE
  5
967
330
1D
100
AcDbEntity
  8
0
100
AcDbLine
 10
0.0
 20
5.3972
 30
0.0
 11
0.0
 21
6.5559
 31
0.0
  0
LINE
  5
968
330
1D
100
AcDbEntity
  8
0
100
AcDbLine
 10
0.0
 20
3.7053
 30
0.0
 11
0.0
 21
4.6895
 31
0.0
  0
LINE
  5
969
330
1D
100
AcDbEntity
  8
0
100
AcDbLine
 10
0.0
 20
4.6895
 30
0.0
 11
0.0
 21
5.7828
 31
0.0
  0
LINE
  5
96A
330
1D
100
AcDbEntity
  8
0
100
AcDbLine
 10
0.0
 20
6.9742
 30
0.0
 11
0.0
 21
5.783
 31
0.0
  0
LINE
  5
96B
330
1D
100
AcDbEntity
  8
0
100
AcDbLine
 10
0.0
 20
5.783
 30
0.0
 11
0.0
 21
4.6898
 31
0.0
  0
LINE
  5
96C
330
1D
100
AcDbEntity
  8
0
100
AcDbLine
 10
0.0
 20
6.5559
 30
0.0
 11
0.0
 21
7.8061
 31
0.0
  0
LINE
  5
96D
330
1D
100
AcDbEntity
  8
0
100
AcDbLine
 10
0.0
 20
7.8061
 30
0.0
 11
0.0
 21
9.135
 31
0.0
  0
LINE
  5
96E
330
1D
100
AcDbEntity
  8
0
100
AcDbLine
 10
0.0
 20
7.806
 30
0.0
 11
0.0
 21
6.5562
 31
0.0
  0
LINE
  5
96F
330
1D
100
AcDbEntity
  8
0
100
AcDbLine
 10
0.0
 20
6.5562
 30
0.0
 11
0.0
 21
5.3972
 31
0.0
  0
LINE
  5
970
330
1D
100
AcDbEntity
  8
0
100
AcDbLine
 10
0.0
 20
5.7828
 30
0.0
 11
0.0
 21
6.9743
 31
0.0
  0
LINE
  5
971
330
1D
100
AcDbEntity
  8
0
100
AcDbLine
 10
0.0
 20
6.9743
 30
0.0
 11
0.0
 21
8.2527
 31
0.0
  0
LINE
  5
972
330
1D
100
AcDbEntity
  8
0
100
AcDbLine
 10
0.0
 20
8.2528
 30
0.0
 11
0.0
 21
6.9742
 31
0.0
  0
LINE
  5
973
330
1D
100
AcDbEntity
  8
0
100
AcDbLine
 10
0.0
 20
10.5297
 30
0.0
 11
0.0
 21
11.9774
 31
0.0
  0
LINE
  5
974
330
1D
100
AcDbEntity
  8
0
100
AcDbLine
 10
0.0
 20
9.135
 30
0.0
 11
0.0
 21
7.806
 31
0.0
  0
LINE
  5
975
330
1D
100
AcDbEntity
  8
0
100
AcDbLine
 10
0.0
 20
8.2527
 30
0.0
 11
0.0
 21
9.6055
 31
0.0
  0
LINE
  5
976
330
1D
100
AcDbEntity
  8
0
100
AcDbLine
 10
0.0
 20
9.6055
 30
0.0
 11
0.0
 21
11.0199
 31
0.0
  0
LINE
  5
977
330
1D
100
AcDbEntity
  8
0
100
AcDbLine
 10
0.0
 20
9.6055
 30
0.0
 11
0.0
 21
8.2528
 31
0.0
  0
LINE
  5
978
330
1D
100
AcDbEntity
  8
0
100
AcDbLine
 10
0.0
 20
11.0199
 30
0.0
 11
0.0
 21
12.4825
 31
0.0
  0
LINE
  5
979
330
1D
100
AcDbEntity
  8
0
100
AcDbLine
 10
0.0
 20
11.0202
 30
0.0
 11
0.0
 21
9.6055
 31
0.0
  0
LINE
  5
97A
330
1D
100
AcDbEntity
  8
0
100
AcDbLine
 10
0.0
 20
12.4823
 30
0.0
 11
0.0
 21
11.0201
 31
0.0
  0
LINE
  5
97B
330
1D
100
AcDbEntity
  8
0
100
AcDbLine
 10
0.0
 20
11.9774
 30
0.0
 11
0.0
 21
13.4636
 31
0.0
  0
LINE
  5
97C
330
1D
100
AcDbEntity
  8
0
100
AcDbLine
 10
0.0
 20
13.9784
 30
0.0
 11
0.0
 21
12.4823
 31
0.0
  0
LINE
  5
97D
330
1D
100
AcDbEntity
  8
0
100
AcDbLine
 10
0.0
 20
13.4636
 30
0.0
 11
0.0
 21
14.9741
 31
0.0
  0
LINE
  5
97E
330
1D
100
AcDbEntity
  8
0
100
AcDbLine
 10
0.0
 20
12.4825
 30
0.0
 11
0.0
 21
13.9783
 31
0.0
  0
LINE
  5
97F
330
1D
100
AcDbEntity
  8
0
100
AcDbLine
 10
0.0
 20
13.9783
 30
0.0
 11
0.0
 21
15.4943
 31
0.0
  0
LINE
  5
980
330
1D
100
AcDbEntity
  8
0
100
AcDbLine
 10
0.0
 20
15.4941
 30
0.0
 11
0.0
 21
13.9784
 31
0.0
  0
LINE
  5
981
330
1D
100
AcDbEntity
  8
0
100
AcDbLine
 10
0.0
 20
16.4945
 30
0.0
 11
0.0
 21
18.0101
 31
0.0
  0
LINE
  5
982
330
1D
100
AcDbEntity
  8
0
100
AcDbLine
 10
0.0
 20
18.0101
 30
0.0
 11
0.0
 21
19.5063
 31
0.0
  0
LINE
  5
983
330
1D
100
AcDbEntity
  8
0
100
AcDbLine
 10
0.0
 20
16.4943
 30
0.0
 11
0.0
 21
14.9741
 31
0.0
  0
LINE
  5
984
330
1D
100
AcDbEntity
  8
0
100
AcDbLine
 10
0.0
 20
18.0102
 30
0.0
 11
0.0
 21
16.4943
 31
0.0
  0
LINE
  5
985
330
1D
100
AcDbEntity
  8
0
100
AcDbLine
 10
0.0
 20
20.0112
 30
0.0
 11
0.0
 21
18.5249
 31
0.0
  0
LINE
  5
986
330
1D
100
AcDbEntity
  8
0
100
AcDbLine
 10
0.0
 20
19.5063
 30
0.0
 11
0.0
 21
20.9685
 31
0.0
  0
LINE
  5
987
330
1D
100
AcDbEntity
  8
0
100
AcDbLine
 10
0.0
 20
19.5061
 30
0.0
 11
0.0
 21
18.0102
 31
0.0
  0
LINE
  5
988
330
1D
100
AcDbEntity
  8
0
100
AcDbLine
 10
0.0
 20
15.4943
 30
0.0
 11
0.0
 21
17.0145
 31
0.0
  0
LINE
  5
989
330
1D
100
AcDbEntity
  8
0
100
AcDbLine
 10
0.0
 20
14.9741
 30
0.0
 11
0.0
 21
13.4637
 31
0.0
  0
LINE
  5
98A
330
1D
100
AcDbEntity
  8
0
100
AcDbLine
 10
0.0
 20
14.9741
 30
0.0
 11
0.0
 21
16.4945
 31
0.0
  0
LINE
  5
98B
330
1D
100
AcDbEntity
  8
0
100
AcDbLine
 10
0.0
 20
13.4637
 30
0.0
 11
0.0
 21
11.9771
 31
0.0
  0
LINE
  5
98C
330
1D
100
AcDbEntity
  8
0
100
AcDbLine
 10
0.0
 20
11.9771
 30
0.0
 11
0.0
 21
10.5297
 31
0.0
  0
LINE
  5
98D
330
1D
100
AcDbEntity
  8
0
100
AcDbLine
 10
0.0
 20
18.5249
 30
0.0
 11
0.0
 21
20.0115
 31
0.0
  0
LINE
  5
98E
330
1D
100
AcDbEntity
  8
0
100
AcDbLine
 10
0.0
 20
18.5249
 30
0.0
 11
0.0
 21
17.0145
 31
0.0
  0
LINE
  5
98F
330
1D
100
AcDbEntity
  8
0
100
AcDbLine
 10
0.0
 20
20.9687
 30
0.0
 11
0.0
 21
19.5061
 31
0.0
  0
LINE
  5
990
330
1D
100
AcDbEntity
  8
0
100
AcDbLine
 10
0.0
 20
22.3831
 30
0.0
 11
0.0
 21
23.7358
 31
0.0
  0
LINE
  5
991
330
1D
100
AcDbEntity
  8
0
100
AcDbLine
 10
0.0
 20
23.7358
 30
0.0
 11
0.0
 21
25.0143
 31
0.0
  0
LINE
  5
992
330
1D
100
AcDbEntity
  8
0
100
AcDbLine
 10
0.0
 20
24.1825
 30
0.0
 11
0.0
 21
22.8536
 31
0.0
  0
LINE
  5
993
330
1D
100
AcDbEntity
  8
0
100
AcDbLine
 10
0.0
 20
22.383
 30
0.0
 11
0.0
 21
20.9687
 31
0.0
  0
LINE
  5
994
330
1D
100
AcDbEntity
  8
0
100
AcDbLine
 10
0.0
 20
23.7359
 30
0.0
 11
0.0
 21
22.383
 31
0.0
  0
LINE
  5
995
330
1D
100
AcDbEntity
  8
0
100
AcDbLine
 10
0.0
 20
25.0143
 30
0.0
 11
0.0
 21
26.2056
 31
0.0
  0
LINE
  5
996
330
1D
100
AcDbEntity
  8
0
100
AcDbLine
 10
0.0
 20
25.4326
 30
0.0
 11
0.0
 21
24.1825
 31
0.0
  0
LINE
  5
997
330
1D
100
AcDbEntity
  8
0
100
AcDbLine
 10
0.0
 20
25.0142
 30
0.0
 11
0.0
 21
23.7359
 31
0.0
  0
LINE
  5
998
330
1D
100
AcDbEntity
  8
0
100
AcDbLine
 10
0.0
 20
25.4324
 30
0.0
 11
0.0
 21
26.5913
 31
0.0
  0
LINE
  5
999
330
1D
100
AcDbEntity
  8
0
100
AcDbLine
 10
0.0
 20
24.1826
 30
0.0
 11
0.0
 21
25.4324
 31
0.0
  0
LINE
  5
99A
330
1D
100
AcDbEntity
  8
0
100
AcDbLine
 10
0.0
 20
22.8536
 30
0.0
 11
0.0
 21
24.1826
 31
0.0
  0
LINE
  5
99B
330
1D
100
AcDbEntity
  8
0
100
AcDbLine
 10
0.0
 20
22.8536
 30
0.0
 11
0.0
 21
21.4589
 31
0.0
  0
LINE
  5
99C
330
1D
100
AcDbEntity
  8
0
100
AcDbLine
 10
0.0
 20
21.4589
 30
0.0
 11
0.0
 21
22.8536
 31
0.0
  0
LINE
  5
99D
330
1D
100
AcDbEntity
  8
0
100
AcDbLine
 10
0.0
 20
21.4589
 30
0.0
 11
0.0
 21
20.0112
 31
0.0
  0
LINE
  5
99E
330
1D
100
AcDbEntity
  8
0
100
AcDbLine
 10
0.0
 20
20.9684
 30
0.0
 11
0.0
 21
22.3831
 31
0.0
  0
LINE
  5
99F
330
1D
100
AcDbEntity
  8
0
100
AcDbLine
 10
0.0
 20
20.0115
 30
0.0
 11
0.0
 21
21.4589
 31
0.0
  0
LINE
  5
9A0
330
1D
100
AcDbEntity
  8
0
100
AcDbLine
 10
3.00001
 20
3.7053
 30
0.0
 11
3.00001
 21
2.8396
 31
0.0
  0
LINE
  5
9A1
330
1D
100
AcDbEntity
  8
0
100
AcDbLine
 10
3.00001
 20
4.6895
 30
0.0
 11
3.00001
 21
3.7053
 31
0.0
  0
LINE
  5
9A2
330
1D
100
AcDbEntity
  8
0
100
AcDbLine
 10
3.00001
 20
4.6898
 30
0.0
 11
3.00001
 21
5.783
 31
0.0
  0
LINE
  5
9A3
330
1D
100
AcDbEntity
  8
0
100
AcDbLine
 10
3.00001
 20
6.9742
 30
0.0
 11
3.00001
 21
8.2528
 31
0.0
  0
LINE
  5
9A4
330
1D
100
AcDbEntity
  8
0
100
AcDbLine
 10
3.00001
 20
5.783
 30
0.0
 11
3.00001
 21
6.9742
 31
0.0
  0
LINE
  5
9A5
330
1D
100
AcDbEntity
  8
0
100
AcDbLine
 10
3.00001
 20
3.7055
 30
0.0
 11
3.00001
 21
4.6898
 31
0.0
  0
LINE
  5
9A6
330
1D
100
AcDbEntity
  8
0
100
AcDbLine
 10
3.00001
 20
2.8396
 30
0.0
 11
3.00001
 21
3.7055
 31
0.0
  0
LINE
  5
9A7
330
1D
100
AcDbEntity
  8
0
100
AcDbLine
 10
3.00001
 20
2.8396
 30
0.0
 11
3.00001
 21
2.1001
 31
0.0
  0
LINE
  5
9A8
330
1D
100
AcDbEntity
  8
0
100
AcDbLine
 10
3.00001
 20
2.1001
 30
0.0
 11
3.00001
 21
2.8396
 31
0.0
  0
LINE
  5
9A9
330
1D
100
AcDbEntity
  8
0
100
AcDbLine
 10
3.00001
 20
2.1001
 30
0.0
 11
3.00001
 21
1.4947
 31
0.0
  0
LINE
  5
9AA
330
1D
100
AcDbEntity
  8
0
100
AcDbLine
 10
3.00001
 20
5.332580073998
 30
0.0
 11
3.3
 21
5.0337
 31
0.0
  0
LINE
  5
9AB
330
1D
100
AcDbEntity
  8
0
100
AcDbLine
 10
3.00001
 20
9.6055
 30
0.0
 11
3.00001
 21
11.0202
 31
0.0
  0
LINE
  5
9AC
330
1D
100
AcDbEntity
  8
0
100
AcDbLine
 10
3.00001
 20
9.6055
 30
0.0
 11
3.00001
 21
8.2527
 31
0.0
  0
LINE
  5
9AD
330
1D
100
AcDbEntity
  8
0
100
AcDbLine
 10
3.00001
 20
8.2528
 30
0.0
 11
3.00001
 21
9.6055
 31
0.0
  0
LINE
  5
9AE
330
1D
100
AcDbEntity
  8
0
100
AcDbLine
 10
3.00001
 20
8.2527
 30
0.0
 11
3.00001
 21
6.9743
 31
0.0
  0
LINE
  5
9AF
330
1D
100
AcDbEntity
  8
0
100
AcDbLine
 10
3.00001
 20
6.9743
 30
0.0
 11
3.00001
 21
5.7828
 31
0.0
  0
LINE
  5
9B0
330
1D
100
AcDbEntity
  8
0
100
AcDbLine
 10
3.00001
 20
5.7828
 30
0.0
 11
3.00001
 21
4.6895
 31
0.0
  0
LINE
  5
9B1
330
1D
100
AcDbEntity
  8
0
100
AcDbLine
 10
3.00001
 20
11.0199
 30
0.0
 11
3.00001
 21
9.6055
 31
0.0
  0
LINE
  5
9B2
330
1D
100
AcDbEntity
  8
0
100
AcDbLine
 10
3.00001
 20
12.4825
 30
0.0
 11
3.00001
 21
11.0199
 31
0.0
  0
LINE
  5
9B3
330
1D
100
AcDbEntity
  8
0
100
AcDbLine
 10
3.00001
 20
13.9783
 30
0.0
 11
3.00001
 21
12.4825
 31
0.0
  0
LINE
  5
9B4
330
1D
100
AcDbEntity
  8
0
100
AcDbLine
 10
3.00001
 20
15.4943
 30
0.0
 11
3.00001
 21
13.9783
 31
0.0
  0
LINE
  5
9B5
330
1D
100
AcDbEntity
  8
0
100
AcDbLine
 10
3.00001
 20
20.0115
 30
0.0
 11
3.00001
 21
18.5249
 31
0.0
  0
LINE
  5
9B6
330
1D
100
AcDbEntity
  8
0
100
AcDbLine
 10
3.00001
 20
25.4324
 30
0.0
 11
3.00001
 21
24.1826
 31
0.0
  0
LINE
  5
9B7
330
1D
100
AcDbEntity
  8
0
100
AcDbLine
 10
3.00001
 20
24.1826
 30
0.0
 11
3.00001
 21
22.8536
 31
0.0
  0
LINE
  5
9B8
330
1D
100
AcDbEntity
  8
0
100
AcDbLine
 10
3.00001
 20
25.4326
 30
0.0
 11
3.00001
 21
26.5914
 31
0.0
  0
LINE
  5
9B9
330
1D
100
AcDbEntity
  8
0
100
AcDbLine
 10
3.00001
 20
24.1825
 30
0.0
 11
3.00001
 21
25.4326
 31
0.0
  0
LINE
  5
9BA
330
1D
100
AcDbEntity
  8
0
100
AcDbLine
 10
3.00001
 20
22.8536
 30
0.0
 11
3.00001
 21
24.1825
 31
0.0
  0
LINE
  5
9BB
330
1D
100
AcDbEntity
  8
0
100
AcDbLine
 10
3.00001
 20
22.8536
 30
0.0
 11
3.00001
 21
21.4589
 31
0.0
  0
LINE
  5
9BC
330
1D
100
AcDbEntity
  8
0
100
AcDbLine
 10
3.00001
 20
21.4589
 30
0.0
 11
3.00001
 21
22.8536
 31
0.0
  0
LINE
  5
9BD
330
1D
100
AcDbEntity
  8
0
100
AcDbLine
 10
3.00001
 20
21.4589
 30
0.0
 11
3.00001
 21
20.0115
 31
0.0
  0
LINE
  5
9BE
330
1D
100
AcDbEntity
  8
0
100
AcDbLine
 10
3.00001
 20
20.0112
 30
0.0
 11
3.00001
 21
21.4589
 31
0.0
  0
LINE
  5
9BF
330
1D
100
AcDbEntity
  8
0
100
AcDbLine
 10
3.00001
 20
18.5249
 30
0.0
 11
3.00001
 21
20.0112
 31
0.0
  0
LINE
  5
9C0
330
1D
100
AcDbEntity
  8
0
100
AcDbLine
 10
3.00001
 20
18.5249
 30
0.0
 11
3.00001
 21
17.0145
 31
0.0
  0
LINE
  5
9C1
330
1D
100
AcDbEntity
  8
0
100
AcDbLine
 10
3.00001
 20
17.0145
 30
0.0
 11
3.00001
 21
18.5249
 31
0.0
  0
LINE
  5
9C2
330
1D
100
AcDbEntity
  8
0
100
AcDbLine
 10
3.00001
 20
17.0145
 30
0.0
 11
3.00001
 21
15.4943
 31
0.0
  0
LINE
  5
9C3
330
1D
100
AcDbEntity
  8
0
100
AcDbLine
 10
3.00001
 20
15.4941
 30
0.0
 11
3.00001
 21
17.0145
 31
0.0
  0
LINE
  5
9C4
330
1D
100
AcDbEntity
  8
0
100
AcDbLine
 10
3.00001
 20
13.9784
 30
0.0
 11
3.00001
 21
15.4941
 31
0.0
  0
LINE
  5
9C5
330
1D
100
AcDbEntity
  8
0
100
AcDbLine
 10
3.00001
 20
12.4823
 30
0.0
 11
3.00001
 21
13.9784
 31
0.0
  0
LINE
  5
9C6
330
1D
100
AcDbEntity
  8
0
100
AcDbLine
 10
3.00001
 20
11.0201
 30
0.0
 11
3.00001
 21
12.4823
 31
0.0
  0
LINE
  5
9C7
330
1D
100
AcDbEntity
  8
0
100
AcDbLine
 10
0.0
 20
17.0145
 30
0.0
 11
0.0
 21
18.5249
 31
0.0
  0
LINE
  5
9C8
330
1D
100
AcDbEntity
  8
0
100
AcDbLine
 10
0.0
 20
17.0145
 30
0.0
 11
0.0
 21
15.4941
 31
0.0
  0
LINE
  5
9C9
330
1D
100
AcDbEntity
  8
0
100
AcDbLine
 10
0.0
 20
26.2056
 30
0.0
 11
0.0
 21
27.2988
 31
0.0
  0
LINE
  5
9CA
330
1D
100
AcDbEntity
  8
0
100
AcDbLine
 10
0.0
 20
26.5914
 30
0.0
 11
0.0
 21
25.4326
 31
0.0
  0
LINE
  5
9CB
330
1D
100
AcDbEntity
  8
0
100
AcDbLine
 10
0.0
 20
26.2058
 30
0.0
 11
0.0
 21
25.0142
 31
0.0
  0
LINE
  5
9CC
330
1D
100
AcDbEntity
  8
0
100
AcDbLine
 10
3.00001
 20
26.5913
 30
0.0
 11
3.00001
 21
25.4324
 31
0.0
  0
LINE
  5
9CD
330
1D
100
AcDbEntity
  8
0
100
AcDbLine
 10
3.00001
 20
26.5914
 30
0.0
 11
3.00001
 21
27.6486
 31
0.0
  0
LINE
  5
9CE
330
1D
100
AcDbEntity
  8
0
100
AcDbLine
 10
0.0
 20
26.5913
 30
0.0
 11
0.0
 21
27.6486
 31
0.0
  0
LINE
  5
9CF
330
1D
100
AcDbEntity
  8
0
100
AcDbLine
 10
3.00001
 20
26.6556
 30
0.0
 11
3.30001
 21
26.9545
 31
0.0
  0
LINE
  5
9D0
330
1D
100
AcDbEntity
  8
0
100
AcDbLine
 10
0.0
 20
27.2988
 30
0.0
 11
0.0
 21
28.2831
 31
0.0
  0
LINE
  5
9D1
330
1D
100
AcDbEntity
  8
0
100
AcDbLine
 10
0.0
 20
28.2831
 30
0.0
 11
0.0
 21
29.1491
 31
0.0
  0
LINE
  5
9D2
330
1D
100
AcDbEntity
  8
0
100
AcDbLine
 10
0.0
 20
27.299
 30
0.0
 11
0.0
 21
26.2058
 31
0.0
  0
LINE
  5
9D3
330
1D
100
AcDbEntity
  8
0
100
AcDbLine
 10
0.0
 20
28.2833
 30
0.0
 11
0.0
 21
27.299
 31
0.0
  0
LINE
  5
9D4
330
1D
100
AcDbEntity
  8
0
100
AcDbLine
 10
0.0
 20
30.111
 30
0.0
 11
0.0
 21
29.417
 31
0.0
  0
LINE
  5
9D5
330
1D
100
AcDbEntity
  8
0
100
AcDbLine
 10
0.0
 20
29.417
 30
0.0
 11
0.0
 21
28.5933
 31
0.0
  0
LINE
  5
9D6
330
1D
100
AcDbEntity
  8
0
100
AcDbLine
 10
0.0
 20
29.1491
 30
0.0
 11
0.0
 21
28.2833
 31
0.0
  0
LINE
  5
9D7
330
1D
100
AcDbEntity
  8
0
100
AcDbLine
 10
0.0
 20
30.4939
 30
0.0
 11
0.0
 21
30.9594
 31
0.0
  0
LINE
  5
9D8
330
1D
100
AcDbEntity
  8
0
100
AcDbLine
 10
0.0
 20
30.9594
 30
0.0
 11
0.0
 21
31.2813
 31
0.0
  0
LINE
  5
9D9
330
1D
100
AcDbEntity
  8
0
100
AcDbLine
 10
0.0
 20
30.9598
 30
0.0
 11
0.0
 21
30.4939
 31
0.0
  0
LINE
  5
9DA
330
1D
100
AcDbEntity
  8
0
100
AcDbLine
 10
0.0
 20
31.3575
 30
0.0
 11
0.0
 21
31.0859
 31
0.0
  0
LINE
  5
9DB
330
1D
100
AcDbEntity
  8
0
100
AcDbLine
 10
0.0
 20
31.2813
 30
0.0
 11
0.0
 21
30.9598
 31
0.0
  0
LINE
  5
9DC
330
1D
100
AcDbEntity
  8
0
100
AcDbLine
 10
0.0
 20
31.2813
 30
0.0
 11
0.0
 21
31.4558
 31
0.0
  0
LINE
  5
9DD
330
1D
100
AcDbEntity
  8
0
100
AcDbLine
 10
0.0
 20
31.4558
 30
0.0
 11
0.0
 21
31.2813
 31
0.0
  0
LINE
  5
9DE
330
1D
100
AcDbEntity
  8
0
100
AcDbLine
 10
0.0
 20
31.4813
 30
0.0
 11
0.0
 21
31.3575
 31
0.0
  0
LINE
  5
9DF
330
1D
100
AcDbEntity
  8
0
100
AcDbLine
 10
0.0
 20
31.4813
 30
0.0
 11
0.066996
 21
31.7309
 31
0.0
  0
LINE
  5
9E0
330
1D
100
AcDbEntity
  8
0
100
AcDbLine
 10
0.0
 20
31.3576
 30
0.0
 11
0.0
 21
31.4812
 31
0.0
  0
LINE
  5
9E1
330
1D
100
AcDbEntity
  8
0
100
AcDbLine
 10
0.0
 20
31.0859
 30
0.0
 11
0.0
 21
31.3576
 31
0.0
  0
LINE
  5
9E2
330
1D
100
AcDbEntity
  8
0
100
AcDbLine
 10
0.0
 20
31.0859
 30
0.0
 11
0.0
 21
30.6692
 31
0.0
  0
LINE
  5
9E3
330
1D
100
AcDbEntity
  8
0
100
AcDbLine
 10
0.0
 20
30.6692
 30
0.0
 11
0.0
 21
31.0859
 31
0.0
  0
LINE
  5
9E4
330
1D
100
AcDbEntity
  8
0
100
AcDbLine
 10
0.0
 20
30.6692
 30
0.0
 11
0.0
 21
30.111
 31
0.0
  0
LINE
  5
9E5
330
1D
100
AcDbEntity
  8
0
100
AcDbLine
 10
0.0
 20
30.1112
 30
0.0
 11
0.0
 21
30.6692
 31
0.0
  0
LINE
  5
9E6
330
1D
100
AcDbEntity
  8
0
100
AcDbLine
 10
0.0
 20
29.4166
 30
0.0
 11
0.0
 21
30.1112
 31
0.0
  0
LINE
  5
9E7
330
1D
100
AcDbEntity
  8
0
100
AcDbLine
 10
0.0
 20
28.5933
 30
0.0
 11
0.0
 21
29.4166
 31
0.0
  0
LINE
  5
9E8
330
1D
100
AcDbEntity
  8
0
100
AcDbLine
 10
0.0
 20
28.5933
 30
0.0
 11
0.0
 21
27.6486
 31
0.0
  0
LINE
  5
9E9
330
1D
100
AcDbEntity
  8
0
100
AcDbLine
 10
3.00001
 20
29.4166
 30
0.0
 11
3.00001
 21
28.5933
 31
0.0
  0
LINE
  5
9EA
330
1D
100
AcDbEntity
  8
0
100
AcDbLine
 10
3.00001
 20
30.1112
 30
0.0
 11
3.00001
 21
29.4166
 31
0.0
  0
LINE
  5
9EB
330
1D
100
AcDbEntity
  8
0
100
AcDbLine
 10
2.75001
 20
31.9138
 30
0.0
 11
2.93302
 21
31.7309
 31
0.0
  0
LINE
  5
9EC
330
1D
100
AcDbEntity
  8
0
100
AcDbLine
 10
0.500008
 20
31.9808
 30
0.0
 11
2.50001
 21
31.9808
 31
0.0
  0
LINE
  5
9ED
330
1D
100
AcDbEntity
  8
0
100
AcDbLine
 10
0.500008
 20
31.9808
 30
0.0
 11
2.50001
 21
31.9808
 31
0.0
  0
LINE
  5
9EE
330
1D
100
AcDbEntity
  8
0
100
AcDbLine
 10
2.50001
 20
31.9808
 30
0.0
 11
2.75001
 21
31.9138
 31
0.0
  0
LINE
  5
9EF
330
1D
100
AcDbEntity
  8
0
100
AcDbLine
 10
0.249997
 20
31.9138
 30
0.0
 11
0.500008
 21
31.9808
 31
0.0
  0
LINE
  5
9F0
330
1D
100
AcDbEntity
  8
0
100
AcDbLine
 10
0.249997
 20
31.9138
 30
0.0
 11
0.500008
 21
31.9808
 31
0.0
  0
LINE
  5
9F1
330
1D
100
AcDbEntity
  8
0
100
AcDbLine
 10
0.066996
 20
31.7309
 30
0.0
 11
0.249997
 21
31.9138
 31
0.0
  0
LINE
  5
9F2
330
1D
100
AcDbEntity
  8
0
100
AcDbLine
 10
3.00001
 20
31.3576
 30
0.0
 11
3.00001
 21
31.0859
 31
0.0
  0
LINE
  5
9F3
330
1D
100
AcDbEntity
  8
0
100
AcDbLine
 10
3.00001
 20
31.4812
 30
0.0
 11
3.00001
 21
31.3576
 31
0.0
  0
LINE
  5
9F4
330
1D
100
AcDbEntity
  8
0
100
AcDbLine
 10
2.93302
 20
31.7309
 30
0.0
 11
3.00001
 21
31.4813
 31
0.0
  0
LINE
  5
9F5
330
1D
100
AcDbEntity
  8
0
100
AcDbLine
 10
3.00001
 20
31.3575
 30
0.0
 11
3.00001
 21
31.4813
 31
0.0
  0
LINE
  5
9F6
330
1D
100
AcDbEntity
  8
0
100
AcDbLine
 10
3.00001
 20
31.0859
 30
0.0
 11
3.00001
 21
31.3575
 31
0.0
  0
LINE
  5
9F7
330
1D
100
AcDbEntity
  8
0
100
AcDbLine
 10
3.00001
 20
31.0859
 30
0.0
 11
3.00001
 21
30.6692
 31
0.0
  0
LINE
  5
9F8
330
1D
100
AcDbEntity
  8
0
100
AcDbLine
 10
3.00001
 20
30.6692
 30
0.0
 11
3.00001
 21
31.0859
 31
0.0
  0
LINE
  5
9F9
330
1D
100
AcDbEntity
  8
0
100
AcDbLine
 10
3.00001
 20
30.6692
 30
0.0
 11
3.00001
 21
30.1112
 31
0.0
  0
LINE
  5
9FA
330
1D
100
AcDbEntity
  8
0
100
AcDbLine
 10
3.00001
 20
30.111
 30
0.0
 11
3.00001
 21
30.6692
 31
0.0
  0
LINE
  5
9FB
330
1D
100
AcDbEntity
  8
0
100
AcDbLine
 10
3.00001
 20
29.417
 30
0.0
 11
3.00001
 21
30.111
 31
0.0
  0
LINE
  5
9FC
330
1D
100
AcDbEntity
  8
0
100
AcDbLine
 10
3.00001
 20
28.5933
 30
0.0
 11
3.00001
 21
29.417
 31
0.0
  0
LINE
  5
9FD
330
1D
100
AcDbEntity
  8
0
100
AcDbLine
 10
3.00001
 20
28.5933
 30
0.0
 11
3.00001
 21
27.6486
 31
0.0
  0
LINE
  5
9FE
330
1D
100
AcDbEntity
  8
0
100
AcDbLine
 10
3.00001
 20
27.6486
 30
0.0
 11
3.00001
 21
28.5933
 31
0.0
  0
LINE
  5
9FF
330
1D
100
AcDbEntity
  8
0
100
AcDbLine
 10
3.00001
 20
27.6486
 30
0.0
 11
3.00001
 21
26.5913
 31
0.0
  0
LINE
  5
A00
330
1D
100
AcDbEntity
  8
0
100
AcDbLine
 10
0.0
 20
27.6486
 30
0.0
 11
0.0
 21
28.5933
 31
0.0
  0
LINE
  5
A01
330
1D
100
AcDbEntity
  8
0
100
AcDbLine
 10
0.0
 20
27.6486
 30
0.0
 11
0.0
 21
26.5914
 31
0.0
  0
LINE
  5
A02
330
1D
100
AcDbEntity
  8
0
100
AcDbLine
 10
3.3
 20
26.9545
 30
0.0
 11
26.7
 21
26.9545
 31
0.0
  0
LINE
  5
A03
330
1D
100
AcDbEntity
  8
0
100
AcDbLine
 10
3.3
 20
26.9545
 30
0.0
 11
26.7
 21
26.9545
 31
0.0
  0
LINE
  5
A04
330
1D
100
AcDbEntity
  8
0
100
AcDbLine
 10
3.30001
 20
5.0341
 30
0.0
 11
26.7
 21
5.0341
 31
0.0
  0
LINE
  5
A05
330
1D
100
AcDbEntity
  8
0
100
AcDbLine
 10
3.30001
 20
5.0341
 30
0.0
 11
26.7
 21
5.0341
 31
0.0
  0
LINE
  5
A06
330
1D
100
AcDbEntity
  8
0
100
AcDbLine
 10
26.7
 20
5.1334
 30
0.0
 11
26.9483
 21
5.8941
 31
0.0
  0
LINE
  5
A07
330
1D
100
AcDbEntity
  8
0
100
AcDbLine
 10
26.7
 20
5.0341
 30
0.0
 11
26.7
 21
5.638
 31
0.0
  0
LINE
  5
A08
330
1D
100
AcDbEntity
  8
0
100
AcDbLine
 10
26.7
 20
5.638
 30
0.0
 11
26.7
 21
6.9479
 31
0.0
  0
LINE
  5
A09
330
1D
100
AcDbEntity
  8
0
100
AcDbLine
 10
26.7
 20
5.6382
 30
0.0
 11
26.7
 21
5.0341
 31
0.0
  0
LINE
  5
A0A
330
1D
100
AcDbEntity
  8
0
100
AcDbLine
 10
26.7
 20
6.9479
 30
0.0
 11
26.7
 21
5.6382
 31
0.0
  0
LINE
  5
A0B
330
1D
100
AcDbEntity
  8
0
100
AcDbLine
 10
26.7
 20
6.9479
 30
0.0
 11
26.7
 21
8.8744
 31
0.0
  0
LINE
  5
A0C
330
1D
100
AcDbEntity
  8
0
100
AcDbLine
 10
26.7
 20
8.8744
 30
0.0
 11
26.7
 21
11.2857
 31
0.0
  0
LINE
  5
A0D
330
1D
100
AcDbEntity
  8
0
100
AcDbLine
 10
26.7
 20
11.2857
 30
0.0
 11
26.7
 21
14.0183
 31
0.0
  0
LINE
  5
A0E
330
1D
100
AcDbEntity
  8
0
100
AcDbLine
 10
26.7
 20
14.0183
 30
0.0
 11
26.7
 21
16.8854
 31
0.0
  0
LINE
  5
A0F
330
1D
100
AcDbEntity
  8
0
100
AcDbLine
 10
26.7
 20
11.2856
 30
0.0
 11
26.7
 21
8.8741
 31
0.0
  0
LINE
  5
A10
330
1D
100
AcDbEntity
  8
0
100
AcDbLine
 10
26.7
 20
14.0182
 30
0.0
 11
26.7
 21
11.2856
 31
0.0
  0
LINE
  5
A11
330
1D
100
AcDbEntity
  8
0
100
AcDbLine
 10
26.7
 20
16.8854
 30
0.0
 11
26.7
 21
19.6918
 31
0.0
  0
LINE
  5
A12
330
1D
100
AcDbEntity
  8
0
100
AcDbLine
 10
26.7
 20
16.8853
 30
0.0
 11
26.7
 21
14.0182
 31
0.0
  0
LINE
  5
A13
330
1D
100
AcDbEntity
  8
0
100
AcDbLine
 10
26.7
 20
19.6918
 30
0.0
 11
26.7
 21
16.8853
 31
0.0
  0
LINE
  5
A14
330
1D
100
AcDbEntity
  8
0
100
AcDbLine
 10
26.7
 20
19.6918
 30
0.0
 11
26.7
 21
22.2461
 31
0.0
  0
LINE
  5
A15
330
1D
100
AcDbEntity
  8
0
100
AcDbLine
 10
26.7
 20
22.2461
 30
0.0
 11
26.7
 21
19.6918
 31
0.0
  0
LINE
  5
A16
330
1D
100
AcDbEntity
  8
0
100
AcDbLine
 10
26.7
 20
22.2461
 30
0.0
 11
26.7
 21
24.3745
 31
0.0
  0
LINE
  5
A17
330
1D
100
AcDbEntity
  8
0
100
AcDbLine
 10
26.7
 20
25.9317
 30
0.0
 11
26.7
 21
24.3745
 31
0.0
  0
LINE
  5
A18
330
1D
100
AcDbEntity
  8
0
100
AcDbLine
 10
26.7
 20
8.8741
 30
0.0
 11
26.7
 21
6.9479
 31
0.0
  0
LINE
  5
A19
330
1D
100
AcDbEntity
  8
0
100
AcDbLine
 10
29.3
 20
5.0341
 30
0.0
 11
76.7
 21
5.0341
 31
0.0
  0
LINE
  5
A1A
330
1D
100
AcDbEntity
  8
0
100
AcDbLine
 10
29.3
 20
5.638
 30
0.0
 11
29.3
 21
5.0341
 31
0.0
  0
LINE
  5
A1B
330
1D
100
AcDbEntity
  8
0
100
AcDbLine
 10
29.3
 20
5.1334
 30
0.0
 11
29.3
 21
5.0341
 31
0.0
  0
LINE
  5
A1C
330
1D
100
AcDbEntity
  8
0
100
AcDbLine
 10
29.3
 20
5.1334
 30
0.0
 11
29.3
 21
5.7322
 31
0.0
  0
LINE
  5
A1D
330
1D
100
AcDbEntity
  8
0
100
AcDbLine
 10
29.0517
 20
5.8941
 30
0.0
 11
29.3
 21
5.1334
 31
0.0
  0
LINE
  5
A1E
330
1D
100
AcDbEntity
  8
0
100
AcDbLine
 10
27.5983
 20
6.3646
 30
0.0
 11
28.4017
 21
6.3646
 31
0.0
  0
LINE
  5
A1F
330
1D
100
AcDbEntity
  8
0
100
AcDbLine
 10
28.4017
 20
6.3646
 30
0.0
 11
29.0517
 21
5.8941
 31
0.0
  0
LINE
  5
A20
330
1D
100
AcDbEntity
  8
0
100
AcDbLine
 10
26.9483
 20
5.8941
 30
0.0
 11
27.5983
 21
6.3646
 31
0.0
  0
LINE
  5
A21
330
1D
100
AcDbEntity
  8
0
100
AcDbLine
 10
29.3
 20
5.7322
 30
0.0
 11
29.3
 21
5.1336
 31
0.0
  0
LINE
  5
A22
330
1D
100
AcDbEntity
  8
0
100
AcDbLine
 10
29.3
 20
5.7322
 30
0.0
 11
29.3
 21
7.0301
 31
0.0
  0
LINE
  5
A23
330
1D
100
AcDbEntity
  8
0
100
AcDbLine
 10
29.3
 20
5.0341
 30
0.0
 11
29.3
 21
5.6382
 31
0.0
  0
LINE
  5
A24
330
1D
100
AcDbEntity
  8
0
100
AcDbLine
 10
29.3
 20
5.0341
 30
0.0
 11
76.7
 21
5.0341
 31
0.0
  0
LINE
  5
A25
330
1D
100
AcDbEntity
  8
0
100
AcDbLine
 10
29.3
 20
5.0341
 30
0.0
 11
29.3
 21
5.1334
 31
0.0
  0
LINE
  5
A26
330
1D
100
AcDbEntity
  8
0
100
AcDbLine
 10
29.3
 20
8.8744
 30
0.0
 11
29.3
 21
6.9479
 31
0.0
  0
LINE
  5
A27
330
1D
100
AcDbEntity
  8
0
100
AcDbLine
 10
29.3
 20
7.0301
 30
0.0
 11
29.3
 21
5.7322
 31
0.0
  0
LINE
  5
A28
330
1D
100
AcDbEntity
  8
0
100
AcDbLine
 10
29.3
 20
7.0301
 30
0.0
 11
29.3
 21
8.939
 31
0.0
  0
LINE
  5
A29
330
1D
100
AcDbEntity
  8
0
100
AcDbLine
 10
29.3
 20
5.6382
 30
0.0
 11
29.3
 21
6.9479
 31
0.0
  0
LINE
  5
A2A
330
1D
100
AcDbEntity
  8
0
100
AcDbLine
 10
29.3
 20
11.3286
 30
0.0
 11
29.3
 21
14.0363
 31
0.0
  0
LINE
  5
A2B
330
1D
100
AcDbEntity
  8
0
100
AcDbLine
 10
29.3
 20
11.2857
 30
0.0
 11
29.3
 21
8.8744
 31
0.0
  0
LINE
  5
A2C
330
1D
100
AcDbEntity
  8
0
100
AcDbLine
 10
29.3
 20
11.2856
 30
0.0
 11
29.3
 21
14.0182
 31
0.0
  0
LINE
  5
A2D
330
1D
100
AcDbEntity
  8
0
100
AcDbLine
 10
29.3
 20
8.939
 30
0.0
 11
29.3
 21
7.0301
 31
0.0
  0
LINE
  5
A2E
330
1D
100
AcDbEntity
  8
0
100
AcDbLine
 10
29.3
 20
8.939
 30
0.0
 11
29.3
 21
11.3287
 31
0.0
  0
LINE
  5
A2F
330
1D
100
AcDbEntity
  8
0
100
AcDbLine
 10
29.3
 20
6.9479
 30
0.0
 11
29.3
 21
8.8741
 31
0.0
  0
LINE
  5
A30
330
1D
100
AcDbEntity
  8
0
100
AcDbLine
 10
29.3
 20
6.9479
 30
0.0
 11
29.3
 21
5.638
 31
0.0
  0
LINE
  5
A31
330
1D
100
AcDbEntity
  8
0
100
AcDbLine
 10
29.3
 20
14.0183
 30
0.0
 11
29.3
 21
11.2857
 31
0.0
  0
LINE
  5
A32
330
1D
100
AcDbEntity
  8
0
100
AcDbLine
 10
29.3
 20
14.0363
 30
0.0
 11
29.3
 21
16.8773
 31
0.0
  0
LINE
  5
A33
330
1D
100
AcDbEntity
  8
0
100
AcDbLine
 10
29.3
 20
14.0362
 30
0.0
 11
29.3
 21
11.3287
 31
0.0
  0
LINE
  5
A34
330
1D
100
AcDbEntity
  8
0
100
AcDbLine
 10
29.3
 20
16.8773
 30
0.0
 11
29.3
 21
14.0362
 31
0.0
  0
LINE
  5
A35
330
1D
100
AcDbEntity
  8
0
100
AcDbLine
 10
29.3
 20
16.8773
 30
0.0
 11
29.3
 21
19.6579
 31
0.0
  0
LINE
  5
A36
330
1D
100
AcDbEntity
  8
0
100
AcDbLine
 10
29.3
 20
14.0182
 30
0.0
 11
29.3
 21
16.8852
 31
0.0
  0
LINE
  5
A37
330
1D
100
AcDbEntity
  8
0
100
AcDbLine
 10
29.3
 20
16.8852
 30
0.0
 11
29.3
 21
19.6918
 31
0.0
  0
LINE
  5
A38
330
1D
100
AcDbEntity
  8
0
100
AcDbLine
 10
29.3
 20
16.8852
 30
0.0
 11
29.3
 21
14.0183
 31
0.0
  0
LINE
  5
A39
330
1D
100
AcDbEntity
  8
0
100
AcDbLine
 10
29.3
 20
19.6919
 30
0.0
 11
29.3
 21
16.8852
 31
0.0
  0
LINE
  5
A3A
330
1D
100
AcDbEntity
  8
0
100
AcDbLine
 10
29.3
 20
19.6579
 30
0.0
 11
29.3
 21
16.8773
 31
0.0
  0
LINE
  5
A3B
330
1D
100
AcDbEntity
  8
0
100
AcDbLine
 10
29.3
 20
19.6579
 30
0.0
 11
29.3
 21
22.1892
 31
0.0
  0
LINE
  5
A3C
330
1D
100
AcDbEntity
  8
0
100
AcDbLine
 10
29.3
 20
19.6918
 30
0.0
 11
29.3
 21
22.2461
 31
0.0
  0
LINE
  5
A3D
330
1D
100
AcDbEntity
  8
0
100
AcDbLine
 10
29.3
 20
22.1892
 30
0.0
 11
29.3
 21
19.6579
 31
0.0
  0
LINE
  5
A3E
330
1D
100
AcDbEntity
  8
0
100
AcDbLine
 10
29.3
 20
22.1892
 30
0.0
 11
29.3
 21
24.2983
 31
0.0
  0
LINE
  5
A3F
330
1D
100
AcDbEntity
  8
0
100
AcDbLine
 10
29.3
 20
22.2461
 30
0.0
 11
29.3
 21
24.3745
 31
0.0
  0
LINE
  5
A40
330
1D
100
AcDbEntity
  8
0
100
AcDbLine
 10
29.3
 20
22.2461
 30
0.0
 11
29.3
 21
19.6919
 31
0.0
  0
LINE
  5
A41
330
1D
100
AcDbEntity
  8
0
100
AcDbLine
 10
29.3
 20
24.2983
 30
0.0
 11
29.3
 21
22.1892
 31
0.0
  0
LINE
  5
A42
330
1D
100
AcDbEntity
  8
0
100
AcDbLine
 10
29.3
 20
24.2983
 30
0.0
 11
29.3
 21
25.8415
 31
0.0
  0
LINE
  5
A43
330
1D
100
AcDbEntity
  8
0
100
AcDbLine
 10
29.3
 20
24.3745
 30
0.0
 11
29.3
 21
25.9317
 31
0.0
  0
LINE
  5
A44
330
1D
100
AcDbEntity
  8
0
100
AcDbLine
 10
29.3
 20
24.3745
 30
0.0
 11
29.3
 21
22.2461
 31
0.0
  0
LINE
  5
A45
330
1D
100
AcDbEntity
  8
0
100
AcDbLine
 10
29.3
 20
11.3287
 30
0.0
 11
29.3
 21
8.939
 31
0.0
  0
LINE
  5
A46
330
1D
100
AcDbEntity
  8
0
100
AcDbLine
 10
76.7
 20
5.1334
 30
0.0
 11
76.9483
 21
5.8941
 31
0.0
  0
LINE
  5
A47
330
1D
100
AcDbEntity
  8
0
100
AcDbLine
 10
76.7
 20
5.0341
 30
0.0
 11
76.7
 21
5.638
 31
0.0
  0
LINE
  5
A48
330
1D
100
AcDbEntity
  8
0
100
AcDbLine
 10
76.7
 20
5.638
 30
0.0
 11
76.7
 21
6.9479
 31
0.0
  0
LINE
  5
A49
330
1D
100
AcDbEntity
  8
0
100
AcDbLine
 10
76.7
 20
5.6382
 30
0.0
 11
76.7
 21
5.0341
 31
0.0
  0
LINE
  5
A4A
330
1D
100
AcDbEntity
  8
0
100
AcDbLine
 10
76.7
 20
6.9479
 30
0.0
 11
76.7
 21
5.6382
 31
0.0
  0
LINE
  5
A4B
330
1D
100
AcDbEntity
  8
0
100
AcDbLine
 10
76.7
 20
6.9479
 30
0.0
 11
76.7
 21
8.8744
 31
0.0
  0
LINE
  5
A4C
330
1D
100
AcDbEntity
  8
0
100
AcDbLine
 10
76.7
 20
8.8744
 30
0.0
 11
76.7
 21
11.2857
 31
0.0
  0
LINE
  5
A4D
330
1D
100
AcDbEntity
  8
0
100
AcDbLine
 10
76.7
 20
11.2857
 30
0.0
 11
76.7
 21
14.0183
 31
0.0
  0
LINE
  5
A4E
330
1D
100
AcDbEntity
  8
0
100
AcDbLine
 10
76.7
 20
11.2856
 30
0.0
 11
76.7
 21
8.8741
 31
0.0
  0
LINE
  5
A4F
330
1D
100
AcDbEntity
  8
0
100
AcDbLine
 10
76.7
 20
14.0183
 30
0.0
 11
76.7
 21
16.8852
 31
0.0
  0
LINE
  5
A50
330
1D
100
AcDbEntity
  8
0
100
AcDbLine
 10
76.7
 20
14.0182
 30
0.0
 11
76.7
 21
11.2856
 31
0.0
  0
LINE
  5
A51
330
1D
100
AcDbEntity
  8
0
100
AcDbLine
 10
76.7
 20
16.8852
 30
0.0
 11
76.7
 21
14.0182
 31
0.0
  0
LINE
  5
A52
330
1D
100
AcDbEntity
  8
0
100
AcDbLine
 10
76.7
 20
16.8852
 30
0.0
 11
76.7
 21
19.6919
 31
0.0
  0
LINE
  5
A53
330
1D
100
AcDbEntity
  8
0
100
AcDbLine
 10
76.7
 20
19.6919
 30
0.0
 11
76.7
 21
22.2461
 31
0.0
  0
LINE
  5
A54
330
1D
100
AcDbEntity
  8
0
100
AcDbLine
 10
76.7
 20
19.6918
 30
0.0
 11
76.7
 21
16.8852
 31
0.0
  0
LINE
  5
A55
330
1D
100
AcDbEntity
  8
0
100
AcDbLine
 10
76.7
 20
22.2461
 30
0.0
 11
76.7
 21
19.6918
 31
0.0
  0
LINE
  5
A56
330
1D
100
AcDbEntity
  8
0
100
AcDbLine
 10
76.7
 20
22.2461
 30
0.0
 11
76.7
 21
24.3745
 31
0.0
  0
LINE
  5
A57
330
1D
100
AcDbEntity
  8
0
100
AcDbLine
 10
76.7
 20
8.8741
 30
0.0
 11
76.7
 21
6.9479
 31
0.0
  0
LINE
  5
A58
330
1D
100
AcDbEntity
  8
0
100
AcDbLine
 10
29.3
 20
8.8741
 30
0.0
 11
29.3
 21
11.2856
 31
0.0
  0
LINE
  5
A59
330
1D
100
AcDbEntity
  8
0
100
AcDbLine
 10
27.5983
 20
25.624
 30
0.0
 11
28.4017
 21
25.624
 31
0.0
  0
LINE
  5
A5A
330
1D
100
AcDbEntity
  8
0
100
AcDbLine
 10
28.4017
 20
25.624
 30
0.0
 11
29.0517
 21
26.0944
 31
0.0
  0
LINE
  5
A5B
330
1D
100
AcDbEntity
  8
0
100
AcDbLine
 10
29.3
 20
25.8415
 30
0.0
 11
29.3
 21
24.2983
 31
0.0
  0
LINE
  5
A5C
330
1D
100
AcDbEntity
  8
0
100
AcDbLine
 10
29.3
 20
25.8415
 30
0.0
 11
29.3
 21
26.7135
 31
0.0
  0
LINE
  5
A5D
330
1D
100
AcDbEntity
  8
0
100
AcDbLine
 10
76.7
 20
25.9317
 30
0.0
 11
76.7
 21
24.3745
 31
0.0
  0
LINE
  5
A5E
330
1D
100
AcDbEntity
  8
0
100
AcDbLine
 10
29.3
 20
25.9317
 30
0.0
 11
29.3
 21
24.3745
 31
0.0
  0
LINE
  5
A5F
330
1D
100
AcDbEntity
  8
0
100
AcDbLine
 10
29.3
 20
25.9317
 30
0.0
 11
29.3
 21
26.8119
 31
0.0
  0
LINE
  5
A60
330
1D
100
AcDbEntity
  8
0
100
AcDbLine
 10
76.7
 20
24.3745
 30
0.0
 11
76.7
 21
25.9317
 31
0.0
  0
LINE
  5
A61
330
1D
100
AcDbEntity
  8
0
100
AcDbLine
 10
76.7
 20
24.3745
 30
0.0
 11
76.7
 21
22.2461
 31
0.0
  0
LINE
  5
A62
330
1D
100
AcDbEntity
  8
0
100
AcDbLine
 10
26.7
 20
24.3745
 30
0.0
 11
26.7
 21
25.9317
 31
0.0
  0
LINE
  5
A63
330
1D
100
AcDbEntity
  8
0
100
AcDbLine
 10
26.7
 20
24.3745
 30
0.0
 11
26.7
 21
22.2461
 31
0.0
  0
LINE
  5
A64
330
1D
100
AcDbEntity
  8
0
100
AcDbLine
 10
79.3
 20
5.638
 30
0.0
 11
79.3
 21
5.0341
 31
0.0
  0
LINE
  5
A65
330
1D
100
AcDbEntity
  8
0
100
AcDbLine
 10
79.3
 20
5.1334
 30
0.0
 11
79.3
 21
5.0341
 31
0.0
  0
LINE
  5
A66
330
1D
100
AcDbEntity
  8
0
100
AcDbLine
 10
79.3
 20
5.1334
 30
0.0
 11
79.3
 21
5.7322
 31
0.0
  0
LINE
  5
A67
330
1D
100
AcDbEntity
  8
0
100
AcDbLine
 10
79.3
 20
5.0341
 30
0.0
 11
79.3
 21
5.6382
 31
0.0
  0
LINE
  5
A68
330
1D
100
AcDbEntity
  8
0
100
AcDbLine
 10
79.3
 20
5.0341
 30
0.0
 11
79.3
 21
5.1334
 31
0.0
  0
LINE
  5
A69
330
1D
100
AcDbEntity
  8
0
100
AcDbLine
 10
79.0517
 20
5.8941
 30
0.0
 11
79.3
 21
5.1334
 31
0.0
  0
LINE
  5
A6A
330
1D
100
AcDbEntity
  8
0
100
AcDbLine
 10
77.5983
 20
6.3646
 30
0.0
 11
78.4017
 21
6.3646
 31
0.0
  0
LINE
  5
A6B
330
1D
100
AcDbEntity
  8
0
100
AcDbLine
 10
78.4017
 20
6.3646
 30
0.0
 11
79.0517
 21
5.8941
 31
0.0
  0
LINE
  5
A6C
330
1D
100
AcDbEntity
  8
0
100
AcDbLine
 10
76.9483
 20
5.8941
 30
0.0
 11
77.5983
 21
6.3646
 31
0.0
  0
LINE
  5
A6D
330
1D
100
AcDbEntity
  8
0
100
AcDbLine
 10
79.3
 20
5.7322
 30
0.0
 11
79.3
 21
5.1336
 31
0.0
  0
LINE
  5
A6E
330
1D
100
AcDbEntity
  8
0
100
AcDbLine
 10
79.3
 20
5.7322
 30
0.0
 11
79.3
 21
7.0301
 31
0.0
  0
LINE
  5
A6F
330
1D
100
AcDbEntity
  8
0
100
AcDbLine
 10
79.3
 20
7.0301
 30
0.0
 11
79.3
 21
5.7322
 31
0.0
  0
LINE
  5
A70
330
1D
100
AcDbEntity
  8
0
100
AcDbLine
 10
79.3
 20
7.0301
 30
0.0
 11
79.3
 21
8.939
 31
0.0
  0
LINE
  5
A71
330
1D
100
AcDbEntity
  8
0
100
AcDbLine
 10
79.3
 20
5.6382
 30
0.0
 11
79.3
 21
6.9479
 31
0.0
  0
LINE
  5
A72
330
1D
100
AcDbEntity
  8
0
100
AcDbLine
 10
79.3
 20
6.9479
 30
0.0
 11
79.3
 21
8.8741
 31
0.0
  0
LINE
  5
A73
330
1D
100
AcDbEntity
  8
0
100
AcDbLine
 10
79.3
 20
6.9479
 30
0.0
 11
79.3
 21
5.638
 31
0.0
  0
LINE
  5
A74
330
1D
100
AcDbEntity
  8
0
100
AcDbLine
 10
79.3
 20
8.8744
 30
0.0
 11
79.3
 21
6.9479
 31
0.0
  0
LINE
  5
A75
330
1D
100
AcDbEntity
  8
0
100
AcDbLine
 10
79.3
 20
11.2857
 30
0.0
 11
79.3
 21
8.8744
 31
0.0
  0
LINE
  5
A76
330
1D
100
AcDbEntity
  8
0
100
AcDbLine
 10
79.3
 20
14.0183
 30
0.0
 11
79.3
 21
11.2857
 31
0.0
  0
LINE
  5
A77
330
1D
100
AcDbEntity
  8
0
100
AcDbLine
 10
79.3
 20
14.0362
 30
0.0
 11
79.3
 21
11.3287
 31
0.0
  0
LINE
  5
A78
330
1D
100
AcDbEntity
  8
0
100
AcDbLine
 10
79.3
 20
14.0362
 30
0.0
 11
79.3
 21
16.8773
 31
0.0
  0
LINE
  5
A79
330
1D
100
AcDbEntity
  8
0
100
AcDbLine
 10
79.3
 20
11.2856
 30
0.0
 11
79.3
 21
14.0182
 31
0.0
  0
LINE
  5
A7A
330
1D
100
AcDbEntity
  8
0
100
AcDbLine
 10
79.3
 20
16.8773
 30
0.0
 11
79.3
 21
14.0362
 31
0.0
  0
LINE
  5
A7B
330
1D
100
AcDbEntity
  8
0
100
AcDbLine
 10
79.3
 20
16.8773
 30
0.0
 11
79.3
 21
19.6579
 31
0.0
  0
LINE
  5
A7C
330
1D
100
AcDbEntity
  8
0
100
AcDbLine
 10
79.3
 20
14.0182
 30
0.0
 11
79.3
 21
16.8853
 31
0.0
  0
LINE
  5
A7D
330
1D
100
AcDbEntity
  8
0
100
AcDbLine
 10
79.3
 20
16.8854
 30
0.0
 11
79.3
 21
14.0183
 31
0.0
  0
LINE
  5
A7E
330
1D
100
AcDbEntity
  8
0
100
AcDbLine
 10
79.3
 20
16.8853
 30
0.0
 11
79.3
 21
19.6918
 31
0.0
  0
LINE
  5
A7F
330
1D
100
AcDbEntity
  8
0
100
AcDbLine
 10
79.3
 20
19.6579
 30
0.0
 11
79.3
 21
16.8773
 31
0.0
  0
LINE
  5
A80
330
1D
100
AcDbEntity
  8
0
100
AcDbLine
 10
79.3
 20
19.6579
 30
0.0
 11
79.3
 21
22.1893
 31
0.0
  0
LINE
  5
A81
330
1D
100
AcDbEntity
  8
0
100
AcDbLine
 10
79.3
 20
19.6918
 30
0.0
 11
79.3
 21
22.2461
 31
0.0
  0
LINE
  5
A82
330
1D
100
AcDbEntity
  8
0
100
AcDbLine
 10
79.3
 20
19.6918
 30
0.0
 11
79.3
 21
16.8854
 31
0.0
  0
LINE
  5
A83
330
1D
100
AcDbEntity
  8
0
100
AcDbLine
 10
79.3
 20
22.1893
 30
0.0
 11
79.3
 21
19.6579
 31
0.0
  0
LINE
  5
A84
330
1D
100
AcDbEntity
  8
0
100
AcDbLine
 10
79.3
 20
22.1893
 30
0.0
 11
79.3
 21
24.2983
 31
0.0
  0
LINE
  5
A85
330
1D
100
AcDbEntity
  8
0
100
AcDbLine
 10
79.3
 20
22.2461
 30
0.0
 11
79.3
 21
24.3745
 31
0.0
  0
LINE
  5
A86
330
1D
100
AcDbEntity
  8
0
100
AcDbLine
 10
79.3
 20
22.2461
 30
0.0
 11
79.3
 21
19.6918
 31
0.0
  0
LINE
  5
A87
330
1D
100
AcDbEntity
  8
0
100
AcDbLine
 10
79.3
 20
24.2983
 30
0.0
 11
79.3
 21
22.1893
 31
0.0
  0
LINE
  5
A88
330
1D
100
AcDbEntity
  8
0
100
AcDbLine
 10
79.3
 20
24.2983
 30
0.0
 11
79.3
 21
25.8415
 31
0.0
  0
LINE
  5
A89
330
1D
100
AcDbEntity
  8
0
100
AcDbLine
 10
77.5983
 20
25.624
 30
0.0
 11
78.4017
 21
25.624
 31
0.0
  0
LINE
  5
A8A
330
1D
100
AcDbEntity
  8
0
100
AcDbLine
 10
78.4017
 20
25.624
 30
0.0
 11
79.0517
 21
26.0944
 31
0.0
  0
LINE
  5
A8B
330
1D
100
AcDbEntity
  8
0
100
AcDbLine
 10
79.3
 20
24.3745
 30
0.0
 11
79.3
 21
25.9317
 31
0.0
  0
LINE
  5
A8C
330
1D
100
AcDbEntity
  8
0
100
AcDbLine
 10
79.3
 20
24.3745
 30
0.0
 11
79.3
 21
22.2461
 31
0.0
  0
LINE
  5
A8D
330
1D
100
AcDbEntity
  8
0
100
AcDbLine
 10
79.3
 20
25.8415
 30
0.0
 11
79.3
 21
24.2983
 31
0.0
  0
LINE
  5
A8E
330
1D
100
AcDbEntity
  8
0
100
AcDbLine
 10
79.3
 20
25.8415
 30
0.0
 11
79.3
 21
26.7135
 31
0.0
  0
LINE
  5
A8F
330
1D
100
AcDbEntity
  8
0
100
AcDbLine
 10
79.3
 20
8.939
 30
0.0
 11
79.3
 21
7.0301
 31
0.0
  0
LINE
  5
A90
330
1D
100
AcDbEntity
  8
0
100
AcDbLine
 10
79.3
 20
8.939
 30
0.0
 11
79.3
 21
11.3287
 31
0.0
  0
LINE
  5
A91
330
1D
100
AcDbEntity
  8
0
100
AcDbLine
 10
79.3
 20
11.3287
 30
0.0
 11
79.3
 21
8.939
 31
0.0
  0
LINE
  5
A92
330
1D
100
AcDbEntity
  8
0
100
AcDbLine
 10
79.3
 20
11.3287
 30
0.0
 11
79.3
 21
14.0362
 31
0.0
  0
LINE
  5
A93
330
1D
100
AcDbEntity
  8
0
100
AcDbLine
 10
79.3
 20
8.8741
 30
0.0
 11
79.3
 21
11.2856
 31
0.0
  0
LINE
  5
A94
330
1D
100
AcDbEntity
  8
0
100
AcDbLine
 10
79.3
 20
25.9317
 30
0.0
 11
79.3
 21
24.3745
 31
0.0
  0
LINE
  5
A95
330
1D
100
AcDbEntity
  8
0
100
AcDbLine
 10
79.3
 20
25.9317
 30
0.0
 11
79.3
 21
26.8119
 31
0.0
  0
LINE
  5
A96
330
1D
100
AcDbEntity
  8
0
100
AcDbLine
 10
76.7
 20
25.9318
 30
0.0
 11
76.7
 21
26.8116
 31
0.0
  0
LINE
  5
A97
330
1D
100
AcDbEntity
  8
0
100
AcDbLine
 10
29.0517
 20
26.0944
 30
0.0
 11
29.3
 21
26.855
 31
0.0
  0
LINE
  5
A98
330
1D
100
AcDbEntity
  8
0
100
AcDbLine
 10
29.3
 20
26.7135
 30
0.0
 11
29.3
 21
26.855
 31
0.0
  0
LINE
  5
A99
330
1D
100
AcDbEntity
  8
0
100
AcDbLine
 10
26.9483
 20
26.0944
 30
0.0
 11
27.5983
 21
25.624
 31
0.0
  0
LINE
  5
A9A
330
1D
100
AcDbEntity
  8
0
100
AcDbLine
 10
26.7
 20
26.8116
 30
0.0
 11
26.7
 21
26.9545
 31
0.0
  0
LINE
  5
A9B
330
1D
100
AcDbEntity
  8
0
100
AcDbLine
 10
26.7
 20
26.8119
 30
0.0
 11
26.7
 21
25.9317
 31
0.0
  0
LINE
  5
A9C
330
1D
100
AcDbEntity
  8
0
100
AcDbLine
 10
29.3
 20
26.7134
 30
0.0
 11
29.3
 21
25.8415
 31
0.0
  0
LINE
  5
A9D
330
1D
100
AcDbEntity
  8
0
100
AcDbLine
 10
26.7
 20
26.855
 30
0.0
 11
26.9483
 21
26.0944
 31
0.0
  0
LINE
  5
A9E
330
1D
100
AcDbEntity
  8
0
100
AcDbLine
 10
29.3
 20
26.9545
 30
0.0
 11
76.7
 21
26.9545
 31
0.0
  0
LINE
  5
A9F
330
1D
100
AcDbEntity
  8
0
100
AcDbLine
 10
26.7
 20
26.9545
 30
0.0
 11
26.7
 21
26.8119
 31
0.0
  0
LINE
  5
AA0
330
1D
100
AcDbEntity
  8
0
100
AcDbLine
 10
29.3
 20
26.8119
 30
0.0
 11
29.3
 21
26.9545
 31
0.0
  0
LINE
  5
AA1
330
1D
100
AcDbEntity
  8
0
100
AcDbLine
 10
29.3
 20
26.855
 30
0.0
 11
29.3
 21
26.7134
 31
0.0
  0
LINE
  5
AA2
330
1D
100
AcDbEntity
  8
0
100
AcDbLine
 10
29.3
 20
26.855
 30
0.0
 11
29.3
 21
26.9545
 31
0.0
  0
LINE
  5
AA3
330
1D
100
AcDbEntity
  8
0
100
AcDbLine
 10
29.3
 20
26.9545
 30
0.0
 11
29.3
 21
26.855
 31
0.0
  0
LINE
  5
AA4
330
1D
100
AcDbEntity
  8
0
100
AcDbLine
 10
29.3
 20
26.9545
 30
0.0
 11
76.7
 21
26.9545
 31
0.0
  0
LINE
  5
AA5
330
1D
100
AcDbEntity
  8
0
100
AcDbLine
 10
29.3
 20
26.9545
 30
0.0
 11
29.3
 21
26.8116
 31
0.0
  0
LINE
  5
AA6
330
1D
100
AcDbEntity
  8
0
100
AcDbLine
 10
79.0517
 20
26.0944
 30
0.0
 11
79.3
 21
26.855
 31
0.0
  0
LINE
  5
AA7
330
1D
100
AcDbEntity
  8
0
100
AcDbLine
 10
79.3
 20
26.8116
 30
0.0
 11
79.3
 21
25.9317
 31
0.0
  0
LINE
  5
AA8
330
1D
100
AcDbEntity
  8
0
100
AcDbLine
 10
79.3
 20
26.7135
 30
0.0
 11
79.3
 21
26.855
 31
0.0
  0
LINE
  5
AA9
330
1D
100
AcDbEntity
  8
0
100
AcDbLine
 10
76.9483
 20
26.0944
 30
0.0
 11
77.5983
 21
25.624
 31
0.0
  0
LINE
  5
AAA
330
1D
100
AcDbEntity
  8
0
100
AcDbLine
 10
76.7
 20
26.8116
 30
0.0
 11
76.7
 21
26.9545
 31
0.0
  0
LINE
  5
AAB
330
1D
100
AcDbEntity
  8
0
100
AcDbLine
 10
76.7
 20
26.8119
 30
0.0
 11
76.7
 21
25.9317
 31
0.0
  0
LINE
  5
AAC
330
1D
100
AcDbEntity
  8
0
100
AcDbLine
 10
79.3
 20
26.7134
 30
0.0
 11
79.3
 21
25.8415
 31
0.0
  0
LINE
  5
AAD
330
1D
100
AcDbEntity
  8
0
100
AcDbLine
 10
76.7
 20
26.855
 30
0.0
 11
76.9483
 21
26.0944
 31
0.0
  0
LINE
  5
AAE
330
1D
100
AcDbEntity
  8
0
100
AcDbLine
 10
76.7
 20
26.9545
 30
0.0
 11
76.7
 21
26.8119
 31
0.0
  0
LINE
  5
AAF
330
1D
100
AcDbEntity
  8
0
100
AcDbLine
 10
79.3
 20
26.8119
 30
0.0
 11
79.3
 21
26.9545
 31
0.0
  0
LINE
  5
AB0
330
1D
100
AcDbEntity
  8
0
100
AcDbLine
 10
79.3
 20
26.855
 30
0.0
 11
79.3
 21
26.7134
 31
0.0
  0
LINE
  5
AB1
330
1D
100
AcDbEntity
  8
0
100
AcDbLine
 10
79.3
 20
26.855
 30
0.0
 11
79.3
 21
26.9545
 31
0.0
  0
LINE
  5
AB2
330
1D
100
AcDbEntity
  8
0
100
AcDbLine
 10
79.3
 20
26.9545
 30
0.0
 11
79.3
 21
26.855
 31
0.0
  0
LINE
  5
AB3
330
1D
100
AcDbEntity
  8
0
100
AcDbLine
 10
79.3
 20
26.9545
 30
0.0
 11
127.999
 21
26.9545
 31
0.0
  0
LINE
  5
AB4
330
1D
100
AcDbEntity
  8
0
100
AcDbLine
 10
79.3
 20
26.9545
 30
0.0
 11
79.3
 21
26.8116
 31
0.0
  0
LINE
  5
AB5
330
1D
100
AcDbEntity
  8
0
100
AcDbLine
 10
29.3
 20
26.8116
 30
0.0
 11
29.3
 21
25.9318
 31
0.0
  0
LINE
  5
AB6
330
1D
100
AcDbEntity
  8
0
100
AcDbLine
 10
26.7
 20
25.9318
 30
0.0
 11
26.7
 21
26.8116
 31
0.0
  0
LINE
  5
AB7
330
1D
100
AcDbEntity
  8
0
100
AcDbLine
 10
79.3
 20
5.0341
 30
0.0
 11
128.0
 21
4.9885
 31
0.0
  0
LINE
  5
AB8
330
1D
100
AcDbEntity
  8
0
100
AcDbLine
 10
176.7
 20
5.0341
 30
0.0
 11
128.0
 21
4.9885
 31
0.0
  0
LINE
  5
AB9
330
1D
100
AcDbEntity
  8
0
100
AcDbLine
 10
226.7
 20
5.0341
 30
0.0
 11
179.3
 21
5.0341
 31
0.0
  0
LINE
  5
ABA
330
1D
100
AcDbEntity
  8
0
100
AcDbLine
 10
226.7
 20
5.0341
 30
0.0
 11
179.3
 21
5.0341
 31
0.0
  0
LINE
  5
ABB
330
1D
100
AcDbEntity
  8
0
100
AcDbLine
 10
226.7
 20
26.9545
 30
0.0
 11
179.3
 21
26.9545
 31
0.0
  0
LINE
  5
ABC
330
1D
100
AcDbEntity
  8
0
100
AcDbLine
 10
226.7
 20
26.9545
 30
0.0
 11
179.3
 21
26.9545
 31
0.0
  0
LINE
  5
ABD
330
1D
100
AcDbEntity
  8
0
100
AcDbLine
 10
256.0
 20
9.6055
 30
0.0
 11
256.0
 21
11.0199
 31
0.0
  0
LINE
  5
ABE
330
1D
100
AcDbEntity
  8
0
100
AcDbLine
 10
256.0
 20
11.0202
 30
0.0
 11
256.0
 21
9.6055
 31
0.0
  0
LINE
  5
ABF
330
1D
100
AcDbEntity
  8
0
100
AcDbLine
 10
252.99999
 20
9.6055
 30
0.0
 11
252.99999
 21
11.0202
 31
0.0
  0
LINE
  5
AC0
330
1D
100
AcDbEntity
  8
0
100
AcDbLine
 10
252.99999
 20
11.0199
 30
0.0
 11
252.99999
 21
9.6055
 31
0.0
  0
LINE
  5
AC1
330
1D
100
AcDbEntity
  8
0
100
AcDbLine
 10
229.3
 20
8.8744
 30
0.0
 11
229.3
 21
11.2857
 31
0.0
  0
LINE
  5
AC2
330
1D
100
AcDbEntity
  8
0
100
AcDbLine
 10
229.3
 20
11.2856
 30
0.0
 11
229.3
 21
8.8741
 31
0.0
  0
LINE
  5
AC3
330
1D
100
AcDbEntity
  8
0
100
AcDbLine
 10
226.7
 20
11.2857
 30
0.0
 11
226.7
 21
8.8744
 31
0.0
  0
LINE
  5
AC4
330
1D
100
AcDbEntity
  8
0
100
AcDbLine
 10
226.7
 20
8.939
 30
0.0
 11
226.7
 21
11.3287
 31
0.0
  0
LINE
  5
AC5
330
1D
100
AcDbEntity
  8
0
100
AcDbLine
 10
226.7
 20
11.3287
 30
0.0
 11
226.7
 21
8.939
 31
0.0
  0
LINE
  5
AC6
330
1D
100
AcDbEntity
  8
0
100
AcDbLine
 10
226.7
 20
8.8741
 30
0.0
 11
226.7
 21
11.2856
 31
0.0
  0
LINE
  5
AC7
330
1D
100
AcDbEntity
  8
0
100
AcDbLine
 10
252.69999
 20
5.0341
 30
0.0
 11
229.3
 21
5.0341
 31
0.0
  0
LINE
  5
AC8
330
1D
100
AcDbEntity
  8
0
100
AcDbLine
 10
252.69999
 20
5.0341
 30
0.0
 11
229.3
 21
5.0341
 31
0.0
  0
LINE
  5
AC9
330
1D
100
AcDbEntity
  8
0
100
AcDbLine
 10
252.99999
 20
1.4946
 30
0.0
 11
252.99999
 21
2.1001
 31
0.0
  0
LINE
  5
ACA
330
1D
100
AcDbEntity
  8
0
100
AcDbLine
 10
256.0
 20
1.8776
 30
0.0
 11
256.0
 21
2.5716
 31
0.0
  0
LINE
  5
ACB
330
1D
100
AcDbEntity
  8
0
100
AcDbLine
 10
256.0
 20
1.4947
 30
0.0
 11
256.0
 21
2.1001
 31
0.0
  0
LINE
  5
ACC
330
1D
100
AcDbEntity
  8
0
100
AcDbLine
 10
256.0
 20
2.572
 30
0.0
 11
256.0
 21
1.8774
 31
0.0
  0
LINE
  5
ACD
330
1D
100
AcDbEntity
  8
0
100
AcDbLine
 10
256.0
 20
2.1001
 30
0.0
 11
256.0
 21
1.4946
 31
0.0
  0
LINE
  5
ACE
330
1D
100
AcDbEntity
  8
0
100
AcDbLine
 10
252.99999
 20
2.1001
 30
0.0
 11
252.99999
 21
1.4947
 31
0.0
  0
LINE
  5
ACF
330
1D
100
AcDbEntity
  8
0
100
AcDbLine
 10
255.499992
 20
0.0078
 30
0.0
 11
253.49999
 21
0.0078
 31
0.0
  0
LINE
  5
AD0
330
1D
100
AcDbEntity
  8
0
100
AcDbLine
 10
255.499992
 20
0.0078
 30
0.0
 11
253.49999
 21
0.0078
 31
0.0
  0
LINE
  5
AD1
330
1D
100
AcDbEntity
  8
0
100
AcDbLine
 10
256.0
 20
0.5072
 30
0.0
 11
255.933004
 21
0.2577
 31
0.0
  0
LINE
  5
AD2
330
1D
100
AcDbEntity
  8
0
100
AcDbLine
 10
256.0
 20
0.5072
 30
0.0
 11
256.0
 21
0.631
 31
0.0
  0
LINE
  5
AD3
330
1D
100
AcDbEntity
  8
0
100
AcDbLine
 10
256.0
 20
0.7072
 30
0.0
 11
256.0
 21
0.5328
 31
0.0
  0
LINE
  5
AD4
330
1D
100
AcDbEntity
  8
0
100
AcDbLine
 10
256.0
 20
0.631
 30
0.0
 11
256.0
 21
0.5074
 31
0.0
  0
LINE
  5
AD5
330
1D
100
AcDbEntity
  8
0
100
AcDbLine
 10
256.0
 20
0.631
 30
0.0
 11
256.0
 21
0.9026
 31
0.0
  0
LINE
  5
AD6
330
1D
100
AcDbEntity
  8
0
100
AcDbLine
 10
256.0
 20
0.5328
 30
0.0
 11
256.0
 21
0.7073
 31
0.0
  0
LINE
  5
AD7
330
1D
100
AcDbEntity
  8
0
100
AcDbLine
 10
256.0
 20
1.0291
 30
0.0
 11
256.0
 21
0.7072
 31
0.0
  0
LINE
  5
AD8
330
1D
100
AcDbEntity
  8
0
100
AcDbLine
 10
256.0
 20
1.4946
 30
0.0
 11
256.0
 21
1.0291
 31
0.0
  0
LINE
  5
AD9
330
1D
100
AcDbEntity
  8
0
100
AcDbLine
 10
256.0
 20
1.3194
 30
0.0
 11
256.0
 21
1.8776
 31
0.0
  0
LINE
  5
ADA
330
1D
100
AcDbEntity
  8
0
100
AcDbLine
 10
256.0
 20
1.3193
 30
0.0
 11
256.0
 21
0.9026
 31
0.0
  0
LINE
  5
ADB
330
1D
100
AcDbEntity
  8
0
100
AcDbLine
 10
256.0
 20
0.9026
 30
0.0
 11
256.0
 21
0.631
 31
0.0
  0
LINE
  5
ADC
330
1D
100
AcDbEntity
  8
0
100
AcDbLine
 10
256.0
 20
0.9026
 30
0.0
 11
256.0
 21
1.3194
 31
0.0
  0
LINE
  5
ADD
330
1D
100
AcDbEntity
  8
0
100
AcDbLine
 10
256.0
 20
0.7073
 30
0.0
 11
256.0
 21
1.0288
 31
0.0
  0
LINE
  5
ADE
330
1D
100
AcDbEntity
  8
0
100
AcDbLine
 10
255.750003
 20
0.0748
 30
0.0
 11
255.499992
 21
0.0078
 31
0.0
  0
LINE
  5
ADF
330
1D
100
AcDbEntity
  8
0
100
AcDbLine
 10
255.750003
 20
0.0748
 30
0.0
 11
255.499992
 21
0.0078
 31
0.0
  0
LINE
  5
AE0
330
1D
100
AcDbEntity
  8
0
100
AcDbLine
 10
255.933004
 20
0.2577
 30
0.0
 11
255.750003
 21
0.0748
 31
0.0
  0
LINE
  5
AE1
330
1D
100
AcDbEntity
  8
0
100
AcDbLine
 10
256.0
 20
1.0288
 30
0.0
 11
256.0
 21
1.4947
 31
0.0
  0
LINE
  5
AE2
330
1D
100
AcDbEntity
  8
0
100
AcDbLine
 10
256.0
 20
1.8774
 30
0.0
 11
256.0
 21
1.3193
 31
0.0
  0
LINE
  5
AE3
330
1D
100
AcDbEntity
  8
0
100
AcDbLine
 10
253.49999
 20
0.0078
 30
0.0
 11
253.24999
 21
0.0748
 31
0.0
  0
LINE
  5
AE4
330
1D
100
AcDbEntity
  8
0
100
AcDbLine
 10
253.24999
 20
0.0748
 30
0.0
 11
253.06698
 21
0.2577
 31
0.0
  0
LINE
  5
AE5
330
1D
100
AcDbEntity
  8
0
100
AcDbLine
 10
252.99999
 20
1.0288
 30
0.0
 11
252.99999
 21
0.7073
 31
0.0
  0
LINE
  5
AE6
330
1D
100
AcDbEntity
  8
0
100
AcDbLine
 10
252.99999
 20
0.7073
 30
0.0
 11
252.99999
 21
0.5328
 31
0.0
  0
LINE
  5
AE7
330
1D
100
AcDbEntity
  8
0
100
AcDbLine
 10
252.99999
 20
1.4947
 30
0.0
 11
252.99999
 21
1.0288
 31
0.0
  0
LINE
  5
AE8
330
1D
100
AcDbEntity
  8
0
100
AcDbLine
 10
252.99999
 20
1.0291
 30
0.0
 11
252.99999
 21
1.4946
 31
0.0
  0
LINE
  5
AE9
330
1D
100
AcDbEntity
  8
0
100
AcDbLine
 10
252.99999
 20
0.7072
 30
0.0
 11
252.99999
 21
1.0291
 31
0.0
  0
LINE
  5
AEA
330
1D
100
AcDbEntity
  8
0
100
AcDbLine
 10
252.99999
 20
0.5328
 30
0.0
 11
252.99999
 21
0.7072
 31
0.0
  0
LINE
  5
AEB
330
1D
100
AcDbEntity
  8
0
100
AcDbLine
 10
253.06698
 20
0.2577
 30
0.0
 11
252.99999
 21
0.5072
 31
0.0
  0
LINE
  5
AEC
330
1D
100
AcDbEntity
  8
0
100
AcDbLine
 10
256.0
 20
5.3972
 30
0.0
 11
256.0
 21
6.5559
 31
0.0
  0
LINE
  5
AED
330
1D
100
AcDbEntity
  8
0
100
AcDbLine
 10
256.0
 20
6.9742
 30
0.0
 11
256.0
 21
5.783
 31
0.0
  0
LINE
  5
AEE
330
1D
100
AcDbEntity
  8
0
100
AcDbLine
 10
256.0
 20
6.5562
 30
0.0
 11
256.0
 21
5.3972
 31
0.0
  0
LINE
  5
AEF
330
1D
100
AcDbEntity
  8
0
100
AcDbLine
 10
256.0
 20
5.7828
 30
0.0
 11
256.0
 21
6.9743
 31
0.0
  0
LINE
  5
AF0
330
1D
100
AcDbEntity
  8
0
100
AcDbLine
 10
252.99999
 20
5.783
 30
0.0
 11
252.99999
 21
6.9742
 31
0.0
  0
LINE
  5
AF1
330
1D
100
AcDbEntity
  8
0
100
AcDbLine
 10
252.99999
 20
6.9743
 30
0.0
 11
252.99999
 21
5.7828
 31
0.0
  0
LINE
  5
AF2
330
1D
100
AcDbEntity
  8
0
100
AcDbLine
 10
256.0
 20
2.5716
 30
0.0
 11
256.0
 21
3.3952
 31
0.0
  0
LINE
  5
AF3
330
1D
100
AcDbEntity
  8
0
100
AcDbLine
 10
256.0
 20
3.3952
 30
0.0
 11
256.0
 21
2.572
 31
0.0
  0
LINE
  5
AF4
330
1D
100
AcDbEntity
  8
0
100
AcDbLine
 10
256.0
 20
2.1001
 30
0.0
 11
256.0
 21
2.8396
 31
0.0
  0
LINE
  5
AF5
330
1D
100
AcDbEntity
  8
0
100
AcDbLine
 10
256.0
 20
2.8396
 30
0.0
 11
256.0
 21
3.7053
 31
0.0
  0
LINE
  5
AF6
330
1D
100
AcDbEntity
  8
0
100
AcDbLine
 10
256.0
 20
2.8396
 30
0.0
 11
256.0
 21
2.1001
 31
0.0
  0
LINE
  5
AF7
330
1D
100
AcDbEntity
  8
0
100
AcDbLine
 10
256.0
 20
3.7055
 30
0.0
 11
256.0
 21
2.8396
 31
0.0
  0
LINE
  5
AF8
330
1D
100
AcDbEntity
  8
0
100
AcDbLine
 10
256.0
 20
4.6898
 30
0.0
 11
256.0
 21
3.7055
 31
0.0
  0
LINE
  5
AF9
330
1D
100
AcDbEntity
  8
0
100
AcDbLine
 10
256.0
 20
4.3399
 30
0.0
 11
256.0
 21
5.3972
 31
0.0
  0
LINE
  5
AFA
330
1D
100
AcDbEntity
  8
0
100
AcDbLine
 10
256.0
 20
5.3972
 30
0.0
 11
256.0
 21
4.3399
 31
0.0
  0
LINE
  5
AFB
330
1D
100
AcDbEntity
  8
0
100
AcDbLine
 10
256.0
 20
3.7053
 30
0.0
 11
256.0
 21
4.6895
 31
0.0
  0
LINE
  5
AFC
330
1D
100
AcDbEntity
  8
0
100
AcDbLine
 10
256.0
 20
4.6895
 30
0.0
 11
256.0
 21
5.7828
 31
0.0
  0
LINE
  5
AFD
330
1D
100
AcDbEntity
  8
0
100
AcDbLine
 10
256.0
 20
5.783
 30
0.0
 11
256.0
 21
4.6898
 31
0.0
  0
LINE
  5
AFE
330
1D
100
AcDbEntity
  8
0
100
AcDbLine
 10
252.99999
 20
3.7053
 30
0.0
 11
252.99999
 21
2.8396
 31
0.0
  0
LINE
  5
AFF
330
1D
100
AcDbEntity
  8
0
100
AcDbLine
 10
252.99999
 20
4.6895
 30
0.0
 11
252.99999
 21
3.7053
 31
0.0
  0
LINE
  5
B00
330
1D
100
AcDbEntity
  8
0
100
AcDbLine
 10
252.99999
 20
4.6898
 30
0.0
 11
252.99999
 21
5.783
 31
0.0
  0
LINE
  5
B01
330
1D
100
AcDbEntity
  8
0
100
AcDbLine
 10
252.99999
 20
3.7055
 30
0.0
 11
252.99999
 21
4.6898
 31
0.0
  0
LINE
  5
B02
330
1D
100
AcDbEntity
  8
0
100
AcDbLine
 10
252.99999
 20
2.8396
 30
0.0
 11
252.99999
 21
3.7055
 31
0.0
  0
LINE
  5
B03
330
1D
100
AcDbEntity
  8
0
100
AcDbLine
 10
252.99999
 20
2.8396
 30
0.0
 11
252.99999
 21
2.1001
 31
0.0
  0
LINE
  5
B04
330
1D
100
AcDbEntity
  8
0
100
AcDbLine
 10
252.99999
 20
2.1001
 30
0.0
 11
252.99999
 21
2.8396
 31
0.0
  0
LINE
  5
B05
330
1D
100
AcDbEntity
  8
0
100
AcDbLine
 10
252.99999
 20
5.332580073998
 30
0.0
 11
252.7
 21
5.0337
 31
0.0
  0
LINE
  5
B06
330
1D
100
AcDbEntity
  8
0
100
AcDbLine
 10
252.99999
 20
5.7828
 30
0.0
 11
252.99999
 21
4.6895
 31
0.0
  0
LINE
  5
B07
330
1D
100
AcDbEntity
  8
0
100
AcDbLine
 10
256.0
 20
6.5559
 30
0.0
 11
256.0
 21
7.8061
 31
0.0
  0
LINE
  5
B08
330
1D
100
AcDbEntity
  8
0
100
AcDbLine
 10
256.0
 20
7.8061
 30
0.0
 11
256.0
 21
9.135
 31
0.0
  0
LINE
  5
B09
330
1D
100
AcDbEntity
  8
0
100
AcDbLine
 10
256.0
 20
7.806
 30
0.0
 11
256.0
 21
6.5562
 31
0.0
  0
LINE
  5
B0A
330
1D
100
AcDbEntity
  8
0
100
AcDbLine
 10
256.0
 20
6.9743
 30
0.0
 11
256.0
 21
8.2527
 31
0.0
  0
LINE
  5
B0B
330
1D
100
AcDbEntity
  8
0
100
AcDbLine
 10
256.0
 20
8.2528
 30
0.0
 11
256.0
 21
6.9742
 31
0.0
  0
LINE
  5
B0C
330
1D
100
AcDbEntity
  8
0
100
AcDbLine
 10
256.0
 20
9.135
 30
0.0
 11
256.0
 21
7.806
 31
0.0
  0
LINE
  5
B0D
330
1D
100
AcDbEntity
  8
0
100
AcDbLine
 10
256.0
 20
8.2527
 30
0.0
 11
256.0
 21
9.6055
 31
0.0
  0
LINE
  5
B0E
330
1D
100
AcDbEntity
  8
0
100
AcDbLine
 10
256.0
 20
9.6055
 30
0.0
 11
256.0
 21
8.2528
 31
0.0
  0
LINE
  5
B0F
330
1D
100
AcDbEntity
  8
0
100
AcDbLine
 10
252.99999
 20
6.9742
 30
0.0
 11
252.99999
 21
8.2528
 31
0.0
  0
LINE
  5
B10
330
1D
100
AcDbEntity
  8
0
100
AcDbLine
 10
252.99999
 20
9.6055
 30
0.0
 11
252.99999
 21
8.2527
 31
0.0
  0
LINE
  5
B11
330
1D
100
AcDbEntity
  8
0
100
AcDbLine
 10
252.99999
 20
8.2528
 30
0.0
 11
252.99999
 21
9.6055
 31
0.0
  0
LINE
  5
B12
330
1D
100
AcDbEntity
  8
0
100
AcDbLine
 10
252.99999
 20
8.2527
 30
0.0
 11
252.99999
 21
6.9743
 31
0.0
  0
LINE
  5
B13
330
1D
100
AcDbEntity
  8
0
100
AcDbLine
 10
228.4017
 20
6.3646
 30
0.0
 11
227.5983
 21
6.3646
 31
0.0
  0
LINE
  5
B14
330
1D
100
AcDbEntity
  8
0
100
AcDbLine
 10
229.3
 20
5.638
 30
0.0
 11
229.3
 21
6.9479
 31
0.0
  0
LINE
  5
B15
330
1D
100
AcDbEntity
  8
0
100
AcDbLine
 10
229.3
 20
6.9479
 30
0.0
 11
229.3
 21
5.6382
 31
0.0
  0
LINE
  5
B16
330
1D
100
AcDbEntity
  8
0
100
AcDbLine
 10
229.0517
 20
5.8941
 30
0.0
 11
228.4017
 21
6.3646
 31
0.0
  0
LINE
  5
B17
330
1D
100
AcDbEntity
  8
0
100
AcDbLine
 10
229.3
 20
5.1334
 30
0.0
 11
229.0517
 21
5.8941
 31
0.0
  0
LINE
  5
B18
330
1D
100
AcDbEntity
  8
0
100
AcDbLine
 10
229.3
 20
5.0341
 30
0.0
 11
229.3
 21
5.638
 31
0.0
  0
LINE
  5
B19
330
1D
100
AcDbEntity
  8
0
100
AcDbLine
 10
229.3
 20
5.6382
 30
0.0
 11
229.3
 21
5.0341
 31
0.0
  0
LINE
  5
B1A
330
1D
100
AcDbEntity
  8
0
100
AcDbLine
 10
229.3
 20
6.9479
 30
0.0
 11
229.3
 21
8.8744
 31
0.0
  0
LINE
  5
B1B
330
1D
100
AcDbEntity
  8
0
100
AcDbLine
 10
229.3
 20
8.8741
 30
0.0
 11
229.3
 21
6.9479
 31
0.0
  0
LINE
  5
B1C
330
1D
100
AcDbEntity
  8
0
100
AcDbLine
 10
227.5983
 20
6.3646
 30
0.0
 11
226.9483
 21
5.8941
 31
0.0
  0
LINE
  5
B1D
330
1D
100
AcDbEntity
  8
0
100
AcDbLine
 10
226.7
 20
5.7322
 30
0.0
 11
226.7
 21
7.0301
 31
0.0
  0
LINE
  5
B1E
330
1D
100
AcDbEntity
  8
0
100
AcDbLine
 10
226.7
 20
7.0301
 30
0.0
 11
226.7
 21
5.7322
 31
0.0
  0
LINE
  5
B1F
330
1D
100
AcDbEntity
  8
0
100
AcDbLine
 10
226.7
 20
5.6382
 30
0.0
 11
226.7
 21
6.9479
 31
0.0
  0
LINE
  5
B20
330
1D
100
AcDbEntity
  8
0
100
AcDbLine
 10
226.7
 20
6.9479
 30
0.0
 11
226.7
 21
5.638
 31
0.0
  0
LINE
  5
B21
330
1D
100
AcDbEntity
  8
0
100
AcDbLine
 10
226.7
 20
5.638
 30
0.0
 11
226.7
 21
5.0341
 31
0.0
  0
LINE
  5
B22
330
1D
100
AcDbEntity
  8
0
100
AcDbLine
 10
226.7
 20
5.1334
 30
0.0
 11
226.7
 21
5.0341
 31
0.0
  0
LINE
  5
B23
330
1D
100
AcDbEntity
  8
0
100
AcDbLine
 10
226.7
 20
5.1334
 30
0.0
 11
226.7
 21
5.7322
 31
0.0
  0
LINE
  5
B24
330
1D
100
AcDbEntity
  8
0
100
AcDbLine
 10
226.9483
 20
5.8941
 30
0.0
 11
226.7
 21
5.1334
 31
0.0
  0
LINE
  5
B25
330
1D
100
AcDbEntity
  8
0
100
AcDbLine
 10
226.7
 20
5.7322
 30
0.0
 11
226.7
 21
5.1336
 31
0.0
  0
LINE
  5
B26
330
1D
100
AcDbEntity
  8
0
100
AcDbLine
 10
226.7
 20
5.0341
 30
0.0
 11
226.7
 21
5.6382
 31
0.0
  0
LINE
  5
B27
330
1D
100
AcDbEntity
  8
0
100
AcDbLine
 10
226.7
 20
5.0341
 30
0.0
 11
226.7
 21
5.1334
 31
0.0
  0
LINE
  5
B28
330
1D
100
AcDbEntity
  8
0
100
AcDbLine
 10
226.7
 20
8.8744
 30
0.0
 11
226.7
 21
6.9479
 31
0.0
  0
LINE
  5
B29
330
1D
100
AcDbEntity
  8
0
100
AcDbLine
 10
226.7
 20
7.0301
 30
0.0
 11
226.7
 21
8.939
 31
0.0
  0
LINE
  5
B2A
330
1D
100
AcDbEntity
  8
0
100
AcDbLine
 10
226.7
 20
8.939
 30
0.0
 11
226.7
 21
7.0301
 31
0.0
  0
LINE
  5
B2B
330
1D
100
AcDbEntity
  8
0
100
AcDbLine
 10
226.7
 20
6.9479
 30
0.0
 11
226.7
 21
8.8741
 31
0.0
  0
LINE
  5
B2C
330
1D
100
AcDbEntity
  8
0
100
AcDbLine
 10
252.7
 20
26.9545
 30
0.0
 11
229.3
 21
26.9545
 31
0.0
  0
LINE
  5
B2D
330
1D
100
AcDbEntity
  8
0
100
AcDbLine
 10
252.7
 20
26.9545
 30
0.0
 11
229.3
 21
26.9545
 31
0.0
  0
LINE
  5
B2E
330
1D
100
AcDbEntity
  8
0
100
AcDbLine
 10
256.0
 20
25.0143
 30
0.0
 11
256.0
 21
26.2056
 31
0.0
  0
LINE
  5
B2F
330
1D
100
AcDbEntity
  8
0
100
AcDbLine
 10
256.0
 20
25.4324
 30
0.0
 11
256.0
 21
26.5913
 31
0.0
  0
LINE
  5
B30
330
1D
100
AcDbEntity
  8
0
100
AcDbLine
 10
252.99999
 20
25.4326
 30
0.0
 11
252.99999
 21
26.5914
 31
0.0
  0
LINE
  5
B31
330
1D
100
AcDbEntity
  8
0
100
AcDbLine
 10
256.0
 20
26.5914
 30
0.0
 11
256.0
 21
25.4326
 31
0.0
  0
LINE
  5
B32
330
1D
100
AcDbEntity
  8
0
100
AcDbLine
 10
256.0
 20
26.2058
 30
0.0
 11
256.0
 21
25.0142
 31
0.0
  0
LINE
  5
B33
330
1D
100
AcDbEntity
  8
0
100
AcDbLine
 10
252.99999
 20
26.5913
 30
0.0
 11
252.99999
 21
25.4324
 31
0.0
  0
LINE
  5
B34
330
1D
100
AcDbEntity
  8
0
100
AcDbLine
 10
256.0
 20
16.4945
 30
0.0
 11
256.0
 21
18.0101
 31
0.0
  0
LINE
  5
B35
330
1D
100
AcDbEntity
  8
0
100
AcDbLine
 10
256.0
 20
18.0102
 30
0.0
 11
256.0
 21
16.4943
 31
0.0
  0
LINE
  5
B36
330
1D
100
AcDbEntity
  8
0
100
AcDbLine
 10
256.0
 20
18.5249
 30
0.0
 11
256.0
 21
17.0145
 31
0.0
  0
LINE
  5
B37
330
1D
100
AcDbEntity
  8
0
100
AcDbLine
 10
252.99999
 20
18.5249
 30
0.0
 11
252.99999
 21
17.0145
 31
0.0
  0
LINE
  5
B38
330
1D
100
AcDbEntity
  8
0
100
AcDbLine
 10
252.99999
 20
17.0145
 30
0.0
 11
252.99999
 21
18.5249
 31
0.0
  0
LINE
  5
B39
330
1D
100
AcDbEntity
  8
0
100
AcDbLine
 10
256.0
 20
17.0145
 30
0.0
 11
256.0
 21
18.5249
 31
0.0
  0
LINE
  5
B3A
330
1D
100
AcDbEntity
  8
0
100
AcDbLine
 10
256.0
 20
13.4636
 30
0.0
 11
256.0
 21
14.9741
 31
0.0
  0
LINE
  5
B3B
330
1D
100
AcDbEntity
  8
0
100
AcDbLine
 10
256.0
 20
13.9783
 30
0.0
 11
256.0
 21
15.4943
 31
0.0
  0
LINE
  5
B3C
330
1D
100
AcDbEntity
  8
0
100
AcDbLine
 10
256.0
 20
15.4941
 30
0.0
 11
256.0
 21
13.9784
 31
0.0
  0
LINE
  5
B3D
330
1D
100
AcDbEntity
  8
0
100
AcDbLine
 10
256.0
 20
14.9741
 30
0.0
 11
256.0
 21
13.4637
 31
0.0
  0
LINE
  5
B3E
330
1D
100
AcDbEntity
  8
0
100
AcDbLine
 10
252.99999
 20
15.4943
 30
0.0
 11
252.99999
 21
13.9783
 31
0.0
  0
LINE
  5
B3F
330
1D
100
AcDbEntity
  8
0
100
AcDbLine
 10
252.99999
 20
13.9784
 30
0.0
 11
252.99999
 21
15.4941
 31
0.0
  0
LINE
  5
B40
330
1D
100
AcDbEntity
  8
0
100
AcDbLine
 10
256.0
 20
10.5297
 30
0.0
 11
256.0
 21
11.9774
 31
0.0
  0
LINE
  5
B41
330
1D
100
AcDbEntity
  8
0
100
AcDbLine
 10
256.0
 20
11.0199
 30
0.0
 11
256.0
 21
12.4825
 31
0.0
  0
LINE
  5
B42
330
1D
100
AcDbEntity
  8
0
100
AcDbLine
 10
256.0
 20
12.4823
 30
0.0
 11
256.0
 21
11.0201
 31
0.0
  0
LINE
  5
B43
330
1D
100
AcDbEntity
  8
0
100
AcDbLine
 10
256.0
 20
11.9774
 30
0.0
 11
256.0
 21
13.4636
 31
0.0
  0
LINE
  5
B44
330
1D
100
AcDbEntity
  8
0
100
AcDbLine
 10
256.0
 20
13.9784
 30
0.0
 11
256.0
 21
12.4823
 31
0.0
  0
LINE
  5
B45
330
1D
100
AcDbEntity
  8
0
100
AcDbLine
 10
256.0
 20
12.4825
 30
0.0
 11
256.0
 21
13.9783
 31
0.0
  0
LINE
  5
B46
330
1D
100
AcDbEntity
  8
0
100
AcDbLine
 10
256.0
 20
13.4637
 30
0.0
 11
256.0
 21
11.9771
 31
0.0
  0
LINE
  5
B47
330
1D
100
AcDbEntity
  8
0
100
AcDbLine
 10
256.0
 20
11.9771
 30
0.0
 11
256.0
 21
10.5297
 31
0.0
  0
LINE
  5
B48
330
1D
100
AcDbEntity
  8
0
100
AcDbLine
 10
252.99999
 20
12.4825
 30
0.0
 11
252.99999
 21
11.0199
 31
0.0
  0
LINE
  5
B49
330
1D
100
AcDbEntity
  8
0
100
AcDbLine
 10
252.99999
 20
13.9783
 30
0.0
 11
252.99999
 21
12.4825
 31
0.0
  0
LINE
  5
B4A
330
1D
100
AcDbEntity
  8
0
100
AcDbLine
 10
252.99999
 20
12.4823
 30
0.0
 11
252.99999
 21
13.9784
 31
0.0
  0
LINE
  5
B4B
330
1D
100
AcDbEntity
  8
0
100
AcDbLine
 10
252.99999
 20
11.0201
 30
0.0
 11
252.99999
 21
12.4823
 31
0.0
  0
LINE
  5
B4C
330
1D
100
AcDbEntity
  8
0
100
AcDbLine
 10
256.0
 20
16.4943
 30
0.0
 11
256.0
 21
14.9741
 31
0.0
  0
LINE
  5
B4D
330
1D
100
AcDbEntity
  8
0
100
AcDbLine
 10
256.0
 20
15.4943
 30
0.0
 11
256.0
 21
17.0145
 31
0.0
  0
LINE
  5
B4E
330
1D
100
AcDbEntity
  8
0
100
AcDbLine
 10
256.0
 20
14.9741
 30
0.0
 11
256.0
 21
16.4945
 31
0.0
  0
LINE
  5
B4F
330
1D
100
AcDbEntity
  8
0
100
AcDbLine
 10
252.99999
 20
17.0145
 30
0.0
 11
252.99999
 21
15.4943
 31
0.0
  0
LINE
  5
B50
330
1D
100
AcDbEntity
  8
0
100
AcDbLine
 10
252.99999
 20
15.4941
 30
0.0
 11
252.99999
 21
17.0145
 31
0.0
  0
LINE
  5
B51
330
1D
100
AcDbEntity
  8
0
100
AcDbLine
 10
256.0
 20
17.0145
 30
0.0
 11
256.0
 21
15.4941
 31
0.0
  0
LINE
  5
B52
330
1D
100
AcDbEntity
  8
0
100
AcDbLine
 10
256.0
 20
22.383
 30
0.0
 11
256.0
 21
20.9687
 31
0.0
  0
LINE
  5
B53
330
1D
100
AcDbEntity
  8
0
100
AcDbLine
 10
256.0
 20
22.8536
 30
0.0
 11
256.0
 21
21.4589
 31
0.0
  0
LINE
  5
B54
330
1D
100
AcDbEntity
  8
0
100
AcDbLine
 10
256.0
 20
21.4589
 30
0.0
 11
256.0
 21
22.8536
 31
0.0
  0
LINE
  5
B55
330
1D
100
AcDbEntity
  8
0
100
AcDbLine
 10
256.0
 20
20.9684
 30
0.0
 11
256.0
 21
22.3831
 31
0.0
  0
LINE
  5
B56
330
1D
100
AcDbEntity
  8
0
100
AcDbLine
 10
252.99999
 20
22.8536
 30
0.0
 11
252.99999
 21
21.4589
 31
0.0
  0
LINE
  5
B57
330
1D
100
AcDbEntity
  8
0
100
AcDbLine
 10
252.99999
 20
21.4589
 30
0.0
 11
252.99999
 21
22.8536
 31
0.0
  0
LINE
  5
B58
330
1D
100
AcDbEntity
  8
0
100
AcDbLine
 10
256.0
 20
18.0101
 30
0.0
 11
256.0
 21
19.5063
 31
0.0
  0
LINE
  5
B59
330
1D
100
AcDbEntity
  8
0
100
AcDbLine
 10
256.0
 20
20.0112
 30
0.0
 11
256.0
 21
18.5249
 31
0.0
  0
LINE
  5
B5A
330
1D
100
AcDbEntity
  8
0
100
AcDbLine
 10
256.0
 20
19.5063
 30
0.0
 11
256.0
 21
20.9685
 31
0.0
  0
LINE
  5
B5B
330
1D
100
AcDbEntity
  8
0
100
AcDbLine
 10
256.0
 20
19.5061
 30
0.0
 11
256.0
 21
18.0102
 31
0.0
  0
LINE
  5
B5C
330
1D
100
AcDbEntity
  8
0
100
AcDbLine
 10
256.0
 20
18.5249
 30
0.0
 11
256.0
 21
20.0115
 31
0.0
  0
LINE
  5
B5D
330
1D
100
AcDbEntity
  8
0
100
AcDbLine
 10
256.0
 20
20.9687
 30
0.0
 11
256.0
 21
19.5061
 31
0.0
  0
LINE
  5
B5E
330
1D
100
AcDbEntity
  8
0
100
AcDbLine
 10
256.0
 20
21.4589
 30
0.0
 11
256.0
 21
20.0112
 31
0.0
  0
LINE
  5
B5F
330
1D
100
AcDbEntity
  8
0
100
AcDbLine
 10
256.0
 20
20.0115
 30
0.0
 11
256.0
 21
21.4589
 31
0.0
  0
LINE
  5
B60
330
1D
100
AcDbEntity
  8
0
100
AcDbLine
 10
252.99999
 20
20.0115
 30
0.0
 11
252.99999
 21
18.5249
 31
0.0
  0
LINE
  5
B61
330
1D
100
AcDbEntity
  8
0
100
AcDbLine
 10
252.99999
 20
21.4589
 30
0.0
 11
252.99999
 21
20.0115
 31
0.0
  0
LINE
  5
B62
330
1D
100
AcDbEntity
  8
0
100
AcDbLine
 10
252.99999
 20
20.0112
 30
0.0
 11
252.99999
 21
21.4589
 31
0.0
  0
LINE
  5
B63
330
1D
100
AcDbEntity
  8
0
100
AcDbLine
 10
252.99999
 20
18.5249
 30
0.0
 11
252.99999
 21
20.0112
 31
0.0
  0
LINE
  5
B64
330
1D
100
AcDbEntity
  8
0
100
AcDbLine
 10
256.0
 20
22.3831
 30
0.0
 11
256.0
 21
23.7358
 31
0.0
  0
LINE
  5
B65
330
1D
100
AcDbEntity
  8
0
100
AcDbLine
 10
256.0
 20
23.7358
 30
0.0
 11
256.0
 21
25.0143
 31
0.0
  0
LINE
  5
B66
330
1D
100
AcDbEntity
  8
0
100
AcDbLine
 10
256.0
 20
24.1825
 30
0.0
 11
256.0
 21
22.8536
 31
0.0
  0
LINE
  5
B67
330
1D
100
AcDbEntity
  8
0
100
AcDbLine
 10
256.0
 20
23.7359
 30
0.0
 11
256.0
 21
22.383
 31
0.0
  0
LINE
  5
B68
330
1D
100
AcDbEntity
  8
0
100
AcDbLine
 10
256.0
 20
25.4326
 30
0.0
 11
256.0
 21
24.1825
 31
0.0
  0
LINE
  5
B69
330
1D
100
AcDbEntity
  8
0
100
AcDbLine
 10
256.0
 20
25.0142
 30
0.0
 11
256.0
 21
23.7359
 31
0.0
  0
LINE
  5
B6A
330
1D
100
AcDbEntity
  8
0
100
AcDbLine
 10
256.0
 20
24.1826
 30
0.0
 11
256.0
 21
25.4324
 31
0.0
  0
LINE
  5
B6B
330
1D
100
AcDbEntity
  8
0
100
AcDbLine
 10
256.0
 20
22.8536
 30
0.0
 11
256.0
 21
24.1826
 31
0.0
  0
LINE
  5
B6C
330
1D
100
AcDbEntity
  8
0
100
AcDbLine
 10
252.99999
 20
25.4324
 30
0.0
 11
252.99999
 21
24.1826
 31
0.0
  0
LINE
  5
B6D
330
1D
100
AcDbEntity
  8
0
100
AcDbLine
 10
252.99999
 20
24.1826
 30
0.0
 11
252.99999
 21
22.8536
 31
0.0
  0
LINE
  5
B6E
330
1D
100
AcDbEntity
  8
0
100
AcDbLine
 10
252.99999
 20
24.1825
 30
0.0
 11
252.99999
 21
25.4326
 31
0.0
  0
LINE
  5
B6F
330
1D
100
AcDbEntity
  8
0
100
AcDbLine
 10
252.99999
 20
22.8536
 30
0.0
 11
252.99999
 21
24.1825
 31
0.0
  0
LINE
  5
B70
330
1D
100
AcDbEntity
  8
0
100
AcDbLine
 10
256.0
 20
30.111
 30
0.0
 11
256.0
 21
29.417
 31
0.0
  0
LINE
  5
B71
330
1D
100
AcDbEntity
  8
0
100
AcDbLine
 10
256.0
 20
29.4166
 30
0.0
 11
256.0
 21
30.1112
 31
0.0
  0
LINE
  5
B72
330
1D
100
AcDbEntity
  8
0
100
AcDbLine
 10
252.99999
 20
30.1112
 30
0.0
 11
252.99999
 21
29.4166
 31
0.0
  0
LINE
  5
B73
330
1D
100
AcDbEntity
  8
0
100
AcDbLine
 10
252.99999
 20
29.417
 30
0.0
 11
252.99999
 21
30.111
 31
0.0
  0
LINE
  5
B74
330
1D
100
AcDbEntity
  8
0
100
AcDbLine
 10
256.0
 20
26.2056
 30
0.0
 11
256.0
 21
27.2988
 31
0.0
  0
LINE
  5
B75
330
1D
100
AcDbEntity
  8
0
100
AcDbLine
 10
256.0
 20
26.5913
 30
0.0
 11
256.0
 21
27.6486
 31
0.0
  0
LINE
  5
B76
330
1D
100
AcDbEntity
  8
0
100
AcDbLine
 10
256.0
 20
27.2988
 30
0.0
 11
256.0
 21
28.2831
 31
0.0
  0
LINE
  5
B77
330
1D
100
AcDbEntity
  8
0
100
AcDbLine
 10
256.0
 20
28.2831
 30
0.0
 11
256.0
 21
29.1491
 31
0.0
  0
LINE
  5
B78
330
1D
100
AcDbEntity
  8
0
100
AcDbLine
 10
256.0
 20
27.299
 30
0.0
 11
256.0
 21
26.2058
 31
0.0
  0
LINE
  5
B79
330
1D
100
AcDbEntity
  8
0
100
AcDbLine
 10
256.0
 20
28.2833
 30
0.0
 11
256.0
 21
27.299
 31
0.0
  0
LINE
  5
B7A
330
1D
100
AcDbEntity
  8
0
100
AcDbLine
 10
256.0
 20
29.417
 30
0.0
 11
256.0
 21
28.5933
 31
0.0
  0
LINE
  5
B7B
330
1D
100
AcDbEntity
  8
0
100
AcDbLine
 10
256.0
 20
29.1491
 30
0.0
 11
256.0
 21
28.2833
 31
0.0
  0
LINE
  5
B7C
330
1D
100
AcDbEntity
  8
0
100
AcDbLine
 10
256.0
 20
28.5933
 30
0.0
 11
256.0
 21
29.4166
 31
0.0
  0
LINE
  5
B7D
330
1D
100
AcDbEntity
  8
0
100
AcDbLine
 10
256.0
 20
28.5933
 30
0.0
 11
256.0
 21
27.6486
 31
0.0
  0
LINE
  5
B7E
330
1D
100
AcDbEntity
  8
0
100
AcDbLine
 10
256.0
 20
27.6486
 30
0.0
 11
256.0
 21
28.5933
 31
0.0
  0
LINE
  5
B7F
330
1D
100
AcDbEntity
  8
0
100
AcDbLine
 10
256.0
 20
27.6486
 30
0.0
 11
256.0
 21
26.5914
 31
0.0
  0
LINE
  5
B80
330
1D
100
AcDbEntity
  8
0
100
AcDbLine
 10
252.99999
 20
26.5914
 30
0.0
 11
252.99999
 21
27.6486
 31
0.0
  0
LINE
  5
B81
330
1D
100
AcDbEntity
  8
0
100
AcDbLine
 10
252.99999
 20
26.6556
 30
0.0
 11
252.69999
 21
26.9545
 31
0.0
  0
LINE
  5
B82
330
1D
100
AcDbEntity
  8
0
100
AcDbLine
 10
252.99999
 20
29.4166
 30
0.0
 11
252.99999
 21
28.5933
 31
0.0
  0
LINE
  5
B83
330
1D
100
AcDbEntity
  8
0
100
AcDbLine
 10
252.99999
 20
28.5933
 30
0.0
 11
252.99999
 21
29.417
 31
0.0
  0
LINE
  5
B84
330
1D
100
AcDbEntity
  8
0
100
AcDbLine
 10
252.99999
 20
28.5933
 30
0.0
 11
252.99999
 21
27.6486
 31
0.0
  0
LINE
  5
B85
330
1D
100
AcDbEntity
  8
0
100
AcDbLine
 10
252.99999
 20
27.6486
 30
0.0
 11
252.99999
 21
28.5933
 31
0.0
  0
LINE
  5
B86
330
1D
100
AcDbEntity
  8
0
100
AcDbLine
 10
252.99999
 20
27.6486
 30
0.0
 11
252.99999
 21
26.5913
 31
0.0
  0
LINE
  5
B87
330
1D
100
AcDbEntity
  8
0
100
AcDbLine
 10
255.499992
 20
31.9808
 30
0.0
 11
253.49999
 21
31.9808
 31
0.0
  0
LINE
  5
B88
330
1D
100
AcDbEntity
  8
0
100
AcDbLine
 10
255.499992
 20
31.9808
 30
0.0
 11
253.49999
 21
31.9808
 31
0.0
  0
LINE
  5
B89
330
1D
100
AcDbEntity
  8
0
100
AcDbLine
 10
256.0
 20
30.4939
 30
0.0
 11
256.0
 21
30.9594
 31
0.0
  0
LINE
  5
B8A
330
1D
100
AcDbEntity
  8
0
100
AcDbLine
 10
256.0
 20
30.9594
 30
0.0
 11
256.0
 21
31.2813
 31
0.0
  0
LINE
  5
B8B
330
1D
100
AcDbEntity
  8
0
100
AcDbLine
 10
256.0
 20
30.9598
 30
0.0
 11
256.0
 21
30.4939
 31
0.0
  0
LINE
  5
B8C
330
1D
100
AcDbEntity
  8
0
100
AcDbLine
 10
256.0
 20
31.3575
 30
0.0
 11
256.0
 21
31.0859
 31
0.0
  0
LINE
  5
B8D
330
1D
100
AcDbEntity
  8
0
100
AcDbLine
 10
256.0
 20
31.2813
 30
0.0
 11
256.0
 21
30.9598
 31
0.0
  0
LINE
  5
B8E
330
1D
100
AcDbEntity
  8
0
100
AcDbLine
 10
256.0
 20
31.2813
 30
0.0
 11
256.0
 21
31.4558
 31
0.0
  0
LINE
  5
B8F
330
1D
100
AcDbEntity
  8
0
100
AcDbLine
 10
256.0
 20
31.4558
 30
0.0
 11
256.0
 21
31.2813
 31
0.0
  0
LINE
  5
B90
330
1D
100
AcDbEntity
  8
0
100
AcDbLine
 10
256.0
 20
31.4813
 30
0.0
 11
256.0
 21
31.3575
 31
0.0
  0
LINE
  5
B91
330
1D
100
AcDbEntity
  8
0
100
AcDbLine
 10
256.0
 20
31.4813
 30
0.0
 11
255.933004
 21
31.7309
 31
0.0
  0
LINE
  5
B92
330
1D
100
AcDbEntity
  8
0
100
AcDbLine
 10
256.0
 20
31.3576
 30
0.0
 11
256.0
 21
31.4812
 31
0.0
  0
LINE
  5
B93
330
1D
100
AcDbEntity
  8
0
100
AcDbLine
 10
256.0
 20
31.0859
 30
0.0
 11
256.0
 21
31.3576
 31
0.0
  0
LINE
  5
B94
330
1D
100
AcDbEntity
  8
0
100
AcDbLine
 10
256.0
 20
31.0859
 30
0.0
 11
256.0
 21
30.6692
 31
0.0
  0
LINE
  5
B95
330
1D
100
AcDbEntity
  8
0
100
AcDbLine
 10
256.0
 20
30.6692
 30
0.0
 11
256.0
 21
31.0859
 31
0.0
  0
LINE
  5
B96
330
1D
100
AcDbEntity
  8
0
100
AcDbLine
 10
256.0
 20
30.6692
 30
0.0
 11
256.0
 21
30.111
 31
0.0
  0
LINE
  5
B97
330
1D
100
AcDbEntity
  8
0
100
AcDbLine
 10
256.0
 20
30.1112
 30
0.0
 11
256.0
 21
30.6692
 31
0.0
  0
LINE
  5
B98
330
1D
100
AcDbEntity
  8
0
100
AcDbLine
 10
255.750003
 20
31.9138
 30
0.0
 11
255.499992
 21
31.9808
 31
0.0
  0
LINE
  5
B99
330
1D
100
AcDbEntity
  8
0
100
AcDbLine
 10
255.750003
 20
31.9138
 30
0.0
 11
255.499992
 21
31.9808
 31
0.0
  0
LINE
  5
B9A
330
1D
100
AcDbEntity
  8
0
100
AcDbLine
 10
255.933004
 20
31.7309
 30
0.0
 11
255.750003
 21
31.9138
 31
0.0
  0
LINE
  5
B9B
330
1D
100
AcDbEntity
  8
0
100
AcDbLine
 10
253.24999
 20
31.9138
 30
0.0
 11
253.06698
 21
31.7309
 31
0.0
  0
LINE
  5
B9C
330
1D
100
AcDbEntity
  8
0
100
AcDbLine
 10
253.49999
 20
31.9808
 30
0.0
 11
253.24999
 21
31.9138
 31
0.0
  0
LINE
  5
B9D
330
1D
100
AcDbEntity
  8
0
100
AcDbLine
 10
252.99999
 20
31.3576
 30
0.0
 11
252.99999
 21
31.0859
 31
0.0
  0
LINE
  5
B9E
330
1D
100
AcDbEntity
  8
0
100
AcDbLine
 10
252.99999
 20
31.4812
 30
0.0
 11
252.99999
 21
31.3576
 31
0.0
  0
LINE
  5
B9F
330
1D
100
AcDbEntity
  8
0
100
AcDbLine
 10
253.06698
 20
31.7309
 30
0.0
 11
252.99999
 21
31.4813
 31
0.0
  0
LINE
  5
BA0
330
1D
100
AcDbEntity
  8
0
100
AcDbLine
 10
252.99999
 20
31.3575
 30
0.0
 11
252.99999
 21
31.4813
 31
0.0
  0
LINE
  5
BA1
330
1D
100
AcDbEntity
  8
0
100
AcDbLine
 10
252.99999
 20
31.0859
 30
0.0
 11
252.99999
 21
31.3575
 31
0.0
  0
LINE
  5
BA2
330
1D
100
AcDbEntity
  8
0
100
AcDbLine
 10
252.99999
 20
31.0859
 30
0.0
 11
252.99999
 21
30.6692
 31
0.0
  0
LINE
  5
BA3
330
1D
100
AcDbEntity
  8
0
100
AcDbLine
 10
252.99999
 20
30.6692
 30
0.0
 11
252.99999
 21
31.0859
 31
0.0
  0
LINE
  5
BA4
330
1D
100
AcDbEntity
  8
0
100
AcDbLine
 10
252.99999
 20
30.6692
 30
0.0
 11
252.99999
 21
30.1112
 31
0.0
  0
LINE
  5
BA5
330
1D
100
AcDbEntity
  8
0
100
AcDbLine
 10
252.99999
 20
30.111
 30
0.0
 11
252.99999
 21
30.6692
 31
0.0
  0
LINE
  5
BA6
330
1D
100
AcDbEntity
  8
0
100
AcDbLine
 10
226.7
 20
25.8415
 30
0.0
 11
226.7
 21
26.7135
 31
0.0
  0
LINE
  5
BA7
330
1D
100
AcDbEntity
  8
0
100
AcDbLine
 10
226.7
 20
25.9317
 30
0.0
 11
226.7
 21
26.8119
 31
0.0
  0
LINE
  5
BA8
330
1D
100
AcDbEntity
  8
0
100
AcDbLine
 10
229.0517
 20
26.0944
 30
0.0
 11
228.4017
 21
25.624
 31
0.0
  0
LINE
  5
BA9
330
1D
100
AcDbEntity
  8
0
100
AcDbLine
 10
229.3
 20
26.8119
 30
0.0
 11
229.3
 21
25.9317
 31
0.0
  0
LINE
  5
BAA
330
1D
100
AcDbEntity
  8
0
100
AcDbLine
 10
226.7
 20
26.7134
 30
0.0
 11
226.7
 21
25.8415
 31
0.0
  0
LINE
  5
BAB
330
1D
100
AcDbEntity
  8
0
100
AcDbLine
 10
226.7
 20
26.8116
 30
0.0
 11
226.7
 21
25.9318
 31
0.0
  0
LINE
  5
BAC
330
1D
100
AcDbEntity
  8
0
100
AcDbLine
 10
229.3
 20
25.9318
 30
0.0
 11
229.3
 21
26.8116
 31
0.0
  0
LINE
  5
BAD
330
1D
100
AcDbEntity
  8
0
100
AcDbLine
 10
227.5983
 20
25.624
 30
0.0
 11
226.9483
 21
26.0944
 31
0.0
  0
LINE
  5
BAE
330
1D
100
AcDbEntity
  8
0
100
AcDbLine
 10
229.3
 20
16.8854
 30
0.0
 11
229.3
 21
19.6918
 31
0.0
  0
LINE
  5
BAF
330
1D
100
AcDbEntity
  8
0
100
AcDbLine
 10
229.3
 20
19.6918
 30
0.0
 11
229.3
 21
16.8853
 31
0.0
  0
LINE
  5
BB0
330
1D
100
AcDbEntity
  8
0
100
AcDbLine
 10
226.7
 20
16.8773
 30
0.0
 11
226.7
 21
19.6579
 31
0.0
  0
LINE
  5
BB1
330
1D
100
AcDbEntity
  8
0
100
AcDbLine
 10
226.7
 20
16.8852
 30
0.0
 11
226.7
 21
19.6918
 31
0.0
  0
LINE
  5
BB2
330
1D
100
AcDbEntity
  8
0
100
AcDbLine
 10
226.7
 20
19.6919
 30
0.0
 11
226.7
 21
16.8852
 31
0.0
  0
LINE
  5
BB3
330
1D
100
AcDbEntity
  8
0
100
AcDbLine
 10
226.7
 20
19.6579
 30
0.0
 11
226.7
 21
16.8773
 31
0.0
  0
LINE
  5
BB4
330
1D
100
AcDbEntity
  8
0
100
AcDbLine
 10
229.3
 20
11.2857
 30
0.0
 11
229.3
 21
14.0183
 31
0.0
  0
LINE
  5
BB5
330
1D
100
AcDbEntity
  8
0
100
AcDbLine
 10
229.3
 20
14.0183
 30
0.0
 11
229.3
 21
16.8854
 31
0.0
  0
LINE
  5
BB6
330
1D
100
AcDbEntity
  8
0
100
AcDbLine
 10
229.3
 20
14.0182
 30
0.0
 11
229.3
 21
11.2856
 31
0.0
  0
LINE
  5
BB7
330
1D
100
AcDbEntity
  8
0
100
AcDbLine
 10
229.3
 20
16.8853
 30
0.0
 11
229.3
 21
14.0182
 31
0.0
  0
LINE
  5
BB8
330
1D
100
AcDbEntity
  8
0
100
AcDbLine
 10
226.7
 20
11.3286
 30
0.0
 11
226.7
 21
14.0363
 31
0.0
  0
LINE
  5
BB9
330
1D
100
AcDbEntity
  8
0
100
AcDbLine
 10
226.7
 20
11.2856
 30
0.0
 11
226.7
 21
14.0182
 31
0.0
  0
LINE
  5
BBA
330
1D
100
AcDbEntity
  8
0
100
AcDbLine
 10
226.7
 20
14.0183
 30
0.0
 11
226.7
 21
11.2857
 31
0.0
  0
LINE
  5
BBB
330
1D
100
AcDbEntity
  8
0
100
AcDbLine
 10
226.7
 20
14.0363
 30
0.0
 11
226.7
 21
16.8773
 31
0.0
  0
LINE
  5
BBC
330
1D
100
AcDbEntity
  8
0
100
AcDbLine
 10
226.7
 20
14.0362
 30
0.0
 11
226.7
 21
11.3287
 31
0.0
  0
LINE
  5
BBD
330
1D
100
AcDbEntity
  8
0
100
AcDbLine
 10
226.7
 20
16.8773
 30
0.0
 11
226.7
 21
14.0362
 31
0.0
  0
LINE
  5
BBE
330
1D
100
AcDbEntity
  8
0
100
AcDbLine
 10
226.7
 20
14.0182
 30
0.0
 11
226.7
 21
16.8852
 31
0.0
  0
LINE
  5
BBF
330
1D
100
AcDbEntity
  8
0
100
AcDbLine
 10
226.7
 20
16.8852
 30
0.0
 11
226.7
 21
14.0183
 31
0.0
  0
LINE
  5
BC0
330
1D
100
AcDbEntity
  8
0
100
AcDbLine
 10
228.4017
 20
25.624
 30
0.0
 11
227.5983
 21
25.624
 31
0.0
  0
LINE
  5
BC1
330
1D
100
AcDbEntity
  8
0
100
AcDbLine
 10
229.3
 20
19.6918
 30
0.0
 11
229.3
 21
22.2461
 31
0.0
  0
LINE
  5
BC2
330
1D
100
AcDbEntity
  8
0
100
AcDbLine
 10
229.3
 20
22.2461
 30
0.0
 11
229.3
 21
19.6918
 31
0.0
  0
LINE
  5
BC3
330
1D
100
AcDbEntity
  8
0
100
AcDbLine
 10
229.3
 20
22.2461
 30
0.0
 11
229.3
 21
24.3745
 31
0.0
  0
LINE
  5
BC4
330
1D
100
AcDbEntity
  8
0
100
AcDbLine
 10
229.3
 20
25.9317
 30
0.0
 11
229.3
 21
24.3745
 31
0.0
  0
LINE
  5
BC5
330
1D
100
AcDbEntity
  8
0
100
AcDbLine
 10
229.3
 20
24.3745
 30
0.0
 11
229.3
 21
25.9317
 31
0.0
  0
LINE
  5
BC6
330
1D
100
AcDbEntity
  8
0
100
AcDbLine
 10
229.3
 20
24.3745
 30
0.0
 11
229.3
 21
22.2461
 31
0.0
  0
LINE
  5
BC7
330
1D
100
AcDbEntity
  8
0
100
AcDbLine
 10
226.7
 20
19.6579
 30
0.0
 11
226.7
 21
22.1892
 31
0.0
  0
LINE
  5
BC8
330
1D
100
AcDbEntity
  8
0
100
AcDbLine
 10
226.7
 20
19.6918
 30
0.0
 11
226.7
 21
22.2461
 31
0.0
  0
LINE
  5
BC9
330
1D
100
AcDbEntity
  8
0
100
AcDbLine
 10
226.7
 20
22.1892
 30
0.0
 11
226.7
 21
19.6579
 31
0.0
  0
LINE
  5
BCA
330
1D
100
AcDbEntity
  8
0
100
AcDbLine
 10
226.7
 20
22.2461
 30
0.0
 11
226.7
 21
19.6919
 31
0.0
  0
LINE
  5
BCB
330
1D
100
AcDbEntity
  8
0
100
AcDbLine
 10
226.7
 20
22.1892
 30
0.0
 11
226.7
 21
24.2983
 31
0.0
  0
LINE
  5
BCC
330
1D
100
AcDbEntity
  8
0
100
AcDbLine
 10
226.7
 20
22.2461
 30
0.0
 11
226.7
 21
24.3745
 31
0.0
  0
LINE
  5
BCD
330
1D
100
AcDbEntity
  8
0
100
AcDbLine
 10
226.7
 20
24.2983
 30
0.0
 11
226.7
 21
22.1892
 31
0.0
  0
LINE
  5
BCE
330
1D
100
AcDbEntity
  8
0
100
AcDbLine
 10
226.7
 20
24.2983
 30
0.0
 11
226.7
 21
25.8415
 31
0.0
  0
LINE
  5
BCF
330
1D
100
AcDbEntity
  8
0
100
AcDbLine
 10
226.7
 20
24.3745
 30
0.0
 11
226.7
 21
25.9317
 31
0.0
  0
LINE
  5
BD0
330
1D
100
AcDbEntity
  8
0
100
AcDbLine
 10
226.7
 20
24.3745
 30
0.0
 11
226.7
 21
22.2461
 31
0.0
  0
LINE
  5
BD1
330
1D
100
AcDbEntity
  8
0
100
AcDbLine
 10
226.7
 20
25.8415
 30
0.0
 11
226.7
 21
24.2983
 31
0.0
  0
LINE
  5
BD2
330
1D
100
AcDbEntity
  8
0
100
AcDbLine
 10
226.7
 20
25.9317
 30
0.0
 11
226.7
 21
24.3745
 31
0.0
  0
LINE
  5
BD3
330
1D
100
AcDbEntity
  8
0
100
AcDbLine
 10
226.9483
 20
26.0944
 30
0.0
 11
226.7
 21
26.855
 31
0.0
  0
LINE
  5
BD4
330
1D
100
AcDbEntity
  8
0
100
AcDbLine
 10
226.7
 20
26.7135
 30
0.0
 11
226.7
 21
26.855
 31
0.0
  0
LINE
  5
BD5
330
1D
100
AcDbEntity
  8
0
100
AcDbLine
 10
229.3
 20
26.8116
 30
0.0
 11
229.3
 21
26.9545
 31
0.0
  0
LINE
  5
BD6
330
1D
100
AcDbEntity
  8
0
100
AcDbLine
 10
229.3
 20
26.855
 30
0.0
 11
229.0517
 21
26.0944
 31
0.0
  0
LINE
  5
BD7
330
1D
100
AcDbEntity
  8
0
100
AcDbLine
 10
229.3
 20
26.9545
 30
0.0
 11
229.3
 21
26.8119
 31
0.0
  0
LINE
  5
BD8
330
1D
100
AcDbEntity
  8
0
100
AcDbLine
 10
226.7
 20
26.8119
 30
0.0
 11
226.7
 21
26.9545
 31
0.0
  0
LINE
  5
BD9
330
1D
100
AcDbEntity
  8
0
100
AcDbLine
 10
226.7
 20
26.855
 30
0.0
 11
226.7
 21
26.7134
 31
0.0
  0
LINE
  5
BDA
330
1D
100
AcDbEntity
  8
0
100
AcDbLine
 10
226.7
 20
26.855
 30
0.0
 11
226.7
 21
26.9545
 31
0.0
  0
LINE
  5
BDB
330
1D
100
AcDbEntity
  8
0
100
AcDbLine
 10
226.7
 20
26.9545
 30
0.0
 11
226.7
 21
26.855
 31
0.0
  0
LINE
  5
BDC
330
1D
100
AcDbEntity
  8
0
100
AcDbLine
 10
226.7
 20
26.9545
 30
0.0
 11
226.7
 21
26.8116
 31
0.0
  0
LINE
  5
BDD
330
1D
100
AcDbEntity
  8
0
100
AcDbLine
 10
179.3
 20
8.8744
 30
0.0
 11
179.3
 21
11.2857
 31
0.0
  0
LINE
  5
BDE
330
1D
100
AcDbEntity
  8
0
100
AcDbLine
 10
179.3
 20
11.2856
 30
0.0
 11
179.3
 21
8.8741
 31
0.0
  0
LINE
  5
BDF
330
1D
100
AcDbEntity
  8
0
100
AcDbLine
 10
176.7
 20
11.2857
 30
0.0
 11
176.7
 21
8.8744
 31
0.0
  0
LINE
  5
BE0
330
1D
100
AcDbEntity
  8
0
100
AcDbLine
 10
176.7
 20
8.939
 30
0.0
 11
176.7
 21
11.3287
 31
0.0
  0
LINE
  5
BE1
330
1D
100
AcDbEntity
  8
0
100
AcDbLine
 10
176.7
 20
11.3287
 30
0.0
 11
176.7
 21
8.939
 31
0.0
  0
LINE
  5
BE2
330
1D
100
AcDbEntity
  8
0
100
AcDbLine
 10
176.7
 20
8.8741
 30
0.0
 11
176.7
 21
11.2856
 31
0.0
  0
LINE
  5
BE3
330
1D
100
AcDbEntity
  8
0
100
AcDbLine
 10
179.3
 20
5.638
 30
0.0
 11
179.3
 21
6.9479
 31
0.0
  0
LINE
  5
BE4
330
1D
100
AcDbEntity
  8
0
100
AcDbLine
 10
179.3
 20
6.9479
 30
0.0
 11
179.3
 21
5.6382
 31
0.0
  0
LINE
  5
BE5
330
1D
100
AcDbEntity
  8
0
100
AcDbLine
 10
177.5983
 20
6.3646
 30
0.0
 11
176.9483
 21
5.8941
 31
0.0
  0
LINE
  5
BE6
330
1D
100
AcDbEntity
  8
0
100
AcDbLine
 10
179.0517
 20
5.8941
 30
0.0
 11
178.4017
 21
6.3646
 31
0.0
  0
LINE
  5
BE7
330
1D
100
AcDbEntity
  8
0
100
AcDbLine
 10
176.7
 20
5.7322
 30
0.0
 11
176.7
 21
7.0301
 31
0.0
  0
LINE
  5
BE8
330
1D
100
AcDbEntity
  8
0
100
AcDbLine
 10
176.7
 20
7.0301
 30
0.0
 11
176.7
 21
5.7322
 31
0.0
  0
LINE
  5
BE9
330
1D
100
AcDbEntity
  8
0
100
AcDbLine
 10
176.7
 20
5.6382
 30
0.0
 11
176.7
 21
6.9479
 31
0.0
  0
LINE
  5
BEA
330
1D
100
AcDbEntity
  8
0
100
AcDbLine
 10
176.7
 20
6.9479
 30
0.0
 11
176.7
 21
5.638
 31
0.0
  0
LINE
  5
BEB
330
1D
100
AcDbEntity
  8
0
100
AcDbLine
 10
179.3
 20
5.1334
 30
0.0
 11
179.0517
 21
5.8941
 31
0.0
  0
LINE
  5
BEC
330
1D
100
AcDbEntity
  8
0
100
AcDbLine
 10
179.3
 20
5.0341
 30
0.0
 11
179.3
 21
5.638
 31
0.0
  0
LINE
  5
BED
330
1D
100
AcDbEntity
  8
0
100
AcDbLine
 10
179.3
 20
5.6382
 30
0.0
 11
179.3
 21
5.0341
 31
0.0
  0
LINE
  5
BEE
330
1D
100
AcDbEntity
  8
0
100
AcDbLine
 10
176.7
 20
5.638
 30
0.0
 11
176.7
 21
5.0341
 31
0.0
  0
LINE
  5
BEF
330
1D
100
AcDbEntity
  8
0
100
AcDbLine
 10
176.7
 20
5.1334
 30
0.0
 11
176.7
 21
5.0341
 31
0.0
  0
LINE
  5
BF0
330
1D
100
AcDbEntity
  8
0
100
AcDbLine
 10
176.7
 20
5.1334
 30
0.0
 11
176.7
 21
5.7322
 31
0.0
  0
LINE
  5
BF1
330
1D
100
AcDbEntity
  8
0
100
AcDbLine
 10
176.7
 20
5.0341
 30
0.0
 11
176.7
 21
5.6382
 31
0.0
  0
LINE
  5
BF2
330
1D
100
AcDbEntity
  8
0
100
AcDbLine
 10
176.7
 20
5.0341
 30
0.0
 11
176.7
 21
5.1334
 31
0.0
  0
LINE
  5
BF3
330
1D
100
AcDbEntity
  8
0
100
AcDbLine
 10
176.9483
 20
5.8941
 30
0.0
 11
176.7
 21
5.1334
 31
0.0
  0
LINE
  5
BF4
330
1D
100
AcDbEntity
  8
0
100
AcDbLine
 10
176.7
 20
5.7322
 30
0.0
 11
176.7
 21
5.1336
 31
0.0
  0
LINE
  5
BF5
330
1D
100
AcDbEntity
  8
0
100
AcDbLine
 10
178.4017
 20
6.3646
 30
0.0
 11
177.5983
 21
6.3646
 31
0.0
  0
LINE
  5
BF6
330
1D
100
AcDbEntity
  8
0
100
AcDbLine
 10
179.3
 20
6.9479
 30
0.0
 11
179.3
 21
8.8744
 31
0.0
  0
LINE
  5
BF7
330
1D
100
AcDbEntity
  8
0
100
AcDbLine
 10
179.3
 20
8.8741
 30
0.0
 11
179.3
 21
6.9479
 31
0.0
  0
LINE
  5
BF8
330
1D
100
AcDbEntity
  8
0
100
AcDbLine
 10
176.7
 20
7.0301
 30
0.0
 11
176.7
 21
8.939
 31
0.0
  0
LINE
  5
BF9
330
1D
100
AcDbEntity
  8
0
100
AcDbLine
 10
176.7
 20
6.9479
 30
0.0
 11
176.7
 21
8.8741
 31
0.0
  0
LINE
  5
BFA
330
1D
100
AcDbEntity
  8
0
100
AcDbLine
 10
176.7
 20
8.8744
 30
0.0
 11
176.7
 21
6.9479
 31
0.0
  0
LINE
  5
BFB
330
1D
100
AcDbEntity
  8
0
100
AcDbLine
 10
176.7
 20
8.939
 30
0.0
 11
176.7
 21
7.0301
 31
0.0
  0
LINE
  5
BFC
330
1D
100
AcDbEntity
  8
0
100
AcDbLine
 10
176.7
 20
26.9545
 30
0.0
 11
128.001
 21
26.9545
 31
0.0
  0
LINE
  5
BFD
330
1D
100
AcDbEntity
  8
0
100
AcDbLine
 10
177.5983
 20
25.624
 30
0.0
 11
176.9483
 21
26.0944
 31
0.0
  0
LINE
  5
BFE
330
1D
100
AcDbEntity
  8
0
100
AcDbLine
 10
176.7
 20
25.8415
 30
0.0
 11
176.7
 21
26.7135
 31
0.0
  0
LINE
  5
BFF
330
1D
100
AcDbEntity
  8
0
100
AcDbLine
 10
176.7
 20
25.9317
 30
0.0
 11
176.7
 21
26.8119
 31
0.0
  0
LINE
  5
C00
330
1D
100
AcDbEntity
  8
0
100
AcDbLine
 10
179.3
 20
25.9318
 30
0.0
 11
179.3
 21
26.8116
 31
0.0
  0
LINE
  5
C01
330
1D
100
AcDbEntity
  8
0
100
AcDbLine
 10
176.7
 20
26.8116
 30
0.0
 11
176.7
 21
25.9317
 31
0.0
  0
LINE
  5
C02
330
1D
100
AcDbEntity
  8
0
100
AcDbLine
 10
179.0517
 20
26.0944
 30
0.0
 11
178.4017
 21
25.624
 31
0.0
  0
LINE
  5
C03
330
1D
100
AcDbEntity
  8
0
100
AcDbLine
 10
179.3
 20
26.8119
 30
0.0
 11
179.3
 21
25.9317
 31
0.0
  0
LINE
  5
C04
330
1D
100
AcDbEntity
  8
0
100
AcDbLine
 10
176.7
 20
26.7134
 30
0.0
 11
176.7
 21
25.8415
 31
0.0
  0
LINE
  5
C05
330
1D
100
AcDbEntity
  8
0
100
AcDbLine
 10
179.3
 20
16.8852
 30
0.0
 11
179.3
 21
19.6919
 31
0.0
  0
LINE
  5
C06
330
1D
100
AcDbEntity
  8
0
100
AcDbLine
 10
179.3
 20
19.6918
 30
0.0
 11
179.3
 21
16.8852
 31
0.0
  0
LINE
  5
C07
330
1D
100
AcDbEntity
  8
0
100
AcDbLine
 10
176.7
 20
16.8773
 30
0.0
 11
176.7
 21
19.6579
 31
0.0
  0
LINE
  5
C08
330
1D
100
AcDbEntity
  8
0
100
AcDbLine
 10
176.7
 20
16.8853
 30
0.0
 11
176.7
 21
19.6918
 31
0.0
  0
LINE
  5
C09
330
1D
100
AcDbEntity
  8
0
100
AcDbLine
 10
176.7
 20
19.6579
 30
0.0
 11
176.7
 21
16.8773
 31
0.0
  0
LINE
  5
C0A
330
1D
100
AcDbEntity
  8
0
100
AcDbLine
 10
176.7
 20
19.6918
 30
0.0
 11
176.7
 21
16.8854
 31
0.0
  0
LINE
  5
C0B
330
1D
100
AcDbEntity
  8
0
100
AcDbLine
 10
179.3
 20
11.2857
 30
0.0
 11
179.3
 21
14.0183
 31
0.0
  0
LINE
  5
C0C
330
1D
100
AcDbEntity
  8
0
100
AcDbLine
 10
179.3
 20
14.0182
 30
0.0
 11
179.3
 21
11.2856
 31
0.0
  0
LINE
  5
C0D
330
1D
100
AcDbEntity
  8
0
100
AcDbLine
 10
176.7
 20
14.0183
 30
0.0
 11
176.7
 21
11.2857
 31
0.0
  0
LINE
  5
C0E
330
1D
100
AcDbEntity
  8
0
100
AcDbLine
 10
176.7
 20
14.0362
 30
0.0
 11
176.7
 21
11.3287
 31
0.0
  0
LINE
  5
C0F
330
1D
100
AcDbEntity
  8
0
100
AcDbLine
 10
176.7
 20
11.2856
 30
0.0
 11
176.7
 21
14.0182
 31
0.0
  0
LINE
  5
C10
330
1D
100
AcDbEntity
  8
0
100
AcDbLine
 10
176.7
 20
11.3287
 30
0.0
 11
176.7
 21
14.0362
 31
0.0
  0
LINE
  5
C11
330
1D
100
AcDbEntity
  8
0
100
AcDbLine
 10
179.3
 20
14.0183
 30
0.0
 11
179.3
 21
16.8852
 31
0.0
  0
LINE
  5
C12
330
1D
100
AcDbEntity
  8
0
100
AcDbLine
 10
179.3
 20
16.8852
 30
0.0
 11
179.3
 21
14.0182
 31
0.0
  0
LINE
  5
C13
330
1D
100
AcDbEntity
  8
0
100
AcDbLine
 10
176.7
 20
14.0362
 30
0.0
 11
176.7
 21
16.8773
 31
0.0
  0
LINE
  5
C14
330
1D
100
AcDbEntity
  8
0
100
AcDbLine
 10
176.7
 20
16.8773
 30
0.0
 11
176.7
 21
14.0362
 31
0.0
  0
LINE
  5
C15
330
1D
100
AcDbEntity
  8
0
100
AcDbLine
 10
176.7
 20
14.0182
 30
0.0
 11
176.7
 21
16.8853
 31
0.0
  0
LINE
  5
C16
330
1D
100
AcDbEntity
  8
0
100
AcDbLine
 10
176.7
 20
16.8854
 30
0.0
 11
176.7
 21
14.0183
 31
0.0
  0
LINE
  5
C17
330
1D
100
AcDbEntity
  8
0
100
AcDbLine
 10
179.3
 20
19.6919
 30
0.0
 11
179.3
 21
22.2461
 31
0.0
  0
LINE
  5
C18
330
1D
100
AcDbEntity
  8
0
100
AcDbLine
 10
179.3
 20
22.2461
 30
0.0
 11
179.3
 21
19.6918
 31
0.0
  0
LINE
  5
C19
330
1D
100
AcDbEntity
  8
0
100
AcDbLine
 10
176.7
 20
19.6579
 30
0.0
 11
176.7
 21
22.1893
 31
0.0
  0
LINE
  5
C1A
330
1D
100
AcDbEntity
  8
0
100
AcDbLine
 10
176.7
 20
19.6918
 30
0.0
 11
176.7
 21
22.2461
 31
0.0
  0
LINE
  5
C1B
330
1D
100
AcDbEntity
  8
0
100
AcDbLine
 10
176.7
 20
22.1893
 30
0.0
 11
176.7
 21
19.6579
 31
0.0
  0
LINE
  5
C1C
330
1D
100
AcDbEntity
  8
0
100
AcDbLine
 10
176.7
 20
22.2461
 30
0.0
 11
176.7
 21
19.6918
 31
0.0
  0
LINE
  5
C1D
330
1D
100
AcDbEntity
  8
0
100
AcDbLine
 10
178.4017
 20
25.624
 30
0.0
 11
177.5983
 21
25.624
 31
0.0
  0
LINE
  5
C1E
330
1D
100
AcDbEntity
  8
0
100
AcDbLine
 10
179.3
 20
22.2461
 30
0.0
 11
179.3
 21
24.3745
 31
0.0
  0
LINE
  5
C1F
330
1D
100
AcDbEntity
  8
0
100
AcDbLine
 10
179.3
 20
25.9317
 30
0.0
 11
179.3
 21
24.3745
 31
0.0
  0
LINE
  5
C20
330
1D
100
AcDbEntity
  8
0
100
AcDbLine
 10
179.3
 20
24.3745
 30
0.0
 11
179.3
 21
25.9317
 31
0.0
  0
LINE
  5
C21
330
1D
100
AcDbEntity
  8
0
100
AcDbLine
 10
179.3
 20
24.3745
 30
0.0
 11
179.3
 21
22.2461
 31
0.0
  0
LINE
  5
C22
330
1D
100
AcDbEntity
  8
0
100
AcDbLine
 10
176.7
 20
22.1893
 30
0.0
 11
176.7
 21
24.2983
 31
0.0
  0
LINE
  5
C23
330
1D
100
AcDbEntity
  8
0
100
AcDbLine
 10
176.7
 20
22.2461
 30
0.0
 11
176.7
 21
24.3745
 31
0.0
  0
LINE
  5
C24
330
1D
100
AcDbEntity
  8
0
100
AcDbLine
 10
176.7
 20
24.2983
 30
0.0
 11
176.7
 21
22.1893
 31
0.0
  0
LINE
  5
C25
330
1D
100
AcDbEntity
  8
0
100
AcDbLine
 10
176.7
 20
24.2983
 30
0.0
 11
176.7
 21
25.8415
 31
0.0
  0
LINE
  5
C26
330
1D
100
AcDbEntity
  8
0
100
AcDbLine
 10
176.7
 20
24.3745
 30
0.0
 11
176.7
 21
25.9317
 31
0.0
  0
LINE
  5
C27
330
1D
100
AcDbEntity
  8
0
100
AcDbLine
 10
176.7
 20
24.3745
 30
0.0
 11
176.7
 21
22.2461
 31
0.0
  0
LINE
  5
C28
330
1D
100
AcDbEntity
  8
0
100
AcDbLine
 10
176.7
 20
25.8415
 30
0.0
 11
176.7
 21
24.2983
 31
0.0
  0
LINE
  5
C29
330
1D
100
AcDbEntity
  8
0
100
AcDbLine
 10
176.7
 20
25.9317
 30
0.0
 11
176.7
 21
24.3745
 31
0.0
  0
LINE
  5
C2A
330
1D
100
AcDbEntity
  8
0
100
AcDbLine
 10
176.9483
 20
26.0944
 30
0.0
 11
176.7
 21
26.855
 31
0.0
  0
LINE
  5
C2B
330
1D
100
AcDbEntity
  8
0
100
AcDbLine
 10
176.7
 20
26.7135
 30
0.0
 11
176.7
 21
26.855
 31
0.0
  0
LINE
  5
C2C
330
1D
100
AcDbEntity
  8
0
100
AcDbLine
 10
179.3
 20
26.8116
 30
0.0
 11
179.3
 21
26.9545
 31
0.0
  0
LINE
  5
C2D
330
1D
100
AcDbEntity
  8
0
100
AcDbLine
 10
179.3
 20
26.855
 30
0.0
 11
179.0517
 21
26.0944
 31
0.0
  0
LINE
  5
C2E
330
1D
100
AcDbEntity
  8
0
100
AcDbLine
 10
179.3
 20
26.9545
 30
0.0
 11
179.3
 21
26.8119
 31
0.0
  0
LINE
  5
C2F
330
1D
100
AcDbEntity
  8
0
100
AcDbLine
 10
176.7
 20
26.8119
 30
0.0
 11
176.7
 21
26.9545
 31
0.0
  0
LINE
  5
C30
330
1D
100
AcDbEntity
  8
0
100
AcDbLine
 10
176.7
 20
26.855
 30
0.0
 11
176.7
 21
26.7134
 31
0.0
  0
LINE
  5
C31
330
1D
100
AcDbEntity
  8
0
100
AcDbLine
 10
176.7
 20
26.855
 30
0.0
 11
176.7
 21
26.9545
 31
0.0
  0
LINE
  5
C32
330
1D
100
AcDbEntity
  8
0
100
AcDbLine
 10
176.7
 20
26.9545
 30
0.0
 11
176.7
 21
26.855
 31
0.0
  0
LINE
  5
C33
330
1D
100
AcDbEntity
  8
0
100
AcDbLine
 10
176.7
 20
26.9545
 30
0.0
 11
176.7
 21
26.8116
 31
0.0
  0
ENDSEC
  0
SECTION
  2
OBJECTS
  0
DICTIONARY
  5
C
330
0
100
AcDbDictionary
281
     1
  3
ACAD_GROUP
350
D
  3
ACAD_LAYOUT
350
1A
  3
ACAD_MLEADERSTYLE
350
C35
  3
ACAD_MLINESTYLE
350
17
  3
ACAD_PLOTSETTINGS
350
19
  3
ACAD_PLOTSTYLENAME
350
E
  3
ACAD_SCALELIST
350
61E
  3
AcDbVariableDictionary
350
C37
  3
DWGPROPS
350
C3B
  0
DICTIONARY
  5
D
102
{ACAD_REACTORS
330
C
102
}
330
C
100
AcDbDictionary
281
     1
  0
DICTIONARY
  5
1A
102
{ACAD_REACTORS
330
C
102
}
330
C
100
AcDbDictionary
281
     1
  3
Layout1
350
1C
  3
Model
350
1E
  0
DICTIONARY
  5
C35
102
{ACAD_REACTORS
330
C
102
}
330
C
100
AcDbDictionary
281
     1
  0
DICTIONARY
  5
17
102
{ACAD_REACTORS
330
C
102
}
330
C
100
AcDbDictionary
281
     1
  3
Standard
350
18
  0
DICTIONARY
  5
19
102
{ACAD_REACTORS
330
C
102
}
330
C
100
AcDbDictionary
281
     1
  0
ACDBDICTIONARYWDFLT
  5
E
102
{ACAD_REACTORS
330
C
102
}
330
C
100
AcDbDictionary
281
     1
  3
Normal
350
F
100
AcDbDictionaryWithDefault
340
F
  0
DICTIONARY
  5
61E
102
{ACAD_REACTORS
330
C
102
}
330
C
100
AcDbDictionary
281
     1
  3
A0
350
61F
  3
A1
350
620
  3
A2
350
621
  3
A3
350
622
  3
A4
350
623
  3
A5
350
624
  3
A6
350
625
  3
A7
350
626
  3
A8
350
627
  3
A9
350
628
  3
B0
350
629
  3
B1
350
62A
  3
B2
350
62B
  3
B3
350
62C
  3
B4
350
62D
  3
B5
350
62E
  3
B6
350
62F
  3
B7
350
630
  3
B8
350
631
  3
B9
350
632
  3
C0
350
633
  3
C1
350
634
  3
C2
350
635
  3
C3
350
636
  3
C4
350
637
  3
C5
350
638
  3
C6
350
639
  3
C7
350
63A
  3
C8
350
63B
  3
C9
350
63C
  3
D0
350
63D
  3
D1
350
63E
  3
D2
350
63F
  0
DICTIONARY
  5
C37
102
{ACAD_REACTORS
330
C
102
}
330
C
100
AcDbDictionary
281
     1
  0
XRECORD
  5
C3B
102
{ACAD_REACTORS
330
C
102
}
330
C
100
AcDbXrecord
280
     1
  1
DWGPROPS COOKIE
  2

  3

  4

  6

  7

  8
MARTIN
  9

300
=
301
=
302
=
303
=
304
=
305
=
306
=
307
=
308
=
309
=
 40
0.0
 41
2456182.794164849
 42
2456182.819363426
  1

 90
        0
  0
LAYOUT
  5
1C
102
{ACAD_REACTORS
330
1A
102
}
330
1A
100
AcDbPlotSettings
  1

  2
none_device
  4

  6

 40
0.0
 41
0.0
 42
0.0
 43
0.0
 44
0.0
 45
0.0
 46
0.0
 47
0.0
 48
0.0
 49
0.0
140
0.0
141
0.0
142
1.0
143
1.0
 70
   688
 72
     0
 73
     0
 74
     5
  7

 75
    16
147
1.0
148
0.0
149
0.0
100
AcDbLayout
  1
Layout1
 70
     1
 71
     1
 10
0.0
 20
0.0
 11
12.0
 21
9.0
 12
0.0
 22
0.0
 32
0.0
 14
1.000000000000E+20
 24
1.000000000000E+20
 34
1.000000000000E+20
 15
-1.000000000000E+20
 25
-1.000000000000E+20
 35
-1.000000000000E+20
146
0.0
 13
0.0
 23
0.0
 33
0.0
 16
1.0
 26
0.0
 36
0.0
 17
0.0
 27
1.0
 37
0.0
 76
     0
330
1B
  0
LAYOUT
  5
1E
102
{ACAD_REACTORS
330
1A
102
}
330
1A
100
AcDbPlotSettings
  1

  2
none_device
  4

  6

 40
0.0
 41
0.0
 42
0.0
 43
0.0
 44
0.0
 45
0.0
 46
0.0
 47
0.0
 48
0.0
 49
0.0
140
0.0
141
0.0
142
1.0
143
1.0
 70
  1712
 72
     0
 73
     0
 74
     0
  7

 75
     0
147
1.0
148
0.0
149
0.0
100
AcDbLayout
  1
Model
 70
     1
 71
     0
 10
0.0
 20
0.0
 11
12.0
 21
9.0
 12
0.0
 22
0.0
 32
0.0
 14
0.0
 24
0.0078
 34
0.0
 15
256.0
 25
83.0
 35
0.0
146
0.0
 13
0.0
 23
0.0
 33
0.0
 16
1.0
 26
0.0
 36
0.0
 17
0.0
 27
1.0
 37
0.0
 76
     0
330
1D
331
619
  0
MLINESTYLE
  5
18
102
{ACAD_REACTORS
330
17
102
}
330
17
100
AcDbMlineStyle
  2
Standard
 70
     0
  3

 62
   256
 51
90.0
 52
90.0
 71
     2
 49
0.5
 62
   256
  6
BYLAYER
 49
-0.5
 62
   256
  6
BYLAYER
  0
ACDBPLACEHOLDER
  5
F
102
{ACAD_REACTORS
330
E
102
}
330
E
  0
SCALE
  5
61F
102
{ACAD_REACTORS
330
61E
102
}
330
61E
100
AcDbScale
 70
     0
300
1:1
140
1.0
141
1.0
290
     1
  0
SCALE
  5
620
102
{ACAD_REACTORS
330
61E
102
}
330
61E
100
AcDbScale
 70
     0
300
1:2
140
1.0
141
2.0
290
     0
  0
SCALE
  5
621
102
{ACAD_REACTORS
330
61E
102
}
330
61E
100
AcDbScale
 70
     0
300
1:4
140
1.0
141
4.0
290
     0
  0
SCALE
  5
622
102
{ACAD_REACTORS
330
61E
102
}
330
61E
100
AcDbScale
 70
     0
300
1:5
140
1.0
141
5.0
290
     0
  0
SCALE
  5
623
102
{ACAD_REACTORS
330
61E
102
}
330
61E
100
AcDbScale
 70
     0
300
1:8
140
1.0
141
8.0
290
     0
  0
SCALE
  5
624
102
{ACAD_REACTORS
330
61E
102
}
330
61E
100
AcDbScale
 70
     0
300
1:10
140
1.0
141
10.0
290
     0
  0
SCALE
  5
625
102
{ACAD_REACTORS
330
61E
102
}
330
61E
100
AcDbScale
 70
     0
300
1:16
140
1.0
141
16.0
290
     0
  0
SCALE
  5
626
102
{ACAD_REACTORS
330
61E
102
}
330
61E
100
AcDbScale
 70
     0
300
1:20
140
1.0
141
20.0
290
     0
  0
SCALE
  5
627
102
{ACAD_REACTORS
330
61E
102
}
330
61E
100
AcDbScale
 70
     0
300
1:30
140
1.0
141
30.0
290
     0
  0
SCALE
  5
628
102
{ACAD_REACTORS
330
61E
102
}
330
61E
100
AcDbScale
 70
     0
300
1:40
140
1.0
141
40.0
290
     0
  0
SCALE
  5
629
102
{ACAD_REACTORS
330
61E
102
}
330
61E
100
AcDbScale
 70
     0
300
1:50
140
1.0
141
50.0
290
     0
  0
SCALE
  5
62A
102
{ACAD_REACTORS
330
61E
102
}
330
61E
100
AcDbScale
 70
     0
300
1:100
140
1.0
141
100.0
290
     0
  0
SCALE
  5
62B
102
{ACAD_REACTORS
330
61E
102
}
330
61E
100
AcDbScale
 70
     0
300
2:1
140
2.0
141
1.0
290
     0
  0
SCALE
  5
62C
102
{ACAD_REACTORS
330
61E
102
}
330
61E
100
AcDbScale
 70
     0
300
4:1
140
4.0
141
1.0
290
     0
  0
SCALE
  5
62D
102
{ACAD_REACTORS
330
61E
102
}
330
61E
100
AcDbScale
 70
     0
300
8:1
140
8.0
141
1.0
290
     0
  0
SCALE
  5
62E
102
{ACAD_REACTORS
330
61E
102
}
330
61E
100
AcDbScale
 70
     0
300
10:1
140
10.0
141
1.0
290
     0
  0
SCALE
  5
62F
102
{ACAD_REACTORS
330
61E
102
}
330
61E
100
AcDbScale
 70
     0
300
100:1
140
100.0
141
1.0
290
     0
  0
SCALE
  5
630
102
{ACAD_REACTORS
330
61E
102
}
330
61E
100
AcDbScale
 70
     0
300
1/128" = 1'-0"
140
0.0078125
141
12.0
290
     0
  0
SCALE
  5
631
102
{ACAD_REACTORS
330
61E
102
}
330
61E
100
AcDbScale
 70
     0
300
1/64" = 1'-0"
140
0.015625
141
12.0
290
     0
  0
SCALE
  5
632
102
{ACAD_REACTORS
330
61E
102
}
330
61E
100
AcDbScale
 70
     0
300
1/32" = 1'-0"
140
0.03125
141
12.0
290
     0
  0
SCALE
  5
633
102
{ACAD_REACTORS
330
61E
102
}
330
61E
100
AcDbScale
 70
     0
300
1/16" = 1'-0"
140
0.0625
141
12.0
290
     0
  0
SCALE
  5
634
102
{ACAD_REACTORS
330
61E
102
}
330
61E
100
AcDbScale
 70
     0
300
3/32" = 1'-0"
140
0.09375
141
12.0
290
     0
  0
SCALE
  5
635
102
{ACAD_REACTORS
330
61E
102
}
330
61E
100
AcDbScale
 70
     0
300
1/8" = 1'-0"
140
0.125
141
12.0
290
     0
  0
SCALE
  5
636
102
{ACAD_REACTORS
330
61E
102
}
330
61E
100
AcDbScale
 70
     0
300
3/16" = 1'-0"
140
0.1875
141
12.0
290
     0
  0
SCALE
  5
637
102
{ACAD_REACTORS
330
61E
102
}
330
61E
100
AcDbScale
 70
     0
300
1/4" = 1'-0"
140
0.25
141
12.0
290
     0
  0
SCALE
  5
638
102
{ACAD_REACTORS
330
61E
102
}
330
61E
100
AcDbScale
 70
     0
300
3/8" = 1'-0"
140
0.375
141
12.0
290
     0
  0
SCALE
  5
639
102
{ACAD_REACTORS
330
61E
102
}
330
61E
100
AcDbScale
 70
     0
300
1/2" = 1'-0"
140
0.5
141
12.0
290
     0
  0
SCALE
  5
63A
102
{ACAD_REACTORS
330
61E
102
}
330
61E
100
AcDbScale
 70
     0
300
3/4" = 1'-0"
140
0.75
141
12.0
290
     0
  0
SCALE
  5
63B
102
{ACAD_REACTORS
330
61E
102
}
330
61E
100
AcDbScale
 70
     0
300
1" = 1'-0"
140
1.0
141
12.0
290
     0
  0
SCALE
  5
63C
102
{ACAD_REACTORS
330
61E
102
}
330
61E
100
AcDbScale
 70
     0
300
1-1/2" = 1'-0"
140
1.5
141
12.0
290
     0
  0
SCALE
  5
63D
102
{ACAD_REACTORS
330
61E
102
}
330
61E
100
AcDbScale
 70
     0
300
3" = 1'-0"
140
3.0
141
12.0
290
     0
  0
SCALE
  5
63E
102
{ACAD_REACTORS
330
61E
102
}
330
61E
100
AcDbScale
 70
     0
300
6" = 1'-0"
140
6.0
141
12.0
290
     0
  0
SCALE
  5
63F
102
{ACAD_REACTORS
330
61E
102
}
330
61E
100
AcDbScale
 70
     0
300
1'-0" = 1'-0"
140
12.0
141
12.0
290
     0
  0
ENDSEC
  0
SECTION
  2
THUMBNAILIMAGE
 90
    16364
310
28000000B40000005500000001000800000000000000000000000000000000000000000000000000FFFFFF000000FF0000FFFF0000FF0000FFFF0000FF000000FF00FF000000000080808000C0C0C0000000FF007F7FFF000000A5005252A50000007F003F3F7F0000004C0026264C000000260013132600003FFF007F9FFF
310
000029A5005267A500001F7F003F4F7F0000134C00262F4C000009260013172600007FFF007FBFFF000052A500527CA500003F7F003F5F7F0000264C0026394C0000132600131C260000BFFF007FDFFF00007CA5005291A500005F7F003F6F7F0000394C0026424C00001C26001321260000FFFF007FFFFF0000A5A50052A5
310
A500007F7F003F7F7F00004C4C00264C4C00002626001326260000FFBF007FFFDF0000A57C0052A59100007F5F003F7F6F00004C3900264C420000261C001326210000FF7F007FFFBF0000A5520052A57C00007F3F003F7F5F00004C2600264C39000026130013261C0000FF3F007FFF9F0000A5290052A56700007F1F003F
310
7F4F00004C1300264C2F00002609001326170000FF00007FFF7F0000A5000052A55200007F00003F7F3F00004C0000264C260000260000132613003FFF00009FFF7F0029A5000067A552001F7F00004F7F3F00134C00002F4C260009260000172613007FFF0000BFFF7F0052A500007CA552003F7F00005F7F3F00264C0000
310
394C2600132600001C261300BFFF0000DFFF7F007CA5000091A552005F7F00006F7F3F00394C0000424C26001C26000021261300FFFF0000FFFF7F00A5A50000A5A552007F7F00007F7F3F004C4C00004C4C26002626000026261300FFBF0000FFDF7F00A57C0000A59152007F5F00007F6F3F004C3900004C422600261C00
310
0026211300FF7F0000FFBF7F00A5520000A57C52007F3F00007F5F3F004C2600004C39260026130000261C1300FF3F0000FF9F7F00A5290000A56752007F1F00007F4F3F004C1300004C2F26002609000026171300FF000000FF7F7F00A5000000A55252007F0000007F3F3F004C0000004C2626002600000026131300FF00
310
3F00FF7F9F00A5002900A55267007F001F007F3F4F004C0013004C262F002600090026131700FF007F00FF7FBF00A5005200A5527C007F003F007F3F5F004C0026004C2639002600130026131C00FF00BF00FF7FDF00A5007C00A55291007F005F007F3F6F004C0039004C26420026001C0026132100FF00FF00FF7FFF00A5
310
00A500A552A5007F007F007F3F7F004C004C004C264C002600260026132600BF00FF00DF7FFF007C00A5009152A5005F007F006F3F7F0039004C0042264C001C002600211326007F00FF00BF7FFF005200A5007C52A5003F007F005F3F7F0026004C0039264C00130026001C1326003F00FF009F7FFF002900A5006752A500
310
1F007F004F3F7F0013004C002F264C000900260017132600000000002D2D2D005B5B5B0089898900B7B7B700B3B3B30000000000000000000000000000000000000000000000000000000000000000000000000000000000000000000000000000000000000000000000000000000000000000000000000000000000000000
310
00000000000000000000000000000000000000000000000000000000000000000000000000000000000000000000000000000000000000000000000000000000000000000000000000000000000000000000000000000000000000000000000000000000000000000000000000000000000000000000000000000000000000
310
00000000000000000000000000000000000000000000000000000000000000000000000000000000000000000000000000000000000000000000000000000000000000000000000000000000000000000000000000000000000000000000000000000000000000000000000000000000000000000000000000000000000000
310
00000000000000000000000000000000000000000000000000000000000000000000000000000000000000000000000000000000000000000000000000000000000000000000000000000000000000000000000000000000000000000000000000000000000000000000000000000000000000000000000000000000000000
310
00000000000000000000000000000000000000000000000000000000000000000000000000000000000000000000000000000000000000000000000000000000000000000000000000000000000000000000000000000000000000000000000000000000000000000000000000000000000000000000000000000000000000
310
00000000000000000000000000000000000000000000000000000000000000000000000000000000000000000000000000000000000000000000000000000000000000000000000000000000000000000000000000000000000000000000000000000000000000000000000000000000000000000000000000000000000000
310
00000000000000000000000000000000000000000000000000000000000000000000000000000000000000000000000000000000000000000000000000000000000000000000000000000000000000000000000000000000000000000000000000000000000000000000000000000000000000000000000000000000000000
310
00000000000000000000000000000000000000000000000000000000000000000000000000000000000000000000000000000000000000000000000000000000000000000000000000000000000000000000000000000000000000000000000000000000000000000000000000000000000000000000000000000000000000
310
00000000000000000000000000000000000000000000000000000000000000000000000000000000000000000000000000000000000000000000000000000000000000000000000000000000000000000000000000000000000000000000000000000000000000000000000000000000000000000000000000000000000000
310
00000000000000000000000000000000000000000000000000000000000000000000000000000000000000000000000000000000000000000000000000000000000000000000000000000000000000000000000000000000000000000000000000000000000000000000000000000000000000000000000000000000000000
310
00000000000000000000000000000000000000000000000000000000000000000000000000000000000000000000000000000000000000000000000000000000000000000000000000000000000000000000000000000000000000000000000000000000000000000000000000000000000000000000000000000000000000
310
00000000000000000000000000000000000000000000000000000000000000000000000000000000000000000000000000000000000000000000000000000000000000000000000000000000000000000000000000000000000000000000000000000000000000000000000000000000000000000000000000000000000000
310
00000000000000000000000000000000000000000000000000000000000000000000000000000000000000000000000000000000000000000000000000000000000000000000000000000000000000000000000000000000000000000000000000000000000000000000000000000000000000000000000000000000000000
310
00000000000000000000000000000000000000000000000000000000000000000000000000000000000000000000000000000000000000000000000000000000000000000000000000000000000000000000000000000000000000000000000000000000000000000000000000000000000000000000000000000000000000
310
00000000000000000000000000000000000000000000000000000000000000000000000000000000000000000000000000000000000000000000000000000000000000000000000000000000000000000000000000000000000000000000000000000000000000000000000000000000000000000000000000000000000000
310
00000000000000000000000000000000000000000000000000000000000000000000000000000000000000000000000000000000000000000000000000000000000000000000000000000000000000000000000000000000000000000000000000000000000000000000000000000000000000000000000000000000000000
310
00000000000000000000000000000000000000000000000000000000000000000000000000000000000000000000000000000000000000000000000000000000000000000000000000000000000000000000000000000000000000000000000000000000000000000000000000000000000000000000000000000000000000
310
00000000000000000000000000000000000000000000000000000000000000000000000000000000000000000000000000000000000000000000000000000000000000000000000000000000000000000000000000000000000000000000000000000000000000000000000000000000000000000000000000000000000000
310
00000000000000000000000000000000000000000000000000000000000000000000000000000000000000000000000000000000000000000000000000000000000000000000000000000000000000000000000000000000000000000000000000000000000000000707070000000000000000000000000000000000000000
310
00000000000000000000000000000000000000000000000000000000000000000000000000000000000000000000000000000000000000000000000000000000000000000000000000000000000000000000000000000000000000000000000000000000000000000000000000000000000000000000000000000000000000
310
00000000000000000000000000000000000000000000000007070700000007000700000000000000000000000000000000000000000000000000000000000000000000000000000000000000000000000000000000000000000000000000000000000000000000000000000000000000000000000000000000000000000000
310
00000000000000000000000000000000000000000000000000000000000000000000000000000000000000000000000000000000000000000000000000000000000000000000000000000000000700070000000700070000000000000000000000000000000000000000000000000000000000000000000000000000000000
310
00000000000000000000000000000000000000000000000000000000000000000000000000000000000000000000000000000000000000000000000000000000000000000000000000000000000000000000000000000000000000000000000000000000000000000000000000000000000000000000000000000000000000
310
00000007000700000007000707070707070707070707070707070707000707070707070707070707070707070707070707070707070707070707070707070707070707070707070707070707070707070707070707070707070707070707070707000707070707070707070707070707070707070707070707070707070707
310
07070707070707070707070707070707070707070707070707070707070707070707070707070700070707070707070707070707070707070700070000000700070000000000000000000000000000000707070000000000000000000000000000000000000000000000000000000000000000070700000000000000000000
310
00000000000000000000000000000000000000000000000000000000000000000000000000000000000000000000000000000000000000000007070000000000000000000000000000000000000000000000000000000000000000070707000000000000000000000000000000070007000000070007000000000000000000
310
00000000000007000700000000000000000000000000000000000000000000000000000000000000000707000000000000000000000000000000000000000000000000000000000000000000000000000000000000000000000000000000000000000000000000000000000000000707000000000000000000000000000000
310
00000000000000000000000000000000000700070000000000000000000000000000000700070000000700070000000000000000000000000000000700070000000000000000000000000000000000000000000000000000000000000000070700000000000000000000000000000000000000000000000000000000000000
310
00000000000000000000000000000000000000000000000000000000000000000000000007070000000000000000000000000000000000000000000000000000000000000000070007000000000000000000000000000000070007000000070007000000000000000000000000000000070007000000000000000000000000
310
00000000000000000000000000000000000000000707000000000000000000000000000000000000000000000000000000000000000000000000000000000000000000000000000000000000000000000000000000000000000707000000000000000000000000000000000000000000000000000000000000000007000700
310
00000000000000000000000000000700070000000700070000000000000000000000000000000700070000000000000000000000000000000000000000000000000000000000000000070700000000000000000000000000000000000000000000000000000000000000000000000000000000000000000000000000000000
310
00000000000000000000000000000007070000000000000000000000000000000000000000000000000000000000000000070007000000000000000000000000000000070007000000070007000000000000000000000000000000070007000000000000000000000000000000000000000000000000000000000000000007
310
07000000000000000000000000000000000000000000000000000000000000000000000000000000000000000000000000000000000000000000000000000000000000000707000000000000000000000000000000000000000000000000000000000000000007000700000000000000000000000000000007000700000007
310
00070000000000000000000000000000000700070000000000000000000000000000000000000000000000000000000000000000070700000000000000000000000000000000000000000000000000000000000000000000000000000000000000000000000000000000000000000000000000000000000000070700000000
310
00000000000000000000000000000000000000000000000000000000070007000000000000000000000000000000070007000000070007000000000000000000000000000000070007000000000000000000000000000000000000000000000000000000000000000007070000000000000000000000000000000000000000
310
00000000000000000000000000000000000000000000000000000000000000000000000000000000000000000000000707000000000000000000000000000000000000000000000000000000000000000007000700000000000000000000000000000007000700000007000700000000000000000000000000000007000700
310
00000000000000000000000000000000000000000000000000000000000000070700000000000000000000000000000000000000000000000000000000000000000000000000000000000000000000000000000000000000000000000000000000000000070700000000000000000000000000000000000000000000000000
310
00000000000000070007000000000000000000000000000000070007000000070007000000000000000000000000000000070007000000000000000000000000000000000000000000000000000000000000000007070000000000000000000000000000000000000000000000000000000000000000000000000000000000
310
00000000000000000000000000000000000000000000000000000707000000000000000000000000000000000000000000000000000000000000000007000700000000000000000000000000000007000700000007000700000000000000000000000000000007000700000000000000000000000000000000000000000000
310
00000000000000000000070700000000000000000000000000000000000000000000000000000000000000000000000000000000000000000000000000000000000000000000000000000000000000070700000000000000000000000000000000000000000000000000000000000000000700070000000000000000000000
310
00000000070007000000070007000000000000000000000000000000070007000000000000000000000000000000000000000000000000000000000000000007070000000000000000000000000000000000000000000000000000000000000000000000000000000000000000000000000000000000000000000000000000
310
00000000000707000000000000000000000000000000000000000000000000000000000000000007000700000000000000000000000000000007000700000007000700000000000000000000000000000007000700000000000000000000000000000000000000000000000000000000000000000707000000000000000000
310
00000000000000000000000000000000000000000000000000000000000000000000000000000000000000000000000000000000000000000000070700000000000000000000000000000000000000000000000000000000000000000700070000000000000000000000000000000700070000000700070000000000000000
310
00000000000000070007000000000000000000000000000000000000000000000000000000000000000007070000000000000000000000000000000000000000000000000000000000000000000000000000000000000000000000000000000000000000000000000000000000000007070000000000000000000000000000
310
00000000000000000000000000000000000007000700000000000000000000000000000007000700000007000707070707070707070707070707070707070707070707070707070707070707070707070707070707070707070707070707070707070707070707070707070707070707070707070707070707070707070707
310
07070700070707070707070707070707070707070707070707070707070707070707070707070707070707070707070707070707070707070707070707070707070707070707070707070707070707070707070707070707070700070000000700070000000000000000000000000000000000000000000000000000000000
310
00000000000000000000000000000000000000000000000000000000000000000000000000000000000000000000000000000000000700000000000700000000000000000000000000000000000000000000000000000000000000000000000000000000000000000000000000000000000000000000000000000000000000
310
00000000000000000000000000000007000700000007000700000000000000000000000000000000000000000000000000000000000000000000000000000000000000000000000000000000000000000000000000000000000000000000000000000000000000000000070000000000070000000000000000000000000000
310
00000000000000000000000000000000000000000000000000000000000000000000000000000000000000000000000000000000000000000000000000000000000000000700070000000700070000000000000000000000000000000000000000000000000000000000000000000000000000000000000000000000000000
310
00000000000000000000000000000000000000000000000000000000000000000700000000000700000000000000000000000000000000000000000000000000000000000000000000000000000000000000000000000000000000000000000000000000000000000000000000000000000000000000000000070007000000
310
07070700000000000000000000000000000000000000000000000000000000000000000000000000000000000000000000000000000000000000000000000000000000000000000000000000000000000000000000070000000000070000000000000000000000000000000000000000000000000000000000000000000000
310
00000000000000000000000000000000000000000000000000000000000000000000000000000000000000000000000707070000000000000000000000000000000000000000000000000000000000000000000000000000000000000000000000000000000000000000000000000000000000000000000000000000000000
310
00000000000000000000000700000000000700000000000000000000000000000000000000000000000000000000000000000000000000000000000000000000000000000000000000000000000000000000000000000000000000000000000000000000000000000000000000000000000000000000000000000000000000
310
00000000000000000000000000000000000000000000000000000000000000000000000000000000000000000000000000000000000000000000000000000000070000000000070000000000000000000000000000000000000000000000000000000000000000000000000000000000000000000000000000000000000000
310
00000000000000000000000000000000000000000000000000000000000000000000000000000000000000000000000000000000000000000000000000000000000000000000000000000000000000000000000000000000000000000000000000000000000000000000000000000000000000000007000000000007000000
310
00000000000000000000000000000000000000000000000000000000000000000000000000000000000000000000000000000000000000000000000000000000000000000000000000000000000000000000000000000000000000000000000000000000000000000000000000000000000000000000000000000000000000
310
00000000000000000000000000000000000000000000000000000000000000000000000000000000000000070000000000070000000000000000000000000000000000000000000000000000000000000000000000000000000000000000000000000000000000000000000000000000000000000000000000000000000000
310
00000000000000000000000000000000000000000000000000000000000000000000000000000000000000000000000000000000000000000000000000000000000000000000000000000000000000000000000000000000000000000000000700000000000000070000000000000000000000000000000000000000000000
310
00000000000000000000000000000000000000000000000000000000000000000000000000000000000000000000000000000000000000000000000000000000000000000000000000000000000000000000000000000000000000000000000000000000000000000000000000000000000000000000000000000000000000
310
00000000000000000000000000000000000000000007000000000000000700000000000000000000000000000000000000000000000000000000000000000000000000000000000000000000000000000000000000000000000000000000000000000000000000000000000000000000000000000000000000000000000000
310
00000000000000000000000000000000000000000000000000000000000000000000000000000000000000000000000000000000000000000000000000000000000000000000000000000700000000000000070000000000000000000000000000000000000000000000000000000000000000000000000000000000000000
310
00000000000000000000000000000000000000000000000000000000000000000000000000000000000000000000000000000000000000000000000000000000000000000000000000000000000000000000000000000000000000000000000000000000000000000000000000000000000000000000000000000000000000
310
07000000000000000700000000000000000000000000000000000000000000000000000000000000000000000000000000000000000000000000000000000000000000000000000000000000000000000000000000000000000000000000000000000000000000000000000000000000000000000000000000000000000000
310
00000000000000000000000000000000000000000000000000000000000000000000000000000000000000000000000000000000000700000000000000070000000000000000000000000000000000000000000000000000000000000000000000000000000000000000000000000000000000000000000000000000000000
310
00000000000000000000000000000000000000000000000000000000000000000000000000000000000000000000000000000000000000000000000000000000000000000000000000000000000000000000000000000000000000000000000000000000000000000000070000000000000007000000000000000000000000
310
00000000000000000000000000000000000000000000000000000000000000000000000000000000000000000000000000000000000000000000000000000000000000000000000000000000000000000000000000000000000000000000000000000000000000000000000000000000000000000000000000000000000000
310
00000000000000000000000000000000000000000000000000000000000000000700000000000000070000000000000000000000000000000000000000000000000000000000000000000000000000000000000000000000000000000000000000000000000000000000000000000000000000000000000000000000000000
310
00000000000000000000000000000000000000000000000000000000000000000000000000000000000000000000000000000000000000000000000000000000000000000000000000000000000000000000000000070000000000000007000000000000000000000000000000000000000000000000000000000000000000
310
00000000000000000000000000000000000000000000000000000000000000000000000000000000000000000000000000000000000000000000000000000000000000000000000000000000000000000000000000000000000000000000000000000000000000000000000000000000000000000000000000000000000000
310
00000000000000000000000700000000000000070000000000000000000000000000000000000000000000000000000000000000000000000000000000000000000000000000000000000000000000000000000000000000000000000000000000000000000000000000000000000000000000000000000000000000000000
310
00000000000000000000000000000000000000000000000000000000000000000000000000000000000000000000000000000000000000000000000000000000070000000000000007000000000000000000000000000000000000000000000000000000000000000000000000000000000000000000000000000000000000
310
00000000000000000000000000000000000000000000000000000000000000000000000000000000000000000000000000000000000000000000000000000000000000000000000000000000000000000000000000000000000000000000000000000000000000000000000000000000000000000007000000000000000700
310
00000000000000000000000000000000000000000000000000000000000000000000000000000000000000000000000000000000000000000000000000000000000000000000000000000000000000000000000000000000000000000000000000000000000000000000000000000000000000000000000000000000000000
310
00000000000000000000000000000000000000000000000000000000000000000000000000000000000007000000000000000007000000000000000000000000000000000000000000000000000000000000000000000000000000000000000000000000000000000000000000000000000000000000000000000000000000
310
00000000000000000000000000000000000000000000000000000000000000000000000000000000000000000000000000000000000000000000000000000000000000000000000000000000000000000000000000000000000000000000000700000000000000000007000000000000000000000000000000000000000000
310
00000000000000000000000000000000000000000000000000000000000000000000000000000000000000000000000000000000000000000000000000000000000000000000000000000000000000000000000000000000000000000000000000000000000000000000000000000000000000000000000000000000000000
310
00000000000000000000000000000000000000000007000000000000000000070000000000000000000000000000000000000000000000000000000000000000000000000000000000000000000000000000000000000000000000000000000000000000000000000000000000000000000000000000000000000000000000
310
00000000000000000000000000000000000000000000000000000000000000000000000000000000000000000000000000000000000000000000000000000000000000000000000000070000000000000000000007000000000000000000000000000000000000000000000000000000000000000000000000000000000000
310
00000000000000000000000000000000000000000000000000000000000000000000000000000000000000000000000000000000000000000000000000000000000000000000000000000000000000000000000000000000000000000000000000000000000000000000000000000000000000000000000000000000000007
310
00000000000000000000000700000000000000000000000000000000000000000000000000000000000000000000000000000000000000000000000000000000000000000000000000000000000000000000000000000000000000000000000000000000000000000000000000000000000000000000000000000000000000
310
00000000000000000000000000000000000000000000000000000000000000000000000000000000000000000000000000000007000000000000000000000000000700000000000000000000000000000000000000000000000000000000000000000000000000000000000000000000000000000000000000000000000000
310
00000000000000000000000000000000000000000000000000000000000000000000000000000000000000000000000000000000000000000000000000000000000000000000000000000000000000000000000000000000000000000000000000000000000000000700000000000000000000000000070000000000000000
310
00000000000000000000000000000000000000000000000000000000000000000000000000000000000000000000000000000000000000000000000000000000000000000000000000000000000000000000000000000000000000000000000000000000000000000000000000000000000000000000000000000000000000
310
00000000000000000000000000000000000000000000000000000000000700000000000000000000000000000007000000000000000000000000000000000000000000000000000000000000000000000000000000000000000000000000000000000000000000000000000000000000000000000000000000000000000000
310
00000000000000000000000000000000000000000000000000000000000000000000000000000000000000000000000000000000000000000000000000000000000000000000000000000000000000000007000000000000000000000000000000000007000000000000000000000000000000000000000000000000000000
310
00000000000000000000000000000000000000000000000000000000000000000000000000000000000000000000000000000000000000000000000000000000000000000000000000000000000000000000000000000000000000000000000000000000000000000000000000000000000000000000000000000000000000
310
00000000000007000000000000000000000000000000000000000700000000000000000000000000000000000000000000000000000000000000000000000000000000000000000000000000000000000000000000000000000000000000000000000000000000000000000000000000000000000000000000000000000000
310
00000000000000000000000000000000000000000000000000000000000000000000000000000000000000000000000000000000000000000000070700000000000000000000000000000000000000070700000000000000000000000000000000000000000000000000000000000000000000000000000000000000000000
310
00000000000000000000000000000000000000000000000000000000000000000000000000000000000000000000000000000000000000000000000000000000000000000000000000000000000000000000000000000000000000000000000000000000000000000000000707070700000000000000000000000000000000
310
00000000000000070707000000000000000000000000000000000000000000000000000000000000000000000000000000000000000000000000000000000000000000000000000000000000000000000000000000000000000000000000000000000000000000000000000000000000000000000000000000000000000000
310
00000000000000000000000000000000000000000000000000000000000707070707070707070707070707070707070707070707070707070707070707070707070707070000000000000000000000000000000000000000000000000000000000000000000000000000000000000000000000000000000000000000000000
310
00000000000000000000000000000000000000000000000000000000000000000000000000000000000000000000000000000000000000000000000000000000000000000000000000000000000000000000070000000000000000000000000000000000000000000000000000000000000000000000000007000000000000
310
00000000000000000000000000000000000000000000000000000000000000000000000000000000000000000000000000000000000000000000000000000000000000000000000000000000000000000000000000000000000000000000000000000000000000000000000000000000000000000000000000000000000000
310
00000000000000000700000000000000000000000000000000000000000000000000000000000000000000000000070000000000000000000000000000000000000000000000000000000000000000000000000000000000000000000000000000000000000000000000000000000000000000000000000000000000000000
310
00000000000000000000000000000000000000000000000000000000000000000000000000000000000000000000000000000000000000000000000000070000000000000000000000000000000000000000000000000000000000000000000000000007000000000000000000000000000000000000000000000000000000
310
00000000000000000000000000000000000000000000000000000000000000000000000000000000000000000000000000000000000000000000000000000000000000000000000000000000000000000000000000000000000000000000000000000000000000000000000000000000000700000000000000000000000000
310
00000000000000000000000000000000000000000000000000070000000000000000000000000000000000000000000000000000000000000000000000000000000000000000000000000000000000000000000000000000000000000000000000000000000000000000000000000000000000000000000000000000000000
310
00000000000000000000000000000000000000000000000000000000000000000000000000000007000000000000000000000000000000000000000000000000000000000000000000000000000000070000000000000000000000000000000000000000000000000000000000000000000000000000000000000000000000
310
00000000000000000000000000000000000000000000000000000000000000000000000000000000000000000000000000000000000000000000000000000000000000000000000000000000000000000000000000000000000000000700000000000000000000000000000000000000000000000000000000000000000000
310
00000000000700000000000000000000000000000000000000000000000000000000000000000000000000000000000000000000000000000000000000000000000000000000000000000000000000000000000000000000000000000000000000000000000000000000000000000000000000000000000000000000000000
310
00000000000000000000000000000000000007070707070707070707070707070707070707070707070707070707070707070707070707070707070000000000000000000000000000000000000000000000000000000000000000000000000000000000000000000000000000000000000000000000000000000000000000
310
00000000000000000000000000000000000000000000000000000000000000000000000000000000000000000000000000000000000000000000000000000000000000000000000000000000000000000000000000000000000000000000000000000000000000000000000000000000000000000000000000000000000000
310
00000000000000000000000000000000000000000000000000000000000000000000000000000000000000000000000000000000000000000000000000000000000000000000000000000000000000000000000000000000000000000000000000000000000000000000000000000000000000000000000000000000000000
310
00000000000000000000000000000000000000000000000000000000000000000000000000000000000000000000000000000000000000000000000000000000000000000000000000000000000000000000000000000000000000000000000000000000000000000000000000000000000000000000000000000000000000
310
00000000000000000000000000000000000000000000000000000000000000000000000000000000000000000000000000000000000000000000000000000000000000000000000000000000000000000000000000000000000000000000000000000000000000000000000000000000000000000000000000000000000000
310
00000000000000000000000000000000000000000000000000000000000000000000000000000000000000000000000000000000000000000000000000000000000000000000000000000000000000000000000000000000000000000000000000000000000000000000000000000000000000000000000000000000000000
310
00000000000000000000000000000000000000000000000000000000000000000000000000000000000000000000000000000000000000000000000000000000000000000000000000000000000000000000000000000000000000000000000000000000000000000000000000000000000000000000000000000000000000
310
00000000000000000000000000000000000000000000000000000000000000000000000000000000000000000000000000000000000000000000000000000000000000000000000000000000000000000000000000000000000000000000000000000000000000000000000000000000000000000000000000000000000000
310
00000000000000000000000000000000000000000000000000000000000000000000000000000000000000000000000000000000000000000000000000000000000000000000000000000000000000000000000000000000000000000000000000000000000000000000000000000000000000000000000000000000000000
310
00000000000000000000000000000000000000000000000000000000000000000000000000000000000000000000000000000000000000000000000000000000000000000000000000000000000000000000000000000000000000000000000000000000000000000000000000000000000000000000000000000000000000
310
00000000000000000000000000000000000000000000000000000000000000000000000000000000000000000000000000000000000000000000000000000000000000000000000000000000000000000000000000000000000000000000000000000000000000000000000000000000000000000000000000000000000000
310
00000000000000000000000000000000000000000000000000000000000000000000000000000000000000000000000000000000000000000000000000000000000000000000000000000000000000000000000000000000000000000000000000000000000000000000000000000000000000000000000000000000000000
310
00000000000000000000000000000000000000000000000000000000000000000000000000000000000000000000000000000000000000000000000000000000000000000000000000000000000000000000000000000000000000000000000000000000000000000000000000000000000000000000000000000000000000
310
00000000000000000000000000000000000000000000000000000000000000000000000000000000000000000000000000000000000000000000000000000000000000000000000000000000000000000000000000000000000000000000000000000000000000000000000000000000000000000000000000000000000000
310
00000000000000000000000000000000000000000000000000000000000000000000000000000000000000000000000000000000000000000000000000000000000000000000000000000000000000000000000000000000000000000000000000000000000000000000000000000000000000000000000000000000000000
310
00000000000000000000000000000000000000000000000000000000000000000000000000000000000000000000000000000000000000000000000000000000000000000000000000000000000000000000000000000000000000000000000000000000000000000000000000000000000000000000000000000000000000
310
00000000000000000000000000000000000000000000000000000000000000000000000000000000000000000000000000000000000000000000000000000000000000000000000000000000000000000000000000000000000000000000000000000000000000000000000000000000000000000000000000000000000000
310
00000000000000000000000000000000000000000000000000000000000000000000000000000000000000000000000000000000000000000000000000000000000000000000000000000000000000000000000000000000000000000000000000000000000000000000000000000000000000000000000000000000000000
310
00000000000000000000000000000000000000000000000000000000000000000000000000000000000000000000000000000000000000000000000000000000000000000000000000000000000000000000000000000000000000000000000000000000000000000000000000000000000000000000000000000000000000
310
00000000000000000000000000000000000000000000000000000000000000000000000000000000000000000000000000000000000000000000000000000000000000000000000000000000000000000000000000000000000000000000000000000000000000000000000000000000000000000000000000000000000000
310
000000000000000000000000000000000000000000000000000000000000000000000000000000000000000000000000000000000000000000000000000000000000000000000000000000000000000000000000000000000000000000000000000000000000000000000000
  0
ENDSEC
  0
EOF
