  0
SECTION
  2
HEADER
  9
$ACADVER
  1
AC1015
  9
$ACADMAINTVER
 70
     6
  9
$DWGCODEPAGE
  3
ANSI_1252
  9
$INSBASE
 10
0.0
 20
0.0
 30
0.0
  9
$EXTMIN
 10
0.08728
 20
0.0
 30
0.0
  9
$EXTMAX
 10
931.91272
 20
80.0
 30
0.0
  9
$LIMMIN
 10
0.0
 20
0.0
  9
$LIMMAX
 10
12.0
 20
9.0
  9
$ORTHOMODE
 70
     0
  9
$REGENMODE
 70
     1
  9
$FILLMODE
 70
     1
  9
$QTEXTMODE
 70
     0
  9
$MIRRTEXT
 70
     1
  9
$LTSCALE
 40
1.0
  9
$ATTMODE
 70
     1
  9
$TEXTSIZE
 40
0.2
  9
$TRACEWID
 40
0.05
  9
$TEXTSTYLE
  7
Standard
  9
$CLAYER
  8
0
  9
$CELTYPE
  6
ByBlock
  9
$CECOLOR
 62
   256
  9
$CELTSCALE
 40
1.0
  9
$DISPSILH
 70
     0
  9
$DIMSCALE
 40
1.0
  9
$DIMASZ
 40
0.18
  9
$DIMEXO
 40
0.0625
  9
$DIMDLI
 40
0.38
  9
$DIMRND
 40
0.0
  9
$DIMDLE
 40
0.0
  9
$DIMEXE
 40
0.18
  9
$DIMTP
 40
0.0
  9
$DIMTM
 40
0.0
  9
$DIMTXT
 40
0.18
  9
$DIMCEN
 40
0.09
  9
$DIMTSZ
 40
0.0
  9
$DIMTOL
 70
     0
  9
$DIMLIM
 70
     0
  9
$DIMTIH
 70
     1
  9
$DIMTOH
 70
     1
  9
$DIMSE1
 70
     0
  9
$DIMSE2
 70
     0
  9
$DIMTAD
 70
     0
  9
$DIMZIN
 70
     0
  9
$DIMBLK
  1

  9
$DIMASO
 70
     1
  9
$DIMSHO
 70
     1
  9
$DIMPOST
  1

  9
$DIMAPOST
  1

  9
$DIMALT
 70
     0
  9
$DIMALTD
 70
     2
  9
$DIMALTF
 40
25.4
  9
$DIMLFAC
 40
1.0
  9
$DIMTOFL
 70
     0
  9
$DIMTVP
 40
0.0
  9
$DIMTIX
 70
     0
  9
$DIMSOXD
 70
     0
  9
$DIMSAH
 70
     0
  9
$DIMBLK1
  1

  9
$DIMBLK2
  1

  9
$DIMSTYLE
  2
Standard
  9
$DIMCLRD
 70
     0
  9
$DIMCLRE
 70
     0
  9
$DIMCLRT
 70
     0
  9
$DIMTFAC
 40
1.0
  9
$DIMGAP
 40
0.09
  9
$DIMJUST
 70
     0
  9
$DIMSD1
 70
     0
  9
$DIMSD2
 70
     0
  9
$DIMTOLJ
 70
     1
  9
$DIMTZIN
 70
     0
  9
$DIMALTZ
 70
     0
  9
$DIMALTTZ
 70
     0
  9
$DIMUPT
 70
     0
  9
$DIMDEC
 70
     4
  9
$DIMTDEC
 70
     4
  9
$DIMALTU
 70
     2
  9
$DIMALTTD
 70
     2
  9
$DIMTXSTY
  7
Standard
  9
$DIMAUNIT
 70
     0
  9
$DIMADEC
 70
     0
  9
$DIMALTRND
 40
0.0
  9
$DIMAZIN
 70
     0
  9
$DIMDSEP
 70
    46
  9
$DIMATFIT
 70
     3
  9
$DIMFRAC
 70
     0
  9
$DIMLDRBLK
  1

  9
$DIMLUNIT
 70
     2
  9
$DIMLWD
 70
    -2
  9
$DIMLWE
 70
    -2
  9
$DIMTMOVE
 70
     2
  9
$LUNITS
 70
     2
  9
$LUPREC
 70
     4
  9
$SKETCHINC
 40
0.1
  9
$FILLETRAD
 40
0.5
  9
$AUNITS
 70
     0
  9
$AUPREC
 70
     0
  9
$MENU
  1
.
  9
$ELEVATION
 40
0.0
  9
$PELEVATION
 40
0.0
  9
$THICKNESS
 40
0.0
  9
$LIMCHECK
 70
     0
  9
$CHAMFERA
 40
0.5
  9
$CHAMFERB
 40
0.5
  9
$CHAMFERC
 40
1.0
  9
$CHAMFERD
 40
0.0
  9
$SKPOLY
 70
     0
  9
$TDCREATE
 40
2456183.605314849
  9
$TDUCREATE
 40
2456183.521981516
  9
$TDUPDATE
 40
2456183.618301319
  9
$TDUUPDATE
 40
2456183.534967986
  9
$TDINDWG
 40
0.0129861227
  9
$TDUSRTIMER
 40
0.0129861227
  9
$USRTIMER
 70
     1
  9
$ANGBASE
 50
0.0
  9
$ANGDIR
 70
     0
  9
$PDMODE
 70
     0
  9
$PDSIZE
 40
0.0
  9
$PLINEWID
 40
0.0
  9
$SPLFRAME
 70
     0
  9
$SPLINETYPE
 70
     6
  9
$SPLINESEGS
 70
     8
  9
$HANDSEED
  5
784
  9
$SURFTAB1
 70
     6
  9
$SURFTAB2
 70
     6
  9
$SURFTYPE
 70
     6
  9
$SURFU
 70
     6
  9
$SURFV
 70
     6
  9
$UCSBASE
  2

  9
$UCSNAME
  2

  9
$UCSORG
 10
0.0
 20
0.0
 30
0.0
  9
$UCSXDIR
 10
1.0
 20
0.0
 30
0.0
  9
$UCSYDIR
 10
0.0
 20
1.0
 30
0.0
  9
$UCSORTHOREF
  2

  9
$UCSORTHOVIEW
 70
     0
  9
$UCSORGTOP
 10
0.0
 20
0.0
 30
0.0
  9
$UCSORGBOTTOM
 10
0.0
 20
0.0
 30
0.0
  9
$UCSORGLEFT
 10
0.0
 20
0.0
 30
0.0
  9
$UCSORGRIGHT
 10
0.0
 20
0.0
 30
0.0
  9
$UCSORGFRONT
 10
0.0
 20
0.0
 30
0.0
  9
$UCSORGBACK
 10
0.0
 20
0.0
 30
0.0
  9
$PUCSBASE
  2

  9
$PUCSNAME
  2

  9
$PUCSORG
 10
0.0
 20
0.0
 30
0.0
  9
$PUCSXDIR
 10
1.0
 20
0.0
 30
0.0
  9
$PUCSYDIR
 10
0.0
 20
1.0
 30
0.0
  9
$PUCSORTHOREF
  2

  9
$PUCSORTHOVIEW
 70
     0
  9
$PUCSORGTOP
 10
0.0
 20
0.0
 30
0.0
  9
$PUCSORGBOTTOM
 10
0.0
 20
0.0
 30
0.0
  9
$PUCSORGLEFT
 10
0.0
 20
0.0
 30
0.0
  9
$PUCSORGRIGHT
 10
0.0
 20
0.0
 30
0.0
  9
$PUCSORGFRONT
 10
0.0
 20
0.0
 30
0.0
  9
$PUCSORGBACK
 10
0.0
 20
0.0
 30
0.0
  9
$USERI1
 70
     0
  9
$USERI2
 70
     0
  9
$USERI3
 70
     0
  9
$USERI4
 70
     0
  9
$USERI5
 70
     0
  9
$USERR1
 40
0.0
  9
$USERR2
 40
0.0
  9
$USERR3
 40
0.0
  9
$USERR4
 40
0.0
  9
$USERR5
 40
0.0
  9
$WORLDVIEW
 70
     1
  9
$SHADEDGE
 70
     3
  9
$SHADEDIF
 70
    70
  9
$TILEMODE
 70
     1
  9
$MAXACTVP
 70
    64
  9
$PINSBASE
 10
0.0
 20
0.0
 30
0.0
  9
$PLIMCHECK
 70
     0
  9
$PEXTMIN
 10
1.000000000000E+20
 20
1.000000000000E+20
 30
1.000000000000E+20
  9
$PEXTMAX
 10
-1.000000000000E+20
 20
-1.000000000000E+20
 30
-1.000000000000E+20
  9
$PLIMMIN
 10
0.0
 20
0.0
  9
$PLIMMAX
 10
12.0
 20
9.0
  9
$UNITMODE
 70
     0
  9
$VISRETAIN
 70
     1
  9
$PLINEGEN
 70
     0
  9
$PSLTSCALE
 70
     1
  9
$TREEDEPTH
 70
  3020
  9
$CMLSTYLE
  2
Standard
  9
$CMLJUST
 70
     0
  9
$CMLSCALE
 40
1.0
  9
$PROXYGRAPHICS
 70
     1
  9
$MEASUREMENT
 70
     0
  9
$CELWEIGHT
370
    -1
  9
$ENDCAPS
280
     0
  9
$JOINSTYLE
280
     0
  9
$LWDISPLAY
290
     0
  9
$INSUNITS
 70
     0
  9
$HYPERLINKBASE
  1

  9
$STYLESHEET
  1

  9
$XEDIT
290
     1
  9
$CEPSNTYPE
380
     0
  9
$PSTYLEMODE
290
     1
  9
$FINGERPRINTGUID
  2
{CBEB524F-B161-4B5A-9A69-53E67F504F07}
  9
$VERSIONGUID
  2
{FAEB1C32-E019-11D5-929B-00C0DF256EC4}
  9
$EXTNAMES
290
     1
  9
$PSVPSCALE
 40
0.0
  9
$OLESTARTUP
290
     0
  0
ENDSEC
  0
SECTION
  2
CLASSES
  0
CLASS
  1
ACDBDICTIONARYWDFLT
  2
AcDbDictionaryWithDefault
  3
ObjectDBX Classes
 90
        0
280
     0
281
     0
  0
CLASS
  1
SCALE
  2
AcDbScale
  3
ObjectDBX Classes
 90
     1153
280
     0
281
     0
  0
CLASS
  1
DICTIONARYVAR
  2
AcDbDictionaryVar
  3
ObjectDBX Classes
 90
        0
280
     0
281
     0
  0
CLASS
  1
ACDBPLACEHOLDER
  2
AcDbPlaceHolder
  3
ObjectDBX Classes
 90
        0
280
     0
281
     0
  0
CLASS
  1
LAYOUT
  2
AcDbLayout
  3
ObjectDBX Classes
 90
        0
280
     0
281
     0
  0
ENDSEC
  0
SECTION
  2
TABLES
  0
TABLE
  2
VPORT
  5
8
330
0
100
AcDbSymbolTable
 70
     1
  0
VPORT
  5
63C
330
8
100
AcDbSymbolTableRecord
100
AcDbViewportTableRecord
  2
*Active
 70
     0
 10
0.0
 20
0.0
 11
1.0
 21
1.0
 12
465.95636
 22
40.0
 13
0.0
 23
0.0
 14
0.5
 24
0.5
 15
0.5
 25
0.5
 16
0.0
 26
0.0
 36
1.0
 17
0.0
 27
0.0
 37
0.0
 40
418.427113806922
 41
2.271724137931
 42
50.0
 43
0.0
 44
0.0
 50
0.0
 51
0.0
 71
    16
 72
   100
 73
     1
 74
     3
 75
     0
 76
     0
 77
     0
 78
     0
281
     0
 65
     1
110
0.0
120
0.0
130
0.0
111
1.0
121
0.0
131
0.0
112
0.0
122
1.0
132
0.0
 79
     0
146
0.0
  0
ENDTAB
  0
TABLE
  2
LTYPE
  5
5
330
0
100
AcDbSymbolTable
 70
     1
  0
LTYPE
  5
14
330
5
100
AcDbSymbolTableRecord
100
AcDbLinetypeTableRecord
  2
ByBlock
 70
     0
  3

 72
    65
 73
     0
 40
0.0
  0
LTYPE
  5
15
330
5
100
AcDbSymbolTableRecord
100
AcDbLinetypeTableRecord
  2
ByLayer
 70
     0
  3

 72
    65
 73
     0
 40
0.0
  0
LTYPE
  5
16
330
5
100
AcDbSymbolTableRecord
100
AcDbLinetypeTableRecord
  2
Continuous
 70
     0
  3
Solid line
 72
    65
 73
     0
 40
0.0
  0
ENDTAB
  0
TABLE
  2
LAYER
  5
2
330
0
100
AcDbSymbolTable
 70
     1
  0
LAYER
  5
10
330
2
100
AcDbSymbolTableRecord
100
AcDbLayerTableRecord
  2
0
 70
     0
 62
     7
  6
Continuous
370
    -3
390
F
  0
ENDTAB
  0
TABLE
  2
STYLE
  5
3
330
0
100
AcDbSymbolTable
 70
     1
  0
STYLE
  5
11
330
3
100
AcDbSymbolTableRecord
100
AcDbTextStyleTableRecord
  2
Standard
 70
     0
 40
0.0
 41
1.0
 50
0.0
 71
     0
 42
0.2
  3
txt
  4

  0
ENDTAB
  0
TABLE
  2
VIEW
  5
6
330
0
100
AcDbSymbolTable
 70
     0
  0
ENDTAB
  0
TABLE
  2
UCS
  5
7
330
0
100
AcDbSymbolTable
 70
     0
  0
ENDTAB
  0
TABLE
  2
APPID
  5
9
330
0
100
AcDbSymbolTable
 70
     1
  0
APPID
  5
12
330
9
100
AcDbSymbolTableRecord
100
AcDbRegAppTableRecord
  2
ACAD
 70
     0
  0
ENDTAB
  0
TABLE
  2
DIMSTYLE
  5
A
330
0
100
AcDbSymbolTable
 70
     1
100
AcDbDimStyleTable
  0
DIMSTYLE
105
20
330
A
100
AcDbSymbolTableRecord
100
AcDbDimStyleTableRecord
  2
Standard
 70
     0
340
11
  0
ENDTAB
  0
TABLE
  2
BLOCK_RECORD
  5
1
330
0
100
AcDbSymbolTable
 70
     0
  0
BLOCK_RECORD
  5
1D
330
1
100
AcDbSymbolTableRecord
100
AcDbBlockTableRecord
  2
*Model_Space
340
1E
  0
BLOCK_RECORD
  5
1B
330
1
100
AcDbSymbolTableRecord
100
AcDbBlockTableRecord
  2
*Paper_Space
340
1C
  0
ENDTAB
  0
ENDSEC
  0
SECTION
  2
BLOCKS
  0
BLOCK
  5
63F
330
1D
100
AcDbEntity
  8
0
100
AcDbBlockBegin
  2
*Model_Space
 70
     0
 10
0.0
 20
0.0
 30
0.0
  3
*Model_Space
  1
*Model_Space
  0
ENDBLK
  5
640
330
1D
100
AcDbEntity
  8
0
100
AcDbBlockEnd
  0
BLOCK
  5
63D
330
1B
100
AcDbEntity
 67
     1
  8
0
100
AcDbBlockBegin
  2
*Paper_Space
 70
     0
 10
0.0
 20
0.0
 30
0.0
  3
*Paper_Space
  1
*Paper_Space
  0
ENDBLK
  5
63E
330
1B
100
AcDbEntity
 67
     1
  8
0
100
AcDbBlockEnd
  0
ENDSEC
  0
SECTION
  2
ENTITIES
  0
LINE
  5
24
330
1D
100
AcDbEntity
  8
0
100
AcDbLine
 10
37.2753
 20
0.549536
 30
0.0
 11
37.5523
 21
0.211254
 31
0.0
  0
LINE
  5
2B
330
1D
100
AcDbEntity
  8
0
100
AcDbLine
 10
37.1684
 20
0.999865
 30
0.0
 11
37.2753
 21
0.549536
 31
0.0
  0
LINE
  5
2D
330
1D
100
AcDbEntity
  8
0
100
AcDbLine
 10
37.2753
 20
0.549536
 30
0.0
 11
37.5523
 21
0.211254
 31
0.0
  0
LINE
  5
32
330
1D
100
AcDbEntity
  8
0
100
AcDbLine
 10
37.5523
 20
0.211254
 30
0.0
 11
37.9466
 21
0.024228
 31
0.0
  0
LINE
  5
33
330
1D
100
AcDbEntity
  8
0
100
AcDbLine
 10
37.5523
 20
0.211254
 30
0.0
 11
37.9466
 21
0.024228
 31
0.0
  0
LINE
  5
34
330
1D
100
AcDbEntity
  8
0
100
AcDbLine
 10
0.08728
 20
60.6817
 30
0.0
 11
0.15704
 21
60.4758
 31
0.0
  0
LINE
  5
35
330
1D
100
AcDbEntity
  8
0
100
AcDbLine
 10
0.08728
 20
60.6817
 30
0.0
 11
0.08728
 21
60.7689
 31
0.0
  0
LINE
  5
39
330
1D
100
AcDbEntity
  8
0
100
AcDbLine
 10
0.08728
 20
60.7689
 30
0.0
 11
0.08728
 21
60.6818
 31
0.0
  0
LINE
  5
59
330
1D
100
AcDbEntity
  8
0
100
AcDbLine
 10
0.15704
 20
60.4758
 30
0.0
 11
0.33893
 21
60.2579
 31
0.0
  0
LINE
  5
5A
330
1D
100
AcDbEntity
  8
0
100
AcDbLine
 10
0.33893
 20
60.2579
 30
0.0
 11
0.58524
 21
60.1926
 31
0.0
  0
LINE
  5
6A
330
1D
100
AcDbEntity
  8
0
100
AcDbLine
 10
0.08728
 20
79.4016
 30
0.0
 11
0.15704
 21
79.6076
 31
0.0
  0
LINE
  5
6E
330
1D
100
AcDbEntity
  8
0
100
AcDbLine
 10
0.15704
 20
79.6076
 30
0.0
 11
0.33893
 21
79.8255
 31
0.0
  0
LINE
  5
6F
330
1D
100
AcDbEntity
  8
0
100
AcDbLine
 10
0.33893
 20
79.8255
 30
0.0
 11
0.58524
 21
79.8908
 31
0.0
  0
LINE
  5
73
330
1D
100
AcDbEntity
  8
0
100
AcDbLine
 10
0.7969
 20
60.0835
 30
0.0
 11
727.0
 21
60.0835
 31
0.0
  0
LINE
  5
74
330
1D
100
AcDbEntity
  8
0
100
AcDbLine
 10
0.7969
 20
60.0834
 30
0.0
 11
0.7969
 21
60.365
 31
0.0
  0
LINE
  5
75
330
1D
100
AcDbEntity
  8
0
100
AcDbLine
 10
0.7969
 20
60.286
 30
0.0
 11
0.7969
 21
60.1925
 31
0.0
  0
LINE
  5
76
330
1D
100
AcDbEntity
  8
0
100
AcDbLine
 10
0.7969
 20
61.3446
 30
0.0
 11
0.7969
 21
61.9405
 31
0.0
  0
LINE
  5
77
330
1D
100
AcDbEntity
  8
0
100
AcDbLine
 10
0.7969
 20
61.3446
 30
0.0
 11
0.7969
 21
60.8661
 31
0.0
  0
LINE
  5
78
330
1D
100
AcDbEntity
  8
0
100
AcDbLine
 10
0.7969
 20
60.8661
 30
0.0
 11
0.7969
 21
61.3446
 31
0.0
  0
LINE
  5
79
330
1D
100
AcDbEntity
  8
0
100
AcDbLine
 10
0.7969
 20
60.8661
 30
0.0
 11
0.7969
 21
60.5117
 31
0.0
  0
LINE
  5
7A
330
1D
100
AcDbEntity
  8
0
100
AcDbLine
 10
0.7969
 20
60.5117
 30
0.0
 11
0.7969
 21
60.8661
 31
0.0
  0
LINE
  5
7B
330
1D
100
AcDbEntity
  8
0
100
AcDbLine
 10
0.7969
 20
60.5117
 30
0.0
 11
0.7969
 21
60.286
 31
0.0
  0
LINE
  5
7C
330
1D
100
AcDbEntity
  8
0
100
AcDbLine
 10
0.7969
 20
60.2862
 30
0.0
 11
0.7969
 21
60.5117
 31
0.0
  0
LINE
  5
7D
330
1D
100
AcDbEntity
  8
0
100
AcDbLine
 10
0.58524
 20
60.1926
 30
0.0
 11
0.7969
 21
60.1925
 31
0.0
  0
LINE
  5
7E
330
1D
100
AcDbEntity
  8
0
100
AcDbLine
 10
0.7969
 20
61.9407
 30
0.0
 11
0.7969
 21
61.3446
 31
0.0
  0
LINE
  5
7F
330
1D
100
AcDbEntity
  8
0
100
AcDbLine
 10
0.7969
 20
62.6461
 30
0.0
 11
0.7969
 21
61.9407
 31
0.0
  0
LINE
  5
80
330
1D
100
AcDbEntity
  8
0
100
AcDbLine
 10
0.7969
 20
64.3465
 30
0.0
 11
0.7969
 21
63.452
 31
0.0
  0
LINE
  5
81
330
1D
100
AcDbEntity
  8
0
100
AcDbLine
 10
0.7969
 20
63.452
 30
0.0
 11
0.7969
 21
62.6461
 31
0.0
  0
LINE
  5
82
330
1D
100
AcDbEntity
  8
0
100
AcDbLine
 10
0.7969
 20
63.4519
 30
0.0
 11
0.7969
 21
64.3467
 31
0.0
  0
LINE
  5
83
330
1D
100
AcDbEntity
  8
0
100
AcDbLine
 10
0.7969
 20
62.6463
 30
0.0
 11
0.7969
 21
63.4519
 31
0.0
  0
LINE
  5
84
330
1D
100
AcDbEntity
  8
0
100
AcDbLine
 10
0.7969
 20
61.9405
 30
0.0
 11
0.7969
 21
62.6463
 31
0.0
  0
LINE
  5
85
330
1D
100
AcDbEntity
  8
0
100
AcDbLine
 10
0.7969
 20
64.2546
 30
0.0
 11
0.7969
 21
67.3937
 31
0.0
  0
LINE
  5
86
330
1D
100
AcDbEntity
  8
0
100
AcDbLine
 10
0.7969
 20
64.2546
 30
0.0
 11
0.7969
 21
61.8134
 31
0.0
  0
LINE
  5
87
330
1D
100
AcDbEntity
  8
0
100
AcDbLine
 10
0.7969
 20
61.8134
 30
0.0
 11
0.7969
 21
64.2546
 31
0.0
  0
LINE
  5
88
330
1D
100
AcDbEntity
  8
0
100
AcDbLine
 10
0.7969
 20
61.8134
 30
0.0
 11
0.7969
 21
60.365
 31
0.0
  0
LINE
  5
89
330
1D
100
AcDbEntity
  8
0
100
AcDbLine
 10
0.7969
 20
60.365
 30
0.0
 11
0.7969
 21
61.8134
 31
0.0
  0
LINE
  5
8A
330
1D
100
AcDbEntity
  8
0
100
AcDbLine
 10
0.7969
 20
60.365
 30
0.0
 11
0.7969
 21
60.0835
 31
0.0
  0
LINE
  5
8B
330
1D
100
AcDbEntity
  8
0
100
AcDbLine
 10
0.7969
 20
60.1925
 30
0.0
 11
0.7969
 21
60.0834
 31
0.0
  0
LINE
  5
8C
330
1D
100
AcDbEntity
  8
0
100
AcDbLine
 10
0.7969
 20
60.1925
 30
0.0
 11
0.7969
 21
60.2862
 31
0.0
  0
LINE
  5
8D
330
1D
100
AcDbEntity
  8
0
100
AcDbLine
 10
0.7969
 20
60.0835
 30
0.0
 11
0.7969
 21
60.1925
 31
0.0
  0
LINE
  5
8E
330
1D
100
AcDbEntity
  8
0
100
AcDbLine
 10
0.7969
 20
60.0835
 30
0.0
 11
727.0
 21
60.0835
 31
0.0
  0
LINE
  5
8F
330
1D
100
AcDbEntity
  8
0
100
AcDbLine
 10
0.7969
 20
64.3467
 30
0.0
 11
0.7969
 21
65.3184
 31
0.0
  0
LINE
  5
98
330
1D
100
AcDbEntity
  8
0
100
AcDbLine
 10
37.1684
 20
55.9843
 30
0.0
 11
37.1925
 21
56.2027
 31
0.0
  0
LINE
  5
9A
330
1D
100
AcDbEntity
  8
0
100
AcDbLine
 10
37.7157
 20
56.8768
 30
0.0
 11
38.1642
 21
56.9841
 31
0.0
  0
LINE
  5
9B
330
1D
100
AcDbEntity
  8
0
100
AcDbLine
 10
37.3788
 20
56.5987
 30
0.0
 11
37.7157
 21
56.8768
 31
0.0
  0
LINE
  5
9C
330
1D
100
AcDbEntity
  8
0
100
AcDbLine
 10
37.1925
 20
56.2027
 30
0.0
 11
37.3788
 21
56.5987
 31
0.0
  0
LINE
  5
9D
330
1D
100
AcDbEntity
  8
0
100
AcDbLine
 10
0.7969
 20
65.3184
 30
0.0
 11
0.7969
 21
66.3542
 31
0.0
  0
LINE
  5
9E
330
1D
100
AcDbEntity
  8
0
100
AcDbLine
 10
0.7969
 20
65.3186
 30
0.0
 11
0.7969
 21
64.3465
 31
0.0
  0
LINE
  5
9F
330
1D
100
AcDbEntity
  8
0
100
AcDbLine
 10
0.7969
 20
66.3541
 30
0.0
 11
0.7969
 21
65.3186
 31
0.0
  0
LINE
  5
A0
330
1D
100
AcDbEntity
  8
0
100
AcDbLine
 10
0.7969
 20
66.3542
 30
0.0
 11
0.7969
 21
67.4395
 31
0.0
  0
LINE
  5
A1
330
1D
100
AcDbEntity
  8
0
100
AcDbLine
 10
0.7969
 20
67.4397
 30
0.0
 11
0.7969
 21
66.3541
 31
0.0
  0
LINE
  5
A2
330
1D
100
AcDbEntity
  8
0
100
AcDbLine
 10
0.7969
 20
69.701
 30
0.0
 11
0.7969
 21
68.5602
 31
0.0
  0
LINE
  5
A3
330
1D
100
AcDbEntity
  8
0
100
AcDbLine
 10
0.7969
 20
71.9809
 30
0.0
 11
0.7969
 21
70.8465
 31
0.0
  0
LINE
  5
A4
330
1D
100
AcDbEntity
  8
0
100
AcDbLine
 10
0.7969
 20
73.0891
 30
0.0
 11
0.7969
 21
71.9809
 31
0.0
  0
LINE
  5
A5
330
1D
100
AcDbEntity
  8
0
100
AcDbLine
 10
0.7969
 20
74.1561
 30
0.0
 11
0.7969
 21
75.1677
 31
0.0
  0
LINE
  5
A6
330
1D
100
AcDbEntity
  8
0
100
AcDbLine
 10
0.7969
 20
74.1561
 30
0.0
 11
0.7969
 21
73.0891
 31
0.0
  0
LINE
  5
A7
330
1D
100
AcDbEntity
  8
0
100
AcDbLine
 10
0.7969
 20
73.089
 30
0.0
 11
0.7969
 21
74.1561
 31
0.0
  0
LINE
  5
A8
330
1D
100
AcDbEntity
  8
0
100
AcDbLine
 10
0.7969
 20
71.9808
 30
0.0
 11
0.7969
 21
73.089
 31
0.0
  0
LINE
  5
A9
330
1D
100
AcDbEntity
  8
0
100
AcDbLine
 10
0.7969
 20
70.8465
 30
0.0
 11
0.7969
 21
71.9808
 31
0.0
  0
LINE
  5
AA
330
1D
100
AcDbEntity
  8
0
100
AcDbLine
 10
0.7969
 20
70.8465
 30
0.0
 11
0.7969
 21
69.701
 31
0.0
  0
LINE
  5
AB
330
1D
100
AcDbEntity
  8
0
100
AcDbLine
 10
0.7969
 20
69.7011
 30
0.0
 11
0.7969
 21
70.8465
 31
0.0
  0
LINE
  5
AC
330
1D
100
AcDbEntity
  8
0
100
AcDbLine
 10
0.7969
 20
68.5602
 30
0.0
 11
0.7969
 21
69.7011
 31
0.0
  0
LINE
  5
AD
330
1D
100
AcDbEntity
  8
0
100
AcDbLine
 10
0.7969
 20
68.5602
 30
0.0
 11
0.7969
 21
67.4397
 31
0.0
  0
LINE
  5
AE
330
1D
100
AcDbEntity
  8
0
100
AcDbLine
 10
0.7969
 20
67.4395
 30
0.0
 11
0.7969
 21
68.5602
 31
0.0
  0
LINE
  5
AF
330
1D
100
AcDbEntity
  8
0
100
AcDbLine
 10
0.7969
 20
75.1676
 30
0.0
 11
0.7969
 21
74.1561
 31
0.0
  0
LINE
  5
B0
330
1D
100
AcDbEntity
  8
0
100
AcDbLine
 10
0.7969
 20
76.9695
 30
0.0
 11
0.7969
 21
76.1096
 31
0.0
  0
LINE
  5
B1
330
1D
100
AcDbEntity
  8
0
100
AcDbLine
 10
0.7969
 20
78.3982
 30
0.0
 11
0.7969
 21
77.7359
 31
0.0
  0
LINE
  5
B2
330
1D
100
AcDbEntity
  8
0
100
AcDbLine
 10
0.7969
 20
79.8908
 30
0.0
 11
0.7969
 21
80.0
 31
0.0
  0
LINE
  5
B3
330
1D
100
AcDbEntity
  8
0
100
AcDbLine
 10
0.58524
 20
79.8908
 30
0.0
 11
0.7969
 21
79.8908
 31
0.0
  0
LINE
  5
B4
330
1D
100
AcDbEntity
  8
0
100
AcDbLine
 10
0.7969
 20
79.8512
 30
0.0
 11
0.7969
 21
79.6789
 31
0.0
  0
LINE
  5
B5
330
1D
100
AcDbEntity
  8
0
100
AcDbLine
 10
0.7969
 20
79.6789
 30
0.0
 11
0.7969
 21
79.8512
 31
0.0
  0
LINE
  5
B6
330
1D
100
AcDbEntity
  8
0
100
AcDbLine
 10
0.7969
 20
79.6789
 30
0.0
 11
0.7969
 21
79.3763
 31
0.0
  0
LINE
  5
B7
330
1D
100
AcDbEntity
  8
0
100
AcDbLine
 10
0.7969
 20
79.3763
 30
0.0
 11
0.7969
 21
79.6789
 31
0.0
  0
LINE
  5
B8
330
1D
100
AcDbEntity
  8
0
100
AcDbLine
 10
0.7969
 20
79.3763
 30
0.0
 11
0.7969
 21
78.9476
 31
0.0
  0
LINE
  5
B9
330
1D
100
AcDbEntity
  8
0
100
AcDbLine
 10
0.7969
 20
78.9476
 30
0.0
 11
0.7969
 21
79.3763
 31
0.0
  0
LINE
  5
BA
330
1D
100
AcDbEntity
  8
0
100
AcDbLine
 10
0.7969
 20
78.9476
 30
0.0
 11
0.7969
 21
78.3982
 31
0.0
  0
LINE
  5
BB
330
1D
100
AcDbEntity
  8
0
100
AcDbLine
 10
0.7969
 20
78.3983
 30
0.0
 11
0.7969
 21
78.9476
 31
0.0
  0
LINE
  5
BC
330
1D
100
AcDbEntity
  8
0
100
AcDbLine
 10
0.7969
 20
77.7359
 30
0.0
 11
0.7969
 21
78.3983
 31
0.0
  0
LINE
  5
BD
330
1D
100
AcDbEntity
  8
0
100
AcDbLine
 10
0.7969
 20
77.7359
 30
0.0
 11
0.7969
 21
76.9695
 31
0.0
  0
LINE
  5
BE
330
1D
100
AcDbEntity
  8
0
100
AcDbLine
 10
0.7969
 20
76.9697
 30
0.0
 11
0.7969
 21
77.7359
 31
0.0
  0
LINE
  5
BF
330
1D
100
AcDbEntity
  8
0
100
AcDbLine
 10
0.7969
 20
76.1096
 30
0.0
 11
0.7969
 21
76.9697
 31
0.0
  0
LINE
  5
C0
330
1D
100
AcDbEntity
  8
0
100
AcDbLine
 10
0.7969
 20
76.1096
 30
0.0
 11
0.7969
 21
75.1676
 31
0.0
  0
LINE
  5
C1
330
1D
100
AcDbEntity
  8
0
100
AcDbLine
 10
0.7969
 20
75.1677
 30
0.0
 11
0.7969
 21
76.1096
 31
0.0
  0
LINE
  5
C2
330
1D
100
AcDbEntity
  8
0
100
AcDbLine
 10
0.7969
 20
80.0
 30
0.0
 11
0.7969
 21
79.8908
 31
0.0
  0
LINE
  5
C3
330
1D
100
AcDbEntity
  8
0
100
AcDbLine
 10
0.7969
 20
80.0
 30
0.0
 11
65.5461
 21
80.0
 31
0.0
  0
LINE
  5
C4
330
1D
100
AcDbEntity
  8
0
100
AcDbLine
 10
0.7969
 20
80.0
 30
0.0
 11
0.7969
 21
79.0802
 31
0.0
  0
LINE
  5
C5
330
1D
100
AcDbEntity
  8
0
100
AcDbLine
 10
0.7969
 20
77.0706
 30
0.0
 11
0.7969
 21
79.0802
 31
0.0
  0
LINE
  5
C6
330
1D
100
AcDbEntity
  8
0
100
AcDbLine
 10
0.7969
 20
77.0706
 30
0.0
 11
0.7969
 21
74.2129
 31
0.0
  0
LINE
  5
C7
330
1D
100
AcDbEntity
  8
0
100
AcDbLine
 10
0.7969
 20
74.2129
 30
0.0
 11
0.7969
 21
77.0706
 31
0.0
  0
LINE
  5
C8
330
1D
100
AcDbEntity
  8
0
100
AcDbLine
 10
0.7969
 20
74.2129
 30
0.0
 11
0.7969
 21
70.8521
 31
0.0
  0
LINE
  5
C9
330
1D
100
AcDbEntity
  8
0
100
AcDbLine
 10
0.7969
 20
70.8521
 30
0.0
 11
0.7969
 21
74.2129
 31
0.0
  0
LINE
  5
CA
330
1D
100
AcDbEntity
  8
0
100
AcDbLine
 10
0.7969
 20
70.8521
 30
0.0
 11
0.7969
 21
67.3937
 31
0.0
  0
LINE
  5
CB
330
1D
100
AcDbEntity
  8
0
100
AcDbLine
 10
0.7969
 20
67.3937
 30
0.0
 11
0.7969
 21
70.8521
 31
0.0
  0
LINE
  5
CC
330
1D
100
AcDbEntity
  8
0
100
AcDbLine
 10
0.7969
 20
67.3937
 30
0.0
 11
0.7969
 21
64.2546
 31
0.0
  0
LINE
  5
CD
330
1D
100
AcDbEntity
  8
0
100
AcDbLine
 10
0.7969
 20
80.0
 30
0.0
 11
65.5461
 21
80.0
 31
0.0
  0
LINE
  5
CE
330
1D
100
AcDbEntity
  8
0
100
AcDbLine
 10
0.7969
 20
79.0802
 30
0.0
 11
0.7969
 21
77.0706
 31
0.0
  0
LINE
  5
CF
330
1D
100
AcDbEntity
  8
0
100
AcDbLine
 10
0.7969
 20
79.0802
 30
0.0
 11
0.7969
 21
80.0
 31
0.0
  0
LINE
  5
D8
330
1D
100
AcDbEntity
  8
0
100
AcDbLine
 10
92.9243
 20
0.000013
 30
0.0
 11
93.3728
 21
0.107303
 31
0.0
  0
LINE
  5
127
330
1D
100
AcDbEntity
  8
0
100
AcDbLine
 10
93.3728
 20
0.107303
 30
0.0
 11
93.7097
 21
0.385435
 31
0.0
  0
LINE
  5
128
330
1D
100
AcDbEntity
  8
0
100
AcDbLine
 10
93.7097
 20
0.385435
 30
0.0
 11
93.8959
 21
0.781422
 31
0.0
  0
LINE
  5
12A
330
1D
100
AcDbEntity
  8
0
100
AcDbLine
 10
92.9243
 20
0.000013
 30
0.0
 11
93.3728
 21
0.107303
 31
0.0
  0
LINE
  5
1BE
330
1D
100
AcDbEntity
  8
0
100
AcDbLine
 10
45.6776
 20
26.9965
 30
0.0
 11
45.8445
 21
25.5097
 31
0.0
  0
LINE
  5
1BF
330
1D
100
AcDbEntity
  8
0
100
AcDbLine
 10
45.6776
 20
26.997
 30
0.0
 11
45.8445
 21
25.5095
 31
0.0
  0
LINE
  5
1C0
330
1D
100
AcDbEntity
  8
0
100
AcDbLine
 10
45.677
 20
29.9796
 30
0.0
 11
45.8424
 21
31.4588
 31
0.0
  0
LINE
  5
1C1
330
1D
100
AcDbEntity
  8
0
100
AcDbLine
 10
45.622
 20
28.4922
 30
0.0
 11
45.6776
 21
26.9965
 31
0.0
  0
LINE
  5
1C2
330
1D
100
AcDbEntity
  8
0
100
AcDbLine
 10
45.622
 20
28.4922
 30
0.0
 11
45.677
 21
29.9796
 31
0.0
  0
LINE
  5
1C3
330
1D
100
AcDbEntity
  8
0
100
AcDbLine
 10
45.6772
 20
29.9792
 30
0.0
 11
45.8421
 21
31.4587
 31
0.0
  0
LINE
  5
1C4
330
1D
100
AcDbEntity
  8
0
100
AcDbLine
 10
45.6219
 20
28.4917
 30
0.0
 11
45.6776
 21
26.997
 31
0.0
  0
LINE
  5
1C5
330
1D
100
AcDbEntity
  8
0
100
AcDbLine
 10
45.6219
 20
28.4917
 30
0.0
 11
45.6772
 21
29.9792
 31
0.0
  0
LINE
  5
1C8
330
1D
100
AcDbEntity
  8
0
100
AcDbLine
 10
45.8424
 20
31.4588
 30
0.0
 11
46.1166
 21
32.9218
 31
0.0
  0
LINE
  5
1C9
330
1D
100
AcDbEntity
  8
0
100
AcDbLine
 10
45.8445
 20
25.5097
 30
0.0
 11
46.1217
 21
24.0393
 31
0.0
  0
LINE
  5
1CA
330
1D
100
AcDbEntity
  8
0
100
AcDbLine
 10
45.8445
 20
25.5095
 30
0.0
 11
46.1216
 21
24.0396
 31
0.0
  0
LINE
  5
1CB
330
1D
100
AcDbEntity
  8
0
100
AcDbLine
 10
45.8421
 20
31.4587
 30
0.0
 11
46.1165
 21
32.9214
 31
0.0
  0
LINE
  5
1D5
330
1D
100
AcDbEntity
  8
0
100
AcDbLine
 10
46.5075
 20
22.594
 30
0.0
 11
47.0
 21
21.182
 31
0.0
  0
LINE
  5
1D6
330
1D
100
AcDbEntity
  8
0
100
AcDbLine
 10
47.0
 20
21.182
 30
0.0
 11
47.5961
 21
19.8103
 31
0.0
  0
LINE
  5
1D7
330
1D
100
AcDbEntity
  8
0
100
AcDbLine
 10
46.9998
 20
21.1822
 30
0.0
 11
47.5959
 21
19.8106
 31
0.0
  0
LINE
  5
1D9
330
1D
100
AcDbEntity
  8
0
100
AcDbLine
 10
51.4571
 20
14.3474
 30
0.0
 11
52.4086
 21
13.4524
 31
0.0
  0
LINE
  5
1DA
330
1D
100
AcDbEntity
  8
0
100
AcDbLine
 10
51.4569
 20
14.3469
 30
0.0
 11
52.4087
 21
13.452
 31
0.0
  0
LINE
  5
1DB
330
1D
100
AcDbEntity
  8
0
100
AcDbLine
 10
48.2926
 20
18.4877
 30
0.0
 11
49.0857
 21
17.221
 31
0.0
  0
LINE
  5
1DC
330
1D
100
AcDbEntity
  8
0
100
AcDbLine
 10
47.5961
 20
19.8103
 30
0.0
 11
48.2926
 21
18.4877
 31
0.0
  0
LINE
  5
1DD
330
1D
100
AcDbEntity
  8
0
100
AcDbLine
 10
48.2925
 20
18.4879
 30
0.0
 11
49.0857
 21
17.221
 31
0.0
  0
LINE
  5
1DE
330
1D
100
AcDbEntity
  8
0
100
AcDbLine
 10
50.2044
 20
15.7285
 30
0.0
 11
51.4571
 21
14.3474
 31
0.0
  0
LINE
  5
1DF
330
1D
100
AcDbEntity
  8
0
100
AcDbLine
 10
49.0857
 20
17.221
 30
0.0
 11
50.2044
 21
15.728
 31
0.0
  0
LINE
  5
1E0
330
1D
100
AcDbEntity
  8
0
100
AcDbLine
 10
49.0857
 20
17.221
 30
0.0
 11
50.2044
 21
15.7285
 31
0.0
  0
LINE
  5
1E1
330
1D
100
AcDbEntity
  8
0
100
AcDbLine
 10
50.2044
 20
15.728
 30
0.0
 11
51.4569
 21
14.3469
 31
0.0
  0
LINE
  5
1E2
330
1D
100
AcDbEntity
  8
0
100
AcDbLine
 10
47.5959
 20
19.8106
 30
0.0
 11
48.2925
 21
18.4879
 31
0.0
  0
LINE
  5
1E3
330
1D
100
AcDbEntity
  8
0
100
AcDbLine
 10
46.1166
 20
32.9218
 30
0.0
 11
46.4984
 21
34.3595
 31
0.0
  0
LINE
  5
1E4
330
1D
100
AcDbEntity
  8
0
100
AcDbLine
 10
46.1165
 20
32.9214
 30
0.0
 11
46.4984
 21
34.3601
 31
0.0
  0
LINE
  5
1E5
330
1D
100
AcDbEntity
  8
0
100
AcDbLine
 10
46.4984
 20
34.3595
 30
0.0
 11
46.9857
 21
35.7652
 31
0.0
  0
LINE
  5
1E6
330
1D
100
AcDbEntity
  8
0
100
AcDbLine
 10
46.1217
 20
24.0393
 30
0.0
 11
46.5075
 21
22.594
 31
0.0
  0
LINE
  5
1E7
330
1D
100
AcDbEntity
  8
0
100
AcDbLine
 10
46.9857
 20
35.7652
 30
0.0
 11
47.5755
 21
37.1312
 31
0.0
  0
LINE
  5
1E8
330
1D
100
AcDbEntity
  8
0
100
AcDbLine
 10
46.4984
 20
34.3601
 30
0.0
 11
46.9854
 21
35.7652
 31
0.0
  0
LINE
  5
1E9
330
1D
100
AcDbEntity
  8
0
100
AcDbLine
 10
46.9854
 20
35.7652
 30
0.0
 11
47.5755
 21
37.1312
 31
0.0
  0
LINE
  5
1EA
330
1D
100
AcDbEntity
  8
0
100
AcDbLine
 10
46.1216
 20
24.0396
 30
0.0
 11
46.5075
 21
22.5945
 31
0.0
  0
LINE
  5
1ED
330
1D
100
AcDbEntity
  8
0
100
AcDbLine
 10
48.6598
 20
39.1092
 30
0.0
 11
49.9591
 21
40.9526
 31
0.0
  0
LINE
  5
1EE
330
1D
100
AcDbEntity
  8
0
100
AcDbLine
 10
49.9591
 20
40.9526
 30
0.0
 11
51.4571
 21
42.6369
 31
0.0
  0
LINE
  5
1F3
330
1D
100
AcDbEntity
  8
0
100
AcDbLine
 10
51.4569
 20
42.6372
 30
0.0
 11
53.4162
 21
44.3623
 31
0.0
  0
LINE
  5
1F6
330
1D
100
AcDbEntity
  8
0
100
AcDbLine
 10
49.9591
 20
40.9522
 30
0.0
 11
51.4569
 21
42.6372
 31
0.0
  0
LINE
  5
1F7
330
1D
100
AcDbEntity
  8
0
100
AcDbLine
 10
48.6596
 20
39.1096
 30
0.0
 11
49.9591
 21
40.9522
 31
0.0
  0
LINE
  5
1F8
330
1D
100
AcDbEntity
  8
0
100
AcDbLine
 10
47.5755
 20
37.1312
 30
0.0
 11
48.6596
 21
39.1096
 31
0.0
  0
LINE
  5
1F9
330
1D
100
AcDbEntity
  8
0
100
AcDbLine
 10
47.5755
 20
37.1312
 30
0.0
 11
48.6598
 21
39.1092
 31
0.0
  0
LINE
  5
1FA
330
1D
100
AcDbEntity
  8
0
100
AcDbLine
 10
46.5075
 20
22.5945
 30
0.0
 11
46.9998
 21
21.1822
 31
0.0
  0
LINE
  5
1FB
330
1D
100
AcDbEntity
  8
0
100
AcDbLine
 10
52.4086
 20
13.4524
 30
0.0
 11
53.4164
 21
12.6222
 31
0.0
  0
LINE
  5
1FC
330
1D
100
AcDbEntity
  8
0
100
AcDbLine
 10
52.4087
 20
13.452
 30
0.0
 11
53.4162
 21
12.6219
 31
0.0
  0
LINE
  5
1FD
330
1D
100
AcDbEntity
  8
0
100
AcDbLine
 10
53.4164
 20
12.6222
 30
0.0
 11
54.4761
 21
11.8593
 31
0.0
  0
LINE
  5
1FE
330
1D
100
AcDbEntity
  8
0
100
AcDbLine
 10
53.4162
 20
12.6219
 30
0.0
 11
54.4759
 21
11.8597
 31
0.0
  0
LINE
  5
1FF
330
1D
100
AcDbEntity
  8
0
100
AcDbLine
 10
53.4162
 20
44.3623
 30
0.0
 11
55.583
 21
45.8162
 31
0.0
  0
LINE
  5
200
330
1D
100
AcDbEntity
  8
0
100
AcDbLine
 10
53.4164
 20
44.3621
 30
0.0
 11
55.583
 21
45.8162
 31
0.0
  0
LINE
  5
201
330
1D
100
AcDbEntity
  8
0
100
AcDbLine
 10
51.4571
 20
42.6369
 30
0.0
 11
53.4164
 21
44.3621
 31
0.0
  0
LINE
  5
207
330
1D
100
AcDbEntity
  8
0
100
AcDbLine
 10
54.4761
 20
11.8593
 30
0.0
 11
55.583
 21
11.1681
 31
0.0
  0
LINE
  5
208
330
1D
100
AcDbEntity
  8
0
100
AcDbLine
 10
54.4759
 20
11.8597
 30
0.0
 11
55.583
 21
11.168
 31
0.0
  0
LINE
  5
209
330
1D
100
AcDbEntity
  8
0
100
AcDbLine
 10
55.583
 20
11.1681
 30
0.0
 11
56.733
 21
10.5511
 31
0.0
  0
LINE
  5
20B
330
1D
100
AcDbEntity
  8
0
100
AcDbLine
 10
59.1403
 20
9.54986
 30
0.0
 11
60.3879
 21
9.16998
 31
0.0
  0
LINE
  5
20C
330
1D
100
AcDbEntity
  8
0
100
AcDbLine
 10
60.3878
 20
9.16947
 30
0.0
 11
62.9437
 21
8.65924
 31
0.0
  0
LINE
  5
20D
330
1D
100
AcDbEntity
  8
0
100
AcDbLine
 10
59.1405
 20
9.55014
 30
0.0
 11
60.3878
 21
9.16947
 31
0.0
  0
LINE
  5
20E
330
1D
100
AcDbEntity
  8
0
100
AcDbLine
 10
57.9204
 20
10.0109
 30
0.0
 11
59.1403
 21
9.54986
 31
0.0
  0
LINE
  5
215
330
1D
100
AcDbEntity
  8
0
100
AcDbLine
 10
56.733
 20
10.5511
 30
0.0
 11
57.9204
 21
10.0109
 31
0.0
  0
LINE
  5
216
330
1D
100
AcDbEntity
  8
0
100
AcDbLine
 10
56.7328
 20
10.5514
 30
0.0
 11
57.9203
 21
10.0108
 31
0.0
  0
LINE
  5
217
330
1D
100
AcDbEntity
  8
0
100
AcDbLine
 10
57.9203
 20
10.0108
 30
0.0
 11
59.1405
 21
9.55014
 31
0.0
  0
LINE
  5
218
330
1D
100
AcDbEntity
  8
0
100
AcDbLine
 10
55.583
 20
11.168
 30
0.0
 11
56.7328
 21
10.5514
 31
0.0
  0
LINE
  5
21E
330
1D
100
AcDbEntity
  8
0
100
AcDbLine
 10
60.0155
 20
43.8527
 30
0.0
 11
60.5873
 21
42.7313
 31
0.0
  0
LINE
  5
21F
330
1D
100
AcDbEntity
  8
0
100
AcDbLine
 10
60.0155
 20
43.8525
 30
0.0
 11
60.5874
 21
42.7313
 31
0.0
  0
LINE
  5
220
330
1D
100
AcDbEntity
  8
0
100
AcDbLine
 10
59.8206
 20
45.0558
 30
0.0
 11
60.0155
 21
43.8527
 31
0.0
  0
LINE
  5
222
330
1D
100
AcDbEntity
  8
0
100
AcDbLine
 10
62.6824
 20
41.0294
 30
0.0
 11
64.0628
 21
40.5648
 31
0.0
  0
LINE
  5
223
330
1D
100
AcDbEntity
  8
0
100
AcDbLine
 10
62.6824
 20
41.0294
 30
0.0
 11
64.0629
 21
40.5646
 31
0.0
  0
LINE
  5
224
330
1D
100
AcDbEntity
  8
0
100
AcDbLine
 10
61.497
 20
41.7684
 30
0.0
 11
62.6824
 21
41.0294
 31
0.0
  0
LINE
  5
225
330
1D
100
AcDbEntity
  8
0
100
AcDbLine
 10
62.9439
 20
8.65928
 30
0.0
 11
65.5442
 21
8.48821
 31
0.0
  0
LINE
  5
226
330
1D
100
AcDbEntity
  8
0
100
AcDbLine
 10
62.9437
 20
8.65924
 30
0.0
 11
65.5442
 21
8.4881
 31
0.0
  0
LINE
  5
227
330
1D
100
AcDbEntity
  8
0
100
AcDbLine
 10
60.5873
 20
42.7313
 30
0.0
 11
61.4969
 21
41.7684
 31
0.0
  0
LINE
  5
228
330
1D
100
AcDbEntity
  8
0
100
AcDbLine
 10
60.5874
 20
42.7313
 30
0.0
 11
61.497
 21
41.7684
 31
0.0
  0
LINE
  5
229
330
1D
100
AcDbEntity
  8
0
100
AcDbLine
 10
61.4969
 20
41.7684
 30
0.0
 11
62.6824
 21
41.0294
 31
0.0
  0
LINE
  5
22A
330
1D
100
AcDbEntity
  8
0
100
AcDbLine
 10
60.3879
 20
9.16998
 30
0.0
 11
62.9439
 21
8.65928
 31
0.0
  0
LINE
  5
22D
330
1D
100
AcDbEntity
  8
0
100
AcDbLine
 10
57.9203
 20
46.9734
 30
0.0
 11
59.975408327204
 21
47.674094077275
 31
0.0
  0
LINE
  5
234
330
1D
100
AcDbEntity
  8
0
100
AcDbLine
 10
57.9204
 20
46.9734
 30
0.0
 11
59.975386150959
 21
47.67371929254
 31
0.0
  0
LINE
  5
235
330
1D
100
AcDbEntity
  8
0
100
AcDbLine
 10
55.583
 20
45.8162
 30
0.0
 11
57.9204
 21
46.9734
 31
0.0
  0
LINE
  5
236
330
1D
100
AcDbEntity
  8
0
100
AcDbLine
 10
55.583
 20
45.8162
 30
0.0
 11
57.9203
 21
46.9734
 31
0.0
  0
LINE
  5
237
330
1D
100
AcDbEntity
  8
0
100
AcDbLine
 10
59.8205
 20
45.0561
 30
0.0
 11
60.0155
 21
43.8525
 31
0.0
  0
LINE
  5
238
330
1D
100
AcDbEntity
  8
0
100
AcDbLine
 10
59.8205
 20
45.0561
 30
0.0
 11
60.709680543388
 21
60.0835
 31
0.0
  0
LINE
  5
246
330
1D
100
AcDbEntity
  8
0
100
AcDbLine
 10
65.5442
 20
8.48821
 30
0.0
 11
68.1446
 21
8.65928
 31
0.0
  0
LINE
  5
247
330
1D
100
AcDbEntity
  8
0
100
AcDbLine
 10
65.5442
 20
8.4881
 30
0.0
 11
68.1447
 21
8.65924
 31
0.0
  0
LINE
  5
249
330
1D
100
AcDbEntity
  8
0
100
AcDbLine
 10
67.0256
 20
40.5646
 30
0.0
 11
68.406
 21
41.0294
 31
0.0
  0
LINE
  5
24A
330
1D
100
AcDbEntity
  8
0
100
AcDbLine
 10
67.0256
 20
40.5648
 30
0.0
 11
68.4061
 21
41.0294
 31
0.0
  0
LINE
  5
24B
330
1D
100
AcDbEntity
  8
0
100
AcDbLine
 10
64.0629
 20
40.5646
 30
0.0
 11
65.5442
 21
40.4067
 31
0.0
  0
LINE
  5
24C
330
1D
100
AcDbEntity
  8
0
100
AcDbLine
 10
65.5442
 20
40.4067
 30
0.0
 11
67.0256
 21
40.5646
 31
0.0
  0
LINE
  5
24D
330
1D
100
AcDbEntity
  8
0
100
AcDbLine
 10
64.0628
 20
40.5648
 30
0.0
 11
65.5442
 21
40.4065
 31
0.0
  0
LINE
  5
24E
330
1D
100
AcDbEntity
  8
0
100
AcDbLine
 10
65.5442
 20
40.4065
 30
0.0
 11
67.0256
 21
40.5648
 31
0.0
  0
LINE
  5
250
330
1D
100
AcDbEntity
  8
0
100
AcDbLine
 10
68.4061
 20
41.0294
 30
0.0
 11
69.5915
 21
41.7684
 31
0.0
  0
LINE
  5
251
330
1D
100
AcDbEntity
  8
0
100
AcDbLine
 10
68.1447
 20
8.65924
 30
0.0
 11
70.7006
 21
9.16947
 31
0.0
  0
LINE
  5
253
330
1D
100
AcDbEntity
  8
0
100
AcDbLine
 10
70.7006
 20
9.16998
 30
0.0
 11
71.9482
 21
9.54986
 31
0.0
  0
LINE
  5
254
330
1D
100
AcDbEntity
  8
0
100
AcDbLine
 10
71.9482
 20
9.54986
 30
0.0
 11
73.1681
 21
10.0108
 31
0.0
  0
LINE
  5
255
330
1D
100
AcDbEntity
  8
0
100
AcDbLine
 10
71.9479
 20
9.55014
 30
0.0
 11
73.1681
 21
10.0108
 31
0.0
  0
LINE
  5
256
330
1D
100
AcDbEntity
  8
0
100
AcDbLine
 10
70.7006
 20
9.16947
 30
0.0
 11
71.9479
 21
9.55014
 31
0.0
  0
LINE
  5
25A
330
1D
100
AcDbEntity
  8
0
100
AcDbLine
 10
70.5012
 20
42.7313
 30
0.0
 11
71.073
 21
43.8527
 31
0.0
  0
LINE
  5
25B
330
1D
100
AcDbEntity
  8
0
100
AcDbLine
 10
69.5916
 20
41.7684
 30
0.0
 11
70.5012
 21
42.7313
 31
0.0
  0
LINE
  5
25C
330
1D
100
AcDbEntity
  8
0
100
AcDbLine
 10
69.5915
 20
41.7684
 30
0.0
 11
70.5011
 21
42.7313
 31
0.0
  0
LINE
  5
25D
330
1D
100
AcDbEntity
  8
0
100
AcDbLine
 10
70.5011
 20
42.7313
 30
0.0
 11
71.0729
 21
43.8525
 31
0.0
  0
LINE
  5
262
330
1D
100
AcDbEntity
  8
0
100
AcDbLine
 10
68.406
 20
41.0294
 30
0.0
 11
69.5916
 21
41.7684
 31
0.0
  0
LINE
  5
263
330
1D
100
AcDbEntity
  8
0
100
AcDbLine
 10
68.1446
 20
8.65928
 30
0.0
 11
70.7006
 21
9.16998
 31
0.0
  0
LINE
  5
268
330
1D
100
AcDbEntity
  8
0
100
AcDbLine
 10
71.113005078849
 20
47.67408950645
 30
0.0
 11
73.1681
 21
46.9734
 31
0.0
  0
LINE
  5
269
330
1D
100
AcDbEntity
  8
0
100
AcDbLine
 10
73.1681
 20
46.9734
 30
0.0
 11
75.5055
 21
45.8162
 31
0.0
  0
LINE
  5
26A
330
1D
100
AcDbEntity
  8
0
100
AcDbLine
 10
73.1681
 20
46.9734
 30
0.0
 11
75.5054
 21
45.8162
 31
0.0
  0
LINE
  5
26B
330
1D
100
AcDbEntity
  8
0
100
AcDbLine
 10
71.113025195245
 20
47.673749504891
 30
0.0
 11
73.1681
 21
46.9734
 31
0.0
  0
LINE
  5
26D
330
1D
100
AcDbEntity
  8
0
100
AcDbLine
 10
71.073
 20
43.8527
 30
0.0
 11
71.2678
 21
45.0558
 31
0.0
  0
LINE
  5
26E
330
1D
100
AcDbEntity
  8
0
100
AcDbLine
 10
71.0729
 20
43.8525
 30
0.0
 11
71.2679
 21
45.0561
 31
0.0
  0
LINE
  5
271
330
1D
100
AcDbEntity
  8
0
100
AcDbLine
 10
74.3555
 20
10.5511
 30
0.0
 11
75.5055
 21
11.1681
 31
0.0
  0
LINE
  5
272
330
1D
100
AcDbEntity
  8
0
100
AcDbLine
 10
75.5054
 20
11.168
 30
0.0
 11
76.6125
 21
11.8597
 31
0.0
  0
LINE
  5
273
330
1D
100
AcDbEntity
  8
0
100
AcDbLine
 10
74.3557
 20
10.5514
 30
0.0
 11
75.5054
 21
11.168
 31
0.0
  0
LINE
  5
274
330
1D
100
AcDbEntity
  8
0
100
AcDbLine
 10
75.5055
 20
11.1681
 30
0.0
 11
76.6124
 21
11.8593
 31
0.0
  0
LINE
  5
275
330
1D
100
AcDbEntity
  8
0
100
AcDbLine
 10
76.6124
 20
11.8593
 30
0.0
 11
77.6721
 21
12.6222
 31
0.0
  0
LINE
  5
276
330
1D
100
AcDbEntity
  8
0
100
AcDbLine
 10
76.6125
 20
11.8597
 30
0.0
 11
77.6722
 21
12.6219
 31
0.0
  0
LINE
  5
277
330
1D
100
AcDbEntity
  8
0
100
AcDbLine
 10
75.5054
 20
45.8162
 30
0.0
 11
77.6722
 21
44.3623
 31
0.0
  0
LINE
  5
27B
330
1D
100
AcDbEntity
  8
0
100
AcDbLine
 10
75.5055
 20
45.8162
 30
0.0
 11
77.6721
 21
44.3621
 31
0.0
  0
LINE
  5
27C
330
1D
100
AcDbEntity
  8
0
100
AcDbLine
 10
73.1681
 20
10.0108
 30
0.0
 11
74.3557
 21
10.5514
 31
0.0
  0
LINE
  5
27D
330
1D
100
AcDbEntity
  8
0
100
AcDbLine
 10
73.1681
 20
10.0108
 30
0.0
 11
74.3555
 21
10.5511
 31
0.0
  0
LINE
  5
290
330
1D
100
AcDbEntity
  8
0
100
AcDbLine
 10
77.6721
 20
12.6222
 30
0.0
 11
78.6798
 21
13.4524
 31
0.0
  0
LINE
  5
291
330
1D
100
AcDbEntity
  8
0
100
AcDbLine
 10
78.6798
 20
13.4524
 30
0.0
 11
79.6313
 21
14.3474
 31
0.0
  0
LINE
  5
292
330
1D
100
AcDbEntity
  8
0
100
AcDbLine
 10
77.6722
 20
12.6219
 30
0.0
 11
78.6798
 21
13.452
 31
0.0
  0
LINE
  5
293
330
1D
100
AcDbEntity
  8
0
100
AcDbLine
 10
79.6313
 20
14.3474
 30
0.0
 11
80.8841
 21
15.7285
 31
0.0
  0
LINE
  5
294
330
1D
100
AcDbEntity
  8
0
100
AcDbLine
 10
80.8841
 20
15.7285
 30
0.0
 11
82.0027
 21
17.2211
 31
0.0
  0
LINE
  5
295
330
1D
100
AcDbEntity
  8
0
100
AcDbLine
 10
80.884
 20
15.728
 30
0.0
 11
82.0027
 21
17.2211
 31
0.0
  0
LINE
  5
296
330
1D
100
AcDbEntity
  8
0
100
AcDbLine
 10
79.6316
 20
14.3469
 30
0.0
 11
80.884
 21
15.728
 31
0.0
  0
LINE
  5
297
330
1D
100
AcDbEntity
  8
0
100
AcDbLine
 10
78.6798
 20
13.452
 30
0.0
 11
79.6316
 21
14.3469
 31
0.0
  0
LINE
  5
298
330
1D
100
AcDbEntity
  8
0
100
AcDbLine
 10
82.4287
 20
39.1092
 30
0.0
 11
83.513
 21
37.1312
 31
0.0
  0
LINE
  5
299
330
1D
100
AcDbEntity
  8
0
100
AcDbLine
 10
82.0027
 20
17.2211
 30
0.0
 11
82.796
 21
18.4879
 31
0.0
  0
LINE
  5
29A
330
1D
100
AcDbEntity
  8
0
100
AcDbLine
 10
82.0027
 20
17.2211
 30
0.0
 11
82.7959
 21
18.4877
 31
0.0
  0
LINE
  5
29B
330
1D
100
AcDbEntity
  8
0
100
AcDbLine
 10
82.7959
 20
18.4877
 30
0.0
 11
83.4923
 21
19.8103
 31
0.0
  0
LINE
  5
29C
330
1D
100
AcDbEntity
  8
0
100
AcDbLine
 10
83.4923
 20
19.8103
 30
0.0
 11
84.0885
 21
21.182
 31
0.0
  0
LINE
  5
29D
330
1D
100
AcDbEntity
  8
0
100
AcDbLine
 10
84.0885
 20
21.182
 30
0.0
 11
84.5809
 21
22.594
 31
0.0
  0
LINE
  5
29E
330
1D
100
AcDbEntity
  8
0
100
AcDbLine
 10
83.4925
 20
19.8106
 30
0.0
 11
84.0887
 21
21.1822
 31
0.0
  0
LINE
  5
29F
330
1D
100
AcDbEntity
  8
0
100
AcDbLine
 10
82.796
 20
18.4879
 30
0.0
 11
83.4925
 21
19.8106
 31
0.0
  0
LINE
  5
2A4
330
1D
100
AcDbEntity
  8
0
100
AcDbLine
 10
84.5809
 20
22.594
 30
0.0
 11
84.9667
 21
24.0393
 31
0.0
  0
LINE
  5
2A5
330
1D
100
AcDbEntity
  8
0
100
AcDbLine
 10
84.9667
 20
24.0393
 30
0.0
 11
85.244
 21
25.5097
 31
0.0
  0
LINE
  5
2A6
330
1D
100
AcDbEntity
  8
0
100
AcDbLine
 10
84.5901
 20
34.3595
 30
0.0
 11
84.9719
 21
32.9218
 31
0.0
  0
LINE
  5
2A7
330
1D
100
AcDbEntity
  8
0
100
AcDbLine
 10
84.1028
 20
35.7652
 30
0.0
 11
84.5901
 21
34.3595
 31
0.0
  0
LINE
  5
2A8
330
1D
100
AcDbEntity
  8
0
100
AcDbLine
 10
83.513
 20
37.1312
 30
0.0
 11
84.1028
 21
35.7652
 31
0.0
  0
LINE
  5
2A9
330
1D
100
AcDbEntity
  8
0
100
AcDbLine
 10
83.5128
 20
37.1311
 30
0.0
 11
84.103
 21
35.7652
 31
0.0
  0
LINE
  5
2AA
330
1D
100
AcDbEntity
  8
0
100
AcDbLine
 10
84.103
 20
35.7652
 30
0.0
 11
84.5901
 21
34.3601
 31
0.0
  0
LINE
  5
2AB
330
1D
100
AcDbEntity
  8
0
100
AcDbLine
 10
84.5901
 20
34.3601
 30
0.0
 11
84.972
 21
32.9214
 31
0.0
  0
LINE
  5
2AC
330
1D
100
AcDbEntity
  8
0
100
AcDbLine
 10
84.9719
 20
32.9218
 30
0.0
 11
85.2461
 21
31.4588
 31
0.0
  0
LINE
  5
2AD
330
1D
100
AcDbEntity
  8
0
100
AcDbLine
 10
84.9668
 20
24.0396
 30
0.0
 11
85.244
 21
25.5095
 31
0.0
  0
LINE
  5
2AE
330
1D
100
AcDbEntity
  8
0
100
AcDbLine
 10
84.5809
 20
22.5945
 30
0.0
 11
84.9668
 21
24.0396
 31
0.0
  0
LINE
  5
2AF
330
1D
100
AcDbEntity
  8
0
100
AcDbLine
 10
85.244
 20
25.5097
 30
0.0
 11
85.4109
 21
26.9965
 31
0.0
  0
LINE
  5
2B0
330
1D
100
AcDbEntity
  8
0
100
AcDbLine
 10
85.4109
 20
26.9965
 30
0.0
 11
85.4665
 21
28.4922
 31
0.0
  0
LINE
  5
2B1
330
1D
100
AcDbEntity
  8
0
100
AcDbLine
 10
85.244
 20
25.5095
 30
0.0
 11
85.4108
 21
26.997
 31
0.0
  0
LINE
  5
2B2
330
1D
100
AcDbEntity
  8
0
100
AcDbLine
 10
85.2461
 20
31.4588
 30
0.0
 11
85.4115
 21
29.9796
 31
0.0
  0
LINE
  5
2B3
330
1D
100
AcDbEntity
  8
0
100
AcDbLine
 10
85.2464
 20
31.4587
 30
0.0
 11
85.4112
 21
29.9792
 31
0.0
  0
LINE
  5
2B4
330
1D
100
AcDbEntity
  8
0
100
AcDbLine
 10
85.4115
 20
29.9796
 30
0.0
 11
85.4665
 21
28.4922
 31
0.0
  0
LINE
  5
2B5
330
1D
100
AcDbEntity
  8
0
100
AcDbLine
 10
85.4112
 20
29.9792
 30
0.0
 11
85.4666
 21
28.4917
 31
0.0
  0
LINE
  5
2B6
330
1D
100
AcDbEntity
  8
0
100
AcDbLine
 10
85.4108
 20
26.997
 30
0.0
 11
85.4666
 21
28.4917
 31
0.0
  0
LINE
  5
2B7
330
1D
100
AcDbEntity
  8
0
100
AcDbLine
 10
84.972
 20
32.9214
 30
0.0
 11
85.2464
 21
31.4587
 31
0.0
  0
LINE
  5
2B8
330
1D
100
AcDbEntity
  8
0
100
AcDbLine
 10
84.0887
 20
21.1822
 30
0.0
 11
84.5809
 21
22.5945
 31
0.0
  0
LINE
  5
2B9
330
1D
100
AcDbEntity
  8
0
100
AcDbLine
 10
82.4288
 20
39.1096
 30
0.0
 11
83.5128
 21
37.1311
 31
0.0
  0
LINE
  5
2BA
330
1D
100
AcDbEntity
  8
0
100
AcDbLine
 10
79.6313
 20
42.6369
 30
0.0
 11
81.1294
 21
40.9526
 31
0.0
  0
LINE
  5
2BB
330
1D
100
AcDbEntity
  8
0
100
AcDbLine
 10
77.6722
 20
44.3623
 30
0.0
 11
79.6316
 21
42.6372
 31
0.0
  0
LINE
  5
2BE
330
1D
100
AcDbEntity
  8
0
100
AcDbLine
 10
77.6721
 20
44.3621
 30
0.0
 11
79.6313
 21
42.6369
 31
0.0
  0
LINE
  5
2BF
330
1D
100
AcDbEntity
  8
0
100
AcDbLine
 10
81.1294
 20
40.9526
 30
0.0
 11
82.4287
 21
39.1092
 31
0.0
  0
LINE
  5
2CA
330
1D
100
AcDbEntity
  8
0
100
AcDbLine
 10
79.6316
 20
42.6372
 30
0.0
 11
81.1294
 21
40.9522
 31
0.0
  0
LINE
  5
2CB
330
1D
100
AcDbEntity
  8
0
100
AcDbLine
 10
81.1294
 20
40.9522
 30
0.0
 11
82.4288
 21
39.1096
 31
0.0
  0
LINE
  5
371
330
1D
100
AcDbEntity
  8
0
100
AcDbLine
 10
92.9243
 20
56.9841
 30
0.0
 11
93.1418
 21
56.9599
 31
0.0
  0
LINE
  5
372
330
1D
100
AcDbEntity
  8
0
100
AcDbLine
 10
93.1418
 20
56.9599
 30
0.0
 11
93.5362
 21
56.7729
 31
0.0
  0
LINE
  5
374
330
1D
100
AcDbEntity
  8
0
100
AcDbLine
 10
65.5461
 20
80.0
 30
0.0
 11
727.0
 21
80.0
 31
0.0
  0
LINE
  5
375
330
1D
100
AcDbEntity
  8
0
100
AcDbLine
 10
70.378794855623
 20
60.0835
 30
0.0
 11
71.2679
 21
45.0561
 31
0.0
  0
LINE
  5
5DD
330
1D
100
AcDbEntity
  8
0
100
AcDbLine
 10
93.8959
 20
0.781422
 30
0.0
 11
93.9201
 21
0.999865
 31
0.0
  0
LINE
  5
638
330
1D
100
AcDbEntity
  8
0
100
AcDbLine
 10
93.5362
 20
56.7729
 30
0.0
 11
93.8132
 21
56.4346
 31
0.0
  0
LINE
  5
639
330
1D
100
AcDbEntity
  8
0
100
AcDbLine
 10
93.8132
 20
56.4346
 30
0.0
 11
93.9201
 21
55.9843
 31
0.0
  0
LINE
  5
63A
330
1D
100
AcDbEntity
  8
0
100
AcDbLine
 10
37.9466
 20
0.024228
 30
0.0
 11
38.1642
 21
0.0
 31
0.0
  0
LINE
  5
63B
330
1D
100
AcDbEntity
  8
0
100
AcDbLine
 10
37.9466
 20
0.024228
 30
0.0
 11
38.1642
 21
0.0
 31
0.0
  0
LINE
  5
663
330
1D
100
AcDbEntity
  8
0
100
AcDbLine
 10
37.1684
 20
0.999865
 30
0.0
 11
37.1684
 21
55.9843
 31
0.0
  0
LINE
  5
664
330
1D
100
AcDbEntity
  8
0
100
AcDbLine
 10
38.1642
 20
56.9841
 30
0.0
 11
60.526287130278
 21
56.9841
 31
0.0
  0
LINE
  5
665
330
1D
100
AcDbEntity
  8
0
100
AcDbLine
 10
92.9243
 20
56.9841
 30
0.0
 11
70.562172717694
 21
56.9841
 31
0.0
  0
LINE
  5
666
330
1D
100
AcDbEntity
  8
0
100
AcDbLine
 10
93.9201
 20
55.9843
 30
0.0
 11
93.9201
 21
0.999865
 31
0.0
  0
LINE
  5
667
330
1D
100
AcDbEntity
  8
0
100
AcDbLine
 10
92.9243
 20
0.000013
 30
0.0
 11
38.1642
 21
0.0
 31
0.0
  0
LINE
  5
668
330
1D
100
AcDbEntity
  8
0
100
AcDbLine
 10
0.08728
 20
79.4016
 30
0.0
 11
0.08728
 21
60.6817
 31
0.0
  0
LINE
  5
669
330
1D
100
AcDbEntity
  8
0
100
AcDbLine
 10
931.2031
 20
60.0835
 30
0.0
 11
727.0
 21
60.0835
 31
0.0
  0
LINE
  5
66A
330
1D
100
AcDbEntity
  8
0
100
AcDbLine
 10
931.2031
 20
60.0835
 30
0.0
 11
727.0
 21
60.0835
 31
0.0
  0
LINE
  5
66B
330
1D
100
AcDbEntity
  8
0
100
AcDbLine
 10
866.4539
 20
80.0
 30
0.0
 11
727.0
 21
80.0
 31
0.0
  0
LINE
  5
66C
330
1D
100
AcDbEntity
  8
0
100
AcDbLine
 10
931.2031
 20
80.0
 30
0.0
 11
866.4539
 21
80.0
 31
0.0
  0
LINE
  5
66D
330
1D
100
AcDbEntity
  8
0
100
AcDbLine
 10
931.2031
 20
80.0
 30
0.0
 11
866.4539
 21
80.0
 31
0.0
  0
LINE
  5
66E
330
1D
100
AcDbEntity
  8
0
100
AcDbLine
 10
881.7956
 20
15.7285
 30
0.0
 11
880.5429
 21
14.3474
 31
0.0
  0
LINE
  5
66F
330
1D
100
AcDbEntity
  8
0
100
AcDbLine
 10
881.7956
 20
15.728
 30
0.0
 11
880.5431
 21
14.3469
 31
0.0
  0
LINE
  5
670
330
1D
100
AcDbEntity
  8
0
100
AcDbLine
 10
882.0409
 20
40.9526
 30
0.0
 11
880.5429
 21
42.6369
 31
0.0
  0
LINE
  5
671
330
1D
100
AcDbEntity
  8
0
100
AcDbLine
 10
882.0409
 20
40.9522
 30
0.0
 11
880.5431
 21
42.6372
 31
0.0
  0
LINE
  5
672
330
1D
100
AcDbEntity
  8
0
100
AcDbLine
 10
893.8358
 20
56.9841
 30
0.0
 11
871.473712869722
 21
56.9841
 31
0.0
  0
LINE
  5
673
330
1D
100
AcDbEntity
  8
0
100
AcDbLine
 10
839.0757
 20
0.000013
 30
0.0
 11
893.8358
 21
0.0
 31
0.0
  0
LINE
  5
674
330
1D
100
AcDbEntity
  8
0
100
AcDbLine
 10
894.8316
 20
0.999865
 30
0.0
 11
894.8316
 21
55.9843
 31
0.0
  0
LINE
  5
675
330
1D
100
AcDbEntity
  8
0
100
AcDbLine
 10
886.3224
 20
26.9965
 30
0.0
 11
886.1555
 21
25.5097
 31
0.0
  0
LINE
  5
676
330
1D
100
AcDbEntity
  8
0
100
AcDbLine
 10
886.3224
 20
26.997
 30
0.0
 11
886.1555
 21
25.5095
 31
0.0
  0
LINE
  5
677
330
1D
100
AcDbEntity
  8
0
100
AcDbLine
 10
894.4477
 20
0.211254
 30
0.0
 11
894.0534
 21
0.024228
 31
0.0
  0
LINE
  5
678
330
1D
100
AcDbEntity
  8
0
100
AcDbLine
 10
894.4477
 20
0.211254
 30
0.0
 11
894.0534
 21
0.024228
 31
0.0
  0
LINE
  5
679
330
1D
100
AcDbEntity
  8
0
100
AcDbLine
 10
894.7247
 20
0.549536
 30
0.0
 11
894.4477
 21
0.211254
 31
0.0
  0
LINE
  5
67A
330
1D
100
AcDbEntity
  8
0
100
AcDbLine
 10
894.8316
 20
0.999865
 30
0.0
 11
894.7247
 21
0.549536
 31
0.0
  0
LINE
  5
67B
330
1D
100
AcDbEntity
  8
0
100
AcDbLine
 10
894.7247
 20
0.549536
 30
0.0
 11
894.4477
 21
0.211254
 31
0.0
  0
LINE
  5
67C
330
1D
100
AcDbEntity
  8
0
100
AcDbLine
 10
894.0534
 20
0.024228
 30
0.0
 11
893.8358
 21
0.0
 31
0.0
  0
LINE
  5
67D
330
1D
100
AcDbEntity
  8
0
100
AcDbLine
 10
894.0534
 20
0.024228
 30
0.0
 11
893.8358
 21
0.0
 31
0.0
  0
LINE
  5
67E
330
1D
100
AcDbEntity
  8
0
100
AcDbLine
 10
886.1555
 20
25.5097
 30
0.0
 11
885.8783
 21
24.0393
 31
0.0
  0
LINE
  5
67F
330
1D
100
AcDbEntity
  8
0
100
AcDbLine
 10
886.1555
 20
25.5095
 30
0.0
 11
885.8784
 21
24.0396
 31
0.0
  0
LINE
  5
680
330
1D
100
AcDbEntity
  8
0
100
AcDbLine
 10
885.4925
 20
22.594
 30
0.0
 11
885.0
 21
21.182
 31
0.0
  0
LINE
  5
681
330
1D
100
AcDbEntity
  8
0
100
AcDbLine
 10
885.0
 20
21.182
 30
0.0
 11
884.4039
 21
19.8103
 31
0.0
  0
LINE
  5
682
330
1D
100
AcDbEntity
  8
0
100
AcDbLine
 10
885.0002
 20
21.1822
 30
0.0
 11
884.4041
 21
19.8106
 31
0.0
  0
LINE
  5
683
330
1D
100
AcDbEntity
  8
0
100
AcDbLine
 10
883.7074
 20
18.4877
 30
0.0
 11
882.9143
 21
17.221
 31
0.0
  0
LINE
  5
684
330
1D
100
AcDbEntity
  8
0
100
AcDbLine
 10
884.4039
 20
19.8103
 30
0.0
 11
883.7074
 21
18.4877
 31
0.0
  0
LINE
  5
685
330
1D
100
AcDbEntity
  8
0
100
AcDbLine
 10
883.7075
 20
18.4879
 30
0.0
 11
882.9143
 21
17.221
 31
0.0
  0
LINE
  5
686
330
1D
100
AcDbEntity
  8
0
100
AcDbLine
 10
882.9143
 20
17.221
 30
0.0
 11
881.7956
 21
15.728
 31
0.0
  0
LINE
  5
687
330
1D
100
AcDbEntity
  8
0
100
AcDbLine
 10
882.9143
 20
17.221
 30
0.0
 11
881.7956
 21
15.7285
 31
0.0
  0
LINE
  5
688
330
1D
100
AcDbEntity
  8
0
100
AcDbLine
 10
884.4041
 20
19.8106
 30
0.0
 11
883.7075
 21
18.4879
 31
0.0
  0
LINE
  5
689
330
1D
100
AcDbEntity
  8
0
100
AcDbLine
 10
885.8783
 20
24.0393
 30
0.0
 11
885.4925
 21
22.594
 31
0.0
  0
LINE
  5
68A
330
1D
100
AcDbEntity
  8
0
100
AcDbLine
 10
885.8784
 20
24.0396
 30
0.0
 11
885.4925
 21
22.5945
 31
0.0
  0
LINE
  5
68B
330
1D
100
AcDbEntity
  8
0
100
AcDbLine
 10
885.4925
 20
22.5945
 30
0.0
 11
885.0002
 21
21.1822
 31
0.0
  0
LINE
  5
68C
330
1D
100
AcDbEntity
  8
0
100
AcDbLine
 10
884.4245
 20
37.1312
 30
0.0
 11
883.3404
 21
39.1096
 31
0.0
  0
LINE
  5
68D
330
1D
100
AcDbEntity
  8
0
100
AcDbLine
 10
884.4245
 20
37.1312
 30
0.0
 11
883.3402
 21
39.1092
 31
0.0
  0
LINE
  5
68E
330
1D
100
AcDbEntity
  8
0
100
AcDbLine
 10
886.323
 20
29.9796
 30
0.0
 11
886.1576
 21
31.4588
 31
0.0
  0
LINE
  5
68F
330
1D
100
AcDbEntity
  8
0
100
AcDbLine
 10
886.378
 20
28.4922
 30
0.0
 11
886.3224
 21
26.9965
 31
0.0
  0
LINE
  5
690
330
1D
100
AcDbEntity
  8
0
100
AcDbLine
 10
886.378
 20
28.4922
 30
0.0
 11
886.323
 21
29.9796
 31
0.0
  0
LINE
  5
691
330
1D
100
AcDbEntity
  8
0
100
AcDbLine
 10
886.3228
 20
29.9792
 30
0.0
 11
886.1579
 21
31.4587
 31
0.0
  0
LINE
  5
692
330
1D
100
AcDbEntity
  8
0
100
AcDbLine
 10
886.3781
 20
28.4917
 30
0.0
 11
886.3224
 21
26.997
 31
0.0
  0
LINE
  5
693
330
1D
100
AcDbEntity
  8
0
100
AcDbLine
 10
886.3781
 20
28.4917
 30
0.0
 11
886.3228
 21
29.9792
 31
0.0
  0
LINE
  5
694
330
1D
100
AcDbEntity
  8
0
100
AcDbLine
 10
886.1576
 20
31.4588
 30
0.0
 11
885.8834
 21
32.9218
 31
0.0
  0
LINE
  5
695
330
1D
100
AcDbEntity
  8
0
100
AcDbLine
 10
886.1579
 20
31.4587
 30
0.0
 11
885.8835
 21
32.9214
 31
0.0
  0
LINE
  5
696
330
1D
100
AcDbEntity
  8
0
100
AcDbLine
 10
885.8834
 20
32.9218
 30
0.0
 11
885.5016
 21
34.3595
 31
0.0
  0
LINE
  5
697
330
1D
100
AcDbEntity
  8
0
100
AcDbLine
 10
885.8835
 20
32.9214
 30
0.0
 11
885.5016
 21
34.3601
 31
0.0
  0
LINE
  5
698
330
1D
100
AcDbEntity
  8
0
100
AcDbLine
 10
885.5016
 20
34.3595
 30
0.0
 11
885.0143
 21
35.7652
 31
0.0
  0
LINE
  5
699
330
1D
100
AcDbEntity
  8
0
100
AcDbLine
 10
885.0143
 20
35.7652
 30
0.0
 11
884.4245
 21
37.1312
 31
0.0
  0
LINE
  5
69A
330
1D
100
AcDbEntity
  8
0
100
AcDbLine
 10
885.5016
 20
34.3601
 30
0.0
 11
885.0146
 21
35.7652
 31
0.0
  0
LINE
  5
69B
330
1D
100
AcDbEntity
  8
0
100
AcDbLine
 10
885.0146
 20
35.7652
 30
0.0
 11
884.4245
 21
37.1312
 31
0.0
  0
LINE
  5
69C
330
1D
100
AcDbEntity
  8
0
100
AcDbLine
 10
883.3402
 20
39.1092
 30
0.0
 11
882.0409
 21
40.9526
 31
0.0
  0
LINE
  5
69D
330
1D
100
AcDbEntity
  8
0
100
AcDbLine
 10
883.3404
 20
39.1096
 30
0.0
 11
882.0409
 21
40.9522
 31
0.0
  0
LINE
  5
69E
330
1D
100
AcDbEntity
  8
0
100
AcDbLine
 10
931.2031
 20
76.9695
 30
0.0
 11
931.2031
 21
76.1096
 31
0.0
  0
LINE
  5
69F
330
1D
100
AcDbEntity
  8
0
100
AcDbLine
 10
931.2031
 20
76.1096
 30
0.0
 11
931.2031
 21
76.9697
 31
0.0
  0
LINE
  5
6A0
330
1D
100
AcDbEntity
  8
0
100
AcDbLine
 10
931.2031
 20
77.0706
 30
0.0
 11
931.2031
 21
74.2129
 31
0.0
  0
LINE
  5
6A1
330
1D
100
AcDbEntity
  8
0
100
AcDbLine
 10
931.2031
 20
74.2129
 30
0.0
 11
931.2031
 21
77.0706
 31
0.0
  0
LINE
  5
6A2
330
1D
100
AcDbEntity
  8
0
100
AcDbLine
 10
931.91272
 20
79.4016
 30
0.0
 11
931.91272
 21
60.6817
 31
0.0
  0
LINE
  5
6A3
330
1D
100
AcDbEntity
  8
0
100
AcDbLine
 10
931.2031
 20
64.3465
 30
0.0
 11
931.2031
 21
63.452
 31
0.0
  0
LINE
  5
6A4
330
1D
100
AcDbEntity
  8
0
100
AcDbLine
 10
931.2031
 20
63.4519
 30
0.0
 11
931.2031
 21
64.3467
 31
0.0
  0
LINE
  5
6A5
330
1D
100
AcDbEntity
  8
0
100
AcDbLine
 10
931.2031
 20
64.2546
 30
0.0
 11
931.2031
 21
61.8134
 31
0.0
  0
LINE
  5
6A6
330
1D
100
AcDbEntity
  8
0
100
AcDbLine
 10
931.2031
 20
61.8134
 30
0.0
 11
931.2031
 21
64.2546
 31
0.0
  0
LINE
  5
6A7
330
1D
100
AcDbEntity
  8
0
100
AcDbLine
 10
931.2031
 20
60.8661
 30
0.0
 11
931.2031
 21
60.5117
 31
0.0
  0
LINE
  5
6A8
330
1D
100
AcDbEntity
  8
0
100
AcDbLine
 10
931.2031
 20
60.5117
 30
0.0
 11
931.2031
 21
60.8661
 31
0.0
  0
LINE
  5
6A9
330
1D
100
AcDbEntity
  8
0
100
AcDbLine
 10
931.2031
 20
61.8134
 30
0.0
 11
931.2031
 21
60.365
 31
0.0
  0
LINE
  5
6AA
330
1D
100
AcDbEntity
  8
0
100
AcDbLine
 10
931.2031
 20
60.365
 30
0.0
 11
931.2031
 21
61.8134
 31
0.0
  0
LINE
  5
6AB
330
1D
100
AcDbEntity
  8
0
100
AcDbLine
 10
931.91272
 20
60.6817
 30
0.0
 11
931.84296
 21
60.4758
 31
0.0
  0
LINE
  5
6AC
330
1D
100
AcDbEntity
  8
0
100
AcDbLine
 10
931.91272
 20
60.6817
 30
0.0
 11
931.91272
 21
60.7689
 31
0.0
  0
LINE
  5
6AD
330
1D
100
AcDbEntity
  8
0
100
AcDbLine
 10
931.91272
 20
60.7689
 30
0.0
 11
931.91272
 21
60.6818
 31
0.0
  0
LINE
  5
6AE
330
1D
100
AcDbEntity
  8
0
100
AcDbLine
 10
931.66107
 20
60.2579
 30
0.0
 11
931.41476
 21
60.1926
 31
0.0
  0
LINE
  5
6AF
330
1D
100
AcDbEntity
  8
0
100
AcDbLine
 10
931.2031
 20
60.0834
 30
0.0
 11
931.2031
 21
60.365
 31
0.0
  0
LINE
  5
6B0
330
1D
100
AcDbEntity
  8
0
100
AcDbLine
 10
931.2031
 20
60.286
 30
0.0
 11
931.2031
 21
60.1925
 31
0.0
  0
LINE
  5
6B1
330
1D
100
AcDbEntity
  8
0
100
AcDbLine
 10
931.2031
 20
60.5117
 30
0.0
 11
931.2031
 21
60.286
 31
0.0
  0
LINE
  5
6B2
330
1D
100
AcDbEntity
  8
0
100
AcDbLine
 10
931.2031
 20
60.2862
 30
0.0
 11
931.2031
 21
60.5117
 31
0.0
  0
LINE
  5
6B3
330
1D
100
AcDbEntity
  8
0
100
AcDbLine
 10
931.41476
 20
60.1926
 30
0.0
 11
931.2031
 21
60.1925
 31
0.0
  0
LINE
  5
6B4
330
1D
100
AcDbEntity
  8
0
100
AcDbLine
 10
931.2031
 20
60.365
 30
0.0
 11
931.2031
 21
60.0835
 31
0.0
  0
LINE
  5
6B5
330
1D
100
AcDbEntity
  8
0
100
AcDbLine
 10
931.2031
 20
60.1925
 30
0.0
 11
931.2031
 21
60.0834
 31
0.0
  0
LINE
  5
6B6
330
1D
100
AcDbEntity
  8
0
100
AcDbLine
 10
931.2031
 20
60.1925
 30
0.0
 11
931.2031
 21
60.2862
 31
0.0
  0
LINE
  5
6B7
330
1D
100
AcDbEntity
  8
0
100
AcDbLine
 10
931.2031
 20
60.0835
 30
0.0
 11
931.2031
 21
60.1925
 31
0.0
  0
LINE
  5
6B8
330
1D
100
AcDbEntity
  8
0
100
AcDbLine
 10
931.84296
 20
60.4758
 30
0.0
 11
931.66107
 21
60.2579
 31
0.0
  0
LINE
  5
6B9
330
1D
100
AcDbEntity
  8
0
100
AcDbLine
 10
931.2031
 20
61.3446
 30
0.0
 11
931.2031
 21
61.9405
 31
0.0
  0
LINE
  5
6BA
330
1D
100
AcDbEntity
  8
0
100
AcDbLine
 10
931.2031
 20
61.3446
 30
0.0
 11
931.2031
 21
60.8661
 31
0.0
  0
LINE
  5
6BB
330
1D
100
AcDbEntity
  8
0
100
AcDbLine
 10
931.2031
 20
60.8661
 30
0.0
 11
931.2031
 21
61.3446
 31
0.0
  0
LINE
  5
6BC
330
1D
100
AcDbEntity
  8
0
100
AcDbLine
 10
931.2031
 20
61.9407
 30
0.0
 11
931.2031
 21
61.3446
 31
0.0
  0
LINE
  5
6BD
330
1D
100
AcDbEntity
  8
0
100
AcDbLine
 10
931.2031
 20
62.6461
 30
0.0
 11
931.2031
 21
61.9407
 31
0.0
  0
LINE
  5
6BE
330
1D
100
AcDbEntity
  8
0
100
AcDbLine
 10
931.2031
 20
63.452
 30
0.0
 11
931.2031
 21
62.6461
 31
0.0
  0
LINE
  5
6BF
330
1D
100
AcDbEntity
  8
0
100
AcDbLine
 10
931.2031
 20
62.6463
 30
0.0
 11
931.2031
 21
63.4519
 31
0.0
  0
LINE
  5
6C0
330
1D
100
AcDbEntity
  8
0
100
AcDbLine
 10
931.2031
 20
61.9405
 30
0.0
 11
931.2031
 21
62.6463
 31
0.0
  0
LINE
  5
6C1
330
1D
100
AcDbEntity
  8
0
100
AcDbLine
 10
931.2031
 20
70.8465
 30
0.0
 11
931.2031
 21
69.701
 31
0.0
  0
LINE
  5
6C2
330
1D
100
AcDbEntity
  8
0
100
AcDbLine
 10
931.2031
 20
69.7011
 30
0.0
 11
931.2031
 21
70.8465
 31
0.0
  0
LINE
  5
6C3
330
1D
100
AcDbEntity
  8
0
100
AcDbLine
 10
931.2031
 20
70.8521
 30
0.0
 11
931.2031
 21
67.3937
 31
0.0
  0
LINE
  5
6C4
330
1D
100
AcDbEntity
  8
0
100
AcDbLine
 10
931.2031
 20
67.3937
 30
0.0
 11
931.2031
 21
70.8521
 31
0.0
  0
LINE
  5
6C5
330
1D
100
AcDbEntity
  8
0
100
AcDbLine
 10
931.2031
 20
64.2546
 30
0.0
 11
931.2031
 21
67.3937
 31
0.0
  0
LINE
  5
6C6
330
1D
100
AcDbEntity
  8
0
100
AcDbLine
 10
931.2031
 20
66.3542
 30
0.0
 11
931.2031
 21
67.4395
 31
0.0
  0
LINE
  5
6C7
330
1D
100
AcDbEntity
  8
0
100
AcDbLine
 10
931.2031
 20
67.4397
 30
0.0
 11
931.2031
 21
66.3541
 31
0.0
  0
LINE
  5
6C8
330
1D
100
AcDbEntity
  8
0
100
AcDbLine
 10
931.2031
 20
67.3937
 30
0.0
 11
931.2031
 21
64.2546
 31
0.0
  0
LINE
  5
6C9
330
1D
100
AcDbEntity
  8
0
100
AcDbLine
 10
931.2031
 20
64.3467
 30
0.0
 11
931.2031
 21
65.3184
 31
0.0
  0
LINE
  5
6CA
330
1D
100
AcDbEntity
  8
0
100
AcDbLine
 10
931.2031
 20
65.3184
 30
0.0
 11
931.2031
 21
66.3542
 31
0.0
  0
LINE
  5
6CB
330
1D
100
AcDbEntity
  8
0
100
AcDbLine
 10
931.2031
 20
65.3186
 30
0.0
 11
931.2031
 21
64.3465
 31
0.0
  0
LINE
  5
6CC
330
1D
100
AcDbEntity
  8
0
100
AcDbLine
 10
931.2031
 20
66.3541
 30
0.0
 11
931.2031
 21
65.3186
 31
0.0
  0
LINE
  5
6CD
330
1D
100
AcDbEntity
  8
0
100
AcDbLine
 10
931.2031
 20
69.701
 30
0.0
 11
931.2031
 21
68.5602
 31
0.0
  0
LINE
  5
6CE
330
1D
100
AcDbEntity
  8
0
100
AcDbLine
 10
931.2031
 20
68.5602
 30
0.0
 11
931.2031
 21
69.7011
 31
0.0
  0
LINE
  5
6CF
330
1D
100
AcDbEntity
  8
0
100
AcDbLine
 10
931.2031
 20
68.5602
 30
0.0
 11
931.2031
 21
67.4397
 31
0.0
  0
LINE
  5
6D0
330
1D
100
AcDbEntity
  8
0
100
AcDbLine
 10
931.2031
 20
67.4395
 30
0.0
 11
931.2031
 21
68.5602
 31
0.0
  0
LINE
  5
6D1
330
1D
100
AcDbEntity
  8
0
100
AcDbLine
 10
931.2031
 20
71.9809
 30
0.0
 11
931.2031
 21
70.8465
 31
0.0
  0
LINE
  5
6D2
330
1D
100
AcDbEntity
  8
0
100
AcDbLine
 10
931.2031
 20
73.0891
 30
0.0
 11
931.2031
 21
71.9809
 31
0.0
  0
LINE
  5
6D3
330
1D
100
AcDbEntity
  8
0
100
AcDbLine
 10
931.2031
 20
74.1561
 30
0.0
 11
931.2031
 21
75.1677
 31
0.0
  0
LINE
  5
6D4
330
1D
100
AcDbEntity
  8
0
100
AcDbLine
 10
931.2031
 20
74.1561
 30
0.0
 11
931.2031
 21
73.0891
 31
0.0
  0
LINE
  5
6D5
330
1D
100
AcDbEntity
  8
0
100
AcDbLine
 10
931.2031
 20
73.089
 30
0.0
 11
931.2031
 21
74.1561
 31
0.0
  0
LINE
  5
6D6
330
1D
100
AcDbEntity
  8
0
100
AcDbLine
 10
931.2031
 20
71.9808
 30
0.0
 11
931.2031
 21
73.089
 31
0.0
  0
LINE
  5
6D7
330
1D
100
AcDbEntity
  8
0
100
AcDbLine
 10
931.2031
 20
70.8465
 30
0.0
 11
931.2031
 21
71.9808
 31
0.0
  0
LINE
  5
6D8
330
1D
100
AcDbEntity
  8
0
100
AcDbLine
 10
931.2031
 20
75.1676
 30
0.0
 11
931.2031
 21
74.1561
 31
0.0
  0
LINE
  5
6D9
330
1D
100
AcDbEntity
  8
0
100
AcDbLine
 10
931.2031
 20
76.1096
 30
0.0
 11
931.2031
 21
75.1676
 31
0.0
  0
LINE
  5
6DA
330
1D
100
AcDbEntity
  8
0
100
AcDbLine
 10
931.2031
 20
75.1677
 30
0.0
 11
931.2031
 21
76.1096
 31
0.0
  0
LINE
  5
6DB
330
1D
100
AcDbEntity
  8
0
100
AcDbLine
 10
931.2031
 20
74.2129
 30
0.0
 11
931.2031
 21
70.8521
 31
0.0
  0
LINE
  5
6DC
330
1D
100
AcDbEntity
  8
0
100
AcDbLine
 10
931.2031
 20
70.8521
 30
0.0
 11
931.2031
 21
74.2129
 31
0.0
  0
LINE
  5
6DD
330
1D
100
AcDbEntity
  8
0
100
AcDbLine
 10
931.2031
 20
78.9476
 30
0.0
 11
931.2031
 21
78.3982
 31
0.0
  0
LINE
  5
6DE
330
1D
100
AcDbEntity
  8
0
100
AcDbLine
 10
931.2031
 20
78.3983
 30
0.0
 11
931.2031
 21
78.9476
 31
0.0
  0
LINE
  5
6DF
330
1D
100
AcDbEntity
  8
0
100
AcDbLine
 10
931.2031
 20
77.0706
 30
0.0
 11
931.2031
 21
79.0802
 31
0.0
  0
LINE
  5
6E0
330
1D
100
AcDbEntity
  8
0
100
AcDbLine
 10
931.2031
 20
79.0802
 30
0.0
 11
931.2031
 21
77.0706
 31
0.0
  0
LINE
  5
6E1
330
1D
100
AcDbEntity
  8
0
100
AcDbLine
 10
931.2031
 20
78.3982
 30
0.0
 11
931.2031
 21
77.7359
 31
0.0
  0
LINE
  5
6E2
330
1D
100
AcDbEntity
  8
0
100
AcDbLine
 10
931.2031
 20
77.7359
 30
0.0
 11
931.2031
 21
78.3983
 31
0.0
  0
LINE
  5
6E3
330
1D
100
AcDbEntity
  8
0
100
AcDbLine
 10
931.2031
 20
77.7359
 30
0.0
 11
931.2031
 21
76.9695
 31
0.0
  0
LINE
  5
6E4
330
1D
100
AcDbEntity
  8
0
100
AcDbLine
 10
931.2031
 20
76.9697
 30
0.0
 11
931.2031
 21
77.7359
 31
0.0
  0
LINE
  5
6E5
330
1D
100
AcDbEntity
  8
0
100
AcDbLine
 10
931.2031
 20
79.3763
 30
0.0
 11
931.2031
 21
78.9476
 31
0.0
  0
LINE
  5
6E6
330
1D
100
AcDbEntity
  8
0
100
AcDbLine
 10
931.2031
 20
78.9476
 30
0.0
 11
931.2031
 21
79.3763
 31
0.0
  0
LINE
  5
6E7
330
1D
100
AcDbEntity
  8
0
100
AcDbLine
 10
931.2031
 20
80.0
 30
0.0
 11
931.2031
 21
79.0802
 31
0.0
  0
LINE
  5
6E8
330
1D
100
AcDbEntity
  8
0
100
AcDbLine
 10
931.2031
 20
79.0802
 30
0.0
 11
931.2031
 21
80.0
 31
0.0
  0
LINE
  5
6E9
330
1D
100
AcDbEntity
  8
0
100
AcDbLine
 10
931.91272
 20
79.4016
 30
0.0
 11
931.84296
 21
79.6076
 31
0.0
  0
LINE
  5
6EA
330
1D
100
AcDbEntity
  8
0
100
AcDbLine
 10
931.66107
 20
79.8255
 30
0.0
 11
931.41476
 21
79.8908
 31
0.0
  0
LINE
  5
6EB
330
1D
100
AcDbEntity
  8
0
100
AcDbLine
 10
931.2031
 20
79.8908
 30
0.0
 11
931.2031
 21
80.0
 31
0.0
  0
LINE
  5
6EC
330
1D
100
AcDbEntity
  8
0
100
AcDbLine
 10
931.41476
 20
79.8908
 30
0.0
 11
931.2031
 21
79.8908
 31
0.0
  0
LINE
  5
6ED
330
1D
100
AcDbEntity
  8
0
100
AcDbLine
 10
931.2031
 20
79.8512
 30
0.0
 11
931.2031
 21
79.6789
 31
0.0
  0
LINE
  5
6EE
330
1D
100
AcDbEntity
  8
0
100
AcDbLine
 10
931.2031
 20
79.6789
 30
0.0
 11
931.2031
 21
79.8512
 31
0.0
  0
LINE
  5
6EF
330
1D
100
AcDbEntity
  8
0
100
AcDbLine
 10
931.2031
 20
79.6789
 30
0.0
 11
931.2031
 21
79.3763
 31
0.0
  0
LINE
  5
6F0
330
1D
100
AcDbEntity
  8
0
100
AcDbLine
 10
931.2031
 20
79.3763
 30
0.0
 11
931.2031
 21
79.6789
 31
0.0
  0
LINE
  5
6F1
330
1D
100
AcDbEntity
  8
0
100
AcDbLine
 10
931.2031
 20
80.0
 30
0.0
 11
931.2031
 21
79.8908
 31
0.0
  0
LINE
  5
6F2
330
1D
100
AcDbEntity
  8
0
100
AcDbLine
 10
931.84296
 20
79.6076
 30
0.0
 11
931.66107
 21
79.8255
 31
0.0
  0
LINE
  5
6F3
330
1D
100
AcDbEntity
  8
0
100
AcDbLine
 10
894.8316
 20
55.9843
 30
0.0
 11
894.8075
 21
56.2027
 31
0.0
  0
LINE
  5
6F4
330
1D
100
AcDbEntity
  8
0
100
AcDbLine
 10
894.2843
 20
56.8768
 30
0.0
 11
893.8358
 21
56.9841
 31
0.0
  0
LINE
  5
6F5
330
1D
100
AcDbEntity
  8
0
100
AcDbLine
 10
894.6212
 20
56.5987
 30
0.0
 11
894.2843
 21
56.8768
 31
0.0
  0
LINE
  5
6F6
330
1D
100
AcDbEntity
  8
0
100
AcDbLine
 10
894.8075
 20
56.2027
 30
0.0
 11
894.6212
 21
56.5987
 31
0.0
  0
LINE
  5
6F7
330
1D
100
AcDbEntity
  8
0
100
AcDbLine
 10
872.1795
 20
45.0561
 30
0.0
 11
871.290319456612
 21
60.0835
 31
0.0
  0
LINE
  5
6F8
330
1D
100
AcDbEntity
  8
0
100
AcDbLine
 10
861.621205144377
 20
60.0835
 30
0.0
 11
860.7321
 21
45.0561
 31
0.0
  0
LINE
  5
6F9
330
1D
100
AcDbEntity
  8
0
100
AcDbLine
 10
838.0799
 20
55.9843
 30
0.0
 11
838.0799
 21
0.999865
 31
0.0
  0
LINE
  5
6FA
330
1D
100
AcDbEntity
  8
0
100
AcDbLine
 10
855.3876
 20
11.8593
 30
0.0
 11
854.3279
 21
12.6222
 31
0.0
  0
LINE
  5
6FB
330
1D
100
AcDbEntity
  8
0
100
AcDbLine
 10
855.3875
 20
11.8597
 30
0.0
 11
854.3278
 21
12.6219
 31
0.0
  0
LINE
  5
6FC
330
1D
100
AcDbEntity
  8
0
100
AcDbLine
 10
856.4946
 20
45.8162
 30
0.0
 11
854.3278
 21
44.3623
 31
0.0
  0
LINE
  5
6FD
330
1D
100
AcDbEntity
  8
0
100
AcDbLine
 10
856.4945
 20
45.8162
 30
0.0
 11
854.3279
 21
44.3621
 31
0.0
  0
LINE
  5
6FE
330
1D
100
AcDbEntity
  8
0
100
AcDbLine
 10
869.0561
 20
8.65928
 30
0.0
 11
866.4558
 21
8.48821
 31
0.0
  0
LINE
  5
6FF
330
1D
100
AcDbEntity
  8
0
100
AcDbLine
 10
869.0563
 20
8.65924
 30
0.0
 11
866.4558
 21
8.4881
 31
0.0
  0
LINE
  5
700
330
1D
100
AcDbEntity
  8
0
100
AcDbLine
 10
879.5914
 20
13.4524
 30
0.0
 11
878.5836
 21
12.6222
 31
0.0
  0
LINE
  5
701
330
1D
100
AcDbEntity
  8
0
100
AcDbLine
 10
879.5913
 20
13.452
 30
0.0
 11
878.5838
 21
12.6219
 31
0.0
  0
LINE
  5
702
330
1D
100
AcDbEntity
  8
0
100
AcDbLine
 10
875.267
 20
10.5511
 30
0.0
 11
874.0796
 21
10.0109
 31
0.0
  0
LINE
  5
703
330
1D
100
AcDbEntity
  8
0
100
AcDbLine
 10
875.2672
 20
10.5514
 30
0.0
 11
874.0797
 21
10.0108
 31
0.0
  0
LINE
  5
704
330
1D
100
AcDbEntity
  8
0
100
AcDbLine
 10
878.5836
 20
12.6222
 30
0.0
 11
877.5239
 21
11.8593
 31
0.0
  0
LINE
  5
705
330
1D
100
AcDbEntity
  8
0
100
AcDbLine
 10
878.5838
 20
12.6219
 30
0.0
 11
877.5241
 21
11.8597
 31
0.0
  0
LINE
  5
706
330
1D
100
AcDbEntity
  8
0
100
AcDbLine
 10
877.5239
 20
11.8593
 30
0.0
 11
876.417
 21
11.1681
 31
0.0
  0
LINE
  5
707
330
1D
100
AcDbEntity
  8
0
100
AcDbLine
 10
877.5241
 20
11.8597
 30
0.0
 11
876.417
 21
11.168
 31
0.0
  0
LINE
  5
708
330
1D
100
AcDbEntity
  8
0
100
AcDbLine
 10
876.417
 20
11.1681
 30
0.0
 11
875.267
 21
10.5511
 31
0.0
  0
LINE
  5
709
330
1D
100
AcDbEntity
  8
0
100
AcDbLine
 10
876.417
 20
11.168
 30
0.0
 11
875.2672
 21
10.5514
 31
0.0
  0
LINE
  5
70A
330
1D
100
AcDbEntity
  8
0
100
AcDbLine
 10
872.8597
 20
9.54986
 30
0.0
 11
871.6121
 21
9.16998
 31
0.0
  0
LINE
  5
70B
330
1D
100
AcDbEntity
  8
0
100
AcDbLine
 10
871.6122
 20
9.16947
 30
0.0
 11
869.0563
 21
8.65924
 31
0.0
  0
LINE
  5
70C
330
1D
100
AcDbEntity
  8
0
100
AcDbLine
 10
872.8595
 20
9.55014
 30
0.0
 11
871.6122
 21
9.16947
 31
0.0
  0
LINE
  5
70D
330
1D
100
AcDbEntity
  8
0
100
AcDbLine
 10
874.0796
 20
10.0109
 30
0.0
 11
872.8597
 21
9.54986
 31
0.0
  0
LINE
  5
70E
330
1D
100
AcDbEntity
  8
0
100
AcDbLine
 10
874.0797
 20
10.0108
 30
0.0
 11
872.8595
 21
9.55014
 31
0.0
  0
LINE
  5
70F
330
1D
100
AcDbEntity
  8
0
100
AcDbLine
 10
871.6121
 20
9.16998
 30
0.0
 11
869.0561
 21
8.65928
 31
0.0
  0
LINE
  5
710
330
1D
100
AcDbEntity
  8
0
100
AcDbLine
 10
880.5429
 20
14.3474
 30
0.0
 11
879.5914
 21
13.4524
 31
0.0
  0
LINE
  5
711
330
1D
100
AcDbEntity
  8
0
100
AcDbLine
 10
880.5431
 20
14.3469
 30
0.0
 11
879.5913
 21
13.452
 31
0.0
  0
LINE
  5
712
330
1D
100
AcDbEntity
  8
0
100
AcDbLine
 10
863.8553
 20
8.65924
 30
0.0
 11
861.2994
 21
9.16947
 31
0.0
  0
LINE
  5
713
330
1D
100
AcDbEntity
  8
0
100
AcDbLine
 10
863.8554
 20
8.65928
 30
0.0
 11
861.2994
 21
9.16998
 31
0.0
  0
LINE
  5
714
330
1D
100
AcDbEntity
  8
0
100
AcDbLine
 10
866.4558
 20
8.48821
 30
0.0
 11
863.8554
 21
8.65928
 31
0.0
  0
LINE
  5
715
330
1D
100
AcDbEntity
  8
0
100
AcDbLine
 10
866.4558
 20
8.4881
 30
0.0
 11
863.8553
 21
8.65924
 31
0.0
  0
LINE
  5
716
330
1D
100
AcDbEntity
  8
0
100
AcDbLine
 10
861.2994
 20
9.16998
 30
0.0
 11
860.0518
 21
9.54986
 31
0.0
  0
LINE
  5
717
330
1D
100
AcDbEntity
  8
0
100
AcDbLine
 10
860.0518
 20
9.54986
 30
0.0
 11
858.8319
 21
10.0108
 31
0.0
  0
LINE
  5
718
330
1D
100
AcDbEntity
  8
0
100
AcDbLine
 10
860.0521
 20
9.55014
 30
0.0
 11
858.8319
 21
10.0108
 31
0.0
  0
LINE
  5
719
330
1D
100
AcDbEntity
  8
0
100
AcDbLine
 10
861.2994
 20
9.16947
 30
0.0
 11
860.0521
 21
9.55014
 31
0.0
  0
LINE
  5
71A
330
1D
100
AcDbEntity
  8
0
100
AcDbLine
 10
857.6445
 20
10.5511
 30
0.0
 11
856.4945
 21
11.1681
 31
0.0
  0
LINE
  5
71B
330
1D
100
AcDbEntity
  8
0
100
AcDbLine
 10
856.4946
 20
11.168
 30
0.0
 11
855.3875
 21
11.8597
 31
0.0
  0
LINE
  5
71C
330
1D
100
AcDbEntity
  8
0
100
AcDbLine
 10
857.6443
 20
10.5514
 30
0.0
 11
856.4946
 21
11.168
 31
0.0
  0
LINE
  5
71D
330
1D
100
AcDbEntity
  8
0
100
AcDbLine
 10
856.4945
 20
11.1681
 30
0.0
 11
855.3876
 21
11.8593
 31
0.0
  0
LINE
  5
71E
330
1D
100
AcDbEntity
  8
0
100
AcDbLine
 10
858.8319
 20
10.0108
 30
0.0
 11
857.6443
 21
10.5514
 31
0.0
  0
LINE
  5
71F
330
1D
100
AcDbEntity
  8
0
100
AcDbLine
 10
858.8319
 20
10.0108
 30
0.0
 11
857.6445
 21
10.5511
 31
0.0
  0
LINE
  5
720
330
1D
100
AcDbEntity
  8
0
100
AcDbLine
 10
869.3176
 20
41.0294
 30
0.0
 11
867.9372
 21
40.5648
 31
0.0
  0
LINE
  5
721
330
1D
100
AcDbEntity
  8
0
100
AcDbLine
 10
869.3176
 20
41.0294
 30
0.0
 11
867.9371
 21
40.5646
 31
0.0
  0
LINE
  5
722
330
1D
100
AcDbEntity
  8
0
100
AcDbLine
 10
876.417
 20
45.8162
 30
0.0
 11
874.0796
 21
46.9734
 31
0.0
  0
LINE
  5
723
330
1D
100
AcDbEntity
  8
0
100
AcDbLine
 10
876.417
 20
45.8162
 30
0.0
 11
874.0797
 21
46.9734
 31
0.0
  0
LINE
  5
724
330
1D
100
AcDbEntity
  8
0
100
AcDbLine
 10
880.5431
 20
42.6372
 30
0.0
 11
878.5838
 21
44.3623
 31
0.0
  0
LINE
  5
725
330
1D
100
AcDbEntity
  8
0
100
AcDbLine
 10
878.5838
 20
44.3623
 30
0.0
 11
876.417
 21
45.8162
 31
0.0
  0
LINE
  5
726
330
1D
100
AcDbEntity
  8
0
100
AcDbLine
 10
878.5836
 20
44.3621
 30
0.0
 11
876.417
 21
45.8162
 31
0.0
  0
LINE
  5
727
330
1D
100
AcDbEntity
  8
0
100
AcDbLine
 10
880.5429
 20
42.6369
 30
0.0
 11
878.5836
 21
44.3621
 31
0.0
  0
LINE
  5
728
330
1D
100
AcDbEntity
  8
0
100
AcDbLine
 10
871.9845
 20
43.8527
 30
0.0
 11
871.4127
 21
42.7313
 31
0.0
  0
LINE
  5
729
330
1D
100
AcDbEntity
  8
0
100
AcDbLine
 10
871.9845
 20
43.8525
 30
0.0
 11
871.4126
 21
42.7313
 31
0.0
  0
LINE
  5
72A
330
1D
100
AcDbEntity
  8
0
100
AcDbLine
 10
872.1794
 20
45.0558
 30
0.0
 11
871.9845
 21
43.8527
 31
0.0
  0
LINE
  5
72B
330
1D
100
AcDbEntity
  8
0
100
AcDbLine
 10
870.503
 20
41.7684
 30
0.0
 11
869.3176
 21
41.0294
 31
0.0
  0
LINE
  5
72C
330
1D
100
AcDbEntity
  8
0
100
AcDbLine
 10
871.4127
 20
42.7313
 30
0.0
 11
870.5031
 21
41.7684
 31
0.0
  0
LINE
  5
72D
330
1D
100
AcDbEntity
  8
0
100
AcDbLine
 10
871.4126
 20
42.7313
 30
0.0
 11
870.503
 21
41.7684
 31
0.0
  0
LINE
  5
72E
330
1D
100
AcDbEntity
  8
0
100
AcDbLine
 10
870.5031
 20
41.7684
 30
0.0
 11
869.3176
 21
41.0294
 31
0.0
  0
LINE
  5
72F
330
1D
100
AcDbEntity
  8
0
100
AcDbLine
 10
874.0797
 20
46.9734
 30
0.0
 11
872.024591672796
 21
47.674094077275
 31
0.0
  0
LINE
  5
730
330
1D
100
AcDbEntity
  8
0
100
AcDbLine
 10
874.0796
 20
46.9734
 30
0.0
 11
872.024613849041
 21
47.67371929254
 31
0.0
  0
LINE
  5
731
330
1D
100
AcDbEntity
  8
0
100
AcDbLine
 10
872.1795
 20
45.0561
 30
0.0
 11
871.9845
 21
43.8525
 31
0.0
  0
LINE
  5
732
330
1D
100
AcDbEntity
  8
0
100
AcDbLine
 10
862.4084
 20
41.7684
 30
0.0
 11
861.4988
 21
42.7313
 31
0.0
  0
LINE
  5
733
330
1D
100
AcDbEntity
  8
0
100
AcDbLine
 10
862.4085
 20
41.7684
 30
0.0
 11
861.4989
 21
42.7313
 31
0.0
  0
LINE
  5
734
330
1D
100
AcDbEntity
  8
0
100
AcDbLine
 10
864.9744
 20
40.5646
 30
0.0
 11
863.594
 21
41.0294
 31
0.0
  0
LINE
  5
735
330
1D
100
AcDbEntity
  8
0
100
AcDbLine
 10
864.9744
 20
40.5648
 30
0.0
 11
863.5939
 21
41.0294
 31
0.0
  0
LINE
  5
736
330
1D
100
AcDbEntity
  8
0
100
AcDbLine
 10
867.9371
 20
40.5646
 30
0.0
 11
866.4558
 21
40.4067
 31
0.0
  0
LINE
  5
737
330
1D
100
AcDbEntity
  8
0
100
AcDbLine
 10
866.4558
 20
40.4067
 30
0.0
 11
864.9744
 21
40.5646
 31
0.0
  0
LINE
  5
738
330
1D
100
AcDbEntity
  8
0
100
AcDbLine
 10
867.9372
 20
40.5648
 30
0.0
 11
866.4558
 21
40.4065
 31
0.0
  0
LINE
  5
739
330
1D
100
AcDbEntity
  8
0
100
AcDbLine
 10
866.4558
 20
40.4065
 30
0.0
 11
864.9744
 21
40.5648
 31
0.0
  0
LINE
  5
73A
330
1D
100
AcDbEntity
  8
0
100
AcDbLine
 10
863.5939
 20
41.0294
 30
0.0
 11
862.4085
 21
41.7684
 31
0.0
  0
LINE
  5
73B
330
1D
100
AcDbEntity
  8
0
100
AcDbLine
 10
863.594
 20
41.0294
 30
0.0
 11
862.4084
 21
41.7684
 31
0.0
  0
LINE
  5
73C
330
1D
100
AcDbEntity
  8
0
100
AcDbLine
 10
861.4988
 20
42.7313
 30
0.0
 11
860.927
 21
43.8527
 31
0.0
  0
LINE
  5
73D
330
1D
100
AcDbEntity
  8
0
100
AcDbLine
 10
861.4989
 20
42.7313
 30
0.0
 11
860.9271
 21
43.8525
 31
0.0
  0
LINE
  5
73E
330
1D
100
AcDbEntity
  8
0
100
AcDbLine
 10
860.886994921151
 20
47.67408950645
 30
0.0
 11
858.8319
 21
46.9734
 31
0.0
  0
LINE
  5
73F
330
1D
100
AcDbEntity
  8
0
100
AcDbLine
 10
858.8319
 20
46.9734
 30
0.0
 11
856.4945
 21
45.8162
 31
0.0
  0
LINE
  5
740
330
1D
100
AcDbEntity
  8
0
100
AcDbLine
 10
858.8319
 20
46.9734
 30
0.0
 11
856.4946
 21
45.8162
 31
0.0
  0
LINE
  5
741
330
1D
100
AcDbEntity
  8
0
100
AcDbLine
 10
860.886974804755
 20
47.673749504891
 30
0.0
 11
858.8319
 21
46.9734
 31
0.0
  0
LINE
  5
742
330
1D
100
AcDbEntity
  8
0
100
AcDbLine
 10
860.927
 20
43.8527
 30
0.0
 11
860.7322
 21
45.0558
 31
0.0
  0
LINE
  5
743
330
1D
100
AcDbEntity
  8
0
100
AcDbLine
 10
860.9271
 20
43.8525
 30
0.0
 11
860.7321
 21
45.0561
 31
0.0
  0
LINE
  5
744
330
1D
100
AcDbEntity
  8
0
100
AcDbLine
 10
846.756
 20
25.5097
 30
0.0
 11
846.5891
 21
26.9965
 31
0.0
  0
LINE
  5
745
330
1D
100
AcDbEntity
  8
0
100
AcDbLine
 10
846.756
 20
25.5095
 30
0.0
 11
846.5892
 21
26.997
 31
0.0
  0
LINE
  5
746
330
1D
100
AcDbEntity
  8
0
100
AcDbLine
 10
854.3279
 20
12.6222
 30
0.0
 11
853.3202
 21
13.4524
 31
0.0
  0
LINE
  5
747
330
1D
100
AcDbEntity
  8
0
100
AcDbLine
 10
854.3278
 20
12.6219
 30
0.0
 11
853.3202
 21
13.452
 31
0.0
  0
LINE
  5
748
330
1D
100
AcDbEntity
  8
0
100
AcDbLine
 10
849.2041
 20
18.4877
 30
0.0
 11
848.5077
 21
19.8103
 31
0.0
  0
LINE
  5
749
330
1D
100
AcDbEntity
  8
0
100
AcDbLine
 10
849.204
 20
18.4879
 30
0.0
 11
848.5075
 21
19.8106
 31
0.0
  0
LINE
  5
74A
330
1D
100
AcDbEntity
  8
0
100
AcDbLine
 10
853.3202
 20
13.4524
 30
0.0
 11
852.3687
 21
14.3474
 31
0.0
  0
LINE
  5
74B
330
1D
100
AcDbEntity
  8
0
100
AcDbLine
 10
852.3687
 20
14.3474
 30
0.0
 11
851.1159
 21
15.7285
 31
0.0
  0
LINE
  5
74C
330
1D
100
AcDbEntity
  8
0
100
AcDbLine
 10
851.1159
 20
15.7285
 30
0.0
 11
849.9973
 21
17.2211
 31
0.0
  0
LINE
  5
74D
330
1D
100
AcDbEntity
  8
0
100
AcDbLine
 10
851.116
 20
15.728
 30
0.0
 11
849.9973
 21
17.2211
 31
0.0
  0
LINE
  5
74E
330
1D
100
AcDbEntity
  8
0
100
AcDbLine
 10
852.3684
 20
14.3469
 30
0.0
 11
851.116
 21
15.728
 31
0.0
  0
LINE
  5
74F
330
1D
100
AcDbEntity
  8
0
100
AcDbLine
 10
853.3202
 20
13.452
 30
0.0
 11
852.3684
 21
14.3469
 31
0.0
  0
LINE
  5
750
330
1D
100
AcDbEntity
  8
0
100
AcDbLine
 10
849.9973
 20
17.2211
 30
0.0
 11
849.204
 21
18.4879
 31
0.0
  0
LINE
  5
751
330
1D
100
AcDbEntity
  8
0
100
AcDbLine
 10
849.9973
 20
17.2211
 30
0.0
 11
849.2041
 21
18.4877
 31
0.0
  0
LINE
  5
752
330
1D
100
AcDbEntity
  8
0
100
AcDbLine
 10
848.5077
 20
19.8103
 30
0.0
 11
847.9115
 21
21.182
 31
0.0
  0
LINE
  5
753
330
1D
100
AcDbEntity
  8
0
100
AcDbLine
 10
847.9115
 20
21.182
 30
0.0
 11
847.4191
 21
22.594
 31
0.0
  0
LINE
  5
754
330
1D
100
AcDbEntity
  8
0
100
AcDbLine
 10
848.5075
 20
19.8106
 30
0.0
 11
847.9113
 21
21.1822
 31
0.0
  0
LINE
  5
755
330
1D
100
AcDbEntity
  8
0
100
AcDbLine
 10
847.4191
 20
22.594
 30
0.0
 11
847.0333
 21
24.0393
 31
0.0
  0
LINE
  5
756
330
1D
100
AcDbEntity
  8
0
100
AcDbLine
 10
847.0333
 20
24.0393
 30
0.0
 11
846.756
 21
25.5097
 31
0.0
  0
LINE
  5
757
330
1D
100
AcDbEntity
  8
0
100
AcDbLine
 10
847.0332
 20
24.0396
 30
0.0
 11
846.756
 21
25.5095
 31
0.0
  0
LINE
  5
758
330
1D
100
AcDbEntity
  8
0
100
AcDbLine
 10
847.4191
 20
22.5945
 30
0.0
 11
847.0332
 21
24.0396
 31
0.0
  0
LINE
  5
759
330
1D
100
AcDbEntity
  8
0
100
AcDbLine
 10
847.9113
 20
21.1822
 30
0.0
 11
847.4191
 21
22.5945
 31
0.0
  0
LINE
  5
75A
330
1D
100
AcDbEntity
  8
0
100
AcDbLine
 10
839.0757
 20
0.000013
 30
0.0
 11
838.6272
 21
0.107303
 31
0.0
  0
LINE
  5
75B
330
1D
100
AcDbEntity
  8
0
100
AcDbLine
 10
838.6272
 20
0.107303
 30
0.0
 11
838.2903
 21
0.385435
 31
0.0
  0
LINE
  5
75C
330
1D
100
AcDbEntity
  8
0
100
AcDbLine
 10
838.2903
 20
0.385435
 30
0.0
 11
838.1041
 21
0.781422
 31
0.0
  0
LINE
  5
75D
330
1D
100
AcDbEntity
  8
0
100
AcDbLine
 10
839.0757
 20
0.000013
 30
0.0
 11
838.6272
 21
0.107303
 31
0.0
  0
LINE
  5
75E
330
1D
100
AcDbEntity
  8
0
100
AcDbLine
 10
838.1041
 20
0.781422
 30
0.0
 11
838.0799
 21
0.999865
 31
0.0
  0
LINE
  5
75F
330
1D
100
AcDbEntity
  8
0
100
AcDbLine
 10
849.5713
 20
39.1092
 30
0.0
 11
848.487
 21
37.1312
 31
0.0
  0
LINE
  5
760
330
1D
100
AcDbEntity
  8
0
100
AcDbLine
 10
849.5712
 20
39.1096
 30
0.0
 11
848.4872
 21
37.1311
 31
0.0
  0
LINE
  5
761
330
1D
100
AcDbEntity
  8
0
100
AcDbLine
 10
847.4099
 20
34.3595
 30
0.0
 11
847.0281
 21
32.9218
 31
0.0
  0
LINE
  5
762
330
1D
100
AcDbEntity
  8
0
100
AcDbLine
 10
847.8972
 20
35.7652
 30
0.0
 11
847.4099
 21
34.3595
 31
0.0
  0
LINE
  5
763
330
1D
100
AcDbEntity
  8
0
100
AcDbLine
 10
848.487
 20
37.1312
 30
0.0
 11
847.8972
 21
35.7652
 31
0.0
  0
LINE
  5
764
330
1D
100
AcDbEntity
  8
0
100
AcDbLine
 10
848.4872
 20
37.1311
 30
0.0
 11
847.897
 21
35.7652
 31
0.0
  0
LINE
  5
765
330
1D
100
AcDbEntity
  8
0
100
AcDbLine
 10
847.897
 20
35.7652
 30
0.0
 11
847.4099
 21
34.3601
 31
0.0
  0
LINE
  5
766
330
1D
100
AcDbEntity
  8
0
100
AcDbLine
 10
847.4099
 20
34.3601
 30
0.0
 11
847.028
 21
32.9214
 31
0.0
  0
LINE
  5
767
330
1D
100
AcDbEntity
  8
0
100
AcDbLine
 10
847.0281
 20
32.9218
 30
0.0
 11
846.7539
 21
31.4588
 31
0.0
  0
LINE
  5
768
330
1D
100
AcDbEntity
  8
0
100
AcDbLine
 10
846.5891
 20
26.9965
 30
0.0
 11
846.5335
 21
28.4922
 31
0.0
  0
LINE
  5
769
330
1D
100
AcDbEntity
  8
0
100
AcDbLine
 10
846.7539
 20
31.4588
 30
0.0
 11
846.5885
 21
29.9796
 31
0.0
  0
LINE
  5
76A
330
1D
100
AcDbEntity
  8
0
100
AcDbLine
 10
846.7536
 20
31.4587
 30
0.0
 11
846.5888
 21
29.9792
 31
0.0
  0
LINE
  5
76B
330
1D
100
AcDbEntity
  8
0
100
AcDbLine
 10
846.5885
 20
29.9796
 30
0.0
 11
846.5335
 21
28.4922
 31
0.0
  0
LINE
  5
76C
330
1D
100
AcDbEntity
  8
0
100
AcDbLine
 10
846.5888
 20
29.9792
 30
0.0
 11
846.5334
 21
28.4917
 31
0.0
  0
LINE
  5
76D
330
1D
100
AcDbEntity
  8
0
100
AcDbLine
 10
846.5892
 20
26.997
 30
0.0
 11
846.5334
 21
28.4917
 31
0.0
  0
LINE
  5
76E
330
1D
100
AcDbEntity
  8
0
100
AcDbLine
 10
847.028
 20
32.9214
 30
0.0
 11
846.7536
 21
31.4587
 31
0.0
  0
LINE
  5
76F
330
1D
100
AcDbEntity
  8
0
100
AcDbLine
 10
852.3687
 20
42.6369
 30
0.0
 11
850.8706
 21
40.9526
 31
0.0
  0
LINE
  5
770
330
1D
100
AcDbEntity
  8
0
100
AcDbLine
 10
854.3278
 20
44.3623
 30
0.0
 11
852.3684
 21
42.6372
 31
0.0
  0
LINE
  5
771
330
1D
100
AcDbEntity
  8
0
100
AcDbLine
 10
854.3279
 20
44.3621
 30
0.0
 11
852.3687
 21
42.6369
 31
0.0
  0
LINE
  5
772
330
1D
100
AcDbEntity
  8
0
100
AcDbLine
 10
850.8706
 20
40.9526
 30
0.0
 11
849.5713
 21
39.1092
 31
0.0
  0
LINE
  5
773
330
1D
100
AcDbEntity
  8
0
100
AcDbLine
 10
852.3684
 20
42.6372
 30
0.0
 11
850.8706
 21
40.9522
 31
0.0
  0
LINE
  5
774
330
1D
100
AcDbEntity
  8
0
100
AcDbLine
 10
850.8706
 20
40.9522
 30
0.0
 11
849.5712
 21
39.1096
 31
0.0
  0
LINE
  5
775
330
1D
100
AcDbEntity
  8
0
100
AcDbLine
 10
839.0757
 20
56.9841
 30
0.0
 11
861.437827282306
 21
56.9841
 31
0.0
  0
LINE
  5
776
330
1D
100
AcDbEntity
  8
0
100
AcDbLine
 10
839.0757
 20
56.9841
 30
0.0
 11
838.8582
 21
56.9599
 31
0.0
  0
LINE
  5
777
330
1D
100
AcDbEntity
  8
0
100
AcDbLine
 10
838.8582
 20
56.9599
 30
0.0
 11
838.4638
 21
56.7729
 31
0.0
  0
LINE
  5
778
330
1D
100
AcDbEntity
  8
0
100
AcDbLine
 10
838.4638
 20
56.7729
 30
0.0
 11
838.1868
 21
56.4346
 31
0.0
  0
LINE
  5
779
330
1D
100
AcDbEntity
  8
0
100
AcDbLine
 10
838.1868
 20
56.4346
 30
0.0
 11
838.0799
 21
55.9843
 31
0.0
  0
ENDSEC
  0
SECTION
  2
OBJECTS
  0
DICTIONARY
  5
C
330
0
100
AcDbDictionary
281
     1
  3
ACAD_GROUP
350
D
  3
ACAD_LAYOUT
350
1A
  3
ACAD_MLEADERSTYLE
350
77C
  3
ACAD_MLINESTYLE
350
17
  3
ACAD_PLOTSETTINGS
350
19
  3
ACAD_PLOTSTYLENAME
350
E
  3
ACAD_SCALELIST
350
641
  3
AcDbVariableDictionary
350
77A
  3
DWGPROPS
350
783
  0
DICTIONARY
  5
D
102
{ACAD_REACTORS
330
C
102
}
330
C
100
AcDbDictionary
281
     1
  0
DICTIONARY
  5
1A
102
{ACAD_REACTORS
330
C
102
}
330
C
100
AcDbDictionary
281
     1
  3
Layout1
350
1C
  3
Model
350
1E
  0
DICTIONARY
  5
77C
102
{ACAD_REACTORS
330
C
102
}
330
C
100
AcDbDictionary
281
     1
  0
DICTIONARY
  5
17
102
{ACAD_REACTORS
330
C
102
}
330
C
100
AcDbDictionary
281
     1
  3
Standard
350
18
  0
DICTIONARY
  5
19
102
{ACAD_REACTORS
330
C
102
}
330
C
100
AcDbDictionary
281
     1
  0
ACDBDICTIONARYWDFLT
  5
E
102
{ACAD_REACTORS
330
C
102
}
330
C
100
AcDbDictionary
281
     1
  3
Normal
350
F
100
AcDbDictionaryWithDefault
340
F
  0
DICTIONARY
  5
641
102
{ACAD_REACTORS
330
C
102
}
330
C
100
AcDbDictionary
281
     1
  3
A0
350
642
  3
A1
350
643
  3
A2
350
644
  3
A3
350
645
  3
A4
350
646
  3
A5
350
647
  3
A6
350
648
  3
A7
350
649
  3
A8
350
64A
  3
A9
350
64B
  3
B0
350
64C
  3
B1
350
64D
  3
B2
350
64E
  3
B3
350
64F
  3
B4
350
650
  3
B5
350
651
  3
B6
350
652
  3
B7
350
653
  3
B8
350
654
  3
B9
350
655
  3
C0
350
656
  3
C1
350
657
  3
C2
350
658
  3
C3
350
659
  3
C4
350
65A
  3
C5
350
65B
  3
C6
350
65C
  3
C7
350
65D
  3
C8
350
65E
  3
C9
350
65F
  3
D0
350
660
  3
D1
350
661
  3
D2
350
662
  0
DICTIONARY
  5
77A
102
{ACAD_REACTORS
330
C
102
}
330
C
100
AcDbDictionary
281
     1
  3
CANNOSCALE
350
77D
  0
XRECORD
  5
783
102
{ACAD_REACTORS
330
C
102
}
330
C
100
AcDbXrecord
280
     1
  1
DWGPROPS COOKIE
  2

  3

  4

  6

  7

  8
MARTIN
  9

300
=
301
=
302
=
303
=
304
=
305
=
306
=
307
=
308
=
309
=
 40
0.0
 41
2456183.521981516
 42
2456183.534967986
  1

 90
        0
  0
LAYOUT
  5
1C
102
{ACAD_REACTORS
330
1A
102
}
330
1A
100
AcDbPlotSettings
  1

  2
none_device
  4

  6

 40
0.0
 41
0.0
 42
0.0
 43
0.0
 44
0.0
 45
0.0
 46
0.0
 47
0.0
 48
0.0
 49
0.0
140
0.0
141
0.0
142
1.0
143
1.0
 70
   688
 72
     0
 73
     0
 74
     5
  7

 75
    16
147
1.0
148
0.0
149
0.0
100
AcDbLayout
  1
Layout1
 70
     1
 71
     1
 10
0.0
 20
0.0
 11
12.0
 21
9.0
 12
0.0
 22
0.0
 32
0.0
 14
1.000000000000E+20
 24
1.000000000000E+20
 34
1.000000000000E+20
 15
-1.000000000000E+20
 25
-1.000000000000E+20
 35
-1.000000000000E+20
146
0.0
 13
0.0
 23
0.0
 33
0.0
 16
1.0
 26
0.0
 36
0.0
 17
0.0
 27
1.0
 37
0.0
 76
     0
330
1B
  0
LAYOUT
  5
1E
102
{ACAD_REACTORS
330
1A
102
}
330
1A
100
AcDbPlotSettings
  1

  2
none_device
  4

  6

 40
0.0
 41
0.0
 42
0.0
 43
0.0
 44
0.0
 45
0.0
 46
0.0
 47
0.0
 48
0.0
 49
0.0
140
0.0
141
0.0
142
1.0
143
1.0
 70
  1712
 72
     0
 73
     0
 74
     0
  7

 75
     0
147
1.0
148
0.0
149
0.0
100
AcDbLayout
  1
Model
 70
     1
 71
     0
 10
0.0
 20
0.0
 11
12.0
 21
9.0
 12
0.0
 22
0.0
 32
0.0
 14
0.08728
 24
0.0
 34
0.0
 15
931.91272
 25
80.0
 35
0.0
146
0.0
 13
0.0
 23
0.0
 33
0.0
 16
1.0
 26
0.0
 36
0.0
 17
0.0
 27
1.0
 37
0.0
 76
     0
330
1D
331
63C
  0
MLINESTYLE
  5
18
102
{ACAD_REACTORS
330
17
102
}
330
17
100
AcDbMlineStyle
  2
Standard
 70
     0
  3

 62
   256
 51
90.0
 52
90.0
 71
     2
 49
0.5
 62
   256
  6
BYLAYER
 49
-0.5
 62
   256
  6
BYLAYER
  0
ACDBPLACEHOLDER
  5
F
102
{ACAD_REACTORS
330
E
102
}
330
E
  0
SCALE
  5
642
102
{ACAD_REACTORS
330
641
102
}
330
641
100
AcDbScale
 70
     0
300
1:1
140
1.0
141
1.0
290
     1
  0
SCALE
  5
643
102
{ACAD_REACTORS
330
641
102
}
330
641
100
AcDbScale
 70
     0
300
1:2
140
1.0
141
2.0
290
     0
  0
SCALE
  5
644
102
{ACAD_REACTORS
330
641
102
}
330
641
100
AcDbScale
 70
     0
300
1:4
140
1.0
141
4.0
290
     0
  0
SCALE
  5
645
102
{ACAD_REACTORS
330
641
102
}
330
641
100
AcDbScale
 70
     0
300
1:5
140
1.0
141
5.0
290
     0
  0
SCALE
  5
646
102
{ACAD_REACTORS
330
641
102
}
330
641
100
AcDbScale
 70
     0
300
1:8
140
1.0
141
8.0
290
     0
  0
SCALE
  5
647
102
{ACAD_REACTORS
330
641
102
}
330
641
100
AcDbScale
 70
     0
300
1:10
140
1.0
141
10.0
290
     0
  0
SCALE
  5
648
102
{ACAD_REACTORS
330
641
102
}
330
641
100
AcDbScale
 70
     0
300
1:16
140
1.0
141
16.0
290
     0
  0
SCALE
  5
649
102
{ACAD_REACTORS
330
641
102
}
330
641
100
AcDbScale
 70
     0
300
1:20
140
1.0
141
20.0
290
     0
  0
SCALE
  5
64A
102
{ACAD_REACTORS
330
641
102
}
330
641
100
AcDbScale
 70
     0
300
1:30
140
1.0
141
30.0
290
     0
  0
SCALE
  5
64B
102
{ACAD_REACTORS
330
641
102
}
330
641
100
AcDbScale
 70
     0
300
1:40
140
1.0
141
40.0
290
     0
  0
SCALE
  5
64C
102
{ACAD_REACTORS
330
641
102
}
330
641
100
AcDbScale
 70
     0
300
1:50
140
1.0
141
50.0
290
     0
  0
SCALE
  5
64D
102
{ACAD_REACTORS
330
641
102
}
330
641
100
AcDbScale
 70
     0
300
1:100
140
1.0
141
100.0
290
     0
  0
SCALE
  5
64E
102
{ACAD_REACTORS
330
641
102
}
330
641
100
AcDbScale
 70
     0
300
2:1
140
2.0
141
1.0
290
     0
  0
SCALE
  5
64F
102
{ACAD_REACTORS
330
641
102
}
330
641
100
AcDbScale
 70
     0
300
4:1
140
4.0
141
1.0
290
     0
  0
SCALE
  5
650
102
{ACAD_REACTORS
330
641
102
}
330
641
100
AcDbScale
 70
     0
300
8:1
140
8.0
141
1.0
290
     0
  0
SCALE
  5
651
102
{ACAD_REACTORS
330
641
102
}
330
641
100
AcDbScale
 70
     0
300
10:1
140
10.0
141
1.0
290
     0
  0
SCALE
  5
652
102
{ACAD_REACTORS
330
641
102
}
330
641
100
AcDbScale
 70
     0
300
100:1
140
100.0
141
1.0
290
     0
  0
SCALE
  5
653
102
{ACAD_REACTORS
330
641
102
}
330
641
100
AcDbScale
 70
     0
300
1/128" = 1'-0"
140
0.0078125
141
12.0
290
     0
  0
SCALE
  5
654
102
{ACAD_REACTORS
330
641
102
}
330
641
100
AcDbScale
 70
     0
300
1/64" = 1'-0"
140
0.015625
141
12.0
290
     0
  0
SCALE
  5
655
102
{ACAD_REACTORS
330
641
102
}
330
641
100
AcDbScale
 70
     0
300
1/32" = 1'-0"
140
0.03125
141
12.0
290
     0
  0
SCALE
  5
656
102
{ACAD_REACTORS
330
641
102
}
330
641
100
AcDbScale
 70
     0
300
1/16" = 1'-0"
140
0.0625
141
12.0
290
     0
  0
SCALE
  5
657
102
{ACAD_REACTORS
330
641
102
}
330
641
100
AcDbScale
 70
     0
300
3/32" = 1'-0"
140
0.09375
141
12.0
290
     0
  0
SCALE
  5
658
102
{ACAD_REACTORS
330
641
102
}
330
641
100
AcDbScale
 70
     0
300
1/8" = 1'-0"
140
0.125
141
12.0
290
     0
  0
SCALE
  5
659
102
{ACAD_REACTORS
330
641
102
}
330
641
100
AcDbScale
 70
     0
300
3/16" = 1'-0"
140
0.1875
141
12.0
290
     0
  0
SCALE
  5
65A
102
{ACAD_REACTORS
330
641
102
}
330
641
100
AcDbScale
 70
     0
300
1/4" = 1'-0"
140
0.25
141
12.0
290
     0
  0
SCALE
  5
65B
102
{ACAD_REACTORS
330
641
102
}
330
641
100
AcDbScale
 70
     0
300
3/8" = 1'-0"
140
0.375
141
12.0
290
     0
  0
SCALE
  5
65C
102
{ACAD_REACTORS
330
641
102
}
330
641
100
AcDbScale
 70
     0
300
1/2" = 1'-0"
140
0.5
141
12.0
290
     0
  0
SCALE
  5
65D
102
{ACAD_REACTORS
330
641
102
}
330
641
100
AcDbScale
 70
     0
300
3/4" = 1'-0"
140
0.75
141
12.0
290
     0
  0
SCALE
  5
65E
102
{ACAD_REACTORS
330
641
102
}
330
641
100
AcDbScale
 70
     0
300
1" = 1'-0"
140
1.0
141
12.0
290
     0
  0
SCALE
  5
65F
102
{ACAD_REACTORS
330
641
102
}
330
641
100
AcDbScale
 70
     0
300
1-1/2" = 1'-0"
140
1.5
141
12.0
290
     0
  0
SCALE
  5
660
102
{ACAD_REACTORS
330
641
102
}
330
641
100
AcDbScale
 70
     0
300
3" = 1'-0"
140
3.0
141
12.0
290
     0
  0
SCALE
  5
661
102
{ACAD_REACTORS
330
641
102
}
330
641
100
AcDbScale
 70
     0
300
6" = 1'-0"
140
6.0
141
12.0
290
     0
  0
SCALE
  5
662
102
{ACAD_REACTORS
330
641
102
}
330
641
100
AcDbScale
 70
     0
300
1'-0" = 1'-0"
140
12.0
141
12.0
290
     0
  0
DICTIONARYVAR
  5
77D
102
{ACAD_REACTORS
330
77A
102
}
330
77A
100
DictionaryVariables
280
     0
  1
1:1
  0
ENDSEC
  0
SECTION
  2
THUMBNAILIMAGE
 90
    16364
310
28000000B40000005500000001000800000000000000000000000000000000000000000000000000FFFFFF000000FF0000FFFF0000FF0000FFFF0000FF000000FF00FF000000000080808000C0C0C0000000FF007F7FFF000000A5005252A50000007F003F3F7F0000004C0026264C000000260013132600003FFF007F9FFF
310
000029A5005267A500001F7F003F4F7F0000134C00262F4C000009260013172600007FFF007FBFFF000052A500527CA500003F7F003F5F7F0000264C0026394C0000132600131C260000BFFF007FDFFF00007CA5005291A500005F7F003F6F7F0000394C0026424C00001C26001321260000FFFF007FFFFF0000A5A50052A5
310
A500007F7F003F7F7F00004C4C00264C4C00002626001326260000FFBF007FFFDF0000A57C0052A59100007F5F003F7F6F00004C3900264C420000261C001326210000FF7F007FFFBF0000A5520052A57C00007F3F003F7F5F00004C2600264C39000026130013261C0000FF3F007FFF9F0000A5290052A56700007F1F003F
310
7F4F00004C1300264C2F00002609001326170000FF00007FFF7F0000A5000052A55200007F00003F7F3F00004C0000264C260000260000132613003FFF00009FFF7F0029A5000067A552001F7F00004F7F3F00134C00002F4C260009260000172613007FFF0000BFFF7F0052A500007CA552003F7F00005F7F3F00264C0000
310
394C2600132600001C261300BFFF0000DFFF7F007CA5000091A552005F7F00006F7F3F00394C0000424C26001C26000021261300FFFF0000FFFF7F00A5A50000A5A552007F7F00007F7F3F004C4C00004C4C26002626000026261300FFBF0000FFDF7F00A57C0000A59152007F5F00007F6F3F004C3900004C422600261C00
310
0026211300FF7F0000FFBF7F00A5520000A57C52007F3F00007F5F3F004C2600004C39260026130000261C1300FF3F0000FF9F7F00A5290000A56752007F1F00007F4F3F004C1300004C2F26002609000026171300FF000000FF7F7F00A5000000A55252007F0000007F3F3F004C0000004C2626002600000026131300FF00
310
3F00FF7F9F00A5002900A55267007F001F007F3F4F004C0013004C262F002600090026131700FF007F00FF7FBF00A5005200A5527C007F003F007F3F5F004C0026004C2639002600130026131C00FF00BF00FF7FDF00A5007C00A55291007F005F007F3F6F004C0039004C26420026001C0026132100FF00FF00FF7FFF00A5
310
00A500A552A5007F007F007F3F7F004C004C004C264C002600260026132600BF00FF00DF7FFF007C00A5009152A5005F007F006F3F7F0039004C0042264C001C002600211326007F00FF00BF7FFF005200A5007C52A5003F007F005F3F7F0026004C0039264C00130026001C1326003F00FF009F7FFF002900A5006752A500
310
1F007F004F3F7F0013004C002F264C000900260017132600000000002D2D2D005B5B5B0089898900B7B7B700B3B3B30000000000000000000000000000000000000000000000000000000000000000000000000000000000000000000000000000000000000000000000000000000000000000000000000000000000000000
310
00000000000000000000000000000000000000000000000000000000000000000000000000000000000000000000000000000000000000000000000000000000000000000000000000000000000000000000000000000000000000000000000000000000000000000000000000000000000000000000000000000000000000
310
00000000000000000000000000000000000000000000000000000000000000000000000000000000000000000000000000000000000000000000000000000000000000000000000000000000000000000000000000000000000000000000000000000000000000000000000000000000000000000000000000000000000000
310
00000000000000000000000000000000000000000000000000000000000000000000000000000000000000000000000000000000000000000000000000000000000000000000000000000000000000000000000000000000000000000000000000000000000000000000000000000000000000000000000000000000000000
310
00000000000000000000000000000000000000000000000000000000000000000000000000000000000000000000000000000000000000000000000000000000000000000000000000000000000000000000000000000000000000000000000000000000000000000000000000000000000000000000000000000000000000
310
00000000000000000000000000000000000000000000000000000000000000000000000000000000000000000000000000000000000000000000000000000000000000000000000000000000000000000000000000000000000000000000000000000000000000000000000000000000000000000000000000000000000000
310
00000000000000000000000000000000000000000000000000000000000000000000000000000000000000000000000000000000000000000000000000000000000000000000000000000000000000000000000000000000000000000000000000000000000000000000000000000000000000000000000000000000000000
310
00000000000000000000000000000000000000000000000000000000000000000000000000000000000000000000000000000000000000000000000000000000000000000000000000000000000000000000000000000000000000000000000000000000000000000000000000000000000000000000000000000000000000
310
00000000000000000000000000000000000000000000000000000000000000000000000000000000000000000000000000000000000000000000000000000000000000000000000000000000000000000000000000000000000000000000000000000000000000000000000000000000000000000000000000000000000000
310
00000000000000000000000000000000000000000000000000000000000000000000000000000000000000000000000000000000000000000000000000000000000000000000000000000000000000000000000000000000000000000000000000000000000000000000000000000000000000000000000000000000000000
310
00000000000000000000000000000000000000000000000000000000000000000000000000000000000000000000000000000000000000000000000000000000000000000000000000000000000000000000000000000000000000000000000000000000000000000000000000000000000000000000000000000000000000
310
00000000000000000000000000000000000000000000000000000000000000000000000000000000000000000000000000000000000000000000000000000000000000000000000000000000000000000000000000000000000000000000000000000000000000000000000000000000000000000000000000000000000000
310
00000000000000000000000000000000000000000000000000000000000000000000000000000000000000000000000000000000000000000000000000000000000000000000000000000000000000000000000000000000000000000000000000000000000000000000000000000000000000000000000000000000000000
310
00000000000000000000000000000000000000000000000000000000000000000000000000000000000000000000000000000000000000000000000000000000000000000000000000000000000000000000000000000000000000000000000000000000000000000000000000000000000000000000000000000000000000
310
00000000000000000000000000000000000000000000000000000000000000000000000000000000000000000000000000000000000000000000000000000000000000000000000000000000000000000000000000000000000000000000000000000000000000000000000000000000000000000000000000000000000000
310
00000000000000000000000000000000000000000000000000000000000000000000000000000000000000000000000000000000000000000000000000000000000000000000000000000000000000000000000000000000000000000000000000000000000000000000000000000000000000000000000000000000000000
310
00000000000000000000000000000000000000000000000000000000000000000000000000000000000000000000000000000000000000000000000000000000000000000000000000000000000000000000000000000000000000000000000000000000000000000000000000000000000000000000000000000000000000
310
00000000000000000000000000000000000000000000000000000000000000000000000000000000000000000000000000000000000000000000000000000000000000000000000000000000000000000000000000000000000000000000000000000000000000000000000000000000000000000000000000000000000000
310
00000000000000000000000000000000000000000000000000000000000000000000000000000000000000000000000000000000000000000000000000000000000000000000000000000000000000000000000000000000000000000000000000000000000000000000000000000000000000000000000000000000000000
310
00000000000000000000000000000000000000000000000000000000000000000000000000000000000000000000000000000000000000000000000000000000000000000000000000000000000000000000000000000000000000000000000000000000000000000000000000000000000000000000000000000000000000
310
00000000000000000000000000000000000000000000000000000000000000000000000000000000000000000000000000000000000000000000000000000000000000000000000000000000000000000000000000000000000000000000000000000000000000000000000000000000000000000000000000000000000000
310
00000000000000000000000000000000000000000000000000000000000000000000000000000000000000000000000000000000000000000000000000000000000000000000000000000000000000000000000000000000000000000000000000000000000000000000000000000000000000000000000000000000000000
310
00000000000000000000000000000000000000000000000000000000000000000000000000000000000000000000000000000000000000000000000000000000000000000000000000000000000000000000000000000000000000000000000000000000000000000000000000000000000000000000000000000000000000
310
00000000000000000000000000000000000000000000000000000000000000000000000000000000000000000000000000000000000000000000000000000000000000000000000000000000000000000000000000000000000000000000000000000000000000000000000000000000000000000000000000000000000000
310
00000000000000000000000000000000000000000000000000000000000000000000000000000000000000000000000000000000000000000000000000000000000000000000000000000000000000000000000000000000000000000000000000000000000000000000000000000000000000000000000000000000000000
310
00000000000000000000000000000000000000000000000000000000000000000000000000000000000000000000000000000000000000000000000000000000000000000000000000000000000000000000000000000000000000000000000000000000000000000000000000000000000000000000000000000000000000
310
00000000000000000000000000000000000000000000000000000000000000000000000000000000000000000000000000000000000000000000000000000000000000000000000000000000000000000000000000000000000000000000000000000000000000000000000000000000000000000000000000000000000000
310
00000000000000000000000000000000000000000000000000000000000000000000000000000000000000000000000000000000000000000000000000000000000000000000000000000000000000000000000000000000000000000000000000000000000000000000000000000000000000000000000000000000000000
310
00000000000000000000000000000000000000000000000000000000000000000000000000000000000000000000000000000000000000000000000000000000000000000000000000000000000000000000000000000000000000000000000000000000000000000000000000000000000000000000000000000000000000
310
00000000000000000000000000000000000000000000000000000000000000000000000000000000000000000000000000000000000000000000000000000000000000000000000000000000000000000000000000000000000000000000000000000000000000000000000000000000000000000000000000000000000000
310
00000000000000000000000000000000000000000000000000000000000000000000000000000000000000000000000000000000000000000000000000000000000000000000000000000000000000000000000000000000000000000000000000000000000000000000000000000000000000000000000000000000000000
310
00000000000000000000000000000000000000000000000000000000000000000000000000000000000000000000000000000000000000000000000000000000000000000000000000000000000000000000000000000000000000000000000000000000000000000000000000000000000000000000000000000000000000
310
00000000000000000000000000000000000000000000000000000000000000000000000000000000000000000000000000000000000000000000000000000000000000000000000000000000000000000000000000000000000000000000000000000000000000000000000000000000000000000000000000000000000000
310
00000000000000000000000000000000000000000000000000000000000000000000000000000000000000000000000000000000000000000000000000000000000000000000000000000000000000000000000000000000000000000000000000000000000000000000000000000000000000000000000000000000000000
310
00000000000000000000000000000000000000000000000000000000000000000000000000000000000000000000000000000000000000000000000000000000000000000707070707070707070707070707070707070707070707070700000000000000000000000000000000000000000000000000000000000000000000
310
00000000000000000000000000000000000000000000000000000000000000000000000000000000000000000000000000000000000000000000000000070707070707070707070707070707070707070707070707070000000000000000000000000000000000000000000000000000000000000000000000070000000000
310
00000000000000000000000000000000000007000000000000000000000000000000000000000000000000000000000000000000000000000000000000000000000000000000000000000000000000000000000000000000000000000000000000000000000000000000000000000000000007000000000000000000000000
310
00000000000000000000000700000000000000000000000000000000000000000000000000000000000000000000000700000000000000000000000000000000000000000000000700000000000000000000000000000000000000000000000000000000000000000000000000000000000000000000000000000000000000
310
00000000000000000000000000000000000000000000000000000000000000000000000000000000070000000000000000000000000000000000000000000000070000000000000000000000000000000000000000000000000000000000000000000000070000000000000000000000000000000000000000000000070000
310
00000000000000000000000000000000000000000000000000000000000000000000000000000000000000000000000000000000000000000000000000000000000000000000000000000000000000000000000000000000000000000007000000000000000000000000000000000000000000000007000000000000000000
310
00000000000000000000000000000000000000000000000000000700000000000000000707070707070700000000000000000700000000000000000000000000000000000000000000000000000000000000000000000000000000000000000000000000000000000000000000000000000000000000000000000000000000
310
00000000000000000000000000000000000000070000000000000000070707070707070000000000000000070000000000000000000000000000000000000000000000000000000000000000000000070000000000000707070000000000070707000000000000070000000000000000000000000000000000000000000000
310
00000000000000000000000000000000000000000000000000000000000000000000000000000000000000000000000000000000000000000000000000000000000000000000000007000000000000070707000000000007070700000000000007000000000000000000000000000000000000000000000000000000000000
310
00000000000700000000000707000000000000000000070700000000000700000000000000000000000000000000000000000000000000000000000000000000000000000000000000000000000000000000000000000000000000000000000000000000000000000000000000000000000000000000000000000000000700
310
00000000070700000000000000000007070000000000070000000000000000000000000000000000000000000000000000000000000000000000070000000007000000000000000000000000000700000000070000000000000000000000000000000000000000000000000000000000000000000000000000000000000000
310
00000000000000000000000000000000000000000000000000000000000000000000000000000000000000000000000000000007000000000700000000000000000000000000070000000007000000000000000000000000000000000000000000000000000000000000000000000007000000000700000000000000000000
310
00000007000000000700000000000000000000000000000000000000000000000000000000000000000000000000000000000000000000000000000000000000000000000000000000000000000000000000000000000000000000000000000000000000000000000700000000070000000000000000000000000007000000
310
00070000000000000000000000000000000000000000000000000000000000000000000000070000000700000000000000000000000000000007000000070000000000000000000000000000000000000000000000000000000000000000000000000000000000000000000000000000000000000000000000000000000000
310
00000000000000000000000000000000000000000000000000000000000007000000070000000000000000000000000000000700000007000000000000000000000000000000000000000000000000000000000000000000000007000000070000000000000000000000000000000700000007000000000000000000000000
310
00000000000000000000000000000000000000000000000000000000000000000000000000000000000000000000000000000000000000000000000000000000000000000000000000000000000000000000000700000007000000000000000000000000000000070000000700000000000000000000000000000000000000
310
00000000000000000000000000000000070000000700000000000000000000000000000007000000070000000000000000000000000000000000000000000000000000000000000000000000000000000000000000000000000000000000000000000000000000000000000000000000000000000000000000000000000000
310
00000000000000000007000000070000000000000000000000000000000707000007000000000000000000000000000000000000000000000000000000000000000000000007000007000000000000000000000000000000000007000007000000000000000000000000000000000000000000000000000000000000000000
310
00000000000000000000000000000000000000000000000000000000000000000000000000000000000000000000000000000000000000000000000000000700000007000000000000000000000000000000000700000700000000000000000000000000000000000000000000000000000000000000000000000700000700
310
00000000000000000000000000000000070000070000000000000000000000000000000000000000000000000000000000000000000000000000000000000000000000000000000000000000000000000000000000000000000000000000000000000000000000000000000000000000000000070000000700000000000000
310
00000000000000000007000007000000000000000000000000000000000000000000000000000000000000000000000007000000070000000000000000000000000000000700000007000000000000000000000000000000000000000000000000000000000000000000000000000000000000000000000000000000000000
310
00000000000000000000000000000000000000000000000000000000000000000000000000000000000700000007000000000000000000000000000000070700000700000000000000000000000000000000000000000000000000000000000000000000000700000007000000000000000000000000000000070000000700
310
00000000000000000000000000000000000000000000000000000000000000000000000000000000000000000000000000000000000000000000000000000000000000000000000000000000000000000000000000000000000000000000070000000700000000000000000000000000000007000000070000000000000000
310
00000000000000000000000000000000000000000000000000000007000000070000000000000000000000000000000700000007000000000000000000000000000000000000000000000000000000000000000000000000000000000000000000000000000000000000000000000000000000000000000000000000000000
310
00000000000000000000000000000000000000000700000007000000000000000000000000000000070000000700000000000000000000000000000000000000000000000000000000000000000000000700000000070000000000000000000000000007000000000700000000000000000000000000000000000000000000
310
00000000000000000000000000000000000000000000000000000000000000000000000000000000000000000000000000000000000000000000000000000000000000000000000000070000000007000000000000000000000000000700000000070000000000000000000000000000000000000000000000000000000000
310
00000000000007000000000700000000070707070700000000070000000007000000000000000000000000000000000000000000000000000000000000000000000000000000000000000000000000000000000000000000000000000000000000000000000000000000000000000000000000000000000000000000000007
310
00000000070000000007070707070000000007000000000700000000000000000000000000000000000000000000000000000000000000000000000700000000000707000007000000070000070700000000000700000000000000000000000000000000000000000000000000000000000000000000000000000000000000
310
00000000000000000000000000000000000000000000000000000000000000000000000000000000000000000000000000000000070000000000070700000700000007000007070000000000070000000000000000000000000000000000000000000000000000000000000000000000070000000000000007000700000000
310
00070000000000000007000000000000000000000000000000000000000000000000000000000000000000000000000000000000000000000000000000000000000000000000000000000000000000000000000000000000000000000000000000000000000000000007000000000000000700000000000007070000000000
310
00000700000000000000000000000000000000000000000000000000000000000000000000000700000000000000000707000000070700000000000000000700000000000000000000000000000000000000000000000000000000000000000000000000000000000000000000000000000000000000000000000000000000
310
00000000000000000000000000000000000000000000000000000000000000070000000000000000070700000000070000000000000000070000000000000000000000000000000000000000000000000000000000000000000000070000000000000000000700000007000000000000000000070000000000000000000000
310
00000000000000000000000000000000000000000000000000000000000000000000000000000000000000000000000000000000000000000000000000000000000000000000000000000000000000000000000007000000000000000000070000000007000000000000000007000000000000000000000000000000000000
310
00000000000000000000000000000000000700000000000000000007000000070000000000000000000700000000000000000000000000000000000000000000000000000000000000000000000000000000000000000000000000000000000000000000000000000000000000000000000000000000000000000000000000
310
00000000000000000000070000000000000000000700000007000000000000000000070000000000000000000000000000000000000000000000000000000000000000000000070000000000000000000700000007000000000000000000070000000000000000000000000000000000000000000000000000000000000000
310
00000000000000000000000000000000000000000000000000000000000000000000000000000000000000000000000000000000000000000000000000000007000000000000000000070000000700000000000000000007000000000000000000000000000000000000000000000000000000000000000000000007070707
310
07070707070707000000070707070707070707070700000000000000000000000000000000000000000000000000000000000000000000000000000000000000000000000000000000000000000000000000000000000000000000000000000000000000000000000000000000000000000000000707070707070707070707
310
00000007070707070707070707070000000000000000000000000000000000000007070707070707070707070707070707070707070707070707070707070707070707070707070707070707070707070707070707070707070707070707070707070707070707070707070707070707070707070707070707000707070707
310
07070707070707070707070707070707070707070707070707070707070707070707070707070707070707070707070707070707070707070707070707070707070707070707070707070707070707070707070000000700000000000000000000000000000000000000000000000000000000000000000000000000000000
310
00000000000000000000000000000000000000000000000000000000000000000000000000000000000000000000000000000000000000000000000000000000000000000000000000000000000000000000000000000000000000000000000000000000000000000000000000000000000000000000000000000000000000
310
00000000000000000700000007000000000000000000000000000000000000000000000000000000000000000000000000000000000000000000000000000000000000000000000000000000000000000000000000000000000000000000000000000000000000000000000000000000000000000000000000000000000000
310
00000000000000000000000000000000000000000000000000000000000000000000000000000000000000000000000000000000000000000000000000070000000700000000000000000000000000000000000000000000000000000000000000000000000000000000000000000000000000000000000000000000000000
310
00000000000000000000000000000000000000000000000000000000000000000000000000000000000000000000000000000000000000000000000000000000000000000000000000000000000000000000000000000000000000000000000000000000000000000000000000000000000007000000070000000000000000
310
00000000000000000000000000000000000000000000000000000000000000000000000000000000000000000000000000000000000000000000000000000000000000000000000000000000000000000000000000000000000000000000000000000000000000000000000000000000000000000000000000000000000000
310
00000000000000000000000000000000000000000000000000000000000000000000000000000000070000000700000000000000000000000000000000000000000000000000000000000000000000000000000000000000000000000000000000000000000000000000000000000000000000000000000000000000000000
310
00000000000000000000000000000000000000000000000000000000000000000000000000000000000000000000000000000000000000000000000000000000000000000000000000000000000000000000000000000000000000000007000000070000000000000000000000000000000000000000000000000000000000
310
00000000000000000000000000000000000000000000000000000000000000000000000000000000000000000000000000000000000000000000000000000000000000000000000000000000000000000000000000000000000000000000000000000000000000000000000000000000000000000000000000000000000000
310
00000000000000000000000000000000000000070000000700000000000000000000000000000000000000000000000000000000000000000000000000000000000000000000000000000000000000000000000000000000000000000000000000000000000000000000000000000000000000000000000000000000000000
310
00000000000000000000000000000000000000000000000000000000000000000000000000000000000000000000000000000000000000000000000000000000000000000000000007000000070000000000000000000000000000000000000000000000000000000000000000000000000000000000000000000000000000
310
00000000000000000000000000000000000000000000000000000000000000000000000000000000000000000000000000000000000000000000000000000000000000000000000000000000000000000000000000000000000000000000000000000000000000000000000000000000000000000000000000000000000700
310
00000707070707070707070707070707070707070707070707070707070707070707070707070707070707070707070707070707070707070707070707070707070707070707070707070707070707070707070707070707070700070707070707070707070707070707070707070707070707070707070707070707070707
310
07070707070707070707070707070707070707070707070707070707070707070707070707070707070707070707070707070707000000000000000000000000000000000000000000000000000000000000000000000000000000000000000000000000000000000000000000000000000000000000000000000000000000
310
00000000000000000000000000000000000000000000000000000000000000000000000000000000000000000000000000000000000000000000000000000000000000000000000000000000000000000000000000000000000000000000000000000000000000000000000000000000000000000000000000000000000000
310
00000000000000000000000000000000000000000000000000000000000000000000000000000000000000000000000000000000000000000000000000000000000000000000000000000000000000000000000000000000000000000000000000000000000000000000000000000000000000000000000000000000000000
310
00000000000000000000000000000000000000000000000000000000000000000000000000000000000000000000000000000000000000000000000000000000000000000000000000000000000000000000000000000000000000000000000000000000000000000000000000000000000000000000000000000000000000
310
00000000000000000000000000000000000000000000000000000000000000000000000000000000000000000000000000000000000000000000000000000000000000000000000000000000000000000000000000000000000000000000000000000000000000000000000000000000000000000000000000000000000000
310
00000000000000000000000000000000000000000000000000000000000000000000000000000000000000000000000000000000000000000000000000000000000000000000000000000000000000000000000000000000000000000000000000000000000000000000000000000000000000000000000000000000000000
310
00000000000000000000000000000000000000000000000000000000000000000000000000000000000000000000000000000000000000000000000000000000000000000000000000000000000000000000000000000000000000000000000000000000000000000000000000000000000000000000000000000000000000
310
00000000000000000000000000000000000000000000000000000000000000000000000000000000000000000000000000000000000000000000000000000000000000000000000000000000000000000000000000000000000000000000000000000000000000000000000000000000000000000000000000000000000000
310
00000000000000000000000000000000000000000000000000000000000000000000000000000000000000000000000000000000000000000000000000000000000000000000000000000000000000000000000000000000000000000000000000000000000000000000000000000000000000000000000000000000000000
310
00000000000000000000000000000000000000000000000000000000000000000000000000000000000000000000000000000000000000000000000000000000000000000000000000000000000000000000000000000000000000000000000000000000000000000000000000000000000000000000000000000000000000
310
00000000000000000000000000000000000000000000000000000000000000000000000000000000000000000000000000000000000000000000000000000000000000000000000000000000000000000000000000000000000000000000000000000000000000000000000000000000000000000000000000000000000000
310
00000000000000000000000000000000000000000000000000000000000000000000000000000000000000000000000000000000000000000000000000000000000000000000000000000000000000000000000000000000000000000000000000000000000000000000000000000000000000000000000000000000000000
310
00000000000000000000000000000000000000000000000000000000000000000000000000000000000000000000000000000000000000000000000000000000000000000000000000000000000000000000000000000000000000000000000000000000000000000000000000000000000000000000000000000000000000
310
00000000000000000000000000000000000000000000000000000000000000000000000000000000000000000000000000000000000000000000000000000000000000000000000000000000000000000000000000000000000000000000000000000000000000000000000000000000000000000000000000000000000000
310
00000000000000000000000000000000000000000000000000000000000000000000000000000000000000000000000000000000000000000000000000000000000000000000000000000000000000000000000000000000000000000000000000000000000000000000000000000000000000000000000000000000000000
310
00000000000000000000000000000000000000000000000000000000000000000000000000000000000000000000000000000000000000000000000000000000000000000000000000000000000000000000000000000000000000000000000000000000000000000000000000000000000000000000000000000000000000
310
00000000000000000000000000000000000000000000000000000000000000000000000000000000000000000000000000000000000000000000000000000000000000000000000000000000000000000000000000000000000000000000000000000000000000000000000000000000000000000000000000000000000000
310
00000000000000000000000000000000000000000000000000000000000000000000000000000000000000000000000000000000000000000000000000000000000000000000000000000000000000000000000000000000000000000000000000000000000000000000000000000000000000000000000000000000000000
310
00000000000000000000000000000000000000000000000000000000000000000000000000000000000000000000000000000000000000000000000000000000000000000000000000000000000000000000000000000000000000000000000000000000000000000000000000000000000000000000000000000000000000
310
00000000000000000000000000000000000000000000000000000000000000000000000000000000000000000000000000000000000000000000000000000000000000000000000000000000000000000000000000000000000000000000000000000000000000000000000000000000000000000000000000000000000000
310
00000000000000000000000000000000000000000000000000000000000000000000000000000000000000000000000000000000000000000000000000000000000000000000000000000000000000000000000000000000000000000000000000000000000000000000000000000000000000000000000000000000000000
310
00000000000000000000000000000000000000000000000000000000000000000000000000000000000000000000000000000000000000000000000000000000000000000000000000000000000000000000000000000000000000000000000000000000000000000000000000000000000000000000000000000000000000
310
00000000000000000000000000000000000000000000000000000000000000000000000000000000000000000000000000000000000000000000000000000000000000000000000000000000000000000000000000000000000000000000000000000000000000000000000000000000000000000000000000000000000000
310
00000000000000000000000000000000000000000000000000000000000000000000000000000000000000000000000000000000000000000000000000000000000000000000000000000000000000000000000000000000000000000000000000000000000000000000000000000000000000000000000000000000000000
310
00000000000000000000000000000000000000000000000000000000000000000000000000000000000000000000000000000000000000000000000000000000000000000000000000000000000000000000000000000000000000000000000000000000000000000000000000000000000000000000000000000000000000
310
00000000000000000000000000000000000000000000000000000000000000000000000000000000000000000000000000000000000000000000000000000000000000000000000000000000000000000000000000000000000000000000000000000000000000000000000000000000000000000000000000000000000000
310
00000000000000000000000000000000000000000000000000000000000000000000000000000000000000000000000000000000000000000000000000000000000000000000000000000000000000000000000000000000000000000000000000000000000000000000000000000000000000000000000000000000000000
310
00000000000000000000000000000000000000000000000000000000000000000000000000000000000000000000000000000000000000000000000000000000000000000000000000000000000000000000000000000000000000000000000000000000000000000000000000000000000000000000000000000000000000
310
00000000000000000000000000000000000000000000000000000000000000000000000000000000000000000000000000000000000000000000000000000000000000000000000000000000000000000000000000000000000000000000000000000000000000000000000000000000000000000000000000000000000000
310
00000000000000000000000000000000000000000000000000000000000000000000000000000000000000000000000000000000000000000000000000000000000000000000000000000000000000000000000000000000000000000000000000000000000000000000000000000000000000000000000000000000000000
310
00000000000000000000000000000000000000000000000000000000000000000000000000000000000000000000000000000000000000000000000000000000000000000000000000000000000000000000000000000000000000000000000000000000000000000000000000000000000000000000000000000000000000
310
00000000000000000000000000000000000000000000000000000000000000000000000000000000000000000000000000000000000000000000000000000000000000000000000000000000000000000000000000000000000000000000000000000000000000000000000000000000000000000000000000000000000000
310
00000000000000000000000000000000000000000000000000000000000000000000000000000000000000000000000000000000000000000000000000000000000000000000000000000000000000000000000000000000000000000000000000000000000000000000000000000000000000000000000000000000000000
310
00000000000000000000000000000000000000000000000000000000000000000000000000000000000000000000000000000000000000000000000000000000000000000000000000000000000000000000000000000000000000000000000000000000000000000000000000000000000000000000000000000000000000
310
00000000000000000000000000000000000000000000000000000000000000000000000000000000000000000000000000000000000000000000000000000000000000000000000000000000000000000000000000000000000000000000000000000000000000000000000000000000000000000000000000000000000000
310
000000000000000000000000000000000000000000000000000000000000000000000000000000000000000000000000000000000000000000000000000000000000000000000000000000000000000000000000000000000000000000000000000000000000000000000000
  0
ENDSEC
  0
EOF
