  0
SECTION
  2
HEADER
  9
$ACADVER
  1
AC1015
  9
$ACADMAINTVER
 70
    13
  9
$DWGCODEPAGE
  3
ANSI_1252
  9
$INSBASE
 10
0.0
 20
0.0
 30
0.0
  9
$EXTMIN
 10
0.0
 20
0.0000000000000086
 30
0.0
  9
$EXTMAX
 10
585.0
 20
469.0
 30
0.0
  9
$LIMMIN
 10
0.0
 20
0.0
  9
$LIMMAX
 10
12.0
 20
9.0
  9
$ORTHOMODE
 70
     0
  9
$REGENMODE
 70
     1
  9
$FILLMODE
 70
     1
  9
$QTEXTMODE
 70
     0
  9
$MIRRTEXT
 70
     1
  9
$LTSCALE
 40
1.0
  9
$ATTMODE
 70
     1
  9
$TEXTSIZE
 40
0.2
  9
$TRACEWID
 40
0.05
  9
$TEXTSTYLE
  7
Standard
  9
$CLAYER
  8
0
  9
$CELTYPE
  6
Continuous
  9
$CECOLOR
 62
   256
  9
$CELTSCALE
 40
1.0
  9
$DISPSILH
 70
     0
  9
$DIMSCALE
 40
1.0
  9
$DIMASZ
 40
0.18
  9
$DIMEXO
 40
0.0625
  9
$DIMDLI
 40
0.38
  9
$DIMRND
 40
0.0
  9
$DIMDLE
 40
0.0
  9
$DIMEXE
 40
0.18
  9
$DIMTP
 40
0.0
  9
$DIMTM
 40
0.0
  9
$DIMTXT
 40
0.18
  9
$DIMCEN
 40
0.09
  9
$DIMTSZ
 40
0.0
  9
$DIMTOL
 70
     0
  9
$DIMLIM
 70
     0
  9
$DIMTIH
 70
     1
  9
$DIMTOH
 70
     1
  9
$DIMSE1
 70
     0
  9
$DIMSE2
 70
     0
  9
$DIMTAD
 70
     0
  9
$DIMZIN
 70
     0
  9
$DIMBLK
  1

  9
$DIMASO
 70
     1
  9
$DIMSHO
 70
     1
  9
$DIMPOST
  1

  9
$DIMAPOST
  1

  9
$DIMALT
 70
     0
  9
$DIMALTD
 70
     2
  9
$DIMALTF
 40
25.4
  9
$DIMLFAC
 40
1.0
  9
$DIMTOFL
 70
     0
  9
$DIMTVP
 40
0.0
  9
$DIMTIX
 70
     0
  9
$DIMSOXD
 70
     0
  9
$DIMSAH
 70
     0
  9
$DIMBLK1
  1

  9
$DIMBLK2
  1

  9
$DIMSTYLE
  2
Standard
  9
$DIMCLRD
 70
     0
  9
$DIMCLRE
 70
     0
  9
$DIMCLRT
 70
     0
  9
$DIMTFAC
 40
1.0
  9
$DIMGAP
 40
0.09
  9
$DIMJUST
 70
     0
  9
$DIMSD1
 70
     0
  9
$DIMSD2
 70
     0
  9
$DIMTOLJ
 70
     1
  9
$DIMTZIN
 70
     0
  9
$DIMALTZ
 70
     0
  9
$DIMALTTZ
 70
     0
  9
$DIMUPT
 70
     0
  9
$DIMDEC
 70
     4
  9
$DIMTDEC
 70
     4
  9
$DIMALTU
 70
     2
  9
$DIMALTTD
 70
     2
  9
$DIMTXSTY
  7
Standard
  9
$DIMAUNIT
 70
     0
  9
$DIMADEC
 70
     0
  9
$DIMALTRND
 40
0.0
  9
$DIMAZIN
 70
     0
  9
$DIMDSEP
 70
    46
  9
$DIMATFIT
 70
     3
  9
$DIMFRAC
 70
     0
  9
$DIMLDRBLK
  1

  9
$DIMLUNIT
 70
     2
  9
$DIMLWD
 70
    -2
  9
$DIMLWE
 70
    -2
  9
$DIMTMOVE
 70
     0
  9
$LUNITS
 70
     2
  9
$LUPREC
 70
     4
  9
$SKETCHINC
 40
0.1
  9
$FILLETRAD
 40
0.0
  9
$AUNITS
 70
     0
  9
$AUPREC
 70
     0
  9
$MENU
  1
.
  9
$ELEVATION
 40
0.0
  9
$PELEVATION
 40
0.0
  9
$THICKNESS
 40
0.0
  9
$LIMCHECK
 70
     0
  9
$CHAMFERA
 40
0.0
  9
$CHAMFERB
 40
0.0
  9
$CHAMFERC
 40
0.0
  9
$CHAMFERD
 40
0.0
  9
$SKPOLY
 70
     0
  9
$TDCREATE
 40
2456021.596857511
  9
$TDUCREATE
 40
2456021.513524178
  9
$TDUPDATE
 40
2456021.601321840
  9
$TDUUPDATE
 40
2456021.517988507
  9
$TDINDWG
 40
0.0040547222
  9
$TDUSRTIMER
 40
0.0040547222
  9
$USRTIMER
 70
     1
  9
$ANGBASE
 50
0.0
  9
$ANGDIR
 70
     0
  9
$PDMODE
 70
     0
  9
$PDSIZE
 40
0.0
  9
$PLINEWID
 40
0.0
  9
$SPLFRAME
 70
     0
  9
$SPLINETYPE
 70
     6
  9
$SPLINESEGS
 70
     8
  9
$HANDSEED
  5
57A
  9
$SURFTAB1
 70
     6
  9
$SURFTAB2
 70
     6
  9
$SURFTYPE
 70
     6
  9
$SURFU
 70
     6
  9
$SURFV
 70
     6
  9
$UCSBASE
  2

  9
$UCSNAME
  2

  9
$UCSORG
 10
0.0
 20
0.0
 30
0.0
  9
$UCSXDIR
 10
1.0
 20
0.0
 30
0.0
  9
$UCSYDIR
 10
0.0
 20
1.0
 30
0.0
  9
$UCSORTHOREF
  2

  9
$UCSORTHOVIEW
 70
     1
  9
$UCSORGTOP
 10
0.0
 20
0.0
 30
0.0
  9
$UCSORGBOTTOM
 10
0.0
 20
0.0
 30
0.0
  9
$UCSORGLEFT
 10
0.0
 20
0.0
 30
0.0
  9
$UCSORGRIGHT
 10
0.0
 20
0.0
 30
0.0
  9
$UCSORGFRONT
 10
0.0
 20
0.0
 30
0.0
  9
$UCSORGBACK
 10
0.0
 20
0.0
 30
0.0
  9
$PUCSBASE
  2

  9
$PUCSNAME
  2

  9
$PUCSORG
 10
0.0
 20
0.0
 30
0.0
  9
$PUCSXDIR
 10
1.0
 20
0.0
 30
0.0
  9
$PUCSYDIR
 10
0.0
 20
1.0
 30
0.0
  9
$PUCSORTHOREF
  2

  9
$PUCSORTHOVIEW
 70
     0
  9
$PUCSORGTOP
 10
0.0
 20
0.0
 30
0.0
  9
$PUCSORGBOTTOM
 10
0.0
 20
0.0
 30
0.0
  9
$PUCSORGLEFT
 10
0.0
 20
0.0
 30
0.0
  9
$PUCSORGRIGHT
 10
0.0
 20
0.0
 30
0.0
  9
$PUCSORGFRONT
 10
0.0
 20
0.0
 30
0.0
  9
$PUCSORGBACK
 10
0.0
 20
0.0
 30
0.0
  9
$USERI1
 70
     0
  9
$USERI2
 70
     0
  9
$USERI3
 70
     0
  9
$USERI4
 70
     0
  9
$USERI5
 70
     0
  9
$USERR1
 40
0.0
  9
$USERR2
 40
0.0
  9
$USERR3
 40
0.0
  9
$USERR4
 40
0.0
  9
$USERR5
 40
0.0
  9
$WORLDVIEW
 70
     1
  9
$SHADEDGE
 70
     3
  9
$SHADEDIF
 70
    70
  9
$TILEMODE
 70
     1
  9
$MAXACTVP
 70
    64
  9
$PINSBASE
 10
0.0
 20
0.0
 30
0.0
  9
$PLIMCHECK
 70
     0
  9
$PEXTMIN
 10
1.000000000000000E+20
 20
1.000000000000000E+20
 30
1.000000000000000E+20
  9
$PEXTMAX
 10
-1.000000000000000E+20
 20
-1.000000000000000E+20
 30
-1.000000000000000E+20
  9
$PLIMMIN
 10
0.0
 20
0.0
  9
$PLIMMAX
 10
12.0
 20
9.0
  9
$UNITMODE
 70
     0
  9
$VISRETAIN
 70
     1
  9
$PLINEGEN
 70
     0
  9
$PSLTSCALE
 70
     1
  9
$TREEDEPTH
 70
  3020
  9
$CMLSTYLE
  2
Standard
  9
$CMLJUST
 70
     0
  9
$CMLSCALE
 40
1.0
  9
$PROXYGRAPHICS
 70
     1
  9
$MEASUREMENT
 70
     0
  9
$CELWEIGHT
370
    -1
  9
$ENDCAPS
280
     0
  9
$JOINSTYLE
280
     0
  9
$LWDISPLAY
290
     0
  9
$INSUNITS
 70
     0
  9
$HYPERLINKBASE
  1

  9
$STYLESHEET
  1

  9
$XEDIT
290
     1
  9
$CEPSNTYPE
380
     0
  9
$PSTYLEMODE
290
     1
  9
$FINGERPRINTGUID
  2
{1F72E66B-4209-44E5-8EC4-DB369DA8F27C}
  9
$VERSIONGUID
  2
{7749C490-12DA-4211-A8C0-E770E525775C}
  9
$EXTNAMES
290
     1
  9
$PSVPSCALE
 40
0.0
  9
$OLESTARTUP
290
     0
  0
ENDSEC
  0
SECTION
  2
CLASSES
  0
CLASS
  1
ACDBDICTIONARYWDFLT
  2
AcDbDictionaryWithDefault
  3
AutoCAD 2000
 90
        0
280
     0
281
     0
  0
CLASS
  1
ACDBPLACEHOLDER
  2
AcDbPlaceHolder
  3
AutoCAD 2000
 90
        0
280
     0
281
     0
  0
CLASS
  1
LAYOUT
  2
AcDbLayout
  3
AutoCAD 2000
 90
        0
280
     0
281
     0
  0
CLASS
  1
DICTIONARYVAR
  2
AcDbDictionaryVar
  3
AutoCAD 2000
 90
        0
280
     0
281
     0
  0
ENDSEC
  0
SECTION
  2
TABLES
  0
TABLE
  2
VPORT
  5
8
330
0
100
AcDbSymbolTable
 70
     3
  0
VPORT
  5
579
330
8
100
AcDbSymbolTableRecord
100
AcDbViewportTableRecord
  2
*Active
 70
     0
 10
0.0
 20
0.0
 11
1.0
 21
1.0
 12
292.5
 22
234.5
 13
0.0
 23
0.0
 14
1.0
 24
1.0
 15
0.0
 25
0.0
 16
0.0
 26
0.0
 36
1.0
 17
0.0
 27
0.0
 37
0.0
 40
504.7769489196345
 41
2.102496714848883
 42
50.0
 43
0.0
 44
0.0
 50
0.0
 51
0.0
 71
     0
 72
   100
 73
     1
 74
     3
 75
     0
 76
     0
 77
     0
 78
     0
281
     0
 65
     1
110
0.0
120
0.0
130
0.0
111
1.0
121
0.0
131
0.0
112
0.0
122
1.0
132
0.0
 79
     1
146
0.0
  0
ENDTAB
  0
TABLE
  2
LTYPE
  5
5
330
0
100
AcDbSymbolTable
 70
     1
  0
LTYPE
  5
13
330
5
100
AcDbSymbolTableRecord
100
AcDbLinetypeTableRecord
  2
ByBlock
 70
     0
  3

 72
    65
 73
     0
 40
0.0
  0
LTYPE
  5
14
330
5
100
AcDbSymbolTableRecord
100
AcDbLinetypeTableRecord
  2
ByLayer
 70
     0
  3

 72
    65
 73
     0
 40
0.0
  0
LTYPE
  5
15
330
5
100
AcDbSymbolTableRecord
100
AcDbLinetypeTableRecord
  2
Continuous
 70
     0
  3
Solid line
 72
    65
 73
     0
 40
0.0
  0
ENDTAB
  0
TABLE
  2
LAYER
  5
2
330
0
100
AcDbSymbolTable
 70
     1
  0
LAYER
  5
10
330
2
100
AcDbSymbolTableRecord
100
AcDbLayerTableRecord
  2
0
 70
     0
 62
     7
  6
Continuous
370
    -3
390
F
  0
ENDTAB
  0
TABLE
  2
STYLE
  5
3
330
0
100
AcDbSymbolTable
 70
     1
  0
STYLE
  5
11
330
3
100
AcDbSymbolTableRecord
100
AcDbTextStyleTableRecord
  2
Standard
 70
     0
 40
0.0
 41
1.0
 50
0.0
 71
     0
 42
0.2
  3
txt
  4

  0
ENDTAB
  0
TABLE
  2
VIEW
  5
6
330
0
100
AcDbSymbolTable
 70
     0
  0
ENDTAB
  0
TABLE
  2
UCS
  5
7
330
0
100
AcDbSymbolTable
 70
     0
  0
ENDTAB
  0
TABLE
  2
APPID
  5
9
330
0
100
AcDbSymbolTable
 70
     1
  0
APPID
  5
12
330
9
100
AcDbSymbolTableRecord
100
AcDbRegAppTableRecord
  2
ACAD
 70
     0
  0
ENDTAB
  0
TABLE
  2
DIMSTYLE
  5
A
330
0
100
AcDbSymbolTable
 70
     1
100
AcDbDimStyleTable
 71
     0
  0
DIMSTYLE
105
1F5
330
A
100
AcDbSymbolTableRecord
100
AcDbDimStyleTableRecord
  2
Standard
 70
     0
340
11
  0
ENDTAB
  0
TABLE
  2
BLOCK_RECORD
  5
1
330
0
100
AcDbSymbolTable
 70
     0
  0
BLOCK_RECORD
  5
1E
330
1
100
AcDbSymbolTableRecord
100
AcDbBlockTableRecord
  2
*Model_Space
340
21
  0
BLOCK_RECORD
  5
1A
330
1
100
AcDbSymbolTableRecord
100
AcDbBlockTableRecord
  2
*Paper_Space
340
1D
  0
ENDTAB
  0
ENDSEC
  0
SECTION
  2
BLOCKS
  0
BLOCK
  5
1F
330
1E
100
AcDbEntity
  8
0
100
AcDbBlockBegin
  2
*Model_Space
 70
     0
 10
0.0
 20
0.0
 30
0.0
  3
*Model_Space
  1

  0
ENDBLK
  5
20
330
1E
100
AcDbEntity
  8
0
100
AcDbBlockEnd
  0
BLOCK
  5
1B
330
1A
100
AcDbEntity
 67
     1
  8
0
100
AcDbBlockBegin
  2
*Paper_Space
 70
     0
 10
0.0
 20
0.0
 30
0.0
  3
*Paper_Space
  1

  0
ENDBLK
  5
1C
330
1A
100
AcDbEntity
 67
     1
  8
0
100
AcDbBlockEnd
  0
ENDSEC
  0
SECTION
  2
ENTITIES
  0
LINE
  5
22
330
1E
100
AcDbEntity
  8
0
100
AcDbLine
 10
20.7213
 20
84.2448
 30
0.0
 11
32.192
 21
69.98699999999999
 31
0.0
  0
LINE
  5
23
330
1E
100
AcDbEntity
  8
0
100
AcDbLine
 10
61.979
 20
46.84129999999999
 30
0.0
 11
76.22499999999999
 21
38.1386
 31
0.0
  0
LINE
  5
24
330
1E
100
AcDbEntity
  8
0
100
AcDbLine
 10
46.438
 20
56.84029999999999
 30
0.0
 11
61.979
 21
46.84129999999999
 31
0.0
  0
LINE
  5
29
330
1E
100
AcDbEntity
  8
0
100
AcDbLine
 10
76.22499999999999
 20
38.1386
 30
0.0
 11
92.321
 21
30.5468
 31
0.0
  0
LINE
  5
2B
330
1E
100
AcDbEntity
  8
0
100
AcDbLine
 10
109.5269999999999
 20
23.5105
 30
0.0
 11
128.583
 21
16.8446
 31
0.0
  0
LINE
  5
2C
330
1E
100
AcDbEntity
  8
0
100
AcDbLine
 10
92.321
 20
30.5468
 30
0.0
 11
109.5269999999999
 21
23.5105
 31
0.0
  0
LINE
  5
2F
330
1E
100
AcDbEntity
  8
0
100
AcDbLine
 10
145.4199999999999
 20
12.2154
 30
0.0
 11
165.7709999999999
 21
7.771450000000009
 31
0.0
  0
LINE
  5
30
330
1E
100
AcDbEntity
  8
0
100
AcDbLine
 10
128.583
 20
16.8446
 30
0.0
 11
145.4199999999999
 21
12.2154
 31
0.0
  0
LINE
  5
31
330
1E
100
AcDbEntity
  8
0
100
AcDbLine
 10
191.5609999999999
 20
3.994370000000009
 30
0.0
 11
213.9479999999999
 21
1.95756000000001
 31
0.0
  0
LINE
  5
32
330
1E
100
AcDbEntity
  8
0
100
AcDbLine
 10
165.7709999999999
 20
7.771450000000009
 30
0.0
 11
191.5609999999999
 21
3.994370000000009
 31
0.0
  0
LINE
  5
33
330
1E
100
AcDbEntity
  8
0
100
AcDbLine
 10
239.11
 20
0.8465620000000091
 30
0.0
 11
269.8209999999999
 21
0.2910670000000089
 31
0.0
  0
LINE
  5
34
330
1E
100
AcDbEntity
  8
0
100
AcDbLine
 10
213.9479999999999
 20
1.95756000000001
 30
0.0
 11
239.11
 21
0.8465620000000091
 31
0.0
  0
LINE
  5
40
330
1E
100
AcDbEntity
  8
0
100
AcDbLine
 10
5.73538
 20
115.9629999999999
 30
0.0
 11
11.65569999999999
 21
100.224
 31
0.0
  0
LINE
  5
41
330
1E
100
AcDbEntity
  8
0
100
AcDbLine
 10
11.65569999999999
 20
100.224
 30
0.0
 11
20.7213
 21
84.2448
 31
0.0
  0
LINE
  5
44
330
1E
100
AcDbEntity
  8
0
100
AcDbLine
 10
1.665099999999999
 20
131.702
 30
0.0
 11
5.73538
 21
115.9629999999999
 31
0.0
  0
LINE
  5
4C
330
1E
100
AcDbEntity
  8
0
100
AcDbLine
 10
0.0
 20
144.8489999999999
 30
0.0
 11
0.555036
 21
156.5149999999999
 31
0.0
  0
LINE
  5
4D
330
1E
100
AcDbEntity
  8
0
100
AcDbLine
 10
0.0
 20
144.8489999999999
 30
0.0
 11
1.665099999999999
 21
131.702
 31
0.0
  0
LINE
  5
4E
330
1E
100
AcDbEntity
  8
0
100
AcDbLine
 10
2.03513
 20
171.123
 30
0.0
 11
6.1054
 21
192.417
 31
0.0
  0
LINE
  5
50
330
1E
100
AcDbEntity
  8
0
100
AcDbLine
 10
6.1054
 20
192.417
 30
0.0
 11
11.1007
 21
211.86
 31
0.0
  0
LINE
  5
52
330
1E
100
AcDbEntity
  8
0
100
AcDbLine
 10
2.03513
 20
171.123
 30
0.0
 11
6.1054
 21
192.417
 31
0.0
  0
LINE
  5
54
330
1E
100
AcDbEntity
  8
0
100
AcDbLine
 10
0.555036
 20
156.5149999999999
 30
0.0
 11
2.03513
 21
171.123
 31
0.0
  0
LINE
  5
58
330
1E
100
AcDbEntity
  8
0
100
AcDbLine
 10
11.1007
 20
211.86
 30
0.0
 11
18.68619999999999
 21
235.3759999999999
 31
0.0
  0
LINE
  5
59
330
1E
100
AcDbEntity
  8
0
100
AcDbLine
 10
18.68619999999999
 20
235.3759999999999
 30
0.0
 11
29.6019
 21
257.411
 31
0.0
  0
LINE
  5
5B
330
1E
100
AcDbEntity
  8
0
100
AcDbLine
 10
29.6019
 20
257.411
 30
0.0
 11
41.6277
 21
279.075
 31
0.0
  0
LINE
  5
68
330
1E
100
AcDbEntity
  8
0
100
AcDbLine
 10
41.6277
 20
279.075
 30
0.0
 11
52.2196
 21
295.989
 31
0.0
  0
LINE
  5
6A
330
1E
100
AcDbEntity
  8
0
100
AcDbLine
 10
52.2196
 20
295.989
 30
0.0
 11
63.5979
 21
313.395
 31
0.0
  0
LINE
  5
6C
330
1E
100
AcDbEntity
  8
0
100
AcDbLine
 10
63.5979
 20
313.395
 30
0.0
 11
77.19629999999999
 21
331.319
 31
0.0
  0
LINE
  5
6E
330
1E
100
AcDbEntity
  8
0
100
AcDbLine
 10
77.19629999999999
 20
331.319
 30
0.0
 11
92.27479999999999
 21
350.7609999999999
 31
0.0
  0
LINE
  5
70
330
1E
100
AcDbEntity
  8
0
100
AcDbLine
 10
92.27479999999999
 20
350.7609999999999
 30
0.0
 11
106.5199999999999
 21
367.333
 31
0.0
  0
LINE
  5
72
330
1E
100
AcDbEntity
  8
0
100
AcDbLine
 10
106.5199999999999
 20
367.333
 30
0.0
 11
120.796
 21
383.093
 31
0.0
  0
LINE
  5
74
330
1E
100
AcDbEntity
  8
0
100
AcDbLine
 10
120.796
 20
383.093
 30
0.0
 11
135.6119999999999
 21
397.2369999999999
 31
0.0
  0
LINE
  5
76
330
1E
100
AcDbEntity
  8
0
100
AcDbLine
 10
135.6119999999999
 20
397.2369999999999
 30
0.0
 11
152.7079999999999
 21
412.75
 31
0.0
  0
LINE
  5
78
330
1E
100
AcDbEntity
  8
0
100
AcDbLine
 10
152.7079999999999
 20
412.75
 30
0.0
 11
172.7669999999999
 21
428.035
 31
0.0
  0
LINE
  5
7A
330
1E
100
AcDbEntity
  8
0
100
AcDbLine
 10
172.7669999999999
 20
428.035
 30
0.0
 11
192.597
 21
441.494
 31
0.0
  0
LINE
  5
A2
330
1E
100
AcDbEntity
  8
0
100
AcDbLine
 10
192.597
 20
441.494
 30
0.0
 11
213.567
 21
452.901
 31
0.0
  0
LINE
  5
C6
330
1E
100
AcDbEntity
  8
0
100
AcDbLine
 10
213.567
 20
452.901
 30
0.0
 11
237.273
 21
462.2539999999999
 31
0.0
  0
LINE
  5
C8
330
1E
100
AcDbEntity
  8
0
100
AcDbLine
 10
237.273
 20
462.2539999999999
 30
0.0
 11
257.104
 21
466.8159999999999
 31
0.0
  0
LINE
  5
CA
330
1E
100
AcDbEntity
  8
0
100
AcDbLine
 10
257.104
 20
466.8159999999999
 30
0.0
 11
275.795
 21
468.413
 31
0.0
  0
LINE
  5
D2
330
1E
100
AcDbEntity
  8
0
100
AcDbLine
 10
269.8209999999999
 20
0.2910670000000089
 30
0.0
 11
292.5
 21
0.0000000000000086
 31
0.0
  0
LINE
  5
116
330
1E
100
AcDbEntity
  8
0
100
AcDbLine
 10
279.1259999999999
 20
174.2739999999999
 30
0.0
 11
283.474
 21
175.747
 31
0.0
  0
LINE
  5
132
330
1E
100
AcDbEntity
  8
0
100
AcDbLine
 10
283.474
 20
175.747
 30
0.0
 11
287.932
 21
176.632
 31
0.0
  0
LINE
  5
159
330
1E
100
AcDbEntity
  8
0
100
AcDbLine
 10
275.795
 20
468.413
 30
0.0
 11
292.5
 21
469.0
 31
0.0
  0
LINE
  5
1F0
330
1E
100
AcDbEntity
  8
0
100
AcDbLine
 10
287.932
 20
176.632
 30
0.0
 11
292.5
 21
177.0
 31
0.0
  0
LINE
  5
1FF
330
1E
100
AcDbEntity
  8
0
100
AcDbLine
 10
32.192
 20
69.98699999999999
 30
0.0
 11
46.438
 21
56.84029999999999
 31
0.0
  0
LINE
  5
207
330
1E
100
AcDbEntity
  8
0
100
AcDbLine
 10
206.8343095952468
 20
425.6630521547327
 30
0.0
 11
244.7518445840746
 21
442.2814899372389
 31
0.0
  0
LINE
  5
208
330
1E
100
AcDbEntity
  8
0
100
AcDbLine
 10
244.7518445840746
 20
442.2814899372389
 30
0.0
 11
269.1168685195894
 21
446.99807775686
 31
0.0
  0
LINE
  5
209
330
1E
100
AcDbEntity
  8
0
100
AcDbLine
 10
269.1168685195894
 20
446.99807775686
 30
0.0
 11
292.5
 21
447.5
 31
0.0
  0
LINE
  5
20A
330
1E
100
AcDbEntity
  8
0
100
AcDbLine
 10
206.8343095952468
 20
425.6630521547327
 30
0.0
 11
175.1263765657577
 21
403.9009950539524
 31
0.0
  0
LINE
  5
20B
330
1E
100
AcDbEntity
  8
0
100
AcDbLine
 10
175.1263765657577
 20
403.9009950539524
 30
0.0
 11
156.5384212161602
 21
387.5548513739218
 31
0.0
  0
LINE
  5
20C
330
1E
100
AcDbEntity
  8
0
100
AcDbLine
 10
156.5384212161602
 20
387.5548513739218
 30
0.0
 11
118.0018505462098
 21
344.53166670914
 31
0.0
  0
LINE
  5
20D
330
1E
100
AcDbEntity
  8
0
100
AcDbLine
 10
118.0018505462098
 20
344.53166670914
 30
0.0
 11
86.76466351200406
 21
303.6102569284595
 31
0.0
  0
LINE
  5
20E
330
1E
100
AcDbEntity
  8
0
100
AcDbLine
 10
86.76466351200406
 20
303.6102569284595
 30
0.0
 11
60.08379595454425
 21
258.4760305468857
 31
0.0
  0
LINE
  5
20F
330
1E
100
AcDbEntity
  8
0
100
AcDbLine
 10
60.08379595454425
 20
258.4760305468857
 30
0.0
 11
40.80125435438321
 21
215.4907287381664
 31
0.0
  0
LINE
  5
210
330
1E
100
AcDbEntity
  8
0
100
AcDbLine
 10
40.80125435438321
 20
215.4907287381664
 30
0.0
 11
33.44364471622339
 21
187.3990187978339
 31
0.0
  0
LINE
  5
211
330
1E
100
AcDbEntity
  8
0
100
AcDbLine
 10
33.44364471622339
 20
187.3990187978339
 30
0.0
 11
27.83109588334491
 21
162.2934675513357
 31
0.0
  0
LINE
  5
212
330
1E
100
AcDbEntity
  8
0
100
AcDbLine
 10
27.83109588334491
 20
162.2934675513357
 30
0.0
 11
27.83109588334491
 21
153.1436698948576
 31
0.0
  0
LINE
  5
213
330
1E
100
AcDbEntity
  8
0
100
AcDbLine
 10
27.83109588334491
 20
153.1436698948576
 30
0.0
 11
29.77029041372316
 21
137.5405435013468
 31
0.0
  0
LINE
  5
214
330
1E
100
AcDbEntity
  8
0
100
AcDbLine
 10
29.77029041372316
 20
137.5405435013468
 30
0.0
 11
37.71908267927256
 21
110.8049905023432
 31
0.0
  0
LINE
  5
215
330
1E
100
AcDbEntity
  8
0
100
AcDbLine
 10
37.71908267927256
 20
110.8049905023432
 30
0.0
 11
51.10033343410214
 21
90.5754903362016
 31
0.0
  0
LINE
  5
216
330
1E
100
AcDbEntity
  8
0
100
AcDbLine
 10
51.10033343410214
 20
90.5754903362016
 30
0.0
 11
69.28511021958638
 21
74.46046388474053
 31
0.0
  0
LINE
  5
217
330
1E
100
AcDbEntity
  8
0
100
AcDbLine
 10
69.28511021958638
 20
74.46046388474053
 30
0.0
 11
91.93030469466476
 21
60.05980258163686
 31
0.0
  0
LINE
  5
218
330
1E
100
AcDbEntity
  8
0
100
AcDbLine
 10
91.93030469466476
 20
60.05980258163686
 30
0.0
 11
119.0359168593376
 21
48.40212485556083
 31
0.0
  0
LINE
  5
219
330
1E
100
AcDbEntity
  8
0
100
AcDbLine
 10
119.0359168593376
 20
48.40212485556083
 30
0.0
 11
163.7678355373941
 21
35.75759328121228
 31
0.0
  0
LINE
  5
21A
330
1E
100
AcDbEntity
  8
0
100
AcDbLine
 10
163.7678355373941
 20
35.75759328121228
 30
0.0
 11
193.6348268000283
 21
30.71858461781733
 31
0.0
  0
LINE
  5
21B
330
1E
100
AcDbEntity
  8
0
100
AcDbLine
 10
193.6348268000283
 20
30.71858461781733
 30
0.0
 11
237.0777208680888
 21
26.45480814114273
 31
0.0
  0
LINE
  5
21C
330
1E
100
AcDbEntity
  8
0
100
AcDbLine
 10
237.0777208680888
 20
26.45480814114273
 30
0.0
 11
265.5751526962603
 21
25.3359833694999
 31
0.0
  0
LINE
  5
21D
330
1E
100
AcDbEntity
  8
0
100
AcDbLine
 10
265.5751526962603
 20
25.3359833694999
 30
0.0
 11
292.5
 21
24.9
 31
0.0
  0
LINE
  5
220
330
1E
100
AcDbEntity
  8
0
100
AcDbLine
 10
524.9162040454557
 20
258.4760305468857
 30
0.0
 11
544.1987456456168
 21
215.4907287381664
 31
0.0
  0
LINE
  5
221
330
1E
100
AcDbEntity
  8
0
100
AcDbLine
 10
573.8993
 20
211.86
 30
0.0
 11
566.3138
 21
235.3759999999999
 31
0.0
  0
LINE
  5
222
330
1E
100
AcDbEntity
  8
0
100
AcDbLine
 10
493.0696953053352
 20
60.05980258163686
 30
0.0
 11
465.9640831406623
 21
48.40212485556083
 31
0.0
  0
LINE
  5
223
330
1E
100
AcDbEntity
  8
0
100
AcDbLine
 10
475.473
 20
23.5105
 30
0.0
 11
456.417
 21
16.8446
 31
0.0
  0
LINE
  5
224
330
1E
100
AcDbEntity
  8
0
100
AcDbLine
 10
533.8996665658978
 20
90.5754903362016
 30
0.0
 11
515.7148897804136
 21
74.46046388474053
 31
0.0
  0
LINE
  5
225
330
1E
100
AcDbEntity
  8
0
100
AcDbLine
 10
573.3443
 20
100.224
 30
0.0
 11
564.2786999999999
 21
84.2448
 31
0.0
  0
LINE
  5
226
330
1E
100
AcDbEntity
  8
0
100
AcDbLine
 10
523.0209999999999
 20
46.84129999999999
 30
0.0
 11
508.7749999999999
 21
38.1386
 31
0.0
  0
LINE
  5
227
330
1E
100
AcDbEntity
  8
0
100
AcDbLine
 10
538.562
 20
56.84029999999999
 30
0.0
 11
523.0209999999999
 21
46.84129999999999
 31
0.0
  0
LINE
  5
228
330
1E
100
AcDbEntity
  8
0
100
AcDbLine
 10
552.808
 20
69.98699999999999
 30
0.0
 11
538.562
 21
56.84029999999999
 31
0.0
  0
LINE
  5
229
330
1E
100
AcDbEntity
  8
0
100
AcDbLine
 10
564.2786999999999
 20
84.2448
 30
0.0
 11
552.808
 21
69.98699999999999
 31
0.0
  0
LINE
  5
22A
330
1E
100
AcDbEntity
  8
0
100
AcDbLine
 10
508.7749999999999
 20
38.1386
 30
0.0
 11
492.6789999999999
 21
30.5468
 31
0.0
  0
LINE
  5
22B
330
1E
100
AcDbEntity
  8
0
100
AcDbLine
 10
492.6789999999999
 20
30.5468
 30
0.0
 11
475.473
 21
23.5105
 31
0.0
  0
LINE
  5
22C
330
1E
100
AcDbEntity
  8
0
100
AcDbLine
 10
515.7148897804136
 20
74.46046388474053
 30
0.0
 11
493.0696953053352
 21
60.05980258163686
 31
0.0
  0
LINE
  5
22D
330
1E
100
AcDbEntity
  8
0
100
AcDbLine
 10
584.444964
 20
156.5149999999999
 30
0.0
 11
582.9648699999999
 21
171.123
 31
0.0
  0
LINE
  5
22E
330
1E
100
AcDbEntity
  8
0
100
AcDbLine
 10
583.3348999999999
 20
131.702
 30
0.0
 11
579.26462
 21
115.9629999999999
 31
0.0
  0
LINE
  5
22F
330
1E
100
AcDbEntity
  8
0
100
AcDbLine
 10
579.26462
 20
115.9629999999999
 30
0.0
 11
573.3443
 21
100.224
 31
0.0
  0
LINE
  5
230
330
1E
100
AcDbEntity
  8
0
100
AcDbLine
 10
585.0
 20
144.8489999999999
 30
0.0
 11
583.3348999999999
 21
131.702
 31
0.0
  0
LINE
  5
231
330
1E
100
AcDbEntity
  8
0
100
AcDbLine
 10
585.0
 20
144.8489999999999
 30
0.0
 11
584.444964
 21
156.5149999999999
 31
0.0
  0
LINE
  5
232
330
1E
100
AcDbEntity
  8
0
100
AcDbLine
 10
578.8946
 20
192.417
 30
0.0
 11
573.8993
 21
211.86
 31
0.0
  0
LINE
  5
233
330
1E
100
AcDbEntity
  8
0
100
AcDbLine
 10
582.9648699999999
 20
171.123
 30
0.0
 11
578.8946
 21
192.417
 31
0.0
  0
LINE
  5
234
330
1E
100
AcDbEntity
  8
0
100
AcDbLine
 10
582.9648699999999
 20
171.123
 30
0.0
 11
578.8946
 21
192.417
 31
0.0
  0
LINE
  5
235
330
1E
100
AcDbEntity
  8
0
100
AcDbLine
 10
557.1689041166551
 20
162.2934675513357
 30
0.0
 11
557.1689041166551
 21
153.1436698948576
 31
0.0
  0
LINE
  5
236
330
1E
100
AcDbEntity
  8
0
100
AcDbLine
 10
555.2297095862768
 20
137.5405435013468
 30
0.0
 11
547.2809173207274
 21
110.8049905023432
 31
0.0
  0
LINE
  5
237
330
1E
100
AcDbEntity
  8
0
100
AcDbLine
 10
547.2809173207274
 20
110.8049905023432
 30
0.0
 11
533.8996665658978
 21
90.5754903362016
 31
0.0
  0
LINE
  5
238
330
1E
100
AcDbEntity
  8
0
100
AcDbLine
 10
557.1689041166551
 20
153.1436698948576
 30
0.0
 11
555.2297095862768
 21
137.5405435013468
 31
0.0
  0
LINE
  5
239
330
1E
100
AcDbEntity
  8
0
100
AcDbLine
 10
544.1987456456168
 20
215.4907287381664
 30
0.0
 11
551.5563552837766
 21
187.3990187978339
 31
0.0
  0
LINE
  5
23A
330
1E
100
AcDbEntity
  8
0
100
AcDbLine
 10
551.5563552837766
 20
187.3990187978339
 30
0.0
 11
557.1689041166551
 21
162.2934675513357
 31
0.0
  0
LINE
  5
23B
330
1E
100
AcDbEntity
  8
0
100
AcDbLine
 10
391.3651731999716
 20
30.71858461781733
 30
0.0
 11
347.9222791319112
 21
26.45480814114273
 31
0.0
  0
LINE
  5
23C
330
1E
100
AcDbEntity
  8
0
100
AcDbLine
 10
393.439
 20
3.994370000000009
 30
0.0
 11
371.052
 21
1.95756000000001
 31
0.0
  0
LINE
  5
23D
330
1E
100
AcDbEntity
  8
0
100
AcDbLine
 10
456.417
 20
16.8446
 30
0.0
 11
439.58
 21
12.2154
 31
0.0
  0
LINE
  5
23E
330
1E
100
AcDbEntity
  8
0
100
AcDbLine
 10
439.58
 20
12.2154
 30
0.0
 11
419.229
 21
7.771450000000009
 31
0.0
  0
LINE
  5
23F
330
1E
100
AcDbEntity
  8
0
100
AcDbLine
 10
419.229
 20
7.771450000000009
 30
0.0
 11
393.439
 21
3.994370000000009
 31
0.0
  0
LINE
  5
240
330
1E
100
AcDbEntity
  8
0
100
AcDbLine
 10
465.9640831406623
 20
48.40212485556083
 30
0.0
 11
421.2321644626058
 21
35.75759328121228
 31
0.0
  0
LINE
  5
241
330
1E
100
AcDbEntity
  8
0
100
AcDbLine
 10
421.2321644626058
 20
35.75759328121228
 30
0.0
 11
391.3651731999716
 21
30.71858461781733
 31
0.0
  0
LINE
  5
242
330
1E
100
AcDbEntity
  8
0
100
AcDbLine
 10
345.8899999999999
 20
0.8465620000000091
 30
0.0
 11
315.179
 21
0.2910670000000089
 31
0.0
  0
LINE
  5
243
330
1E
100
AcDbEntity
  8
0
100
AcDbLine
 10
371.052
 20
1.95756000000001
 30
0.0
 11
345.8899999999999
 21
0.8465620000000091
 31
0.0
  0
LINE
  5
244
330
1E
100
AcDbEntity
  8
0
100
AcDbLine
 10
315.179
 20
0.2910670000000089
 30
0.0
 11
292.5
 21
0.0000000000000086
 31
0.0
  0
LINE
  5
245
330
1E
100
AcDbEntity
  8
0
100
AcDbLine
 10
347.9222791319112
 20
26.45480814114273
 30
0.0
 11
319.4248473037396
 21
25.3359833694999
 31
0.0
  0
LINE
  5
246
330
1E
100
AcDbEntity
  8
0
100
AcDbLine
 10
319.4248473037396
 20
25.3359833694999
 30
0.0
 11
292.5
 21
24.9
 31
0.0
  0
LINE
  5
25F
330
1E
100
AcDbEntity
  8
0
100
AcDbLine
 10
466.9981494537901
 20
344.53166670914
 30
0.0
 11
498.2353364879959
 21
303.6102569284595
 31
0.0
  0
LINE
  5
260
330
1E
100
AcDbEntity
  8
0
100
AcDbLine
 10
478.48
 20
367.333
 30
0.0
 11
464.204
 21
383.093
 31
0.0
  0
LINE
  5
261
330
1E
100
AcDbEntity
  8
0
100
AcDbLine
 10
532.7803999999999
 20
295.989
 30
0.0
 11
521.4021
 21
313.395
 31
0.0
  0
LINE
  5
262
330
1E
100
AcDbEntity
  8
0
100
AcDbLine
 10
498.2353364879959
 20
303.6102569284595
 30
0.0
 11
524.9162040454557
 21
258.4760305468857
 31
0.0
  0
LINE
  5
263
330
1E
100
AcDbEntity
  8
0
100
AcDbLine
 10
555.3981
 20
257.411
 30
0.0
 11
543.3722999999999
 21
279.075
 31
0.0
  0
LINE
  5
264
330
1E
100
AcDbEntity
  8
0
100
AcDbLine
 10
566.3138
 20
235.3759999999999
 30
0.0
 11
555.3981
 21
257.411
 31
0.0
  0
LINE
  5
265
330
1E
100
AcDbEntity
  8
0
100
AcDbLine
 10
543.3722999999999
 20
279.075
 30
0.0
 11
532.7803999999999
 21
295.989
 31
0.0
  0
LINE
  5
266
330
1E
100
AcDbEntity
  8
0
100
AcDbLine
 10
521.4021
 20
313.395
 30
0.0
 11
507.8037
 21
331.319
 31
0.0
  0
LINE
  5
267
330
1E
100
AcDbEntity
  8
0
100
AcDbLine
 10
507.8037
 20
331.319
 30
0.0
 11
492.7252
 21
350.7609999999999
 31
0.0
  0
LINE
  5
268
330
1E
100
AcDbEntity
  8
0
100
AcDbLine
 10
492.7252
 20
350.7609999999999
 30
0.0
 11
478.48
 21
367.333
 31
0.0
  0
LINE
  5
269
330
1E
100
AcDbEntity
  8
0
100
AcDbLine
 10
428.4615787838397
 20
387.5548513739218
 30
0.0
 11
466.9981494537901
 21
344.53166670914
 31
0.0
  0
LINE
  5
290
330
1E
100
AcDbEntity
  8
0
100
AcDbLine
 10
378.1656904047531
 20
425.6630521547327
 30
0.0
 11
409.8736234342423
 21
403.9009950539524
 31
0.0
  0
LINE
  5
292
330
1E
100
AcDbEntity
  8
0
100
AcDbLine
 10
392.403
 20
441.494
 30
0.0
 11
371.4329999999999
 21
452.901
 31
0.0
  0
LINE
  5
293
330
1E
100
AcDbEntity
  8
0
100
AcDbLine
 10
432.292
 20
412.75
 30
0.0
 11
412.2329999999999
 21
428.035
 31
0.0
  0
LINE
  5
294
330
1E
100
AcDbEntity
  8
0
100
AcDbLine
 10
464.204
 20
383.093
 30
0.0
 11
449.388
 21
397.2369999999999
 31
0.0
  0
LINE
  5
295
330
1E
100
AcDbEntity
  8
0
100
AcDbLine
 10
449.388
 20
397.2369999999999
 30
0.0
 11
432.292
 21
412.75
 31
0.0
  0
LINE
  5
297
330
1E
100
AcDbEntity
  8
0
100
AcDbLine
 10
409.8736234342423
 20
403.9009950539524
 30
0.0
 11
428.4615787838397
 21
387.5548513739218
 31
0.0
  0
LINE
  5
2AE
330
1E
100
AcDbEntity
  8
0
100
AcDbLine
 10
412.2329999999999
 20
428.035
 30
0.0
 11
392.403
 21
441.494
 31
0.0
  0
LINE
  5
2AF
330
1E
100
AcDbEntity
  8
0
100
AcDbLine
 10
371.4329999999999
 20
452.901
 30
0.0
 11
347.7269999999999
 21
462.2539999999999
 31
0.0
  0
LINE
  5
2B0
330
1E
100
AcDbEntity
  8
0
100
AcDbLine
 10
340.2481554159253
 20
442.2814899372389
 30
0.0
 11
315.8831314804106
 21
446.99807775686
 31
0.0
  0
LINE
  5
2BB
330
1E
100
AcDbEntity
  8
0
100
AcDbLine
 10
378.1656904047531
 20
425.6630521547327
 30
0.0
 11
340.2481554159253
 21
442.2814899372389
 31
0.0
  0
LINE
  5
2E0
330
1E
100
AcDbEntity
  8
0
100
AcDbLine
 10
315.8831314804106
 20
446.99807775686
 30
0.0
 11
292.5
 21
447.5
 31
0.0
  0
LINE
  5
2E1
330
1E
100
AcDbEntity
  8
0
100
AcDbLine
 10
347.7269999999999
 20
462.2539999999999
 30
0.0
 11
327.8959999999999
 21
466.8159999999999
 31
0.0
  0
LINE
  5
2E2
330
1E
100
AcDbEntity
  8
0
100
AcDbLine
 10
327.8959999999999
 20
466.8159999999999
 30
0.0
 11
309.2049999999999
 21
468.413
 31
0.0
  0
LINE
  5
2E3
330
1E
100
AcDbEntity
  8
0
100
AcDbLine
 10
309.2049999999999
 20
468.413
 30
0.0
 11
292.5
 21
469.0
 31
0.0
  0
LINE
  5
431
330
1E
100
AcDbEntity
  8
0
100
AcDbLine
 10
257.5
 20
142.0
 30
0.0
 11
257.8679999999999
 21
146.5679999999999
 31
0.0
  0
LINE
  5
432
330
1E
100
AcDbEntity
  8
0
100
AcDbLine
 10
257.5
 20
142.0
 30
0.0
 11
257.8679999999999
 21
137.432
 31
0.0
  0
LINE
  5
433
330
1E
100
AcDbEntity
  8
0
100
AcDbLine
 10
257.8679999999999
 20
137.432
 30
0.0
 11
258.7529999999999
 21
132.9739999999999
 31
0.0
  0
LINE
  5
434
330
1E
100
AcDbEntity
  8
0
100
AcDbLine
 10
275.074
 20
172.3209999999999
 30
0.0
 11
279.1259999999999
 21
174.2739999999999
 31
0.0
  0
LINE
  5
435
330
1E
100
AcDbEntity
  8
0
100
AcDbLine
 10
287.932
 20
176.632
 30
0.0
 11
292.5
 21
177.0
 31
0.0
  0
LINE
  5
436
330
1E
100
AcDbEntity
  8
0
100
AcDbLine
 10
292.5
 20
177.0
 30
0.0
 11
297.0679999999999
 21
176.632
 31
0.0
  0
LINE
  5
465
330
1E
100
AcDbEntity
  8
0
100
AcDbLine
 10
283.4739999999999
 20
175.747
 30
0.0
 11
287.932
 21
176.632
 31
0.0
  0
LINE
  5
466
330
1E
100
AcDbEntity
  8
0
100
AcDbLine
 10
327.132
 20
146.5679999999999
 30
0.0
 11
327.4999999999999
 21
142.0
 31
0.0
  0
LINE
  5
467
330
1E
100
AcDbEntity
  8
0
100
AcDbLine
 10
326.247
 20
151.026
 30
0.0
 11
327.132
 21
146.5679999999999
 31
0.0
  0
LINE
  5
472
330
1E
100
AcDbEntity
  8
0
100
AcDbLine
 10
324.7739999999998
 20
155.3739999999999
 30
0.0
 11
326.247
 21
151.026
 31
0.0
  0
LINE
  5
473
330
1E
100
AcDbEntity
  8
0
100
AcDbLine
 10
322.8209999999999
 20
159.426
 30
0.0
 11
324.7739999999998
 21
155.3739999999999
 31
0.0
  0
LINE
  5
474
330
1E
100
AcDbEntity
  8
0
100
AcDbLine
 10
320.2049999999999
 20
163.2949999999999
 30
0.0
 11
322.8209999999999
 21
159.426
 31
0.0
  0
LINE
  5
475
330
1E
100
AcDbEntity
  8
0
100
AcDbLine
 10
317.221
 20
166.7209999999999
 30
0.0
 11
320.2049999999999
 21
163.2949999999999
 31
0.0
  0
LINE
  5
476
330
1E
100
AcDbEntity
  8
0
100
AcDbLine
 10
297.0679999999999
 20
176.632
 30
0.0
 11
301.526
 21
175.747
 31
0.0
  0
LINE
  5
477
330
1E
100
AcDbEntity
  8
0
100
AcDbLine
 10
301.526
 20
175.747
 30
0.0
 11
305.874
 21
174.2739999999999
 31
0.0
  0
LINE
  5
478
330
1E
100
AcDbEntity
  8
0
100
AcDbLine
 10
305.874
 20
174.2739999999999
 30
0.0
 11
309.9259999999999
 21
172.3209999999999
 31
0.0
  0
LINE
  5
479
330
1E
100
AcDbEntity
  8
0
100
AcDbLine
 10
309.9259999999999
 20
172.3209999999999
 30
0.0
 11
313.795
 21
169.705
 31
0.0
  0
LINE
  5
47A
330
1E
100
AcDbEntity
  8
0
100
AcDbLine
 10
313.795
 20
169.705
 30
0.0
 11
317.221
 21
166.7209999999999
 31
0.0
  0
LINE
  5
481
330
1E
100
AcDbEntity
  8
0
100
AcDbLine
 10
279.1259999999999
 20
174.2739999999999
 30
0.0
 11
283.4739999999999
 21
175.747
 31
0.0
  0
LINE
  5
482
330
1E
100
AcDbEntity
  8
0
100
AcDbLine
 10
271.2049999999999
 20
169.705
 30
0.0
 11
275.074
 21
172.3209999999999
 31
0.0
  0
LINE
  5
483
330
1E
100
AcDbEntity
  8
0
100
AcDbLine
 10
267.7789999999999
 20
166.7209999999999
 30
0.0
 11
271.2049999999999
 21
169.705
 31
0.0
  0
LINE
  5
484
330
1E
100
AcDbEntity
  8
0
100
AcDbLine
 10
257.8679999999999
 20
146.5679999999999
 30
0.0
 11
258.7529999999999
 21
151.026
 31
0.0
  0
LINE
  5
485
330
1E
100
AcDbEntity
  8
0
100
AcDbLine
 10
258.7529999999999
 20
151.026
 30
0.0
 11
260.2260000000001
 21
155.3739999999999
 31
0.0
  0
LINE
  5
486
330
1E
100
AcDbEntity
  8
0
100
AcDbLine
 10
260.2260000000001
 20
155.3739999999999
 30
0.0
 11
262.179
 21
159.426
 31
0.0
  0
LINE
  5
487
330
1E
100
AcDbEntity
  8
0
100
AcDbLine
 10
262.179
 20
159.426
 30
0.0
 11
264.795
 21
163.2949999999999
 31
0.0
  0
LINE
  5
488
330
1E
100
AcDbEntity
  8
0
100
AcDbLine
 10
264.795
 20
163.2949999999999
 30
0.0
 11
267.7789999999999
 21
166.7209999999999
 31
0.0
  0
LINE
  5
489
330
1E
100
AcDbEntity
  8
0
100
AcDbLine
 10
258.7529999999999
 20
132.9739999999999
 30
0.0
 11
260.2260000000001
 21
128.626
 31
0.0
  0
LINE
  5
48A
330
1E
100
AcDbEntity
  8
0
100
AcDbLine
 10
260.2260000000001
 20
128.626
 30
0.0
 11
262.179
 21
124.574
 31
0.0
  0
LINE
  5
48B
330
1E
100
AcDbEntity
  8
0
100
AcDbLine
 10
327.132
 20
137.432
 30
0.0
 11
327.4999999999999
 21
142.0
 31
0.0
  0
LINE
  5
491
330
1E
100
AcDbEntity
  8
0
100
AcDbLine
 10
326.247
 20
132.9739999999999
 30
0.0
 11
327.132
 21
137.432
 31
0.0
  0
LINE
  5
494
330
1E
100
AcDbEntity
  8
0
100
AcDbLine
 10
262.179
 20
124.574
 30
0.0
 11
264.795
 21
120.7049999999999
 31
0.0
  0
LINE
  5
495
330
1E
100
AcDbEntity
  8
0
100
AcDbLine
 10
264.795
 20
120.7049999999999
 30
0.0
 11
267.7789999999999
 21
117.2789999999999
 31
0.0
  0
LINE
  5
496
330
1E
100
AcDbEntity
  8
0
100
AcDbLine
 10
324.7739999999998
 20
128.626
 30
0.0
 11
326.247
 21
132.9739999999999
 31
0.0
  0
LINE
  5
498
330
1E
100
AcDbEntity
  8
0
100
AcDbLine
 10
322.8209999999999
 20
124.574
 30
0.0
 11
324.7739999999998
 21
128.626
 31
0.0
  0
LINE
  5
499
330
1E
100
AcDbEntity
  8
0
100
AcDbLine
 10
287.932
 20
107.3679999999999
 30
0.0
 11
292.5
 21
107.0
 31
0.0
  0
LINE
  5
49A
330
1E
100
AcDbEntity
  8
0
100
AcDbLine
 10
292.5
 20
107.0
 30
0.0
 11
297.0679999999999
 21
107.3679999999999
 31
0.0
  0
LINE
  5
49B
330
1E
100
AcDbEntity
  8
0
100
AcDbLine
 10
297.0679999999999
 20
107.3679999999999
 30
0.0
 11
301.526
 21
108.253
 31
0.0
  0
LINE
  5
49C
330
1E
100
AcDbEntity
  8
0
100
AcDbLine
 10
301.526
 20
108.253
 30
0.0
 11
305.874
 21
109.726
 31
0.0
  0
LINE
  5
49D
330
1E
100
AcDbEntity
  8
0
100
AcDbLine
 10
305.874
 20
109.726
 30
0.0
 11
309.9259999999999
 21
111.6789999999999
 31
0.0
  0
LINE
  5
49E
330
1E
100
AcDbEntity
  8
0
100
AcDbLine
 10
309.9259999999999
 20
111.6789999999999
 30
0.0
 11
313.795
 21
114.295
 31
0.0
  0
LINE
  5
49F
330
1E
100
AcDbEntity
  8
0
100
AcDbLine
 10
313.795
 20
114.295
 30
0.0
 11
317.221
 21
117.2789999999999
 31
0.0
  0
LINE
  5
4A0
330
1E
100
AcDbEntity
  8
0
100
AcDbLine
 10
320.2049999999999
 20
120.7049999999999
 30
0.0
 11
322.8209999999999
 21
124.574
 31
0.0
  0
LINE
  5
4A1
330
1E
100
AcDbEntity
  8
0
100
AcDbLine
 10
317.221
 20
117.2789999999999
 30
0.0
 11
320.2049999999999
 21
120.7049999999999
 31
0.0
  0
LINE
  5
4BD
330
1E
100
AcDbEntity
  8
0
100
AcDbLine
 10
283.4739999999999
 20
108.253
 30
0.0
 11
287.932
 21
107.3679999999999
 31
0.0
  0
LINE
  5
4BE
330
1E
100
AcDbEntity
  8
0
100
AcDbLine
 10
279.1259999999999
 20
109.726
 30
0.0
 11
283.4739999999999
 21
108.253
 31
0.0
  0
LINE
  5
4BF
330
1E
100
AcDbEntity
  8
0
100
AcDbLine
 10
275.074
 20
111.6789999999999
 30
0.0
 11
279.1259999999999
 21
109.726
 31
0.0
  0
LINE
  5
4C0
330
1E
100
AcDbEntity
  8
0
100
AcDbLine
 10
271.2049999999999
 20
114.295
 30
0.0
 11
275.074
 21
111.6789999999999
 31
0.0
  0
LINE
  5
4C1
330
1E
100
AcDbEntity
  8
0
100
AcDbLine
 10
267.7789999999999
 20
117.2789999999999
 30
0.0
 11
271.2049999999999
 21
114.295
 31
0.0
  0
LINE
  5
4D1
330
1E
100
AcDbEntity
  8
0
100
AcDbLine
 10
194.0399999999999
 20
363.605
 30
0.0
 11
195.5449999999999
 21
363.7799999999999
 31
0.0
  0
LINE
  5
4D2
330
1E
100
AcDbEntity
  8
0
100
AcDbLine
 10
195.5449999999999
 20
363.7799999999999
 30
0.0
 11
197.0499999999999
 21
364.13
 31
0.0
  0
LINE
  5
4D3
330
1E
100
AcDbEntity
  8
0
100
AcDbLine
 10
197.0499999999999
 20
364.13
 30
0.0
 11
198.485
 21
364.5849999999999
 31
0.0
  0
LINE
  5
4D4
330
1E
100
AcDbEntity
  8
0
100
AcDbLine
 10
198.485
 20
364.5849999999999
 30
0.0
 11
199.885
 21
365.18
 31
0.0
  0
LINE
  5
4D5
330
1E
100
AcDbEntity
  8
0
100
AcDbLine
 10
199.885
 20
365.18
 30
0.0
 11
201.215
 21
365.8799999999999
 31
0.0
  0
LINE
  5
4D6
330
1E
100
AcDbEntity
  8
0
100
AcDbLine
 10
201.215
 20
365.8799999999999
 30
0.0
 11
202.5449999999999
 21
366.685
 31
0.0
  0
LINE
  5
4D7
330
1E
100
AcDbEntity
  8
0
100
AcDbLine
 10
202.5449999999999
 20
366.685
 30
0.0
 11
203.7349999999999
 21
367.6299999999999
 31
0.0
  0
LINE
  5
4D8
330
1E
100
AcDbEntity
  8
0
100
AcDbLine
 10
203.7349999999999
 20
367.6299999999999
 30
0.0
 11
204.855
 21
368.6449999999999
 31
0.0
  0
LINE
  5
4D9
330
1E
100
AcDbEntity
  8
0
100
AcDbLine
 10
209.8949999999999
 20
379.4599999999999
 30
0.0
 11
210.0
 21
381.0
 31
0.0
  0
LINE
  5
4DA
330
1E
100
AcDbEntity
  8
0
100
AcDbLine
 10
209.8949999999999
 20
382.54
 30
0.0
 11
210.0
 21
381.0
 31
0.0
  0
LINE
  5
4DB
330
1E
100
AcDbEntity
  8
0
100
AcDbLine
 10
209.72
 20
384.045
 30
0.0
 11
209.8949999999999
 21
382.54
 31
0.0
  0
LINE
  5
4DC
330
1E
100
AcDbEntity
  8
0
100
AcDbLine
 10
209.37
 20
385.55
 30
0.0
 11
209.72
 21
384.045
 31
0.0
  0
LINE
  5
4DD
330
1E
100
AcDbEntity
  8
0
100
AcDbLine
 10
208.9149999999999
 20
386.9849999999999
 30
0.0
 11
209.37
 21
385.55
 31
0.0
  0
LINE
  5
4DE
330
1E
100
AcDbEntity
  8
0
100
AcDbLine
 10
208.3199999999999
 20
388.3849999999999
 30
0.0
 11
208.9149999999999
 21
386.9849999999999
 31
0.0
  0
LINE
  5
4DF
330
1E
100
AcDbEntity
  8
0
100
AcDbLine
 10
207.62
 20
389.7149999999999
 30
0.0
 11
208.3199999999999
 21
388.3849999999999
 31
0.0
  0
LINE
  5
4E0
330
1E
100
AcDbEntity
  8
0
100
AcDbLine
 10
206.815
 20
391.045
 30
0.0
 11
207.62
 21
389.7149999999999
 31
0.0
  0
LINE
  5
4E1
330
1E
100
AcDbEntity
  8
0
100
AcDbLine
 10
205.8699999999999
 20
392.235
 30
0.0
 11
206.815
 21
391.045
 31
0.0
  0
LINE
  5
4E2
330
1E
100
AcDbEntity
  8
0
100
AcDbLine
 10
204.855
 20
393.355
 30
0.0
 11
205.8699999999999
 21
392.235
 31
0.0
  0
LINE
  5
4E3
330
1E
100
AcDbEntity
  8
0
100
AcDbLine
 10
209.72
 20
377.9549999999999
 30
0.0
 11
209.8949999999999
 21
379.4599999999999
 31
0.0
  0
LINE
  5
4E4
330
1E
100
AcDbEntity
  8
0
100
AcDbLine
 10
209.37
 20
376.4499999999999
 30
0.0
 11
209.72
 21
377.9549999999999
 31
0.0
  0
LINE
  5
4E5
330
1E
100
AcDbEntity
  8
0
100
AcDbLine
 10
208.9149999999999
 20
375.015
 30
0.0
 11
209.37
 21
376.4499999999999
 31
0.0
  0
LINE
  5
4E6
330
1E
100
AcDbEntity
  8
0
100
AcDbLine
 10
208.3199999999999
 20
373.615
 30
0.0
 11
208.9149999999999
 21
375.015
 31
0.0
  0
LINE
  5
4E7
330
1E
100
AcDbEntity
  8
0
100
AcDbLine
 10
207.62
 20
372.285
 30
0.0
 11
208.3199999999999
 21
373.615
 31
0.0
  0
LINE
  5
4E8
330
1E
100
AcDbEntity
  8
0
100
AcDbLine
 10
206.815
 20
370.955
 30
0.0
 11
207.62
 21
372.285
 31
0.0
  0
LINE
  5
4E9
330
1E
100
AcDbEntity
  8
0
100
AcDbLine
 10
205.8699999999999
 20
369.7649999999999
 30
0.0
 11
206.815
 21
370.955
 31
0.0
  0
LINE
  5
4EA
330
1E
100
AcDbEntity
  8
0
100
AcDbLine
 10
204.855
 20
368.6449999999999
 30
0.0
 11
205.8699999999999
 21
369.7649999999999
 31
0.0
  0
LINE
  5
4EB
330
1E
100
AcDbEntity
  8
0
100
AcDbLine
 10
202.5449999999999
 20
395.3149999999999
 30
0.0
 11
203.7349999999999
 21
394.37
 31
0.0
  0
LINE
  5
4EC
330
1E
100
AcDbEntity
  8
0
100
AcDbLine
 10
203.7349999999999
 20
394.37
 30
0.0
 11
204.855
 21
393.355
 31
0.0
  0
LINE
  5
4ED
330
1E
100
AcDbEntity
  8
0
100
AcDbLine
 10
199.885
 20
396.8199999999999
 30
0.0
 11
201.215
 21
396.12
 31
0.0
  0
LINE
  5
4EE
330
1E
100
AcDbEntity
  8
0
100
AcDbLine
 10
201.215
 20
396.12
 30
0.0
 11
202.5449999999999
 21
395.3149999999999
 31
0.0
  0
LINE
  5
4EF
330
1E
100
AcDbEntity
  8
0
100
AcDbLine
 10
197.0499999999999
 20
397.87
 30
0.0
 11
198.485
 21
397.415
 31
0.0
  0
LINE
  5
4F0
330
1E
100
AcDbEntity
  8
0
100
AcDbLine
 10
198.485
 20
397.415
 30
0.0
 11
199.885
 21
396.8199999999999
 31
0.0
  0
LINE
  5
4F1
330
1E
100
AcDbEntity
  8
0
100
AcDbLine
 10
194.0399999999999
 20
398.395
 30
0.0
 11
195.5449999999999
 21
398.22
 31
0.0
  0
LINE
  5
4F2
330
1E
100
AcDbEntity
  8
0
100
AcDbLine
 10
195.5449999999999
 20
398.22
 30
0.0
 11
197.0499999999999
 21
397.87
 31
0.0
  0
LINE
  5
4F5
330
1E
100
AcDbEntity
  8
0
100
AcDbLine
 10
175.0
 20
381.0
 30
0.0
 11
175.105
 21
382.54
 31
0.0
  0
LINE
  5
4F6
330
1E
100
AcDbEntity
  8
0
100
AcDbLine
 10
175.0
 20
381.0
 30
0.0
 11
175.105
 21
379.4599999999999
 31
0.0
  0
LINE
  5
4F7
330
1E
100
AcDbEntity
  8
0
100
AcDbLine
 10
192.5
 20
398.4999999999999
 30
0.0
 11
194.0399999999999
 21
398.395
 31
0.0
  0
LINE
  5
4F8
330
1E
100
AcDbEntity
  8
0
100
AcDbLine
 10
190.96
 20
398.395
 30
0.0
 11
192.5
 21
398.4999999999999
 31
0.0
  0
LINE
  5
4F9
330
1E
100
AcDbEntity
  8
0
100
AcDbLine
 10
189.455
 20
398.22
 30
0.0
 11
190.96
 21
398.395
 31
0.0
  0
LINE
  5
4FA
330
1E
100
AcDbEntity
  8
0
100
AcDbLine
 10
187.95
 20
397.87
 30
0.0
 11
189.455
 21
398.22
 31
0.0
  0
LINE
  5
4FB
330
1E
100
AcDbEntity
  8
0
100
AcDbLine
 10
186.5149999999999
 20
397.415
 30
0.0
 11
187.95
 21
397.87
 31
0.0
  0
LINE
  5
4FC
330
1E
100
AcDbEntity
  8
0
100
AcDbLine
 10
185.115
 20
396.8199999999999
 30
0.0
 11
186.5149999999999
 21
397.415
 31
0.0
  0
LINE
  5
4FD
330
1E
100
AcDbEntity
  8
0
100
AcDbLine
 10
183.7849999999999
 20
396.12
 30
0.0
 11
185.115
 21
396.8199999999999
 31
0.0
  0
LINE
  5
4FE
330
1E
100
AcDbEntity
  8
0
100
AcDbLine
 10
182.455
 20
395.3149999999999
 30
0.0
 11
183.7849999999999
 21
396.12
 31
0.0
  0
LINE
  5
4FF
330
1E
100
AcDbEntity
  8
0
100
AcDbLine
 10
181.2649999999999
 20
394.37
 30
0.0
 11
182.455
 21
395.3149999999999
 31
0.0
  0
LINE
  5
500
330
1E
100
AcDbEntity
  8
0
100
AcDbLine
 10
180.1449999999999
 20
393.355
 30
0.0
 11
181.2649999999999
 21
394.37
 31
0.0
  0
LINE
  5
501
330
1E
100
AcDbEntity
  8
0
100
AcDbLine
 10
175.105
 20
382.54
 30
0.0
 11
175.2799999999999
 21
384.045
 31
0.0
  0
LINE
  5
502
330
1E
100
AcDbEntity
  8
0
100
AcDbLine
 10
175.2799999999999
 20
384.045
 30
0.0
 11
175.6299999999999
 21
385.55
 31
0.0
  0
LINE
  5
503
330
1E
100
AcDbEntity
  8
0
100
AcDbLine
 10
175.6299999999999
 20
385.55
 30
0.0
 11
176.085
 21
386.9849999999999
 31
0.0
  0
LINE
  5
504
330
1E
100
AcDbEntity
  8
0
100
AcDbLine
 10
176.085
 20
386.9849999999999
 30
0.0
 11
176.68
 21
388.3849999999999
 31
0.0
  0
LINE
  5
505
330
1E
100
AcDbEntity
  8
0
100
AcDbLine
 10
176.68
 20
388.3849999999999
 30
0.0
 11
177.38
 21
389.7149999999999
 31
0.0
  0
LINE
  5
506
330
1E
100
AcDbEntity
  8
0
100
AcDbLine
 10
177.38
 20
389.7149999999999
 30
0.0
 11
178.1849999999999
 21
391.045
 31
0.0
  0
LINE
  5
507
330
1E
100
AcDbEntity
  8
0
100
AcDbLine
 10
178.1849999999999
 20
391.045
 30
0.0
 11
179.1299999999999
 21
392.235
 31
0.0
  0
LINE
  5
508
330
1E
100
AcDbEntity
  8
0
100
AcDbLine
 10
179.1299999999999
 20
392.235
 30
0.0
 11
180.1449999999999
 21
393.355
 31
0.0
  0
LINE
  5
509
330
1E
100
AcDbEntity
  8
0
100
AcDbLine
 10
175.105
 20
379.4599999999999
 30
0.0
 11
175.2799999999999
 21
377.9549999999999
 31
0.0
  0
LINE
  5
50A
330
1E
100
AcDbEntity
  8
0
100
AcDbLine
 10
175.2799999999999
 20
377.9549999999999
 30
0.0
 11
175.6299999999999
 21
376.4499999999999
 31
0.0
  0
LINE
  5
50B
330
1E
100
AcDbEntity
  8
0
100
AcDbLine
 10
175.6299999999999
 20
376.4499999999999
 30
0.0
 11
176.085
 21
375.015
 31
0.0
  0
LINE
  5
50C
330
1E
100
AcDbEntity
  8
0
100
AcDbLine
 10
176.085
 20
375.015
 30
0.0
 11
176.68
 21
373.615
 31
0.0
  0
LINE
  5
50D
330
1E
100
AcDbEntity
  8
0
100
AcDbLine
 10
176.68
 20
373.615
 30
0.0
 11
177.38
 21
372.285
 31
0.0
  0
LINE
  5
50E
330
1E
100
AcDbEntity
  8
0
100
AcDbLine
 10
177.38
 20
372.285
 30
0.0
 11
178.1849999999999
 21
370.955
 31
0.0
  0
LINE
  5
50F
330
1E
100
AcDbEntity
  8
0
100
AcDbLine
 10
178.1849999999999
 20
370.955
 30
0.0
 11
179.1299999999999
 21
369.7649999999999
 31
0.0
  0
LINE
  5
510
330
1E
100
AcDbEntity
  8
0
100
AcDbLine
 10
179.1299999999999
 20
369.7649999999999
 30
0.0
 11
180.1449999999999
 21
368.6449999999999
 31
0.0
  0
LINE
  5
511
330
1E
100
AcDbEntity
  8
0
100
AcDbLine
 10
190.96
 20
363.605
 30
0.0
 11
192.5
 21
363.5
 31
0.0
  0
LINE
  5
512
330
1E
100
AcDbEntity
  8
0
100
AcDbLine
 10
192.5
 20
363.5
 30
0.0
 11
194.0399999999999
 21
363.605
 31
0.0
  0
LINE
  5
513
330
1E
100
AcDbEntity
  8
0
100
AcDbLine
 10
189.455
 20
363.7799999999999
 30
0.0
 11
190.96
 21
363.605
 31
0.0
  0
LINE
  5
514
330
1E
100
AcDbEntity
  8
0
100
AcDbLine
 10
187.95
 20
364.13
 30
0.0
 11
189.455
 21
363.7799999999999
 31
0.0
  0
LINE
  5
515
330
1E
100
AcDbEntity
  8
0
100
AcDbLine
 10
186.5149999999999
 20
364.5849999999999
 30
0.0
 11
187.95
 21
364.13
 31
0.0
  0
LINE
  5
516
330
1E
100
AcDbEntity
  8
0
100
AcDbLine
 10
185.115
 20
365.18
 30
0.0
 11
186.5149999999999
 21
364.5849999999999
 31
0.0
  0
LINE
  5
517
330
1E
100
AcDbEntity
  8
0
100
AcDbLine
 10
183.7849999999999
 20
365.8799999999999
 30
0.0
 11
185.115
 21
365.18
 31
0.0
  0
LINE
  5
518
330
1E
100
AcDbEntity
  8
0
100
AcDbLine
 10
182.455
 20
366.685
 30
0.0
 11
183.7849999999999
 21
365.8799999999999
 31
0.0
  0
LINE
  5
519
330
1E
100
AcDbEntity
  8
0
100
AcDbLine
 10
181.2649999999999
 20
367.6299999999999
 30
0.0
 11
182.455
 21
366.685
 31
0.0
  0
LINE
  5
51A
330
1E
100
AcDbEntity
  8
0
100
AcDbLine
 10
180.1449999999999
 20
368.6449999999999
 30
0.0
 11
181.2649999999999
 21
367.6299999999999
 31
0.0
  0
ENDSEC
  0
SECTION
  2
OBJECTS
  0
DICTIONARY
  5
C
330
0
100
AcDbDictionary
281
     1
  3
ACAD_GROUP
350
D
  3
ACAD_LAYOUT
350
19
  3
ACAD_MLINESTYLE
350
16
  3
ACAD_PLOTSETTINGS
350
18
  3
ACAD_PLOTSTYLENAME
350
E
  3
AcDbVariableDictionary
350
2E7
  0
DICTIONARY
  5
D
102
{ACAD_REACTORS
330
C
102
}
330
C
100
AcDbDictionary
281
     1
  0
DICTIONARY
  5
19
102
{ACAD_REACTORS
330
C
102
}
330
C
100
AcDbDictionary
281
     1
  3
Layout1
350
1D
  3
Model
350
21
  0
DICTIONARY
  5
16
102
{ACAD_REACTORS
330
C
102
}
330
C
100
AcDbDictionary
281
     1
  3
Standard
350
17
  0
DICTIONARY
  5
18
102
{ACAD_REACTORS
330
C
102
}
330
C
100
AcDbDictionary
281
     1
  0
ACDBDICTIONARYWDFLT
  5
E
102
{ACAD_REACTORS
330
C
102
}
330
C
100
AcDbDictionary
281
     1
  3
Normal
350
F
100
AcDbDictionaryWithDefault
340
F
  0
DICTIONARY
  5
2E7
102
{ACAD_REACTORS
330
C
102
}
330
C
100
AcDbDictionary
281
     1
  3
DIMASSOC
350
2E8
  0
LAYOUT
  5
1D
102
{ACAD_REACTORS
330
19
102
}
330
19
100
AcDbPlotSettings
  1

  2
C:\Programme\AutoCAD LT 2002 Deu2\plotters\DWF ePlot (optimized for plotting).pc3
  4

  6

 40
0.0
 41
0.0
 42
0.0
 43
0.0
 44
0.0
 45
0.0
 46
0.0
 47
0.0
 48
0.0
 49
0.0
140
0.0
141
0.0
142
1.0
143
1.0
 70
   688
 72
     0
 73
     0
 74
     5
  7

 75
    16
147
1.0
148
0.0
149
0.0
100
AcDbLayout
  1
Layout1
 70
     1
 71
     1
 10
0.0
 20
0.0
 11
12.0
 21
9.0
 12
0.0
 22
0.0
 32
0.0
 14
1.000000000000000E+20
 24
1.000000000000000E+20
 34
1.000000000000000E+20
 15
-1.000000000000000E+20
 25
-1.000000000000000E+20
 35
-1.000000000000000E+20
146
0.0
 13
0.0
 23
0.0
 33
0.0
 16
1.0
 26
0.0
 36
0.0
 17
0.0
 27
1.0
 37
0.0
 76
     0
330
1A
  0
LAYOUT
  5
21
102
{ACAD_REACTORS
330
19
102
}
330
19
100
AcDbPlotSettings
  1

  2
C:\Programme\AutoCAD LT 2002 Deu2\plotters\DWF ePlot (optimized for plotting).pc3
  4

  6

 40
0.0
 41
0.0
 42
0.0
 43
0.0
 44
0.0
 45
0.0
 46
0.0
 47
0.0
 48
0.0
 49
0.0
140
0.0
141
0.0
142
1.0
143
1.0
 70
  1712
 72
     0
 73
     0
 74
     0
  7

 75
     0
147
1.0
148
0.0
149
0.0
100
AcDbLayout
  1
Model
 70
     1
 71
     0
 10
0.0
 20
0.0
 11
12.0
 21
9.0
 12
0.0
 22
0.0
 32
0.0
 14
0.0
 24
0.0
 34
0.0
 15
0.0
 25
0.0
 35
0.0
146
0.0
 13
0.0
 23
0.0
 33
0.0
 16
1.0
 26
0.0
 36
0.0
 17
0.0
 27
1.0
 37
0.0
 76
     0
330
1E
  0
MLINESTYLE
  5
17
102
{ACAD_REACTORS
330
16
102
}
330
16
100
AcDbMlineStyle
  2
STANDARD
 70
     0
  3

 62
   256
 51
90.0
 52
90.0
 71
     2
 49
0.5
 62
   256
  6
BYLAYER
 49
-0.5
 62
   256
  6
BYLAYER
  0
ACDBPLACEHOLDER
  5
F
102
{ACAD_REACTORS
330
E
102
}
330
E
  0
DICTIONARYVAR
  5
2E8
102
{ACAD_REACTORS
330
2E7
102
}
330
2E7
100
DictionaryVariables
280
     0
  1
1
  0
ENDSEC
  0
EOF
