  0
SECTION
  2
HEADER
  9
$ACADVER
  1
AC1015
  9
$ACADMAINTVER
 70
     6
  9
$DWGCODEPAGE
  3
ANSI_1252
  9
$INSBASE
 10
0.0
 20
0.0
 30
0.0
  9
$EXTMIN
 10
-0.224
 20
0.14715
 30
0.0
  9
$EXTMAX
 10
454.224
 20
275.85285
 30
0.0
  9
$LIMMIN
 10
0.0
 20
0.0
  9
$LIMMAX
 10
12.0
 20
9.0
  9
$ORTHOMODE
 70
     0
  9
$REGENMODE
 70
     1
  9
$FILLMODE
 70
     1
  9
$QTEXTMODE
 70
     0
  9
$MIRRTEXT
 70
     1
  9
$LTSCALE
 40
1.0
  9
$ATTMODE
 70
     1
  9
$TEXTSIZE
 40
0.2
  9
$TRACEWID
 40
0.05
  9
$TEXTSTYLE
  7
Standard
  9
$CLAYER
  8
0
  9
$CELTYPE
  6
ByBlock
  9
$CECOLOR
 62
   256
  9
$CELTSCALE
 40
1.0
  9
$DISPSILH
 70
     0
  9
$DIMSCALE
 40
1.0
  9
$DIMASZ
 40
0.18
  9
$DIMEXO
 40
0.0625
  9
$DIMDLI
 40
0.38
  9
$DIMRND
 40
0.0
  9
$DIMDLE
 40
0.0
  9
$DIMEXE
 40
0.18
  9
$DIMTP
 40
0.0
  9
$DIMTM
 40
0.0
  9
$DIMTXT
 40
0.18
  9
$DIMCEN
 40
0.09
  9
$DIMTSZ
 40
0.0
  9
$DIMTOL
 70
     0
  9
$DIMLIM
 70
     0
  9
$DIMTIH
 70
     1
  9
$DIMTOH
 70
     1
  9
$DIMSE1
 70
     0
  9
$DIMSE2
 70
     0
  9
$DIMTAD
 70
     0
  9
$DIMZIN
 70
     0
  9
$DIMBLK
  1

  9
$DIMASO
 70
     1
  9
$DIMSHO
 70
     1
  9
$DIMPOST
  1

  9
$DIMAPOST
  1

  9
$DIMALT
 70
     0
  9
$DIMALTD
 70
     2
  9
$DIMALTF
 40
25.4
  9
$DIMLFAC
 40
1.0
  9
$DIMTOFL
 70
     0
  9
$DIMTVP
 40
0.0
  9
$DIMTIX
 70
     0
  9
$DIMSOXD
 70
     0
  9
$DIMSAH
 70
     0
  9
$DIMBLK1
  1

  9
$DIMBLK2
  1

  9
$DIMSTYLE
  2
Standard
  9
$DIMCLRD
 70
     0
  9
$DIMCLRE
 70
     0
  9
$DIMCLRT
 70
     0
  9
$DIMTFAC
 40
1.0
  9
$DIMGAP
 40
0.09
  9
$DIMJUST
 70
     0
  9
$DIMSD1
 70
     0
  9
$DIMSD2
 70
     0
  9
$DIMTOLJ
 70
     1
  9
$DIMTZIN
 70
     0
  9
$DIMALTZ
 70
     0
  9
$DIMALTTZ
 70
     0
  9
$DIMUPT
 70
     0
  9
$DIMDEC
 70
     4
  9
$DIMTDEC
 70
     4
  9
$DIMALTU
 70
     2
  9
$DIMALTTD
 70
     2
  9
$DIMTXSTY
  7
Standard
  9
$DIMAUNIT
 70
     0
  9
$DIMADEC
 70
     0
  9
$DIMALTRND
 40
0.0
  9
$DIMAZIN
 70
     0
  9
$DIMDSEP
 70
    46
  9
$DIMATFIT
 70
     3
  9
$DIMFRAC
 70
     0
  9
$DIMLDRBLK
  1

  9
$DIMLUNIT
 70
     2
  9
$DIMLWD
 70
    -2
  9
$DIMLWE
 70
    -2
  9
$DIMTMOVE
 70
     2
  9
$LUNITS
 70
     2
  9
$LUPREC
 70
     4
  9
$SKETCHINC
 40
0.1
  9
$FILLETRAD
 40
0.5
  9
$AUNITS
 70
     0
  9
$AUPREC
 70
     0
  9
$MENU
  1
.
  9
$ELEVATION
 40
0.0
  9
$PELEVATION
 40
0.0
  9
$THICKNESS
 40
0.0
  9
$LIMCHECK
 70
     0
  9
$CHAMFERA
 40
0.5
  9
$CHAMFERB
 40
0.5
  9
$CHAMFERC
 40
1.0
  9
$CHAMFERD
 40
0.0
  9
$SKPOLY
 70
     0
  9
$TDCREATE
 40
2455872.583655961
  9
$TDUCREATE
 40
2455872.541989294
  9
$TDUPDATE
 40
2455872.588015949
  9
$TDUUPDATE
 40
2455872.546349282
  9
$TDINDWG
 40
0.0043598264
  9
$TDUSRTIMER
 40
0.0043598264
  9
$USRTIMER
 70
     1
  9
$ANGBASE
 50
0.0
  9
$ANGDIR
 70
     0
  9
$PDMODE
 70
     0
  9
$PDSIZE
 40
0.0
  9
$PLINEWID
 40
0.0
  9
$SPLFRAME
 70
     0
  9
$SPLINETYPE
 70
     6
  9
$SPLINESEGS
 70
     8
  9
$HANDSEED
  5
84F
  9
$SURFTAB1
 70
     6
  9
$SURFTAB2
 70
     6
  9
$SURFTYPE
 70
     6
  9
$SURFU
 70
     6
  9
$SURFV
 70
     6
  9
$UCSBASE
  2

  9
$UCSNAME
  2

  9
$UCSORG
 10
0.0
 20
0.0
 30
0.0
  9
$UCSXDIR
 10
1.0
 20
0.0
 30
0.0
  9
$UCSYDIR
 10
0.0
 20
1.0
 30
0.0
  9
$UCSORTHOREF
  2

  9
$UCSORTHOVIEW
 70
     0
  9
$UCSORGTOP
 10
0.0
 20
0.0
 30
0.0
  9
$UCSORGBOTTOM
 10
0.0
 20
0.0
 30
0.0
  9
$UCSORGLEFT
 10
0.0
 20
0.0
 30
0.0
  9
$UCSORGRIGHT
 10
0.0
 20
0.0
 30
0.0
  9
$UCSORGFRONT
 10
0.0
 20
0.0
 30
0.0
  9
$UCSORGBACK
 10
0.0
 20
0.0
 30
0.0
  9
$PUCSBASE
  2

  9
$PUCSNAME
  2

  9
$PUCSORG
 10
0.0
 20
0.0
 30
0.0
  9
$PUCSXDIR
 10
1.0
 20
0.0
 30
0.0
  9
$PUCSYDIR
 10
0.0
 20
1.0
 30
0.0
  9
$PUCSORTHOREF
  2

  9
$PUCSORTHOVIEW
 70
     0
  9
$PUCSORGTOP
 10
0.0
 20
0.0
 30
0.0
  9
$PUCSORGBOTTOM
 10
0.0
 20
0.0
 30
0.0
  9
$PUCSORGLEFT
 10
0.0
 20
0.0
 30
0.0
  9
$PUCSORGRIGHT
 10
0.0
 20
0.0
 30
0.0
  9
$PUCSORGFRONT
 10
0.0
 20
0.0
 30
0.0
  9
$PUCSORGBACK
 10
0.0
 20
0.0
 30
0.0
  9
$USERI1
 70
     0
  9
$USERI2
 70
     0
  9
$USERI3
 70
     0
  9
$USERI4
 70
     0
  9
$USERI5
 70
     0
  9
$USERR1
 40
0.0
  9
$USERR2
 40
0.0
  9
$USERR3
 40
0.0
  9
$USERR4
 40
0.0
  9
$USERR5
 40
0.0
  9
$WORLDVIEW
 70
     1
  9
$SHADEDGE
 70
     3
  9
$SHADEDIF
 70
    70
  9
$TILEMODE
 70
     1
  9
$MAXACTVP
 70
    64
  9
$PINSBASE
 10
0.0
 20
0.0
 30
0.0
  9
$PLIMCHECK
 70
     0
  9
$PEXTMIN
 10
1.000000000000E+20
 20
1.000000000000E+20
 30
1.000000000000E+20
  9
$PEXTMAX
 10
-1.000000000000E+20
 20
-1.000000000000E+20
 30
-1.000000000000E+20
  9
$PLIMMIN
 10
0.0
 20
0.0
  9
$PLIMMAX
 10
12.0
 20
9.0
  9
$UNITMODE
 70
     0
  9
$VISRETAIN
 70
     1
  9
$PLINEGEN
 70
     0
  9
$PSLTSCALE
 70
     1
  9
$TREEDEPTH
 70
  3020
  9
$CMLSTYLE
  2
Standard
  9
$CMLJUST
 70
     0
  9
$CMLSCALE
 40
1.0
  9
$PROXYGRAPHICS
 70
     1
  9
$MEASUREMENT
 70
     0
  9
$CELWEIGHT
370
    -1
  9
$ENDCAPS
280
     0
  9
$JOINSTYLE
280
     0
  9
$LWDISPLAY
290
     0
  9
$INSUNITS
 70
     0
  9
$HYPERLINKBASE
  1

  9
$STYLESHEET
  1

  9
$XEDIT
290
     1
  9
$CEPSNTYPE
380
     0
  9
$PSTYLEMODE
290
     1
  9
$FINGERPRINTGUID
  2
{0190B298-4CDB-45C6-9B95-69DE1D552BCC}
  9
$VERSIONGUID
  2
{FAEB1C32-E019-11D5-929B-00C0DF256EC4}
  9
$EXTNAMES
290
     1
  9
$PSVPSCALE
 40
0.0
  9
$OLESTARTUP
290
     0
  0
ENDSEC
  0
SECTION
  2
CLASSES
  0
CLASS
  1
ACDBDICTIONARYWDFLT
  2
AcDbDictionaryWithDefault
  3
ObjectDBX Classes
 90
        0
280
     0
281
     0
  0
CLASS
  1
SCALE
  2
AcDbScale
  3
ObjectDBX Classes
 90
     1153
280
     0
281
     0
  0
CLASS
  1
DICTIONARYVAR
  2
AcDbDictionaryVar
  3
ObjectDBX Classes
 90
        0
280
     0
281
     0
  0
CLASS
  1
ACDBPLACEHOLDER
  2
AcDbPlaceHolder
  3
ObjectDBX Classes
 90
        0
280
     0
281
     0
  0
CLASS
  1
LAYOUT
  2
AcDbLayout
  3
ObjectDBX Classes
 90
        0
280
     0
281
     0
  0
ENDSEC
  0
SECTION
  2
TABLES
  0
TABLE
  2
VPORT
  5
8
330
0
100
AcDbSymbolTable
 70
     1
  0
VPORT
  5
5E4
330
8
100
AcDbSymbolTableRecord
100
AcDbViewportTableRecord
  2
*Active
 70
     0
 10
0.0
 20
0.0
 11
1.0
 21
1.0
 12
227.0
 22
137.926425
 13
0.0
 23
0.0
 14
0.5
 24
0.5
 15
0.5
 25
0.5
 16
0.0
 26
0.0
 36
1.0
 17
0.0
 27
0.0
 37
0.0
 40
281.369907
 41
2.271724137931
 42
50.0
 43
0.0
 44
0.0
 50
0.0
 51
0.0
 71
    16
 72
   100
 73
     1
 74
     3
 75
     0
 76
     0
 77
     0
 78
     0
281
     0
 65
     1
110
0.0
120
0.0
130
0.0
111
1.0
121
0.0
131
0.0
112
0.0
122
1.0
132
0.0
 79
     0
146
0.0
  0
ENDTAB
  0
TABLE
  2
LTYPE
  5
5
330
0
100
AcDbSymbolTable
 70
     1
  0
LTYPE
  5
14
330
5
100
AcDbSymbolTableRecord
100
AcDbLinetypeTableRecord
  2
ByBlock
 70
     0
  3

 72
    65
 73
     0
 40
0.0
  0
LTYPE
  5
15
330
5
100
AcDbSymbolTableRecord
100
AcDbLinetypeTableRecord
  2
ByLayer
 70
     0
  3

 72
    65
 73
     0
 40
0.0
  0
LTYPE
  5
16
330
5
100
AcDbSymbolTableRecord
100
AcDbLinetypeTableRecord
  2
Continuous
 70
     0
  3
Solid line
 72
    65
 73
     0
 40
0.0
  0
ENDTAB
  0
TABLE
  2
LAYER
  5
2
330
0
100
AcDbSymbolTable
 70
     1
  0
LAYER
  5
10
330
2
100
AcDbSymbolTableRecord
100
AcDbLayerTableRecord
  2
0
 70
     0
 62
     7
  6
Continuous
370
    -3
390
F
  0
ENDTAB
  0
TABLE
  2
STYLE
  5
3
330
0
100
AcDbSymbolTable
 70
     1
  0
STYLE
  5
11
330
3
100
AcDbSymbolTableRecord
100
AcDbTextStyleTableRecord
  2
Standard
 70
     0
 40
0.0
 41
1.0
 50
0.0
 71
     0
 42
0.2
  3
txt
  4

  0
ENDTAB
  0
TABLE
  2
VIEW
  5
6
330
0
100
AcDbSymbolTable
 70
     0
  0
ENDTAB
  0
TABLE
  2
UCS
  5
7
330
0
100
AcDbSymbolTable
 70
     0
  0
ENDTAB
  0
TABLE
  2
APPID
  5
9
330
0
100
AcDbSymbolTable
 70
     1
  0
APPID
  5
12
330
9
100
AcDbSymbolTableRecord
100
AcDbRegAppTableRecord
  2
ACAD
 70
     0
  0
ENDTAB
  0
TABLE
  2
DIMSTYLE
  5
A
330
0
100
AcDbSymbolTable
 70
     1
100
AcDbDimStyleTable
  0
DIMSTYLE
105
20
330
A
100
AcDbSymbolTableRecord
100
AcDbDimStyleTableRecord
  2
Standard
 70
     0
340
11
  0
ENDTAB
  0
TABLE
  2
BLOCK_RECORD
  5
1
330
0
100
AcDbSymbolTable
 70
     2
  0
BLOCK_RECORD
  5
1D
330
1
100
AcDbSymbolTableRecord
100
AcDbBlockTableRecord
  2
*Model_Space
340
1E
  0
BLOCK_RECORD
  5
1B
330
1
100
AcDbSymbolTableRecord
100
AcDbBlockTableRecord
  2
*Paper_Space
340
1C
  0
ENDTAB
  0
ENDSEC
  0
SECTION
  2
BLOCKS
  0
BLOCK
  5
5E7
330
1D
100
AcDbEntity
  8
0
100
AcDbBlockBegin
  2
*Model_Space
 70
     0
 10
0.0
 20
0.0
 30
0.0
  3
*Model_Space
  1
*Model_Space
  0
ENDBLK
  5
5E8
330
1D
100
AcDbEntity
  8
0
100
AcDbBlockEnd
  0
BLOCK
  5
5E5
330
1B
100
AcDbEntity
 67
     1
  8
0
100
AcDbBlockBegin
  2
*Paper_Space
 70
     0
 10
0.0
 20
0.0
 30
0.0
  3
*Paper_Space
  1
*Paper_Space
  0
ENDBLK
  5
5E6
330
1B
100
AcDbEntity
 67
     1
  8
0
100
AcDbBlockEnd
  0
ENDSEC
  0
SECTION
  2
ENTITIES
  0
LINE
  5
21
330
1D
100
AcDbEntity
  8
0
100
AcDbLine
 10
91.776
 20
52.10875
 30
0.0
 11
91.776
 21
66.96765
 31
0.0
  0
LINE
  5
22
330
1D
100
AcDbEntity
  8
0
100
AcDbLine
 10
91.776
 20
52.10875
 30
0.0
 11
93.976
 21
38.77195
 31
0.0
  0
LINE
  5
23
330
1D
100
AcDbEntity
  8
0
100
AcDbLine
 10
91.776
 20
66.96765
 30
0.0
 11
91.840910623238
 21
67.36115
 31
0.0
  0
LINE
  5
24
330
1D
100
AcDbEntity
  8
0
100
AcDbLine
 10
91.776
 20
66.96765
 30
0.0
 11
93.976
 21
53.63085
 31
0.0
  0
LINE
  5
25
330
1D
100
AcDbEntity
  8
0
100
AcDbLine
 10
91.776
 20
66.96765
 30
0.0
 11
91.776
 21
52.10875
 31
0.0
  0
LINE
  5
26
330
1D
100
AcDbEntity
  8
0
100
AcDbLine
 10
91.776
 20
67.75465
 30
0.0
 11
91.776
 21
70.71525
 31
0.0
  0
LINE
  5
27
330
1D
100
AcDbEntity
  8
0
100
AcDbLine
 10
91.776
 20
67.75465
 30
0.0
 11
93.976
 21
54.41785
 31
0.0
  0
LINE
  5
28
330
1D
100
AcDbEntity
  8
0
100
AcDbLine
 10
93.976
 20
38.77195
 30
0.0
 11
99.843
 21
26.30115
 31
0.0
  0
LINE
  5
29
330
1D
100
AcDbEntity
  8
0
100
AcDbLine
 10
99.843
 20
26.30115
 30
0.0
 11
109.376
 21
15.38925
 31
0.0
  0
LINE
  5
2A
330
1D
100
AcDbEntity
  8
0
100
AcDbLine
 10
99.843
 20
41.16015
 30
0.0
 11
109.376
 21
30.24815
 31
0.0
  0
LINE
  5
2B
330
1D
100
AcDbEntity
  8
0
100
AcDbLine
 10
99.843
 20
41.94715
 30
0.0
 11
109.376
 21
31.03515
 31
0.0
  0
LINE
  5
2C
330
1D
100
AcDbEntity
  8
0
100
AcDbLine
 10
93.976
 20
53.63085
 30
0.0
 11
99.843
 21
41.16015
 31
0.0
  0
LINE
  5
2D
330
1D
100
AcDbEntity
  8
0
100
AcDbLine
 10
93.976
 20
54.41785
 30
0.0
 11
99.843
 21
41.94715
 31
0.0
  0
LINE
  5
2E
330
1D
100
AcDbEntity
  8
0
100
AcDbLine
 10
93.976
 20
57.37845
 30
0.0
 11
99.843
 21
44.90765
 31
0.0
  0
LINE
  5
2F
330
1D
100
AcDbEntity
  8
0
100
AcDbLine
 10
99.843
 20
44.90765
 30
0.0
 11
109.376
 21
33.99575
 31
0.0
  0
LINE
  5
30
330
1D
100
AcDbEntity
  8
0
100
AcDbLine
 10
91.776
 20
70.71525
 30
0.0
 11
93.976
 21
84.05205
 31
0.0
  0
LINE
  5
31
330
1D
100
AcDbEntity
  8
0
100
AcDbLine
 10
91.776
 20
70.71525
 30
0.0
 11
93.976
 21
57.37845
 31
0.0
  0
LINE
  5
32
330
1D
100
AcDbEntity
  8
0
100
AcDbLine
 10
91.776
 20
70.71525
 30
0.0
 11
91.776
 21
67.75465
 31
0.0
  0
LINE
  5
33
330
1D
100
AcDbEntity
  8
0
100
AcDbLine
 10
93.976
 20
84.05205
 30
0.0
 11
99.843
 21
96.52285
 31
0.0
  0
LINE
  5
34
330
1D
100
AcDbEntity
  8
0
100
AcDbLine
 10
109.376
 20
15.38925
 30
0.0
 11
121.976
 21
7.13315
 31
0.0
  0
LINE
  5
35
330
1D
100
AcDbEntity
  8
0
100
AcDbLine
 10
109.376
 20
30.24815
 30
0.0
 11
121.976
 21
21.99215
 31
0.0
  0
LINE
  5
36
330
1D
100
AcDbEntity
  8
0
100
AcDbLine
 10
109.376
 20
31.03515
 30
0.0
 11
121.976
 21
22.77915
 31
0.0
  0
LINE
  5
37
330
1D
100
AcDbEntity
  8
0
100
AcDbLine
 10
109.376
 20
33.99575
 30
0.0
 11
121.976
 21
25.73965
 31
0.0
  0
LINE
  5
38
330
1D
100
AcDbEntity
  8
0
100
AcDbLine
 10
99.843
 20
96.52285
 30
0.0
 11
109.376
 21
107.43485
 31
0.0
  0
LINE
  5
39
330
1D
100
AcDbEntity
  8
0
100
AcDbLine
 10
0.1606
 20
175.13185
 30
0.0
 11
0.9298
 21
174.85285
 31
0.0
  0
LINE
  5
3A
330
1D
100
AcDbEntity
  8
0
100
AcDbLine
 10
-0.224
 20
184.79985
 30
0.0
 11
-0.224
 21
180.99985
 31
0.0
  0
LINE
  5
3B
330
1D
100
AcDbEntity
  8
0
100
AcDbLine
 10
-0.224
 20
184.79985
 30
0.0
 11
-0.224
 21
189.15885
 31
0.0
  0
LINE
  5
3C
330
1D
100
AcDbEntity
  8
0
100
AcDbLine
 10
-0.224
 20
180.99985
 30
0.0
 11
-0.224
 21
178.14985
 31
0.0
  0
LINE
  5
3D
330
1D
100
AcDbEntity
  8
0
100
AcDbLine
 10
-0.224
 20
180.99985
 30
0.0
 11
-0.224
 21
184.79985
 31
0.0
  0
LINE
  5
3E
330
1D
100
AcDbEntity
  8
0
100
AcDbLine
 10
-0.224
 20
178.14985
 30
0.0
 11
-0.224
 21
176.36185
 31
0.0
  0
LINE
  5
3F
330
1D
100
AcDbEntity
  8
0
100
AcDbLine
 10
-0.224
 20
178.14985
 30
0.0
 11
-0.224
 21
180.99985
 31
0.0
  0
LINE
  5
40
330
1D
100
AcDbEntity
  8
0
100
AcDbLine
 10
-0.224
 20
176.36185
 30
0.0
 11
-0.224
 21
175.69085
 31
0.0
  0
LINE
  5
41
330
1D
100
AcDbEntity
  8
0
100
AcDbLine
 10
-0.224
 20
176.36185
 30
0.0
 11
-0.224
 21
178.14985
 31
0.0
  0
LINE
  5
42
330
1D
100
AcDbEntity
  8
0
100
AcDbLine
 10
0.1606
 20
177.64685
 30
0.0
 11
0.1606
 21
180.60885
 31
0.0
  0
LINE
  5
43
330
1D
100
AcDbEntity
  8
0
100
AcDbLine
 10
0.1606
 20
177.64685
 30
0.0
 11
0.1606
 21
175.80285
 31
0.0
  0
LINE
  5
44
330
1D
100
AcDbEntity
  8
0
100
AcDbLine
 10
0.1606
 20
175.80285
 30
0.0
 11
0.1606
 21
177.64685
 31
0.0
  0
LINE
  5
45
330
1D
100
AcDbEntity
  8
0
100
AcDbLine
 10
0.1606
 20
175.80285
 30
0.0
 11
0.1606
 21
175.13185
 31
0.0
  0
LINE
  5
46
330
1D
100
AcDbEntity
  8
0
100
AcDbLine
 10
0.1606
 20
180.60885
 30
0.0
 11
0.1606
 21
184.52085
 31
0.0
  0
LINE
  5
47
330
1D
100
AcDbEntity
  8
0
100
AcDbLine
 10
0.1606
 20
180.60885
 30
0.0
 11
0.1606
 21
177.64685
 31
0.0
  0
LINE
  5
48
330
1D
100
AcDbEntity
  8
0
100
AcDbLine
 10
0.1606
 20
184.52085
 30
0.0
 11
0.1606
 21
189.04685
 31
0.0
  0
LINE
  5
49
330
1D
100
AcDbEntity
  8
0
100
AcDbLine
 10
0.1606
 20
184.52085
 30
0.0
 11
0.1606
 21
180.60885
 31
0.0
  0
LINE
  5
4A
330
1D
100
AcDbEntity
  8
0
100
AcDbLine
 10
-0.224
 20
175.69085
 30
0.0
 11
0.1606
 21
175.13185
 31
0.0
  0
LINE
  5
4B
330
1D
100
AcDbEntity
  8
0
100
AcDbLine
 10
-0.224
 20
175.69085
 30
0.0
 11
-0.224
 21
176.36185
 31
0.0
  0
LINE
  5
4C
330
1D
100
AcDbEntity
  8
0
100
AcDbLine
 10
0.1606
 20
175.13185
 30
0.0
 11
0.9298
 21
174.85285
 31
0.0
  0
LINE
  5
4D
330
1D
100
AcDbEntity
  8
0
100
AcDbLine
 10
0.1606
 20
175.13185
 30
0.0
 11
0.1606
 21
175.80285
 31
0.0
  0
LINE
  5
4E
330
1D
100
AcDbEntity
  8
0
100
AcDbLine
 10
0.9298
 20
174.85285
 30
0.0
 11
58.776
 21
174.85285
 31
0.0
  0
LINE
  5
4F
330
1D
100
AcDbEntity
  8
0
100
AcDbLine
 10
0.9298
 20
174.85285
 30
0.0
 11
58.776
 21
174.85285
 31
0.0
  0
LINE
  5
50
330
1D
100
AcDbEntity
  8
0
100
AcDbLine
 10
0.1606
 20
189.04685
 30
0.0
 11
0.1606
 21
193.85285
 31
0.0
  0
LINE
  5
51
330
1D
100
AcDbEntity
  8
0
100
AcDbLine
 10
0.1606
 20
189.04685
 30
0.0
 11
0.1606
 21
184.52085
 31
0.0
  0
LINE
  5
52
330
1D
100
AcDbEntity
  8
0
100
AcDbLine
 10
0.1606
 20
193.85285
 30
0.0
 11
0.1606
 21
198.65885
 31
0.0
  0
LINE
  5
53
330
1D
100
AcDbEntity
  8
0
100
AcDbLine
 10
0.1606
 20
193.85285
 30
0.0
 11
0.1606
 21
189.04685
 31
0.0
  0
LINE
  5
54
330
1D
100
AcDbEntity
  8
0
100
AcDbLine
 10
-0.224
 20
189.15885
 30
0.0
 11
-0.224
 21
184.79985
 31
0.0
  0
LINE
  5
55
330
1D
100
AcDbEntity
  8
0
100
AcDbLine
 10
-0.224
 20
189.15885
 30
0.0
 11
-0.224
 21
193.85285
 31
0.0
  0
LINE
  5
56
330
1D
100
AcDbEntity
  8
0
100
AcDbLine
 10
-0.224
 20
193.85285
 30
0.0
 11
-0.224
 21
189.15885
 31
0.0
  0
LINE
  5
57
330
1D
100
AcDbEntity
  8
0
100
AcDbLine
 10
-0.224
 20
193.85285
 30
0.0
 11
-0.224
 21
198.54685
 31
0.0
  0
LINE
  5
58
330
1D
100
AcDbEntity
  8
0
100
AcDbLine
 10
5.016
 20
193.85285
 30
0.0
 11
5.376
 21
191.33285
 31
0.0
  0
LINE
  5
59
330
1D
100
AcDbEntity
  8
0
100
AcDbLine
 10
5.016
 20
193.85285
 30
0.0
 11
5.376
 21
196.37285
 31
0.0
  0
LINE
  5
5A
330
1D
100
AcDbEntity
  8
0
100
AcDbLine
 10
-0.224
 20
209.55585
 30
0.0
 11
-0.224
 21
206.70585
 31
0.0
  0
LINE
  5
5B
330
1D
100
AcDbEntity
  8
0
100
AcDbLine
 10
-0.224
 20
209.55585
 30
0.0
 11
-0.224
 21
211.34385
 31
0.0
  0
LINE
  5
5C
330
1D
100
AcDbEntity
  8
0
100
AcDbLine
 10
-0.224
 20
211.34385
 30
0.0
 11
-0.224
 21
209.55585
 31
0.0
  0
LINE
  5
5D
330
1D
100
AcDbEntity
  8
0
100
AcDbLine
 10
-0.224
 20
211.34385
 30
0.0
 11
-0.224
 21
212.01485
 31
0.0
  0
LINE
  5
5E
330
1D
100
AcDbEntity
  8
0
100
AcDbLine
 10
-0.224
 20
212.01485
 30
0.0
 11
-0.224
 21
211.34385
 31
0.0
  0
LINE
  5
5F
330
1D
100
AcDbEntity
  8
0
100
AcDbLine
 10
-0.224
 20
212.01485
 30
0.0
 11
0.1606
 21
212.57385
 31
0.0
  0
LINE
  5
60
330
1D
100
AcDbEntity
  8
0
100
AcDbLine
 10
-0.224
 20
206.70585
 30
0.0
 11
-0.224
 21
202.90585
 31
0.0
  0
LINE
  5
61
330
1D
100
AcDbEntity
  8
0
100
AcDbLine
 10
-0.224
 20
206.70585
 30
0.0
 11
-0.224
 21
209.55585
 31
0.0
  0
LINE
  5
62
330
1D
100
AcDbEntity
  8
0
100
AcDbLine
 10
0.1606
 20
210.05885
 30
0.0
 11
0.1606
 21
211.90285
 31
0.0
  0
LINE
  5
63
330
1D
100
AcDbEntity
  8
0
100
AcDbLine
 10
0.1606
 20
210.05885
 30
0.0
 11
0.1606
 21
207.09685
 31
0.0
  0
LINE
  5
64
330
1D
100
AcDbEntity
  8
0
100
AcDbLine
 10
0.1606
 20
211.90285
 30
0.0
 11
0.1606
 21
212.57385
 31
0.0
  0
LINE
  5
65
330
1D
100
AcDbEntity
  8
0
100
AcDbLine
 10
0.1606
 20
211.90285
 30
0.0
 11
0.1606
 21
210.05885
 31
0.0
  0
LINE
  5
66
330
1D
100
AcDbEntity
  8
0
100
AcDbLine
 10
0.1606
 20
212.57385
 30
0.0
 11
0.9298
 21
212.85285
 31
0.0
  0
LINE
  5
67
330
1D
100
AcDbEntity
  8
0
100
AcDbLine
 10
0.1606
 20
212.57385
 30
0.0
 11
0.1606
 21
211.90285
 31
0.0
  0
LINE
  5
68
330
1D
100
AcDbEntity
  8
0
100
AcDbLine
 10
0.1606
 20
207.09685
 30
0.0
 11
0.1606
 21
203.18485
 31
0.0
  0
LINE
  5
69
330
1D
100
AcDbEntity
  8
0
100
AcDbLine
 10
0.1606
 20
207.09685
 30
0.0
 11
0.1606
 21
210.05885
 31
0.0
  0
LINE
  5
6A
330
1D
100
AcDbEntity
  8
0
100
AcDbLine
 10
0.9298
 20
212.85285
 30
0.0
 11
58.776
 21
212.85285
 31
0.0
  0
LINE
  5
6B
330
1D
100
AcDbEntity
  8
0
100
AcDbLine
 10
0.1606
 20
203.18485
 30
0.0
 11
0.1606
 21
207.09685
 31
0.0
  0
LINE
  5
6C
330
1D
100
AcDbEntity
  8
0
100
AcDbLine
 10
0.1606
 20
203.18485
 30
0.0
 11
0.1606
 21
198.65885
 31
0.0
  0
LINE
  5
6D
330
1D
100
AcDbEntity
  8
0
100
AcDbLine
 10
0.1606
 20
198.65885
 30
0.0
 11
0.1606
 21
203.18485
 31
0.0
  0
LINE
  5
6E
330
1D
100
AcDbEntity
  8
0
100
AcDbLine
 10
0.1606
 20
198.65885
 30
0.0
 11
0.1606
 21
193.85285
 31
0.0
  0
LINE
  5
6F
330
1D
100
AcDbEntity
  8
0
100
AcDbLine
 10
0.1606
 20
212.57385
 30
0.0
 11
0.9298
 21
212.85285
 31
0.0
  0
LINE
  5
70
330
1D
100
AcDbEntity
  8
0
100
AcDbLine
 10
0.9298
 20
212.85285
 30
0.0
 11
58.776
 21
212.85285
 31
0.0
  0
LINE
  5
71
330
1D
100
AcDbEntity
  8
0
100
AcDbLine
 10
-0.224
 20
202.90585
 30
0.0
 11
-0.224
 21
198.54685
 31
0.0
  0
LINE
  5
72
330
1D
100
AcDbEntity
  8
0
100
AcDbLine
 10
-0.224
 20
202.90585
 30
0.0
 11
-0.224
 21
206.70585
 31
0.0
  0
LINE
  5
73
330
1D
100
AcDbEntity
  8
0
100
AcDbLine
 10
-0.224
 20
198.54685
 30
0.0
 11
-0.224
 21
193.85285
 31
0.0
  0
LINE
  5
74
330
1D
100
AcDbEntity
  8
0
100
AcDbLine
 10
-0.224
 20
198.54685
 30
0.0
 11
-0.224
 21
202.90585
 31
0.0
  0
LINE
  5
75
330
1D
100
AcDbEntity
  8
0
100
AcDbLine
 10
5.136
 20
196.41285
 30
0.0
 11
6.096
 21
198.81285
 31
0.0
  0
LINE
  5
76
330
1D
100
AcDbEntity
  8
0
100
AcDbLine
 10
4.776
 20
193.85285
 30
0.0
 11
5.136
 21
191.29285
 31
0.0
  0
LINE
  5
77
330
1D
100
AcDbEntity
  8
0
100
AcDbLine
 10
4.776
 20
193.85285
 30
0.0
 11
5.136
 21
196.41285
 31
0.0
  0
LINE
  5
78
330
1D
100
AcDbEntity
  8
0
100
AcDbLine
 10
5.376
 20
196.37285
 30
0.0
 11
6.336
 21
198.69285
 31
0.0
  0
LINE
  5
79
330
1D
100
AcDbEntity
  8
0
100
AcDbLine
 10
6.336
 20
198.69285
 30
0.0
 11
7.896
 21
200.73285
 31
0.0
  0
LINE
  5
7A
330
1D
100
AcDbEntity
  8
0
100
AcDbLine
 10
6.096
 20
198.81285
 30
0.0
 11
7.696
 21
200.93285
 31
0.0
  0
LINE
  5
7B
330
1D
100
AcDbEntity
  8
0
100
AcDbLine
 10
7.696
 20
200.93285
 30
0.0
 11
9.816
 21
202.53285
 31
0.0
  0
LINE
  5
7C
330
1D
100
AcDbEntity
  8
0
100
AcDbLine
 10
5.376
 20
191.33285
 30
0.0
 11
6.336
 21
189.01285
 31
0.0
  0
LINE
  5
7D
330
1D
100
AcDbEntity
  8
0
100
AcDbLine
 10
6.336
 20
189.01285
 30
0.0
 11
7.896
 21
186.97285
 31
0.0
  0
LINE
  5
7E
330
1D
100
AcDbEntity
  8
0
100
AcDbLine
 10
5.136
 20
191.29285
 30
0.0
 11
6.096
 21
188.89285
 31
0.0
  0
LINE
  5
7F
330
1D
100
AcDbEntity
  8
0
100
AcDbLine
 10
6.096
 20
188.89285
 30
0.0
 11
7.696
 21
186.77285
 31
0.0
  0
LINE
  5
80
330
1D
100
AcDbEntity
  8
0
100
AcDbLine
 10
7.896
 20
200.73285
 30
0.0
 11
9.936
 21
202.29285
 31
0.0
  0
LINE
  5
81
330
1D
100
AcDbEntity
  8
0
100
AcDbLine
 10
9.936
 20
202.29285
 30
0.0
 11
12.256
 21
203.25285
 31
0.0
  0
LINE
  5
82
330
1D
100
AcDbEntity
  8
0
100
AcDbLine
 10
9.816
 20
202.53285
 30
0.0
 11
12.216
 21
203.49285
 31
0.0
  0
LINE
  5
83
330
1D
100
AcDbEntity
  8
0
100
AcDbLine
 10
12.216
 20
203.49285
 30
0.0
 11
14.776
 21
203.85285
 31
0.0
  0
LINE
  5
84
330
1D
100
AcDbEntity
  8
0
100
AcDbLine
 10
7.896
 20
186.97285
 30
0.0
 11
9.936
 21
185.41285
 31
0.0
  0
LINE
  5
85
330
1D
100
AcDbEntity
  8
0
100
AcDbLine
 10
9.936
 20
185.41285
 30
0.0
 11
12.256
 21
184.45285
 31
0.0
  0
LINE
  5
86
330
1D
100
AcDbEntity
  8
0
100
AcDbLine
 10
7.696
 20
186.77285
 30
0.0
 11
9.816
 21
185.17285
 31
0.0
  0
LINE
  5
87
330
1D
100
AcDbEntity
  8
0
100
AcDbLine
 10
9.816
 20
185.17285
 30
0.0
 11
12.216
 21
184.21285
 31
0.0
  0
LINE
  5
88
330
1D
100
AcDbEntity
  8
0
100
AcDbLine
 10
14.776
 20
183.85285
 30
0.0
 11
44.776
 21
183.85285
 31
0.0
  0
LINE
  5
89
330
1D
100
AcDbEntity
  8
0
100
AcDbLine
 10
14.776
 20
184.09285
 30
0.0
 11
44.776
 21
184.09285
 31
0.0
  0
LINE
  5
8A
330
1D
100
AcDbEntity
  8
0
100
AcDbLine
 10
14.776
 20
183.85285
 30
0.0
 11
44.776
 21
183.85285
 31
0.0
  0
LINE
  5
8B
330
1D
100
AcDbEntity
  8
0
100
AcDbLine
 10
14.776
 20
184.09285
 30
0.0
 11
44.776
 21
184.09285
 31
0.0
  0
LINE
  5
8C
330
1D
100
AcDbEntity
  8
0
100
AcDbLine
 10
44.776
 20
184.09285
 30
0.0
 11
47.296
 21
184.45285
 31
0.0
  0
LINE
  5
8D
330
1D
100
AcDbEntity
  8
0
100
AcDbLine
 10
59.176
 20
174.85285
 30
0.0
 11
59.776
 21
175.30885
 31
0.0
  0
LINE
  5
8E
330
1D
100
AcDbEntity
  8
0
100
AcDbLine
 10
59.176
 20
174.85285
 30
0.0
 11
59.176
 21
175.53685
 31
0.0
  0
LINE
  5
8F
330
1D
100
AcDbEntity
  8
0
100
AcDbLine
 10
58.776
 20
174.85285
 30
0.0
 11
59.176
 21
174.85285
 31
0.0
  0
LINE
  5
90
330
1D
100
AcDbEntity
  8
0
100
AcDbLine
 10
58.776
 20
174.85285
 30
0.0
 11
58.776
 21
175.53685
 31
0.0
  0
LINE
  5
91
330
1D
100
AcDbEntity
  8
0
100
AcDbLine
 10
58.776
 20
175.52385
 30
0.0
 11
58.776
 21
174.85285
 31
0.0
  0
LINE
  5
92
330
1D
100
AcDbEntity
  8
0
100
AcDbLine
 10
58.776
 20
177.42385
 30
0.0
 11
58.776
 21
175.52385
 31
0.0
  0
LINE
  5
93
330
1D
100
AcDbEntity
  8
0
100
AcDbLine
 10
58.776
 20
175.53685
 30
0.0
 11
58.776
 21
177.36085
 31
0.0
  0
LINE
  5
94
330
1D
100
AcDbEntity
  8
0
100
AcDbLine
 10
59.176
 20
175.53685
 30
0.0
 11
59.176
 21
174.85285
 31
0.0
  0
LINE
  5
95
330
1D
100
AcDbEntity
  8
0
100
AcDbLine
 10
59.176
 20
175.53685
 30
0.0
 11
59.176
 21
177.36085
 31
0.0
  0
LINE
  5
96
330
1D
100
AcDbEntity
  8
0
100
AcDbLine
 10
59.776
 20
175.30885
 30
0.0
 11
59.776
 21
175.99285
 31
0.0
  0
LINE
  5
97
330
1D
100
AcDbEntity
  8
0
100
AcDbLine
 10
59.776
 20
175.99285
 30
0.0
 11
59.776
 21
175.30885
 31
0.0
  0
LINE
  5
98
330
1D
100
AcDbEntity
  8
0
100
AcDbLine
 10
59.776
 20
175.99285
 30
0.0
 11
59.776
 21
177.81685
 31
0.0
  0
LINE
  5
99
330
1D
100
AcDbEntity
  8
0
100
AcDbLine
 10
59.776
 20
177.81685
 30
0.0
 11
59.776
 21
175.99285
 31
0.0
  0
LINE
  5
9A
330
1D
100
AcDbEntity
  8
0
100
AcDbLine
 10
59.776
 20
177.81685
 30
0.0
 11
59.776
 21
180.78085
 31
0.0
  0
LINE
  5
9B
330
1D
100
AcDbEntity
  8
0
100
AcDbLine
 10
59.176
 20
177.36085
 30
0.0
 11
59.176
 21
175.53685
 31
0.0
  0
LINE
  5
9C
330
1D
100
AcDbEntity
  8
0
100
AcDbLine
 10
59.176
 20
177.36085
 30
0.0
 11
59.176
 21
180.40085
 31
0.0
  0
LINE
  5
9D
330
1D
100
AcDbEntity
  8
0
100
AcDbLine
 10
59.176
 20
180.40085
 30
0.0
 11
59.176
 21
177.36085
 31
0.0
  0
LINE
  5
9E
330
1D
100
AcDbEntity
  8
0
100
AcDbLine
 10
59.176
 20
180.40085
 30
0.0
 11
59.176
 21
184.42885
 31
0.0
  0
LINE
  5
9F
330
1D
100
AcDbEntity
  8
0
100
AcDbLine
 10
58.776
 20
177.36085
 30
0.0
 11
58.776
 21
180.40085
 31
0.0
  0
LINE
  5
A0
330
1D
100
AcDbEntity
  8
0
100
AcDbLine
 10
58.776
 20
180.44085
 30
0.0
 11
58.776
 21
177.42385
 31
0.0
  0
LINE
  5
A1
330
1D
100
AcDbEntity
  8
0
100
AcDbLine
 10
59.776
 20
180.78085
 30
0.0
 11
59.776
 21
177.81685
 31
0.0
  0
LINE
  5
A2
330
1D
100
AcDbEntity
  8
0
100
AcDbLine
 10
59.776
 20
180.78085
 30
0.0
 11
59.776
 21
184.65685
 31
0.0
  0
LINE
  5
A3
330
1D
100
AcDbEntity
  8
0
100
AcDbLine
 10
58.776
 20
180.40085
 30
0.0
 11
58.776
 21
184.42885
 31
0.0
  0
LINE
  5
A4
330
1D
100
AcDbEntity
  8
0
100
AcDbLine
 10
60.0918
 20
177.64685
 30
0.0
 11
60.0918
 21
175.80285
 31
0.0
  0
LINE
  5
A5
330
1D
100
AcDbEntity
  8
0
100
AcDbLine
 10
60.0918
 20
177.64685
 30
0.0
 11
60.0918
 21
180.60885
 31
0.0
  0
LINE
  5
A6
330
1D
100
AcDbEntity
  8
0
100
AcDbLine
 10
60.0918
 20
175.80285
 30
0.0
 11
60.0918
 21
175.13185
 31
0.0
  0
LINE
  5
A7
330
1D
100
AcDbEntity
  8
0
100
AcDbLine
 10
60.0918
 20
175.80285
 30
0.0
 11
60.0918
 21
177.64685
 31
0.0
  0
LINE
  5
A8
330
1D
100
AcDbEntity
  8
0
100
AcDbLine
 10
60.0918
 20
180.60885
 30
0.0
 11
60.0918
 21
184.52085
 31
0.0
  0
LINE
  5
A9
330
1D
100
AcDbEntity
  8
0
100
AcDbLine
 10
60.0918
 20
180.60885
 30
0.0
 11
60.0918
 21
177.64685
 31
0.0
  0
LINE
  5
AA
330
1D
100
AcDbEntity
  8
0
100
AcDbLine
 10
59.776
 20
175.69085
 30
0.0
 11
60.0918
 21
175.13185
 31
0.0
  0
LINE
  5
AB
330
1D
100
AcDbEntity
  8
0
100
AcDbLine
 10
60.0918
 20
175.13185
 30
0.0
 11
60.7234
 21
174.85285
 31
0.0
  0
LINE
  5
AC
330
1D
100
AcDbEntity
  8
0
100
AcDbLine
 10
60.0918
 20
175.13185
 30
0.0
 11
60.0918
 21
175.80285
 31
0.0
  0
LINE
  5
AD
330
1D
100
AcDbEntity
  8
0
100
AcDbLine
 10
60.7234
 20
174.85285
 30
0.0
 11
140.776
 21
174.85285
 31
0.0
  0
LINE
  5
AE
330
1D
100
AcDbEntity
  8
0
100
AcDbLine
 10
60.7234
 20
174.85285
 30
0.0
 11
140.776
 21
174.85285
 31
0.0
  0
LINE
  5
AF
330
1D
100
AcDbEntity
  8
0
100
AcDbLine
 10
58.776
 20
184.40885
 30
0.0
 11
58.776
 21
180.44085
 31
0.0
  0
LINE
  5
B0
330
1D
100
AcDbEntity
  8
0
100
AcDbLine
 10
59.176
 20
184.42885
 30
0.0
 11
59.176
 21
180.40085
 31
0.0
  0
LINE
  5
B1
330
1D
100
AcDbEntity
  8
0
100
AcDbLine
 10
59.176
 20
184.42885
 30
0.0
 11
59.176
 21
188.98885
 31
0.0
  0
LINE
  5
B2
330
1D
100
AcDbEntity
  8
0
100
AcDbLine
 10
58.776
 20
184.42885
 30
0.0
 11
58.776
 21
188.98885
 31
0.0
  0
LINE
  5
B3
330
1D
100
AcDbEntity
  8
0
100
AcDbLine
 10
47.296
 20
184.45285
 30
0.0
 11
49.616
 21
185.41285
 31
0.0
  0
LINE
  5
B4
330
1D
100
AcDbEntity
  8
0
100
AcDbLine
 10
47.336
 20
184.21285
 30
0.0
 11
49.736
 21
185.17285
 31
0.0
  0
LINE
  5
B5
330
1D
100
AcDbEntity
  8
0
100
AcDbLine
 10
44.776
 20
183.85285
 30
0.0
 11
47.336
 21
184.21285
 31
0.0
  0
LINE
  5
B6
330
1D
100
AcDbEntity
  8
0
100
AcDbLine
 10
12.256
 20
203.25285
 30
0.0
 11
14.776
 21
203.61285
 31
0.0
  0
LINE
  5
B7
330
1D
100
AcDbEntity
  8
0
100
AcDbLine
 10
14.776
 20
203.61285
 30
0.0
 11
44.776
 21
203.61285
 31
0.0
  0
LINE
  5
B8
330
1D
100
AcDbEntity
  8
0
100
AcDbLine
 10
14.776
 20
203.61285
 30
0.0
 11
44.776
 21
203.61285
 31
0.0
  0
LINE
  5
B9
330
1D
100
AcDbEntity
  8
0
100
AcDbLine
 10
14.776
 20
203.85285
 30
0.0
 11
44.776
 21
203.85285
 31
0.0
  0
LINE
  5
BA
330
1D
100
AcDbEntity
  8
0
100
AcDbLine
 10
14.776
 20
203.85285
 30
0.0
 11
44.776
 21
203.85285
 31
0.0
  0
LINE
  5
BB
330
1D
100
AcDbEntity
  8
0
100
AcDbLine
 10
44.776
 20
203.61285
 30
0.0
 11
47.296
 21
203.25285
 31
0.0
  0
LINE
  5
BC
330
1D
100
AcDbEntity
  8
0
100
AcDbLine
 10
49.616
 20
202.29285
 30
0.0
 11
51.656
 21
200.73285
 31
0.0
  0
LINE
  5
BD
330
1D
100
AcDbEntity
  8
0
100
AcDbLine
 10
47.296
 20
203.25285
 30
0.0
 11
49.616
 21
202.29285
 31
0.0
  0
LINE
  5
BE
330
1D
100
AcDbEntity
  8
0
100
AcDbLine
 10
49.736
 20
202.53285
 30
0.0
 11
51.856
 21
200.93285
 31
0.0
  0
LINE
  5
BF
330
1D
100
AcDbEntity
  8
0
100
AcDbLine
 10
47.336
 20
203.49285
 30
0.0
 11
49.736
 21
202.53285
 31
0.0
  0
LINE
  5
C0
330
1D
100
AcDbEntity
  8
0
100
AcDbLine
 10
44.776
 20
203.85285
 30
0.0
 11
47.336
 21
203.49285
 31
0.0
  0
LINE
  5
C1
330
1D
100
AcDbEntity
  8
0
100
AcDbLine
 10
49.616
 20
185.41285
 30
0.0
 11
51.656
 21
186.97285
 31
0.0
  0
LINE
  5
C2
330
1D
100
AcDbEntity
  8
0
100
AcDbLine
 10
59.776
 20
184.65685
 30
0.0
 11
59.776
 21
180.78085
 31
0.0
  0
LINE
  5
C3
330
1D
100
AcDbEntity
  8
0
100
AcDbLine
 10
59.776
 20
184.65685
 30
0.0
 11
59.776
 21
189.06485
 31
0.0
  0
LINE
  5
C4
330
1D
100
AcDbEntity
  8
0
100
AcDbLine
 10
60.0918
 20
184.52085
 30
0.0
 11
60.0918
 21
180.60885
 31
0.0
  0
LINE
  5
C5
330
1D
100
AcDbEntity
  8
0
100
AcDbLine
 10
60.0918
 20
184.52085
 30
0.0
 11
60.0918
 21
189.04685
 31
0.0
  0
LINE
  5
C6
330
1D
100
AcDbEntity
  8
0
100
AcDbLine
 10
53.216
 20
198.69285
 30
0.0
 11
54.176
 21
196.37285
 31
0.0
  0
LINE
  5
C7
330
1D
100
AcDbEntity
  8
0
100
AcDbLine
 10
51.656
 20
200.73285
 30
0.0
 11
53.216
 21
198.69285
 31
0.0
  0
LINE
  5
C8
330
1D
100
AcDbEntity
  8
0
100
AcDbLine
 10
51.856
 20
200.93285
 30
0.0
 11
53.456
 21
198.81285
 31
0.0
  0
LINE
  5
C9
330
1D
100
AcDbEntity
  8
0
100
AcDbLine
 10
53.456
 20
198.81285
 30
0.0
 11
54.416
 21
196.41285
 31
0.0
  0
LINE
  5
CA
330
1D
100
AcDbEntity
  8
0
100
AcDbLine
 10
53.216
 20
189.01285
 30
0.0
 11
54.176
 21
191.33285
 31
0.0
  0
LINE
  5
CB
330
1D
100
AcDbEntity
  8
0
100
AcDbLine
 10
51.656
 20
186.97285
 30
0.0
 11
53.216
 21
189.01285
 31
0.0
  0
LINE
  5
CC
330
1D
100
AcDbEntity
  8
0
100
AcDbLine
 10
59.176
 20
188.98885
 30
0.0
 11
59.176
 21
184.42885
 31
0.0
  0
LINE
  5
CD
330
1D
100
AcDbEntity
  8
0
100
AcDbLine
 10
59.176
 20
188.98885
 30
0.0
 11
59.176
 21
193.85285
 31
0.0
  0
LINE
  5
CE
330
1D
100
AcDbEntity
  8
0
100
AcDbLine
 10
58.776
 20
188.99085
 30
0.0
 11
58.776
 21
184.40885
 31
0.0
  0
LINE
  5
CF
330
1D
100
AcDbEntity
  8
0
100
AcDbLine
 10
59.776
 20
189.06485
 30
0.0
 11
59.776
 21
184.65685
 31
0.0
  0
LINE
  5
D0
330
1D
100
AcDbEntity
  8
0
100
AcDbLine
 10
59.776
 20
189.06485
 30
0.0
 11
59.776
 21
193.85285
 31
0.0
  0
LINE
  5
D1
330
1D
100
AcDbEntity
  8
0
100
AcDbLine
 10
58.776
 20
188.98885
 30
0.0
 11
58.776
 21
193.85285
 31
0.0
  0
LINE
  5
D2
330
1D
100
AcDbEntity
  8
0
100
AcDbLine
 10
60.0918
 20
189.04685
 30
0.0
 11
60.0918
 21
184.52085
 31
0.0
  0
LINE
  5
D3
330
1D
100
AcDbEntity
  8
0
100
AcDbLine
 10
60.0918
 20
189.04685
 30
0.0
 11
60.0918
 21
193.85285
 31
0.0
  0
LINE
  5
D4
330
1D
100
AcDbEntity
  8
0
100
AcDbLine
 10
54.176
 20
196.37285
 30
0.0
 11
54.536
 21
193.85285
 31
0.0
  0
LINE
  5
D5
330
1D
100
AcDbEntity
  8
0
100
AcDbLine
 10
58.776
 20
193.85285
 30
0.0
 11
58.776
 21
198.71685
 31
0.0
  0
LINE
  5
D6
330
1D
100
AcDbEntity
  8
0
100
AcDbLine
 10
58.776
 20
193.85285
 30
0.0
 11
58.776
 21
188.99085
 31
0.0
  0
LINE
  5
D7
330
1D
100
AcDbEntity
  8
0
100
AcDbLine
 10
59.776
 20
193.85285
 30
0.0
 11
59.776
 21
189.06485
 31
0.0
  0
LINE
  5
D8
330
1D
100
AcDbEntity
  8
0
100
AcDbLine
 10
59.776
 20
193.85285
 30
0.0
 11
59.776
 21
198.64085
 31
0.0
  0
LINE
  5
D9
330
1D
100
AcDbEntity
  8
0
100
AcDbLine
 10
59.176
 20
193.85285
 30
0.0
 11
59.176
 21
188.98885
 31
0.0
  0
LINE
  5
DA
330
1D
100
AcDbEntity
  8
0
100
AcDbLine
 10
59.176
 20
193.85285
 30
0.0
 11
59.176
 21
198.71685
 31
0.0
  0
LINE
  5
DB
330
1D
100
AcDbEntity
  8
0
100
AcDbLine
 10
60.0918
 20
193.85285
 30
0.0
 11
60.0918
 21
189.04685
 31
0.0
  0
LINE
  5
DC
330
1D
100
AcDbEntity
  8
0
100
AcDbLine
 10
60.0918
 20
193.85285
 30
0.0
 11
60.0918
 21
198.65885
 31
0.0
  0
LINE
  5
DD
330
1D
100
AcDbEntity
  8
0
100
AcDbLine
 10
58.776
 20
198.71485
 30
0.0
 11
58.776
 21
193.85285
 31
0.0
  0
LINE
  5
DE
330
1D
100
AcDbEntity
  8
0
100
AcDbLine
 10
59.776
 20
198.64085
 30
0.0
 11
59.776
 21
193.85285
 31
0.0
  0
LINE
  5
DF
330
1D
100
AcDbEntity
  8
0
100
AcDbLine
 10
59.776
 20
198.64085
 30
0.0
 11
59.776
 21
203.04885
 31
0.0
  0
LINE
  5
E0
330
1D
100
AcDbEntity
  8
0
100
AcDbLine
 10
58.776
 20
198.71685
 30
0.0
 11
58.776
 21
203.27685
 31
0.0
  0
LINE
  5
E1
330
1D
100
AcDbEntity
  8
0
100
AcDbLine
 10
58.776
 20
207.26485
 30
0.0
 11
58.776
 21
203.29685
 31
0.0
  0
LINE
  5
E2
330
1D
100
AcDbEntity
  8
0
100
AcDbLine
 10
58.776
 20
203.29685
 30
0.0
 11
58.776
 21
198.71485
 31
0.0
  0
LINE
  5
E3
330
1D
100
AcDbEntity
  8
0
100
AcDbLine
 10
58.776
 20
210.28185
 30
0.0
 11
58.776
 21
207.26485
 31
0.0
  0
LINE
  5
E4
330
1D
100
AcDbEntity
  8
0
100
AcDbLine
 10
58.776
 20
212.18185
 30
0.0
 11
58.776
 21
210.28185
 31
0.0
  0
LINE
  5
E5
330
1D
100
AcDbEntity
  8
0
100
AcDbLine
 10
58.776
 20
212.16885
 30
0.0
 11
58.776
 21
212.85285
 31
0.0
  0
LINE
  5
E6
330
1D
100
AcDbEntity
  8
0
100
AcDbLine
 10
59.176
 20
212.16885
 30
0.0
 11
59.176
 21
210.34485
 31
0.0
  0
LINE
  5
E7
330
1D
100
AcDbEntity
  8
0
100
AcDbLine
 10
59.176
 20
212.16885
 30
0.0
 11
59.176
 21
212.85285
 31
0.0
  0
LINE
  5
E8
330
1D
100
AcDbEntity
  8
0
100
AcDbLine
 10
58.776
 20
210.34485
 30
0.0
 11
58.776
 21
212.16885
 31
0.0
  0
LINE
  5
E9
330
1D
100
AcDbEntity
  8
0
100
AcDbLine
 10
59.176
 20
210.34485
 30
0.0
 11
59.176
 21
207.30485
 31
0.0
  0
LINE
  5
EA
330
1D
100
AcDbEntity
  8
0
100
AcDbLine
 10
59.176
 20
210.34485
 30
0.0
 11
59.176
 21
212.16885
 31
0.0
  0
LINE
  5
EB
330
1D
100
AcDbEntity
  8
0
100
AcDbLine
 10
58.776
 20
207.30485
 30
0.0
 11
58.776
 21
210.34485
 31
0.0
  0
LINE
  5
EC
330
1D
100
AcDbEntity
  8
0
100
AcDbLine
 10
59.176
 20
207.30485
 30
0.0
 11
59.176
 21
203.27685
 31
0.0
  0
LINE
  5
ED
330
1D
100
AcDbEntity
  8
0
100
AcDbLine
 10
59.176
 20
207.30485
 30
0.0
 11
59.176
 21
210.34485
 31
0.0
  0
LINE
  5
EE
330
1D
100
AcDbEntity
  8
0
100
AcDbLine
 10
58.776
 20
203.27685
 30
0.0
 11
58.776
 21
207.30485
 31
0.0
  0
LINE
  5
EF
330
1D
100
AcDbEntity
  8
0
100
AcDbLine
 10
59.776
 20
212.39685
 30
0.0
 11
59.776
 21
211.71285
 31
0.0
  0
LINE
  5
F0
330
1D
100
AcDbEntity
  8
0
100
AcDbLine
 10
59.776
 20
211.71285
 30
0.0
 11
59.776
 21
209.88885
 31
0.0
  0
LINE
  5
F1
330
1D
100
AcDbEntity
  8
0
100
AcDbLine
 10
59.776
 20
211.71285
 30
0.0
 11
59.776
 21
212.39685
 31
0.0
  0
LINE
  5
F2
330
1D
100
AcDbEntity
  8
0
100
AcDbLine
 10
59.776
 20
209.88885
 30
0.0
 11
59.776
 21
206.92485
 31
0.0
  0
LINE
  5
F3
330
1D
100
AcDbEntity
  8
0
100
AcDbLine
 10
59.776
 20
209.88885
 30
0.0
 11
59.776
 21
211.71285
 31
0.0
  0
LINE
  5
F4
330
1D
100
AcDbEntity
  8
0
100
AcDbLine
 10
59.776
 20
206.92485
 30
0.0
 11
59.776
 21
203.04885
 31
0.0
  0
LINE
  5
F5
330
1D
100
AcDbEntity
  8
0
100
AcDbLine
 10
59.776
 20
206.92485
 30
0.0
 11
59.776
 21
209.88885
 31
0.0
  0
LINE
  5
F6
330
1D
100
AcDbEntity
  8
0
100
AcDbLine
 10
59.776
 20
203.04885
 30
0.0
 11
59.776
 21
198.64085
 31
0.0
  0
LINE
  5
F7
330
1D
100
AcDbEntity
  8
0
100
AcDbLine
 10
59.776
 20
203.04885
 30
0.0
 11
59.776
 21
206.92485
 31
0.0
  0
LINE
  5
F8
330
1D
100
AcDbEntity
  8
0
100
AcDbLine
 10
59.176
 20
203.27685
 30
0.0
 11
59.176
 21
198.71685
 31
0.0
  0
LINE
  5
F9
330
1D
100
AcDbEntity
  8
0
100
AcDbLine
 10
59.176
 20
203.27685
 30
0.0
 11
59.176
 21
207.30485
 31
0.0
  0
LINE
  5
FA
330
1D
100
AcDbEntity
  8
0
100
AcDbLine
 10
59.176
 20
198.71685
 30
0.0
 11
59.176
 21
193.85285
 31
0.0
  0
LINE
  5
FB
330
1D
100
AcDbEntity
  8
0
100
AcDbLine
 10
59.176
 20
198.71685
 30
0.0
 11
59.176
 21
203.27685
 31
0.0
  0
LINE
  5
FC
330
1D
100
AcDbEntity
  8
0
100
AcDbLine
 10
60.0918
 20
210.05885
 30
0.0
 11
60.0918
 21
207.09685
 31
0.0
  0
LINE
  5
FD
330
1D
100
AcDbEntity
  8
0
100
AcDbLine
 10
60.0918
 20
210.05885
 30
0.0
 11
60.0918
 21
211.90285
 31
0.0
  0
LINE
  5
FE
330
1D
100
AcDbEntity
  8
0
100
AcDbLine
 10
60.0918
 20
211.90285
 30
0.0
 11
60.0918
 21
210.05885
 31
0.0
  0
LINE
  5
FF
330
1D
100
AcDbEntity
  8
0
100
AcDbLine
 10
60.0918
 20
211.90285
 30
0.0
 11
60.0918
 21
212.57385
 31
0.0
  0
LINE
  5
100
330
1D
100
AcDbEntity
  8
0
100
AcDbLine
 10
60.0918
 20
207.09685
 30
0.0
 11
60.0918
 21
203.18485
 31
0.0
  0
LINE
  5
101
330
1D
100
AcDbEntity
  8
0
100
AcDbLine
 10
60.0918
 20
207.09685
 30
0.0
 11
60.0918
 21
210.05885
 31
0.0
  0
LINE
  5
102
330
1D
100
AcDbEntity
  8
0
100
AcDbLine
 10
60.0918
 20
203.18485
 30
0.0
 11
60.0918
 21
198.65885
 31
0.0
  0
LINE
  5
103
330
1D
100
AcDbEntity
  8
0
100
AcDbLine
 10
60.0918
 20
203.18485
 30
0.0
 11
60.0918
 21
207.09685
 31
0.0
  0
LINE
  5
104
330
1D
100
AcDbEntity
  8
0
100
AcDbLine
 10
60.0918
 20
198.65885
 30
0.0
 11
60.0918
 21
193.85285
 31
0.0
  0
LINE
  5
105
330
1D
100
AcDbEntity
  8
0
100
AcDbLine
 10
60.0918
 20
198.65885
 30
0.0
 11
60.0918
 21
203.18485
 31
0.0
  0
LINE
  5
106
330
1D
100
AcDbEntity
  8
0
100
AcDbLine
 10
59.776
 20
212.01485
 30
0.0
 11
60.0918
 21
212.57385
 31
0.0
  0
LINE
  5
107
330
1D
100
AcDbEntity
  8
0
100
AcDbLine
 10
58.776
 20
212.85285
 30
0.0
 11
59.176
 21
212.85285
 31
0.0
  0
LINE
  5
108
330
1D
100
AcDbEntity
  8
0
100
AcDbLine
 10
58.776
 20
212.85285
 30
0.0
 11
58.776
 21
212.18185
 31
0.0
  0
LINE
  5
109
330
1D
100
AcDbEntity
  8
0
100
AcDbLine
 10
59.176
 20
212.85285
 30
0.0
 11
59.176
 21
212.16885
 31
0.0
  0
LINE
  5
10A
330
1D
100
AcDbEntity
  8
0
100
AcDbLine
 10
59.176
 20
212.85285
 30
0.0
 11
59.776
 21
212.39685
 31
0.0
  0
LINE
  5
10B
330
1D
100
AcDbEntity
  8
0
100
AcDbLine
 10
60.0918
 20
212.57385
 30
0.0
 11
60.7234
 21
212.85285
 31
0.0
  0
LINE
  5
10C
330
1D
100
AcDbEntity
  8
0
100
AcDbLine
 10
60.0918
 20
212.57385
 30
0.0
 11
60.0918
 21
211.90285
 31
0.0
  0
LINE
  5
10D
330
1D
100
AcDbEntity
  8
0
100
AcDbLine
 10
60.7234
 20
212.85285
 30
0.0
 11
61.07129641658
 21
212.85285
 31
0.0
  0
LINE
  5
10E
330
1D
100
AcDbEntity
  8
0
100
AcDbLine
 10
54.416
 20
196.41285
 30
0.0
 11
54.776
 21
193.85285
 31
0.0
  0
LINE
  5
10F
330
1D
100
AcDbEntity
  8
0
100
AcDbLine
 10
54.176
 20
191.33285
 30
0.0
 11
54.536
 21
193.85285
 31
0.0
  0
LINE
  5
110
330
1D
100
AcDbEntity
  8
0
100
AcDbLine
 10
54.416
 20
191.29285
 30
0.0
 11
54.776
 21
193.85285
 31
0.0
  0
LINE
  5
111
330
1D
100
AcDbEntity
  8
0
100
AcDbLine
 10
53.456
 20
188.89285
 30
0.0
 11
54.416
 21
191.29285
 31
0.0
  0
LINE
  5
112
330
1D
100
AcDbEntity
  8
0
100
AcDbLine
 10
51.856
 20
186.77285
 30
0.0
 11
53.456
 21
188.89285
 31
0.0
  0
LINE
  5
113
330
1D
100
AcDbEntity
  8
0
100
AcDbLine
 10
49.736
 20
185.17285
 30
0.0
 11
51.856
 21
186.77285
 31
0.0
  0
LINE
  5
114
330
1D
100
AcDbEntity
  8
0
100
AcDbLine
 10
12.256
 20
184.45285
 30
0.0
 11
14.776
 21
184.09285
 31
0.0
  0
LINE
  5
115
330
1D
100
AcDbEntity
  8
0
100
AcDbLine
 10
12.216
 20
184.21285
 30
0.0
 11
14.776
 21
183.85285
 31
0.0
  0
LINE
  5
116
330
1D
100
AcDbEntity
  8
0
100
AcDbLine
 10
60.776
 20
230.18685
 30
0.0
 11
61.0113
 21
230.63085
 31
0.0
  0
LINE
  5
117
330
1D
100
AcDbEntity
  8
0
100
AcDbLine
 10
60.776
 20
230.18685
 30
0.0
 11
60.776
 21
212.85285
 31
0.0
  0
LINE
  5
118
330
1D
100
AcDbEntity
  8
0
100
AcDbLine
 10
63.1289
 20
230.63085
 30
0.0
 11
65.6231
 21
230.63085
 31
0.0
  0
LINE
  5
119
330
1D
100
AcDbEntity
  8
0
100
AcDbLine
 10
61.576
 20
230.63085
 30
0.0
 11
63.1289
 21
230.63085
 31
0.0
  0
LINE
  5
11A
330
1D
100
AcDbEntity
  8
0
100
AcDbLine
 10
65.6231
 20
230.63085
 30
0.0
 11
68.9172
 21
230.63085
 31
0.0
  0
LINE
  5
11B
330
1D
100
AcDbEntity
  8
0
100
AcDbLine
 10
68.9172
 20
230.63085
 30
0.0
 11
72.7289
 21
230.63085
 31
0.0
  0
LINE
  5
11C
330
1D
100
AcDbEntity
  8
0
100
AcDbLine
 10
87.9289
 20
230.63085
 30
0.0
 11
90.4231
 21
230.63085
 31
0.0
  0
LINE
  5
11D
330
1D
100
AcDbEntity
  8
0
100
AcDbLine
 10
60.776
 20
212.85285
 30
0.0
 11
140.776
 21
212.85285
 31
0.0
  0
LINE
  5
11E
330
1D
100
AcDbEntity
  8
0
100
AcDbLine
 10
60.776
 20
212.85285
 30
0.0
 11
140.776
 21
212.85285
 31
0.0
  0
LINE
  5
11F
330
1D
100
AcDbEntity
  8
0
100
AcDbLine
 10
90.4231
 20
230.63085
 30
0.0
 11
91.976
 21
230.63085
 31
0.0
  0
LINE
  5
120
330
1D
100
AcDbEntity
  8
0
100
AcDbLine
 10
91.976
 20
230.63085
 30
0.0
 11
92.5407
 21
230.63085
 31
0.0
  0
LINE
  5
121
330
1D
100
AcDbEntity
  8
0
100
AcDbLine
 10
92.776
 20
212.85285
 30
0.0
 11
92.776
 21
230.18685
 31
0.0
  0
LINE
  5
122
330
1D
100
AcDbEntity
  8
0
100
AcDbLine
 10
84.6348
 20
230.63085
 30
0.0
 11
87.9289
 21
230.63085
 31
0.0
  0
LINE
  5
123
330
1D
100
AcDbEntity
  8
0
100
AcDbLine
 10
80.8231
 20
230.63085
 30
0.0
 11
84.6348
 21
230.63085
 31
0.0
  0
LINE
  5
124
330
1D
100
AcDbEntity
  8
0
100
AcDbLine
 10
76.776
 20
230.63085
 30
0.0
 11
80.8231
 21
230.63085
 31
0.0
  0
LINE
  5
125
330
1D
100
AcDbEntity
  8
0
100
AcDbLine
 10
72.7289
 20
230.63085
 30
0.0
 11
76.776
 21
230.63085
 31
0.0
  0
LINE
  5
126
330
1D
100
AcDbEntity
  8
0
100
AcDbLine
 10
61.0113
 20
230.63085
 30
0.0
 11
61.4819
 21
230.85285
 31
0.0
  0
LINE
  5
127
330
1D
100
AcDbEntity
  8
0
100
AcDbLine
 10
61.0113
 20
230.63085
 30
0.0
 11
61.576
 21
230.63085
 31
0.0
  0
LINE
  5
128
330
1D
100
AcDbEntity
  8
0
100
AcDbLine
 10
60.776
 20
212.85285
 30
0.0
 11
60.776
 21
230.18685
 31
0.0
  0
LINE
  5
129
330
1D
100
AcDbEntity
  8
0
100
AcDbLine
 10
62.776
 20
230.85285
 30
0.0
 11
62.776
 21
232.85285
 31
0.0
  0
LINE
  5
12A
330
1D
100
AcDbEntity
  8
0
100
AcDbLine
 10
63.5525
 20
230.85285
 30
0.0
 11
65.9525
 21
230.85285
 31
0.0
  0
LINE
  5
12B
330
1D
100
AcDbEntity
  8
0
100
AcDbLine
 10
62.0466
 20
230.85285
 30
0.0
 11
63.5525
 21
230.85285
 31
0.0
  0
LINE
  5
12C
330
1D
100
AcDbEntity
  8
0
100
AcDbLine
 10
61.4819
 20
230.85285
 30
0.0
 11
62.0466
 21
230.85285
 31
0.0
  0
LINE
  5
12D
330
1D
100
AcDbEntity
  8
0
100
AcDbLine
 10
65.9525
 20
230.85285
 30
0.0
 11
69.1525
 21
230.85285
 31
0.0
  0
LINE
  5
12F
330
1D
100
AcDbEntity
  8
0
100
AcDbLine
 10
87.5995
 20
230.85285
 30
0.0
 11
89.9995
 21
230.85285
 31
0.0
  0
LINE
  5
130
330
1D
100
AcDbEntity
  8
0
100
AcDbLine
 10
89.9995
 20
230.85285
 30
0.0
 11
91.5054
 21
230.85285
 31
0.0
  0
LINE
  5
131
330
1D
100
AcDbEntity
  8
0
100
AcDbLine
 10
91.5054
 20
230.85285
 30
0.0
 11
92.0701
 21
230.85285
 31
0.0
  0
LINE
  5
132
330
1D
100
AcDbEntity
  8
0
100
AcDbLine
 10
84.3995
 20
230.85285
 30
0.0
 11
87.5995
 21
230.85285
 31
0.0
  0
LINE
  5
133
330
1D
100
AcDbEntity
  8
0
100
AcDbLine
 10
80.7289
 20
230.85285
 30
0.0
 11
84.3995
 21
230.85285
 31
0.0
  0
LINE
  5
134
330
1D
100
AcDbEntity
  8
0
100
AcDbLine
 10
76.776
 20
230.85285
 30
0.0
 11
80.7289
 21
230.85285
 31
0.0
  0
LINE
  5
135
330
1D
100
AcDbEntity
  8
0
100
AcDbLine
 10
69.1525
 20
230.85285
 30
0.0
 11
72.8231
 21
230.85285
 31
0.0
  0
LINE
  5
152
330
1D
100
AcDbEntity
  8
0
100
AcDbLine
 10
62.4602
 20
232.85285
 30
0.0
 11
62.776
 21
232.85285
 31
0.0
  0
LINE
  5
1AD
330
1D
100
AcDbEntity
  8
0
100
AcDbLine
 10
62.776
 20
232.85285
 30
0.0
 11
62.776
 21
230.85285
 31
0.0
  0
LINE
  5
1C0
330
1D
100
AcDbEntity
  8
0
100
AcDbLine
 10
72.8231
 20
230.85285
 30
0.0
 11
76.776
 21
230.85285
 31
0.0
  0
LINE
  5
1CC
330
1D
100
AcDbEntity
  8
0
100
AcDbLine
 10
92.0701
 20
230.85285
 30
0.0
 11
92.5407
 21
230.63085
 31
0.0
  0
LINE
  5
1CD
330
1D
100
AcDbEntity
  8
0
100
AcDbLine
 10
92.5407
 20
230.63085
 30
0.0
 11
92.776
 21
230.18685
 31
0.0
  0
LINE
  5
1EA
330
1D
100
AcDbEntity
  8
0
100
AcDbLine
 10
92.776
 20
230.18685
 30
0.0
 11
92.776
 21
212.85285
 31
0.0
  0
LINE
  5
1EB
330
1D
100
AcDbEntity
  8
0
100
AcDbLine
 10
109.376
 20
107.43485
 30
0.0
 11
121.976
 21
115.69085
 31
0.0
  0
LINE
  5
1EC
330
1D
100
AcDbEntity
  8
0
100
AcDbLine
 10
120.776
 20
77.71525
 30
0.0
 11
121.913
 21
84.60595
 31
0.0
  0
LINE
  5
1ED
330
1D
100
AcDbEntity
  8
0
100
AcDbLine
 10
120.776
 20
77.71525
 30
0.0
 11
121.913
 21
70.82455
 31
0.0
  0
LINE
  5
1FC
330
1D
100
AcDbEntity
  8
0
100
AcDbLine
 10
121.776
 20
266.45285
 30
0.0
 11
122.496
 21
265.85285
 31
0.0
  0
LINE
  5
1FD
330
1D
100
AcDbEntity
  8
0
100
AcDbLine
 10
121.776
 20
266.45285
 30
0.0
 11
121.776
 21
275.85285
 31
0.0
  0
LINE
  5
1FE
330
1D
100
AcDbEntity
  8
0
100
AcDbLine
 10
121.776
 20
266.45285
 30
0.0
 11
122.856
 21
266.45285
 31
0.0
  0
LINE
  5
1FF
330
1D
100
AcDbEntity
  8
0
100
AcDbLine
 10
121.913
 20
70.82455
 30
0.0
 11
124.944
 21
64.38125
 31
0.0
  0
LINE
  5
200
330
1D
100
AcDbEntity
  8
0
100
AcDbLine
 10
121.976
 20
7.13315
 30
0.0
 11
136.376
 21
2.05245
 31
0.0
  0
LINE
  5
201
330
1D
100
AcDbEntity
  8
0
100
AcDbLine
 10
121.976
 20
21.99215
 30
0.0
 11
136.376
 21
16.91145
 31
0.0
  0
LINE
  5
202
330
1D
100
AcDbEntity
  8
0
100
AcDbLine
 10
121.976
 20
22.77915
 30
0.0
 11
136.376
 21
17.69845
 31
0.0
  0
LINE
  5
203
330
1D
100
AcDbEntity
  8
0
100
AcDbLine
 10
121.976
 20
25.73965
 30
0.0
 11
136.376
 21
20.65895
 31
0.0
  0
LINE
  5
204
330
1D
100
AcDbEntity
  8
0
100
AcDbLine
 10
121.976
 20
115.69085
 30
0.0
 11
136.376
 21
120.77185
 31
0.0
  0
LINE
  5
205
330
1D
100
AcDbEntity
  8
0
100
AcDbLine
 10
123.098
 20
89.21485
 30
0.0
 11
124.129
 21
95.60585
 31
0.0
  0
LINE
  5
206
330
1D
100
AcDbEntity
  8
0
100
AcDbLine
 10
123.098
 20
89.21485
 30
0.0
 11
124.129
 21
82.82495
 31
0.0
  0
LINE
  5
207
330
1D
100
AcDbEntity
  8
0
100
AcDbLine
 10
121.913
 20
84.60595
 30
0.0
 11
123.839
 21
95.34385
 31
0.0
  0
LINE
  5
208
330
1D
100
AcDbEntity
  8
0
100
AcDbLine
 10
122.496
 20
265.85285
 30
0.0
 11
123.576
 21
265.85285
 31
0.0
  0
LINE
  5
209
330
1D
100
AcDbEntity
  8
0
100
AcDbLine
 10
124.129
 20
82.82495
 30
0.0
 11
126.933
 21
76.88115
 31
0.0
  0
LINE
  5
20A
330
1D
100
AcDbEntity
  8
0
100
AcDbLine
 10
126.933
 20
76.88115
 30
0.0
 11
131.54
 21
71.69065
 31
0.0
  0
LINE
  5
20B
330
1D
100
AcDbEntity
  8
0
100
AcDbLine
 10
124.944
 20
64.38125
 30
0.0
 11
129.869
 21
58.74345
 31
0.0
  0
LINE
  5
20C
330
1D
100
AcDbEntity
  8
0
100
AcDbLine
 10
129.869
 20
58.74345
 30
0.0
 11
136.379
 21
54.47785
 31
0.0
  0
LINE
  5
20D
330
1D
100
AcDbEntity
  8
0
100
AcDbLine
 10
124.129
 20
95.60585
 30
0.0
 11
126.933
 21
101.54885
 31
0.0
  0
LINE
  5
20E
330
1D
100
AcDbEntity
  8
0
100
AcDbLine
 10
123.839
 20
95.34385
 30
0.0
 11
126.675
 21
101.37085
 31
0.0
  0
LINE
  5
20F
330
1D
100
AcDbEntity
  8
0
100
AcDbLine
 10
126.933
 20
101.54885
 30
0.0
 11
131.54
 21
106.73985
 31
0.0
  0
LINE
  5
210
330
1D
100
AcDbEntity
  8
0
100
AcDbLine
 10
126.675
 20
101.37085
 30
0.0
 11
131.283
 21
106.64585
 31
0.0
  0
LINE
  5
211
330
1D
100
AcDbEntity
  8
0
100
AcDbLine
 10
123.576
 20
265.85285
 30
0.0
 11
126.456
 21
265.85285
 31
0.0
  0
LINE
  5
212
330
1D
100
AcDbEntity
  8
0
100
AcDbLine
 10
126.456
 20
265.85285
 30
0.0
 11
131.136
 21
265.85285
 31
0.0
  0
LINE
  5
213
330
1D
100
AcDbEntity
  8
0
100
AcDbLine
 10
136.376
 20
2.05245
 30
0.0
 11
151.776
 21
0.14715
 31
0.0
  0
LINE
  5
214
330
1D
100
AcDbEntity
  8
0
100
AcDbLine
 10
136.376
 20
16.91145
 30
0.0
 11
151.776
 21
15.00615
 31
0.0
  0
LINE
  5
215
330
1D
100
AcDbEntity
  8
0
100
AcDbLine
 10
136.376
 20
17.69845
 30
0.0
 11
151.776
 21
15.79315
 31
0.0
  0
LINE
  5
216
330
1D
100
AcDbEntity
  8
0
100
AcDbLine
 10
136.376
 20
20.65895
 30
0.0
 11
151.776
 21
18.75365
 31
0.0
  0
LINE
  5
217
330
1D
100
AcDbEntity
  8
0
100
AcDbLine
 10
136.348
 20
92.76685
 30
0.0
 11
137.916
 21
96.10685
 31
0.0
  0
LINE
  5
218
330
1D
100
AcDbEntity
  8
0
100
AcDbLine
 10
136.348
 20
85.66375
 30
0.0
 11
137.916
 21
82.32355
 31
0.0
  0
LINE
  5
219
330
1D
100
AcDbEntity
  8
0
100
AcDbLine
 10
135.776
 20
89.21485
 30
0.0
 11
136.348
 21
85.66375
 31
0.0
  0
LINE
  5
21A
330
1D
100
AcDbEntity
  8
0
100
AcDbLine
 10
135.776
 20
89.21485
 30
0.0
 11
136.348
 21
92.76685
 31
0.0
  0
LINE
  5
21B
330
1D
100
AcDbEntity
  8
0
100
AcDbLine
 10
131.54
 20
71.69065
 30
0.0
 11
137.534
 21
67.70025
 31
0.0
  0
LINE
  5
21C
330
1D
100
AcDbEntity
  8
0
100
AcDbLine
 10
137.916
 20
96.10685
 30
0.0
 11
140.491
 21
98.98785
 31
0.0
  0
LINE
  5
21D
330
1D
100
AcDbEntity
  8
0
100
AcDbLine
 10
140.776
 20
93.21485
 30
0.0
 11
140.776
 21
98.91985
 31
0.0
  0
LINE
  5
21E
330
1D
100
AcDbEntity
  8
0
100
AcDbLine
 10
140.776
 20
98.91985
 30
0.0
 11
140.776
 21
93.21485
 31
0.0
  0
LINE
  5
21F
330
1D
100
AcDbEntity
  8
0
100
AcDbLine
 10
140.776
 20
98.91985
 30
0.0
 11
140.814041280872
 21
99.150646356653
 31
0.0
  0
LINE
  5
220
330
1D
100
AcDbEntity
  8
0
100
AcDbLine
 10
140.491
 20
98.98785
 30
0.0
 11
140.799984613968
 21
99.237187149359
 31
0.0
  0
LINE
  5
221
330
1D
100
AcDbEntity
  8
0
100
AcDbLine
 10
140.491
 20
79.44255
 30
0.0
 11
143.818
 21
77.21175
 31
0.0
  0
LINE
  5
222
330
1D
100
AcDbEntity
  8
0
100
AcDbLine
 10
137.916
 20
82.32355
 30
0.0
 11
140.491
 21
79.44255
 31
0.0
  0
LINE
  5
223
330
1D
100
AcDbEntity
  8
0
100
AcDbLine
 10
137.534
 20
67.70025
 30
0.0
 11
144.397
 21
65.27245
 31
0.0
  0
LINE
  5
224
330
1D
100
AcDbEntity
  8
0
100
AcDbLine
 10
136.379
 20
54.47785
 30
0.0
 11
143.819
 21
51.85285
 31
0.0
  0
LINE
  5
225
330
1D
100
AcDbEntity
  8
0
100
AcDbLine
 10
131.54
 20
106.73985
 30
0.0
 11
137.534
 21
110.72985
 31
0.0
  0
LINE
  5
226
330
1D
100
AcDbEntity
  8
0
100
AcDbLine
 10
136.376
 20
120.77185
 30
0.0
 11
140.776
 21
121.316135714286
 31
0.0
  0
LINE
  5
227
330
1D
100
AcDbEntity
  8
0
100
AcDbLine
 10
137.373
 20
110.63585
 30
0.0
 11
137.534
 21
110.72985
 31
0.0
  0
LINE
  5
228
330
1D
100
AcDbEntity
  8
0
100
AcDbLine
 10
137.534
 20
110.72985
 30
0.0
 11
140.776
 21
111.876808472971
 31
0.0
  0
LINE
  5
229
330
1D
100
AcDbEntity
  8
0
100
AcDbLine
 10
131.283
 20
106.64585
 30
0.0
 11
137.373
 21
110.63585
 31
0.0
  0
LINE
  5
22A
330
1D
100
AcDbEntity
  8
0
100
AcDbLine
 10
140.776
 20
99.38485
 30
0.0
 11
141.172
 21
96.94685
 31
0.0
  0
LINE
  5
22B
330
1D
100
AcDbEntity
  8
0
100
AcDbLine
 10
140.776
 20
99.38485
 30
0.0
 11
140.776
 21
140.21185
 31
0.0
  0
LINE
  5
22C
330
1D
100
AcDbEntity
  8
0
100
AcDbLine
 10
140.776
 20
140.21185
 30
0.0
 11
140.776
 21
146.56885
 31
0.0
  0
LINE
  5
22D
330
1D
100
AcDbEntity
  8
0
100
AcDbLine
 10
140.776
 20
140.21185
 30
0.0
 11
140.776
 21
99.38485
 31
0.0
  0
LINE
  5
22E
330
1D
100
AcDbEntity
  8
0
100
AcDbLine
 10
140.776
 20
146.56885
 30
0.0
 11
140.776
 21
154.85285
 31
0.0
  0
LINE
  5
22F
330
1D
100
AcDbEntity
  8
0
100
AcDbLine
 10
140.776
 20
146.56885
 30
0.0
 11
140.776
 21
140.21185
 31
0.0
  0
LINE
  5
230
330
1D
100
AcDbEntity
  8
0
100
AcDbLine
 10
140.776
 20
154.85285
 30
0.0
 11
140.776
 21
146.56885
 31
0.0
  0
LINE
  5
231
330
1D
100
AcDbEntity
  8
0
100
AcDbLine
 10
140.776
 20
154.85285
 30
0.0
 11
140.776
 21
164.49985
 31
0.0
  0
LINE
  5
232
330
1D
100
AcDbEntity
  8
0
100
AcDbLine
 10
140.776
 20
164.49985
 30
0.0
 11
140.776
 21
174.85285
 31
0.0
  0
LINE
  5
233
330
1D
100
AcDbEntity
  8
0
100
AcDbLine
 10
140.776
 20
164.49985
 30
0.0
 11
140.776
 21
154.85285
 31
0.0
  0
LINE
  5
234
330
1D
100
AcDbEntity
  8
0
100
AcDbLine
 10
140.776
 20
194.85285
 30
0.0
 11
140.776
 21
185.20585
 31
0.0
  0
LINE
  5
235
330
1D
100
AcDbEntity
  8
0
100
AcDbLine
 10
140.776
 20
194.85285
 30
0.0
 11
140.776
 21
203.13685
 31
0.0
  0
LINE
  5
236
330
1D
100
AcDbEntity
  8
0
100
AcDbLine
 10
140.776
 20
174.85285
 30
0.0
 11
140.776
 21
185.20585
 31
0.0
  0
LINE
  5
237
330
1D
100
AcDbEntity
  8
0
100
AcDbLine
 10
140.776
 20
174.85285
 30
0.0
 11
140.776
 21
164.49985
 31
0.0
  0
LINE
  5
238
330
1D
100
AcDbEntity
  8
0
100
AcDbLine
 10
140.776
 20
185.20585
 30
0.0
 11
140.776
 21
174.85285
 31
0.0
  0
LINE
  5
239
330
1D
100
AcDbEntity
  8
0
100
AcDbLine
 10
140.776
 20
185.20585
 30
0.0
 11
140.776
 21
194.85285
 31
0.0
  0
LINE
  5
23A
330
1D
100
AcDbEntity
  8
0
100
AcDbLine
 10
140.776
 20
213.48985
 30
0.0
 11
140.776
 21
214.85285
 31
0.0
  0
LINE
  5
23B
330
1D
100
AcDbEntity
  8
0
100
AcDbLine
 10
140.776
 20
213.48985
 30
0.0
 11
140.776
 21
209.49385
 31
0.0
  0
LINE
  5
23C
330
1D
100
AcDbEntity
  8
0
100
AcDbLine
 10
140.776
 20
203.13685
 30
0.0
 11
140.776
 21
209.49385
 31
0.0
  0
LINE
  5
23D
330
1D
100
AcDbEntity
  8
0
100
AcDbLine
 10
140.776
 20
203.13685
 30
0.0
 11
140.776
 21
194.85285
 31
0.0
  0
LINE
  5
23E
330
1D
100
AcDbEntity
  8
0
100
AcDbLine
 10
140.776
 20
209.49385
 30
0.0
 11
140.776
 21
203.13685
 31
0.0
  0
LINE
  5
23F
330
1D
100
AcDbEntity
  8
0
100
AcDbLine
 10
140.776
 20
209.49385
 30
0.0
 11
140.776
 21
213.48985
 31
0.0
  0
LINE
  5
240
330
1D
100
AcDbEntity
  8
0
100
AcDbLine
 10
140.776
 20
214.85285
 30
0.0
 11
141.172
 21
217.66885
 31
0.0
  0
LINE
  5
241
330
1D
100
AcDbEntity
  8
0
100
AcDbLine
 10
140.776
 20
214.85285
 30
0.0
 11
140.776
 21
213.48985
 31
0.0
  0
LINE
  5
242
330
1D
100
AcDbEntity
  8
0
100
AcDbLine
 10
141.172
 20
96.94685
 30
0.0
 11
142.228
 21
94.65985
 31
0.0
  0
LINE
  5
243
330
1D
100
AcDbEntity
  8
0
100
AcDbLine
 10
142.255
 20
88.48385
 30
0.0
 11
144.003
 21
86.48335
 31
0.0
  0
LINE
  5
244
330
1D
100
AcDbEntity
  8
0
100
AcDbLine
 10
142.228
 20
94.65985
 30
0.0
 11
143.988
 21
92.64085
 31
0.0
  0
LINE
  5
245
330
1D
100
AcDbEntity
  8
0
100
AcDbLine
 10
141.172
 20
217.66885
 30
0.0
 11
142.228
 21
220.30885
 31
0.0
  0
LINE
  5
246
330
1D
100
AcDbEntity
  8
0
100
AcDbLine
 10
142.228
 20
220.30885
 30
0.0
 11
142.776
 21
221.03495
 31
0.0
  0
LINE
  5
247
330
1D
100
AcDbEntity
  8
0
100
AcDbLine
 10
142.228
 20
220.30885
 30
0.0
 11
143.988
 21
222.64085
 31
0.0
  0
LINE
  5
248
330
1D
100
AcDbEntity
  8
0
100
AcDbLine
 10
140.776
 20
214.85285
 30
0.0
 11
141.172
 21
217.66885
 31
0.0
  0
LINE
  5
249
330
1D
100
AcDbEntity
  8
0
100
AcDbLine
 10
142.776
 20
221.03495
 30
0.0
 11
142.776
 21
265.85285
 31
0.0
  0
LINE
  5
24A
330
1D
100
AcDbEntity
  8
0
100
AcDbLine
 10
143.818
 20
77.21175
 30
0.0
 11
147.675
 21
75.85455
 31
0.0
  0
LINE
  5
24B
330
1D
100
AcDbEntity
  8
0
100
AcDbLine
 10
143.819
 20
51.85285
 30
0.0
 11
151.776
 21
50.86845
 31
0.0
  0
LINE
  5
24C
330
1D
100
AcDbEntity
  8
0
100
AcDbLine
 10
144.116382658593
 20
92.556949840611
 30
0.0
 11
146.374
 21
91.05485
 31
0.0
  0
LINE
  5
24D
330
1D
100
AcDbEntity
  8
0
100
AcDbLine
 10
144.116382658593
 20
92.556949840611
 30
0.0
 11
146.374
 21
91.05485
 31
0.0
  0
LINE
  5
24E
330
1D
100
AcDbEntity
  8
0
100
AcDbLine
 10
144.003
 20
86.48335
 30
0.0
 11
146.313
 21
84.96975
 31
0.0
  0
LINE
  5
24F
330
1D
100
AcDbEntity
  8
0
100
AcDbLine
 10
144.397
 20
65.27245
 30
0.0
 11
151.776
 21
64.37955
 31
0.0
  0
LINE
  5
251
330
1D
100
AcDbEntity
  8
0
100
AcDbLine
 10
143.988
 20
222.64085
 30
0.0
 11
146.32
 21
224.40085
 31
0.0
  0
LINE
  5
252
330
1D
100
AcDbEntity
  8
0
100
AcDbLine
 10
143.1
 20
265.85285
 30
0.0
 11
143.964
 21
265.85285
 31
0.0
  0
LINE
  5
253
330
1D
100
AcDbEntity
  8
0
100
AcDbLine
 10
143.964
 20
265.85285
 30
0.0
 11
145.404
 21
265.85285
 31
0.0
  0
LINE
  5
254
330
1D
100
AcDbEntity
  8
0
100
AcDbLine
 10
146.313
 20
84.96975
 30
0.0
 11
148.953
 21
84.03825
 31
0.0
  0
LINE
  5
256
330
1D
100
AcDbEntity
  8
0
100
AcDbLine
 10
148.977
 20
90.13385
 30
0.0
 11
151.776
 21
89.79485
 31
0.0
  0
LINE
  5
257
330
1D
100
AcDbEntity
  8
0
100
AcDbLine
 10
148.953
 20
84.03825
 30
0.0
 11
151.776
 21
83.68895
 31
0.0
  0
LINE
  5
258
330
1D
100
AcDbEntity
  8
0
100
AcDbLine
 10
147.675
 20
75.85455
 30
0.0
 11
151.776
 21
75.35885
 31
0.0
  0
LINE
  5
259
330
1D
100
AcDbEntity
  8
0
100
AcDbLine
 10
146.374
 20
91.05485
 30
0.0
 11
148.977
 21
90.13385
 31
0.0
  0
LINE
  5
25B
330
1D
100
AcDbEntity
  8
0
100
AcDbLine
 10
146.32
 20
224.40085
 30
0.0
 11
148.96
 21
225.45685
 31
0.0
  0
LINE
  5
25C
330
1D
100
AcDbEntity
  8
0
100
AcDbLine
 10
148.96
 20
225.45685
 30
0.0
 11
151.776
 21
225.85285
 31
0.0
  0
LINE
  5
25D
330
1D
100
AcDbEntity
  8
0
100
AcDbLine
 10
145.404
 20
265.85285
 30
0.0
 11
147.312
 21
265.85285
 31
0.0
  0
LINE
  5
25E
330
1D
100
AcDbEntity
  8
0
100
AcDbLine
 10
147.312
 20
265.85285
 30
0.0
 11
149.472
 21
265.85285
 31
0.0
  0
LINE
  5
25F
330
1D
100
AcDbEntity
  8
0
100
AcDbLine
 10
151.776
 20
0.14715
 30
0.0
 11
167.176
 21
2.05245
 31
0.0
  0
LINE
  5
260
330
1D
100
AcDbEntity
  8
0
100
AcDbLine
 10
151.776
 20
15.00615
 30
0.0
 11
167.176
 21
16.91145
 31
0.0
  0
LINE
  5
261
330
1D
100
AcDbEntity
  8
0
100
AcDbLine
 10
151.776
 20
18.75365
 30
0.0
 11
167.176
 21
20.65895
 31
0.0
  0
LINE
  5
262
330
1D
100
AcDbEntity
  8
0
100
AcDbLine
 10
151.776
 20
15.79315
 30
0.0
 11
167.176
 21
17.69845
 31
0.0
  0
LINE
  5
263
330
1D
100
AcDbEntity
  8
0
100
AcDbLine
 10
151.776
 20
75.35885
 30
0.0
 11
155.877
 21
75.85455
 31
0.0
  0
LINE
  5
264
330
1D
100
AcDbEntity
  8
0
100
AcDbLine
 10
151.776
 20
89.79485
 30
0.0
 11
154.575
 21
90.13385
 31
0.0
  0
LINE
  5
265
330
1D
100
AcDbEntity
  8
0
100
AcDbLine
 10
151.776
 20
83.68895
 30
0.0
 11
154.599
 21
84.03825
 31
0.0
  0
LINE
  5
266
330
1D
100
AcDbEntity
  8
0
100
AcDbLine
 10
151.776
 20
64.37955
 30
0.0
 11
159.155
 21
65.27245
 31
0.0
  0
LINE
  5
267
330
1D
100
AcDbEntity
  8
0
100
AcDbLine
 10
151.776
 20
50.86845
 30
0.0
 11
159.733
 21
51.85285
 31
0.0
  0
LINE
  5
269
330
1D
100
AcDbEntity
  8
0
100
AcDbLine
 10
151.776
 20
225.85285
 30
0.0
 11
154.592
 21
225.45685
 31
0.0
  0
LINE
  5
26A
330
1D
100
AcDbEntity
  8
0
100
AcDbLine
 10
149.472
 20
265.85285
 30
0.0
 11
151.776
 21
265.85285
 31
0.0
  0
LINE
  5
26B
330
1D
100
AcDbEntity
  8
0
100
AcDbLine
 10
142.776
 20
265.85285
 30
0.0
 11
142.776
 21
221.03495
 31
0.0
  0
LINE
  5
26C
330
1D
100
AcDbEntity
  8
0
100
AcDbLine
 10
142.776
 20
265.85285
 30
0.0
 11
143.1
 21
265.85285
 31
0.0
  0
LINE
  5
26D
330
1D
100
AcDbEntity
  8
0
100
AcDbLine
 10
154.575
 20
90.13385
 30
0.0
 11
157.178
 21
91.05485
 31
0.0
  0
LINE
  5
26E
330
1D
100
AcDbEntity
  8
0
100
AcDbLine
 10
155.877
 20
75.85455
 30
0.0
 11
159.734
 21
77.21175
 31
0.0
  0
LINE
  5
26F
330
1D
100
AcDbEntity
  8
0
100
AcDbLine
 10
154.599
 20
84.03825
 30
0.0
 11
157.239
 21
84.96975
 31
0.0
  0
LINE
  5
270
330
1D
100
AcDbEntity
  8
0
100
AcDbLine
 10
157.178
 20
91.05485
 30
0.0
 11
159.435617341408
 21
92.556949840612
 31
0.0
  0
LINE
  5
273
330
1D
100
AcDbEntity
  8
0
100
AcDbLine
 10
157.239
 20
84.96975
 30
0.0
 11
159.549
 21
86.48335
 31
0.0
  0
LINE
  5
274
330
1D
100
AcDbEntity
  8
0
100
AcDbLine
 10
157.232
 20
224.40085
 30
0.0
 11
159.564
 21
222.64085
 31
0.0
  0
LINE
  5
275
330
1D
100
AcDbEntity
  8
0
100
AcDbLine
 10
154.592
 20
225.45685
 30
0.0
 11
157.232
 21
224.40085
 31
0.0
  0
LINE
  5
276
330
1D
100
AcDbEntity
  8
0
100
AcDbLine
 10
159.549
 20
86.48335
 30
0.0
 11
161.297
 21
88.48385
 31
0.0
  0
LINE
  5
277
330
1D
100
AcDbEntity
  8
0
100
AcDbLine
 10
159.155
 20
65.27245
 30
0.0
 11
166.018
 21
67.70025
 31
0.0
  0
LINE
  5
278
330
1D
100
AcDbEntity
  8
0
100
AcDbLine
 10
159.734
 20
77.21175
 30
0.0
 11
163.061
 21
79.44255
 31
0.0
  0
LINE
  5
279
330
1D
100
AcDbEntity
  8
0
100
AcDbLine
 10
159.733
 20
51.85285
 30
0.0
 11
167.173
 21
54.47785
 31
0.0
  0
LINE
  5
27A
330
1D
100
AcDbEntity
  8
0
100
AcDbLine
 10
159.564
 20
92.64085
 30
0.0
 11
161.324
 21
94.65985
 31
0.0
  0
LINE
  5
27B
330
1D
100
AcDbEntity
  8
0
100
AcDbLine
 10
159.564
 20
222.64085
 30
0.0
 11
161.324
 21
220.30885
 31
0.0
  0
LINE
  5
27C
330
1D
100
AcDbEntity
  8
0
100
AcDbLine
 10
162.776
 20
93.21485
 30
0.0
 11
162.776
 21
98.91985
 31
0.0
  0
LINE
  5
27D
330
1D
100
AcDbEntity
  8
0
100
AcDbLine
 10
162.752015386032
 20
99.237187149359
 30
0.0
 11
163.061
 21
98.98785
 31
0.0
  0
LINE
  5
27E
330
1D
100
AcDbEntity
  8
0
100
AcDbLine
 10
162.737958719128
 20
99.150646356653
 30
0.0
 11
162.776
 21
98.91985
 31
0.0
  0
LINE
  5
27F
330
1D
100
AcDbEntity
  8
0
100
AcDbLine
 10
162.776
 20
98.91985
 30
0.0
 11
162.776
 21
93.21485
 31
0.0
  0
LINE
  5
280
330
1D
100
AcDbEntity
  8
0
100
AcDbLine
 10
162.776
 20
111.876808472971
 30
0.0
 11
166.018
 21
110.72985
 31
0.0
  0
LINE
  5
281
330
1D
100
AcDbEntity
  8
0
100
AcDbLine
 10
162.776
 20
121.316135714286
 30
0.0
 11
167.176
 21
120.77185
 31
0.0
  0
LINE
  5
282
330
1D
100
AcDbEntity
  8
0
100
AcDbLine
 10
162.776
 20
99.38485
 30
0.0
 11
162.776
 21
140.21185
 31
0.0
  0
LINE
  5
283
330
1D
100
AcDbEntity
  8
0
100
AcDbLine
 10
162.38
 20
96.94685
 30
0.0
 11
162.776
 21
99.38485
 31
0.0
  0
LINE
  5
284
330
1D
100
AcDbEntity
  8
0
100
AcDbLine
 10
161.324
 20
94.65985
 30
0.0
 11
162.38
 21
96.94685
 31
0.0
  0
LINE
  5
285
330
1D
100
AcDbEntity
  8
0
100
AcDbLine
 10
162.776
 20
140.21185
 30
0.0
 11
162.776
 21
146.56885
 31
0.0
  0
LINE
  5
286
330
1D
100
AcDbEntity
  8
0
100
AcDbLine
 10
162.776
 20
140.21185
 30
0.0
 11
162.776
 21
99.38485
 31
0.0
  0
LINE
  5
287
330
1D
100
AcDbEntity
  8
0
100
AcDbLine
 10
162.776
 20
174.85285
 30
0.0
 11
242.829
 21
174.85285
 31
0.0
  0
LINE
  5
288
330
1D
100
AcDbEntity
  8
0
100
AcDbLine
 10
162.776
 20
154.85285
 30
0.0
 11
162.776
 21
146.56885
 31
0.0
  0
LINE
  5
289
330
1D
100
AcDbEntity
  8
0
100
AcDbLine
 10
162.776
 20
154.85285
 30
0.0
 11
162.776
 21
164.49985
 31
0.0
  0
LINE
  5
28A
330
1D
100
AcDbEntity
  8
0
100
AcDbLine
 10
162.776
 20
146.56885
 30
0.0
 11
162.776
 21
154.85285
 31
0.0
  0
LINE
  5
28B
330
1D
100
AcDbEntity
  8
0
100
AcDbLine
 10
162.776
 20
146.56885
 30
0.0
 11
162.776
 21
140.21185
 31
0.0
  0
LINE
  5
28C
330
1D
100
AcDbEntity
  8
0
100
AcDbLine
 10
162.776
 20
174.85285
 30
0.0
 11
162.776
 21
164.49985
 31
0.0
  0
LINE
  5
28D
330
1D
100
AcDbEntity
  8
0
100
AcDbLine
 10
162.776
 20
174.85285
 30
0.0
 11
162.776
 21
185.20585
 31
0.0
  0
LINE
  5
28E
330
1D
100
AcDbEntity
  8
0
100
AcDbLine
 10
162.776
 20
164.49985
 30
0.0
 11
162.776
 21
174.85285
 31
0.0
  0
LINE
  5
28F
330
1D
100
AcDbEntity
  8
0
100
AcDbLine
 10
162.776
 20
164.49985
 30
0.0
 11
162.776
 21
154.85285
 31
0.0
  0
LINE
  5
290
330
1D
100
AcDbEntity
  8
0
100
AcDbLine
 10
162.776
 20
194.85285
 30
0.0
 11
162.776
 21
185.20585
 31
0.0
  0
LINE
  5
291
330
1D
100
AcDbEntity
  8
0
100
AcDbLine
 10
162.776
 20
194.85285
 30
0.0
 11
162.776
 21
203.13685
 31
0.0
  0
LINE
  5
292
330
1D
100
AcDbEntity
  8
0
100
AcDbLine
 10
162.776
 20
185.20585
 30
0.0
 11
162.776
 21
194.85285
 31
0.0
  0
LINE
  5
293
330
1D
100
AcDbEntity
  8
0
100
AcDbLine
 10
162.776
 20
185.20585
 30
0.0
 11
162.776
 21
174.85285
 31
0.0
  0
LINE
  5
294
330
1D
100
AcDbEntity
  8
0
100
AcDbLine
 10
162.776
 20
212.85285
 30
0.0
 11
242.829
 21
212.85285
 31
0.0
  0
LINE
  5
295
330
1D
100
AcDbEntity
  8
0
100
AcDbLine
 10
162.38
 20
217.66885
 30
0.0
 11
162.776
 21
214.85285
 31
0.0
  0
LINE
  5
296
330
1D
100
AcDbEntity
  8
0
100
AcDbLine
 10
162.776
 20
214.85285
 30
0.0
 11
162.776
 21
213.48985
 31
0.0
  0
LINE
  5
297
330
1D
100
AcDbEntity
  8
0
100
AcDbLine
 10
161.324
 20
220.30885
 30
0.0
 11
162.38
 21
217.66885
 31
0.0
  0
LINE
  5
298
330
1D
100
AcDbEntity
  8
0
100
AcDbLine
 10
162.776
 20
213.48985
 30
0.0
 11
162.776
 21
209.49385
 31
0.0
  0
LINE
  5
299
330
1D
100
AcDbEntity
  8
0
100
AcDbLine
 10
162.776
 20
213.48985
 30
0.0
 11
162.776
 21
214.85285
 31
0.0
  0
LINE
  5
29A
330
1D
100
AcDbEntity
  8
0
100
AcDbLine
 10
162.776
 20
209.49385
 30
0.0
 11
162.776
 21
203.13685
 31
0.0
  0
LINE
  5
29B
330
1D
100
AcDbEntity
  8
0
100
AcDbLine
 10
162.776
 20
209.49385
 30
0.0
 11
162.776
 21
213.48985
 31
0.0
  0
LINE
  5
29C
330
1D
100
AcDbEntity
  8
0
100
AcDbLine
 10
163.061
 20
79.44255
 30
0.0
 11
165.636
 21
82.32355
 31
0.0
  0
LINE
  5
29D
330
1D
100
AcDbEntity
  8
0
100
AcDbLine
 10
163.061
 20
98.98785
 30
0.0
 11
165.636
 21
96.10685
 31
0.0
  0
LINE
  5
29E
330
1D
100
AcDbEntity
  8
0
100
AcDbLine
 10
165.636
 20
96.10685
 30
0.0
 11
167.204
 21
92.76685
 31
0.0
  0
LINE
  5
29F
330
1D
100
AcDbEntity
  8
0
100
AcDbLine
 10
165.636
 20
82.32355
 30
0.0
 11
167.204
 21
85.66375
 31
0.0
  0
LINE
  5
2A0
330
1D
100
AcDbEntity
  8
0
100
AcDbLine
 10
166.018
 20
67.70025
 30
0.0
 11
172.012
 21
71.69065
 31
0.0
  0
LINE
  5
2A1
330
1D
100
AcDbEntity
  8
0
100
AcDbLine
 10
166.018
 20
110.72985
 30
0.0
 11
166.179
 21
110.63585
 31
0.0
  0
LINE
  5
2A2
330
1D
100
AcDbEntity
  8
0
100
AcDbLine
 10
166.018
 20
110.72985
 30
0.0
 11
172.012
 21
106.73985
 31
0.0
  0
LINE
  5
2A3
330
1D
100
AcDbEntity
  8
0
100
AcDbLine
 10
166.179
 20
110.63585
 30
0.0
 11
172.269
 21
106.64585
 31
0.0
  0
LINE
  5
2A4
330
1D
100
AcDbEntity
  8
0
100
AcDbLine
 10
162.776
 20
203.13685
 30
0.0
 11
162.776
 21
209.49385
 31
0.0
  0
LINE
  5
2A5
330
1D
100
AcDbEntity
  8
0
100
AcDbLine
 10
162.776
 20
203.13685
 30
0.0
 11
162.776
 21
194.85285
 31
0.0
  0
LINE
  5
2A6
330
1D
100
AcDbEntity
  8
0
100
AcDbLine
 10
160.776
 20
221.03495
 30
0.0
 11
160.776
 21
265.85285
 31
0.0
  0
LINE
  5
2A7
330
1D
100
AcDbEntity
  8
0
100
AcDbLine
 10
160.452
 20
265.85285
 30
0.0
 11
160.776
 21
265.85285
 31
0.0
  0
LINE
  5
2A8
330
1D
100
AcDbEntity
  8
0
100
AcDbLine
 10
159.588
 20
265.85285
 30
0.0
 11
160.452
 21
265.85285
 31
0.0
  0
LINE
  5
2A9
330
1D
100
AcDbEntity
  8
0
100
AcDbLine
 10
158.148
 20
265.85285
 30
0.0
 11
159.588
 21
265.85285
 31
0.0
  0
LINE
  5
2AA
330
1D
100
AcDbEntity
  8
0
100
AcDbLine
 10
156.24
 20
265.85285
 30
0.0
 11
158.148
 21
265.85285
 31
0.0
  0
LINE
  5
2AB
330
1D
100
AcDbEntity
  8
0
100
AcDbLine
 10
154.08
 20
265.85285
 30
0.0
 11
156.24
 21
265.85285
 31
0.0
  0
LINE
  5
2AC
330
1D
100
AcDbEntity
  8
0
100
AcDbLine
 10
160.776
 20
265.85285
 30
0.0
 11
166.296
 21
265.85285
 31
0.0
  0
LINE
  5
2AD
330
1D
100
AcDbEntity
  8
0
100
AcDbLine
 10
160.776
 20
265.85285
 30
0.0
 11
160.776
 21
221.03495
 31
0.0
  0
LINE
  5
2AE
330
1D
100
AcDbEntity
  8
0
100
AcDbLine
 10
167.176
 20
2.05245
 30
0.0
 11
181.576
 21
7.13315
 31
0.0
  0
LINE
  5
2AF
330
1D
100
AcDbEntity
  8
0
100
AcDbLine
 10
167.176
 20
16.91145
 30
0.0
 11
181.576
 21
21.99215
 31
0.0
  0
LINE
  5
2B0
330
1D
100
AcDbEntity
  8
0
100
AcDbLine
 10
167.176
 20
20.65895
 30
0.0
 11
181.576
 21
25.73965
 31
0.0
  0
LINE
  5
2B1
330
1D
100
AcDbEntity
  8
0
100
AcDbLine
 10
167.176
 20
17.69845
 30
0.0
 11
181.576
 21
22.77915
 31
0.0
  0
LINE
  5
2B2
330
1D
100
AcDbEntity
  8
0
100
AcDbLine
 10
167.204
 20
92.76685
 30
0.0
 11
167.776
 21
89.21485
 31
0.0
  0
LINE
  5
2B3
330
1D
100
AcDbEntity
  8
0
100
AcDbLine
 10
167.204
 20
85.66375
 30
0.0
 11
167.776
 21
89.21485
 31
0.0
  0
LINE
  5
2B4
330
1D
100
AcDbEntity
  8
0
100
AcDbLine
 10
172.012
 20
71.69065
 30
0.0
 11
176.619
 21
76.88115
 31
0.0
  0
LINE
  5
2B5
330
1D
100
AcDbEntity
  8
0
100
AcDbLine
 10
167.173
 20
54.47785
 30
0.0
 11
173.683
 21
58.74345
 31
0.0
  0
LINE
  5
2B6
330
1D
100
AcDbEntity
  8
0
100
AcDbLine
 10
172.012
 20
106.73985
 30
0.0
 11
176.619
 21
101.54885
 31
0.0
  0
LINE
  5
2B7
330
1D
100
AcDbEntity
  8
0
100
AcDbLine
 10
176.619
 20
76.88115
 30
0.0
 11
179.423
 21
82.82495
 31
0.0
  0
LINE
  5
2B8
330
1D
100
AcDbEntity
  8
0
100
AcDbLine
 10
173.683
 20
58.74345
 30
0.0
 11
176.280335434485
 21
61.716700296963
 31
0.0
  0
LINE
  5
2B9
330
1D
100
AcDbEntity
  8
0
100
AcDbLine
 10
176.619
 20
101.54885
 30
0.0
 11
179.423
 21
95.60585
 31
0.0
  0
LINE
  5
2BA
330
1D
100
AcDbEntity
  8
0
100
AcDbLine
 10
176.877
 20
101.37085
 30
0.0
 11
179.713
 21
95.34385
 31
0.0
  0
LINE
  5
2BB
330
1D
100
AcDbEntity
  8
0
100
AcDbLine
 10
172.269
 20
106.64585
 30
0.0
 11
176.877
 21
101.37085
 31
0.0
  0
LINE
  5
2BC
330
1D
100
AcDbEntity
  8
0
100
AcDbLine
 10
167.176
 20
120.77185
 30
0.0
 11
181.576
 21
115.69085
 31
0.0
  0
LINE
  5
2BD
330
1D
100
AcDbEntity
  8
0
100
AcDbLine
 10
179.423
 20
82.82495
 30
0.0
 11
180.454
 21
89.21485
 31
0.0
  0
LINE
  5
2BE
330
1D
100
AcDbEntity
  8
0
100
AcDbLine
 10
178.615679276589
 20
97.67585
 30
0.0
 11
210.697
 21
97.67585
 31
0.0
  0
LINE
  5
2BF
330
1D
100
AcDbEntity
  8
0
100
AcDbLine
 10
179.423
 20
95.60585
 30
0.0
 11
180.454
 21
89.21485
 31
0.0
  0
LINE
  5
2C0
330
1D
100
AcDbEntity
  8
0
100
AcDbLine
 10
179.713
 20
95.34385
 30
0.0
 11
179.95615976921
 21
93.988177473625
 31
0.0
  0
LINE
  5
2C1
330
1D
100
AcDbEntity
  8
0
100
AcDbLine
 10
181.576
 20
7.13315
 30
0.0
 11
194.176
 21
15.38925
 31
0.0
  0
LINE
  5
2C2
330
1D
100
AcDbEntity
  8
0
100
AcDbLine
 10
194.176
 20
15.38925
 30
0.0
 11
203.709
 21
26.30115
 31
0.0
  0
LINE
  5
2C3
330
1D
100
AcDbEntity
  8
0
100
AcDbLine
 10
181.576
 20
21.99215
 30
0.0
 11
194.176
 21
30.24815
 31
0.0
  0
LINE
  5
2C4
330
1D
100
AcDbEntity
  8
0
100
AcDbLine
 10
194.176
 20
30.24815
 30
0.0
 11
203.709
 21
41.16015
 31
0.0
  0
LINE
  5
2C5
330
1D
100
AcDbEntity
  8
0
100
AcDbLine
 10
191.065856607079
 20
59.75455
 30
0.0
 11
210.697
 21
59.75455
 31
0.0
  0
LINE
  5
2C6
330
1D
100
AcDbEntity
  8
0
100
AcDbLine
 10
191.065856607079
 20
59.75455
 30
0.0
 11
210.697
 21
59.75455
 31
0.0
  0
LINE
  5
2C7
330
1D
100
AcDbEntity
  8
0
100
AcDbLine
 10
194.176
 20
33.99575
 30
0.0
 11
203.709
 21
44.90765
 31
0.0
  0
LINE
  5
2C8
330
1D
100
AcDbEntity
  8
0
100
AcDbLine
 10
194.176
 20
31.03515
 30
0.0
 11
203.709
 21
41.94715
 31
0.0
  0
LINE
  5
2C9
330
1D
100
AcDbEntity
  8
0
100
AcDbLine
 10
181.576
 20
25.73965
 30
0.0
 11
194.176
 21
33.99575
 31
0.0
  0
LINE
  5
2CA
330
1D
100
AcDbEntity
  8
0
100
AcDbLine
 10
181.576
 20
22.77915
 30
0.0
 11
194.176
 21
31.03515
 31
0.0
  0
LINE
  5
2CB
330
1D
100
AcDbEntity
  8
0
100
AcDbLine
 10
203.709
 20
26.30115
 30
0.0
 11
209.576
 21
38.77195
 31
0.0
  0
LINE
  5
2CC
330
1D
100
AcDbEntity
  8
0
100
AcDbLine
 10
203.709
 20
41.16015
 30
0.0
 11
209.576
 21
53.63085
 31
0.0
  0
LINE
  5
2CD
330
1D
100
AcDbEntity
  8
0
100
AcDbLine
 10
203.709
 20
44.90765
 30
0.0
 11
209.576
 21
57.37845
 31
0.0
  0
LINE
  5
2CE
330
1D
100
AcDbEntity
  8
0
100
AcDbLine
 10
209.576
 20
38.77195
 30
0.0
 11
211.776
 21
52.10875
 31
0.0
  0
LINE
  5
2CF
330
1D
100
AcDbEntity
  8
0
100
AcDbLine
 10
211.776
 20
52.10875
 30
0.0
 11
211.776
 21
59.879778081321
 31
0.0
  0
LINE
  5
2D0
330
1D
100
AcDbEntity
  8
0
100
AcDbLine
 10
209.576
 20
53.63085
 30
0.0
 11
210.586147861556
 21
59.75455
 31
0.0
  0
LINE
  5
2D1
330
1D
100
AcDbEntity
  8
0
100
AcDbLine
 10
230.989
 20
59.75455
 30
0.0
 11
231.776
 21
59.95365
 31
0.0
  0
LINE
  5
2D2
330
1D
100
AcDbEntity
  8
0
100
AcDbLine
 10
212.271
 20
59.75455
 30
0.0
 11
230.989
 21
59.75455
 31
0.0
  0
LINE
  5
2D3
330
1D
100
AcDbEntity
  8
0
100
AcDbLine
 10
210.697
 20
59.75455
 30
0.0
 11
211.484
 21
59.95365
 31
0.0
  0
LINE
  5
2D4
330
1D
100
AcDbEntity
  8
0
100
AcDbLine
 10
209.576
 20
57.37845
 30
0.0
 11
209.967954591806
 21
59.75455
 31
0.0
  0
LINE
  5
2D5
330
1D
100
AcDbEntity
  8
0
100
AcDbLine
 10
209.576
 20
54.41785
 30
0.0
 11
210.45632661508
 21
59.75455
 31
0.0
  0
LINE
  5
2D6
330
1D
100
AcDbEntity
  8
0
100
AcDbLine
 10
203.709
 20
41.94715
 30
0.0
 11
209.576
 21
54.41785
 31
0.0
  0
LINE
  5
2D7
330
1D
100
AcDbEntity
  8
0
100
AcDbLine
 10
231.776
 20
59.95365
 30
0.0
 11
231.776
 21
60.61145
 31
0.0
  0
LINE
  5
2D8
330
1D
100
AcDbEntity
  8
0
100
AcDbLine
 10
231.776
 20
83.58515
 30
0.0
 11
231.776
 21
88.10985
 31
0.0
  0
LINE
  5
2D9
330
1D
100
AcDbEntity
  8
0
100
AcDbLine
 10
231.776
 20
83.58515
 30
0.0
 11
231.776
 21
78.77265
 31
0.0
  0
LINE
  5
2DA
330
1D
100
AcDbEntity
  8
0
100
AcDbLine
 10
231.776
 20
78.77265
 30
0.0
 11
231.776
 21
83.58515
 31
0.0
  0
LINE
  5
2DB
330
1D
100
AcDbEntity
  8
0
100
AcDbLine
 10
231.776
 20
78.77265
 30
0.0
 11
231.776
 21
73.86255
 31
0.0
  0
LINE
  5
2DC
330
1D
100
AcDbEntity
  8
0
100
AcDbLine
 10
231.776
 20
73.86255
 30
0.0
 11
231.776
 21
78.77265
 31
0.0
  0
LINE
  5
2DD
330
1D
100
AcDbEntity
  8
0
100
AcDbLine
 10
231.776
 20
73.86255
 30
0.0
 11
231.776
 21
69.28475
 31
0.0
  0
LINE
  5
2DE
330
1D
100
AcDbEntity
  8
0
100
AcDbLine
 10
231.776
 20
69.28475
 30
0.0
 11
231.776
 21
73.86255
 31
0.0
  0
LINE
  5
2DF
330
1D
100
AcDbEntity
  8
0
100
AcDbLine
 10
231.776
 20
69.28475
 30
0.0
 11
231.776
 21
65.44585
 31
0.0
  0
LINE
  5
2E0
330
1D
100
AcDbEntity
  8
0
100
AcDbLine
 10
231.776
 20
65.44585
 30
0.0
 11
231.776
 21
69.28475
 31
0.0
  0
LINE
  5
2E1
330
1D
100
AcDbEntity
  8
0
100
AcDbLine
 10
231.776
 20
65.44585
 30
0.0
 11
231.776
 21
62.44355
 31
0.0
  0
LINE
  5
2E2
330
1D
100
AcDbEntity
  8
0
100
AcDbLine
 10
231.776
 20
62.44355
 30
0.0
 11
231.776
 21
60.61145
 31
0.0
  0
LINE
  5
2E3
330
1D
100
AcDbEntity
  8
0
100
AcDbLine
 10
231.776
 20
62.44355
 30
0.0
 11
231.776
 21
65.44585
 31
0.0
  0
LINE
  5
2E4
330
1D
100
AcDbEntity
  8
0
100
AcDbLine
 10
231.776
 20
60.61145
 30
0.0
 11
231.776
 21
62.44355
 31
0.0
  0
LINE
  5
2E5
330
1D
100
AcDbEntity
  8
0
100
AcDbLine
 10
231.776
 20
60.61145
 30
0.0
 11
231.776
 21
59.95365
 31
0.0
  0
LINE
  5
2E6
330
1D
100
AcDbEntity
  8
0
100
AcDbLine
 10
211.484
 20
59.95365
 30
0.0
 11
212.271
 21
59.75455
 31
0.0
  0
LINE
  5
2E7
330
1D
100
AcDbEntity
  8
0
100
AcDbLine
 10
231.776
 20
88.10985
 30
0.0
 11
231.776
 21
91.95885
 31
0.0
  0
LINE
  5
2E8
330
1D
100
AcDbEntity
  8
0
100
AcDbLine
 10
231.776
 20
88.10985
 30
0.0
 11
231.776
 21
83.58515
 31
0.0
  0
LINE
  5
2E9
330
1D
100
AcDbEntity
  8
0
100
AcDbLine
 10
231.776
 20
91.95885
 30
0.0
 11
231.776
 21
94.93485
 31
0.0
  0
LINE
  5
2EA
330
1D
100
AcDbEntity
  8
0
100
AcDbLine
 10
231.776
 20
91.95885
 30
0.0
 11
231.776
 21
88.10985
 31
0.0
  0
LINE
  5
2EB
330
1D
100
AcDbEntity
  8
0
100
AcDbLine
 10
231.776
 20
97.47685
 30
0.0
 11
231.776
 21
96.82585
 31
0.0
  0
LINE
  5
2EC
330
1D
100
AcDbEntity
  8
0
100
AcDbLine
 10
231.776
 20
94.93485
 30
0.0
 11
231.776
 21
96.82585
 31
0.0
  0
LINE
  5
2ED
330
1D
100
AcDbEntity
  8
0
100
AcDbLine
 10
231.776
 20
94.93485
 30
0.0
 11
231.776
 21
91.95885
 31
0.0
  0
LINE
  5
2EE
330
1D
100
AcDbEntity
  8
0
100
AcDbLine
 10
231.776
 20
96.82585
 30
0.0
 11
231.776
 21
97.47685
 31
0.0
  0
LINE
  5
2EF
330
1D
100
AcDbEntity
  8
0
100
AcDbLine
 10
231.776
 20
96.82585
 30
0.0
 11
231.776
 21
94.93485
 31
0.0
  0
LINE
  5
2F0
330
1D
100
AcDbEntity
  8
0
100
AcDbLine
 10
230.989
 20
97.67585
 30
0.0
 11
231.776
 21
97.47685
 31
0.0
  0
LINE
  5
2F1
330
1D
100
AcDbEntity
  8
0
100
AcDbLine
 10
212.271
 20
97.67585
 30
0.0
 11
230.989
 21
97.67585
 31
0.0
  0
LINE
  5
2F2
330
1D
100
AcDbEntity
  8
0
100
AcDbLine
 10
211.484
 20
97.47685
 30
0.0
 11
212.271
 21
97.67585
 31
0.0
  0
LINE
  5
2F3
330
1D
100
AcDbEntity
  8
0
100
AcDbLine
 10
210.697
 20
97.67585
 30
0.0
 11
211.484
 21
97.47685
 31
0.0
  0
LINE
  5
2F4
330
1D
100
AcDbEntity
  8
0
100
AcDbLine
 10
211.776
 20
59.879778081321
 30
0.0
 11
211.776
 21
52.10875
 31
0.0
  0
LINE
  5
2F5
330
1D
100
AcDbEntity
  8
0
100
AcDbLine
 10
194.176
 20
107.43485
 30
0.0
 11
202.701709952346
 21
97.67585
 31
0.0
  0
LINE
  5
2F6
330
1D
100
AcDbEntity
  8
0
100
AcDbLine
 10
242.480546705565
 20
212.85285
 30
0.0
 11
242.829
 21
212.85285
 31
0.0
  0
LINE
  5
2F7
330
1D
100
AcDbEntity
  8
0
100
AcDbLine
 10
210.776
 20
212.85285
 30
0.0
 11
210.776
 21
230.18685
 31
0.0
  0
LINE
  5
2F8
330
1D
100
AcDbEntity
  8
0
100
AcDbLine
 10
242.776
 20
212.85285
 30
0.0
 11
242.776
 21
230.18685
 31
0.0
  0
LINE
  5
2F9
330
1D
100
AcDbEntity
  8
0
100
AcDbLine
 10
181.576
 20
115.69085
 30
0.0
 11
194.176
 21
107.43485
 31
0.0
  0
LINE
  5
2FA
330
1D
100
AcDbEntity
  8
0
100
AcDbLine
 10
302.622
 20
174.85285
 30
0.0
 11
303.391
 21
175.13185
 31
0.0
  0
LINE
  5
2FB
330
1D
100
AcDbEntity
  8
0
100
AcDbLine
 10
303.391
 20
175.13185
 30
0.0
 11
303.776
 21
175.69085
 31
0.0
  0
LINE
  5
2FC
330
1D
100
AcDbEntity
  8
0
100
AcDbLine
 10
303.391
 20
175.13185
 30
0.0
 11
303.391
 21
175.80285
 31
0.0
  0
LINE
  5
2FD
330
1D
100
AcDbEntity
  8
0
100
AcDbLine
 10
244.776
 20
174.85285
 30
0.0
 11
244.776
 21
175.53685
 31
0.0
  0
LINE
  5
2FE
330
1D
100
AcDbEntity
  8
0
100
AcDbLine
 10
244.776
 20
174.85285
 30
0.0
 11
302.622
 21
174.85285
 31
0.0
  0
LINE
  5
2FF
330
1D
100
AcDbEntity
  8
0
100
AcDbLine
 10
244.376
 20
174.85285
 30
0.0
 11
244.776
 21
174.85285
 31
0.0
  0
LINE
  5
300
330
1D
100
AcDbEntity
  8
0
100
AcDbLine
 10
244.376
 20
174.85285
 30
0.0
 11
244.376
 21
175.53685
 31
0.0
  0
LINE
  5
301
330
1D
100
AcDbEntity
  8
0
100
AcDbLine
 10
243.46
 20
177.64685
 30
0.0
 11
243.46
 21
180.60885
 31
0.0
  0
LINE
  5
302
330
1D
100
AcDbEntity
  8
0
100
AcDbLine
 10
243.46
 20
177.64685
 30
0.0
 11
243.46
 21
175.80285
 31
0.0
  0
LINE
  5
303
330
1D
100
AcDbEntity
  8
0
100
AcDbLine
 10
243.46
 20
175.80285
 30
0.0
 11
243.46
 21
177.64685
 31
0.0
  0
LINE
  5
304
330
1D
100
AcDbEntity
  8
0
100
AcDbLine
 10
243.46
 20
175.80285
 30
0.0
 11
243.46
 21
175.13185
 31
0.0
  0
LINE
  5
305
330
1D
100
AcDbEntity
  8
0
100
AcDbLine
 10
243.46
 20
180.60885
 30
0.0
 11
243.46
 21
184.52085
 31
0.0
  0
LINE
  5
306
330
1D
100
AcDbEntity
  8
0
100
AcDbLine
 10
243.46
 20
180.60885
 30
0.0
 11
243.46
 21
177.64685
 31
0.0
  0
LINE
  5
307
330
1D
100
AcDbEntity
  8
0
100
AcDbLine
 10
243.46
 20
184.52085
 30
0.0
 11
243.46
 21
189.04685
 31
0.0
  0
LINE
  5
308
330
1D
100
AcDbEntity
  8
0
100
AcDbLine
 10
243.46
 20
184.52085
 30
0.0
 11
243.46
 21
180.60885
 31
0.0
  0
LINE
  5
309
330
1D
100
AcDbEntity
  8
0
100
AcDbLine
 10
243.776
 20
175.30885
 30
0.0
 11
244.376
 21
174.85285
 31
0.0
  0
LINE
  5
30A
330
1D
100
AcDbEntity
  8
0
100
AcDbLine
 10
243.776
 20
175.30885
 30
0.0
 11
243.776
 21
175.69085
 31
0.0
  0
LINE
  5
30B
330
1D
100
AcDbEntity
  8
0
100
AcDbLine
 10
243.776
 20
175.30885
 30
0.0
 11
243.776
 21
175.99285
 31
0.0
  0
LINE
  5
30C
330
1D
100
AcDbEntity
  8
0
100
AcDbLine
 10
243.776
 20
175.99285
 30
0.0
 11
243.776
 21
175.30885
 31
0.0
  0
LINE
  5
30D
330
1D
100
AcDbEntity
  8
0
100
AcDbLine
 10
243.776
 20
175.99285
 30
0.0
 11
243.776
 21
177.81685
 31
0.0
  0
LINE
  5
30E
330
1D
100
AcDbEntity
  8
0
100
AcDbLine
 10
243.776
 20
177.81685
 30
0.0
 11
243.776
 21
175.99285
 31
0.0
  0
LINE
  5
30F
330
1D
100
AcDbEntity
  8
0
100
AcDbLine
 10
243.776
 20
177.81685
 30
0.0
 11
243.776
 21
180.78085
 31
0.0
  0
LINE
  5
310
330
1D
100
AcDbEntity
  8
0
100
AcDbLine
 10
243.776
 20
180.78085
 30
0.0
 11
243.776
 21
177.81685
 31
0.0
  0
LINE
  5
311
330
1D
100
AcDbEntity
  8
0
100
AcDbLine
 10
243.776
 20
180.78085
 30
0.0
 11
243.776
 21
184.65685
 31
0.0
  0
LINE
  5
312
330
1D
100
AcDbEntity
  8
0
100
AcDbLine
 10
243.776
 20
184.65685
 30
0.0
 11
243.776
 21
180.78085
 31
0.0
  0
LINE
  5
313
330
1D
100
AcDbEntity
  8
0
100
AcDbLine
 10
243.776
 20
184.65685
 30
0.0
 11
243.776
 21
189.06485
 31
0.0
  0
LINE
  5
314
330
1D
100
AcDbEntity
  8
0
100
AcDbLine
 10
243.776
 20
189.06485
 30
0.0
 11
243.776
 21
184.65685
 31
0.0
  0
LINE
  5
315
330
1D
100
AcDbEntity
  8
0
100
AcDbLine
 10
243.776
 20
189.06485
 30
0.0
 11
243.776
 21
193.85285
 31
0.0
  0
LINE
  5
316
330
1D
100
AcDbEntity
  8
0
100
AcDbLine
 10
243.776
 20
180.99985
 30
0.0
 11
243.776
 21
178.14985
 31
0.0
  0
LINE
  5
317
330
1D
100
AcDbEntity
  8
0
100
AcDbLine
 10
243.776
 20
176.36185
 30
0.0
 11
243.776
 21
175.69085
 31
0.0
  0
LINE
  5
318
330
1D
100
AcDbEntity
  8
0
100
AcDbLine
 10
243.776
 20
178.14985
 30
0.0
 11
243.776
 21
180.99985
 31
0.0
  0
LINE
  5
319
330
1D
100
AcDbEntity
  8
0
100
AcDbLine
 10
243.776
 20
175.69085
 30
0.0
 11
243.776
 21
176.36185
 31
0.0
  0
LINE
  5
31A
330
1D
100
AcDbEntity
  8
0
100
AcDbLine
 10
243.776
 20
175.69085
 30
0.0
 11
243.776
 21
175.30885
 31
0.0
  0
LINE
  5
31B
330
1D
100
AcDbEntity
  8
0
100
AcDbLine
 10
244.376
 20
175.53685
 30
0.0
 11
244.376
 21
174.85285
 31
0.0
  0
LINE
  5
31C
330
1D
100
AcDbEntity
  8
0
100
AcDbLine
 10
244.376
 20
175.53685
 30
0.0
 11
244.376
 21
177.36085
 31
0.0
  0
LINE
  5
31D
330
1D
100
AcDbEntity
  8
0
100
AcDbLine
 10
244.376
 20
177.36085
 30
0.0
 11
244.376
 21
175.53685
 31
0.0
  0
LINE
  5
31E
330
1D
100
AcDbEntity
  8
0
100
AcDbLine
 10
244.376
 20
177.36085
 30
0.0
 11
244.376
 21
180.40085
 31
0.0
  0
LINE
  5
31F
330
1D
100
AcDbEntity
  8
0
100
AcDbLine
 10
244.376
 20
180.40085
 30
0.0
 11
244.376
 21
177.36085
 31
0.0
  0
LINE
  5
320
330
1D
100
AcDbEntity
  8
0
100
AcDbLine
 10
244.376
 20
180.40085
 30
0.0
 11
244.376
 21
184.42885
 31
0.0
  0
LINE
  5
321
330
1D
100
AcDbEntity
  8
0
100
AcDbLine
 10
244.376
 20
184.42885
 30
0.0
 11
244.376
 21
180.40085
 31
0.0
  0
LINE
  5
322
330
1D
100
AcDbEntity
  8
0
100
AcDbLine
 10
244.376
 20
184.42885
 30
0.0
 11
244.376
 21
188.98885
 31
0.0
  0
LINE
  5
323
330
1D
100
AcDbEntity
  8
0
100
AcDbLine
 10
244.776
 20
175.52385
 30
0.0
 11
244.776
 21
174.85285
 31
0.0
  0
LINE
  5
324
330
1D
100
AcDbEntity
  8
0
100
AcDbLine
 10
244.776
 20
175.53685
 30
0.0
 11
244.776
 21
177.36085
 31
0.0
  0
LINE
  5
325
330
1D
100
AcDbEntity
  8
0
100
AcDbLine
 10
244.776
 20
180.44085
 30
0.0
 11
244.776
 21
177.42385
 31
0.0
  0
LINE
  5
326
330
1D
100
AcDbEntity
  8
0
100
AcDbLine
 10
244.776
 20
177.42385
 30
0.0
 11
244.776
 21
175.52385
 31
0.0
  0
LINE
  5
327
330
1D
100
AcDbEntity
  8
0
100
AcDbLine
 10
244.776
 20
184.40885
 30
0.0
 11
244.776
 21
180.44085
 31
0.0
  0
LINE
  5
328
330
1D
100
AcDbEntity
  8
0
100
AcDbLine
 10
244.776
 20
177.36085
 30
0.0
 11
244.776
 21
180.40085
 31
0.0
  0
LINE
  5
329
330
1D
100
AcDbEntity
  8
0
100
AcDbLine
 10
303.391
 20
177.64685
 30
0.0
 11
303.391
 21
180.60885
 31
0.0
  0
LINE
  5
32A
330
1D
100
AcDbEntity
  8
0
100
AcDbLine
 10
303.391
 20
177.64685
 30
0.0
 11
303.391
 21
175.80285
 31
0.0
  0
LINE
  5
32B
330
1D
100
AcDbEntity
  8
0
100
AcDbLine
 10
303.776
 20
178.14985
 30
0.0
 11
303.776
 21
180.99985
 31
0.0
  0
LINE
  5
32C
330
1D
100
AcDbEntity
  8
0
100
AcDbLine
 10
303.776
 20
178.14985
 30
0.0
 11
303.776
 21
176.36185
 31
0.0
  0
LINE
  5
32D
330
1D
100
AcDbEntity
  8
0
100
AcDbLine
 10
303.776
 20
176.36185
 30
0.0
 11
303.776
 21
178.14985
 31
0.0
  0
LINE
  5
32E
330
1D
100
AcDbEntity
  8
0
100
AcDbLine
 10
303.776
 20
176.36185
 30
0.0
 11
303.776
 21
175.69085
 31
0.0
  0
LINE
  5
32F
330
1D
100
AcDbEntity
  8
0
100
AcDbLine
 10
303.776
 20
175.69085
 30
0.0
 11
303.776
 21
176.36185
 31
0.0
  0
LINE
  5
330
330
1D
100
AcDbEntity
  8
0
100
AcDbLine
 10
303.391
 20
175.80285
 30
0.0
 11
303.391
 21
177.64685
 31
0.0
  0
LINE
  5
331
330
1D
100
AcDbEntity
  8
0
100
AcDbLine
 10
303.391
 20
175.80285
 30
0.0
 11
303.391
 21
175.13185
 31
0.0
  0
LINE
  5
332
330
1D
100
AcDbEntity
  8
0
100
AcDbLine
 10
303.776
 20
180.99985
 30
0.0
 11
303.776
 21
184.79985
 31
0.0
  0
LINE
  5
333
330
1D
100
AcDbEntity
  8
0
100
AcDbLine
 10
303.776
 20
180.99985
 30
0.0
 11
303.776
 21
178.14985
 31
0.0
  0
LINE
  5
334
330
1D
100
AcDbEntity
  8
0
100
AcDbLine
 10
303.391
 20
180.60885
 30
0.0
 11
303.391
 21
184.52085
 31
0.0
  0
LINE
  5
335
330
1D
100
AcDbEntity
  8
0
100
AcDbLine
 10
303.391
 20
180.60885
 30
0.0
 11
303.391
 21
177.64685
 31
0.0
  0
LINE
  5
336
330
1D
100
AcDbEntity
  8
0
100
AcDbLine
 10
244.776
 20
180.40085
 30
0.0
 11
244.776
 21
184.42885
 31
0.0
  0
LINE
  5
337
330
1D
100
AcDbEntity
  8
0
100
AcDbLine
 10
303.776
 20
184.79985
 30
0.0
 11
303.776
 21
189.15885
 31
0.0
  0
LINE
  5
338
330
1D
100
AcDbEntity
  8
0
100
AcDbLine
 10
303.776
 20
184.79985
 30
0.0
 11
303.776
 21
180.99985
 31
0.0
  0
LINE
  5
339
330
1D
100
AcDbEntity
  8
0
100
AcDbLine
 10
303.391
 20
184.52085
 30
0.0
 11
303.391
 21
189.04685
 31
0.0
  0
LINE
  5
33A
330
1D
100
AcDbEntity
  8
0
100
AcDbLine
 10
303.391
 20
184.52085
 30
0.0
 11
303.391
 21
180.60885
 31
0.0
  0
LINE
  5
33B
330
1D
100
AcDbEntity
  8
0
100
AcDbLine
 10
244.776
 20
184.42885
 30
0.0
 11
244.776
 21
188.98885
 31
0.0
  0
LINE
  5
33C
330
1D
100
AcDbEntity
  8
0
100
AcDbLine
 10
244.376
 20
188.98885
 30
0.0
 11
244.376
 21
184.42885
 31
0.0
  0
LINE
  5
33D
330
1D
100
AcDbEntity
  8
0
100
AcDbLine
 10
244.376
 20
188.98885
 30
0.0
 11
244.376
 21
193.85285
 31
0.0
  0
LINE
  5
33E
330
1D
100
AcDbEntity
  8
0
100
AcDbLine
 10
303.776
 20
189.15885
 30
0.0
 11
303.776
 21
193.85285
 31
0.0
  0
LINE
  5
33F
330
1D
100
AcDbEntity
  8
0
100
AcDbLine
 10
303.776
 20
189.15885
 30
0.0
 11
303.776
 21
184.79985
 31
0.0
  0
LINE
  5
340
330
1D
100
AcDbEntity
  8
0
100
AcDbLine
 10
303.391
 20
189.04685
 30
0.0
 11
303.391
 21
193.85285
 31
0.0
  0
LINE
  5
341
330
1D
100
AcDbEntity
  8
0
100
AcDbLine
 10
303.391
 20
189.04685
 30
0.0
 11
303.391
 21
184.52085
 31
0.0
  0
LINE
  5
342
330
1D
100
AcDbEntity
  8
0
100
AcDbLine
 10
244.776
 20
188.99085
 30
0.0
 11
244.776
 21
184.40885
 31
0.0
  0
LINE
  5
343
330
1D
100
AcDbEntity
  8
0
100
AcDbLine
 10
244.776
 20
188.98885
 30
0.0
 11
244.776
 21
193.85285
 31
0.0
  0
LINE
  5
344
330
1D
100
AcDbEntity
  8
0
100
AcDbLine
 10
243.776
 20
184.79985
 30
0.0
 11
243.776
 21
189.15885
 31
0.0
  0
LINE
  5
345
330
1D
100
AcDbEntity
  8
0
100
AcDbLine
 10
243.776
 20
189.15885
 30
0.0
 11
243.776
 21
193.85285
 31
0.0
  0
LINE
  5
346
330
1D
100
AcDbEntity
  8
0
100
AcDbLine
 10
243.776
 20
189.15885
 30
0.0
 11
243.776
 21
184.79985
 31
0.0
  0
LINE
  5
347
330
1D
100
AcDbEntity
  8
0
100
AcDbLine
 10
243.46
 20
189.04685
 30
0.0
 11
243.46
 21
193.85285
 31
0.0
  0
LINE
  5
348
330
1D
100
AcDbEntity
  8
0
100
AcDbLine
 10
243.46
 20
189.04685
 30
0.0
 11
243.46
 21
184.52085
 31
0.0
  0
LINE
  5
349
330
1D
100
AcDbEntity
  8
0
100
AcDbLine
 10
243.46
 20
175.13185
 30
0.0
 11
243.776
 21
175.69085
 31
0.0
  0
LINE
  5
34A
330
1D
100
AcDbEntity
  8
0
100
AcDbLine
 10
243.46
 20
175.13185
 30
0.0
 11
243.46
 21
175.80285
 31
0.0
  0
LINE
  5
34B
330
1D
100
AcDbEntity
  8
0
100
AcDbLine
 10
242.829
 20
174.85285
 30
0.0
 11
243.46
 21
175.13185
 31
0.0
  0
LINE
  5
34C
330
1D
100
AcDbEntity
  8
0
100
AcDbLine
 10
339.224
 20
170.93385
 30
0.0
 11
339.224
 21
189.11985
 31
0.0
  0
LINE
  5
34D
330
1D
100
AcDbEntity
  8
0
100
AcDbLine
 10
339.224
 20
170.93385
 30
0.0
 11
339.811
 21
167.23985
 31
0.0
  0
LINE
  5
34E
330
1D
100
AcDbEntity
  8
0
100
AcDbLine
 10
343.673
 20
159.93785
 30
0.0
 11
346.946
 21
156.62185
 31
0.0
  0
LINE
  5
34F
330
1D
100
AcDbEntity
  8
0
100
AcDbLine
 10
341.322
 20
163.50485
 30
0.0
 11
343.673
 21
159.93785
 31
0.0
  0
LINE
  5
350
330
1D
100
AcDbEntity
  8
0
100
AcDbLine
 10
339.811
 20
167.23985
 30
0.0
 11
341.322
 21
163.50485
 31
0.0
  0
LINE
  5
351
330
1D
100
AcDbEntity
  8
0
100
AcDbLine
 10
343.673
 20
178.12385
 30
0.0
 11
346.946
 21
174.80785
 31
0.0
  0
LINE
  5
352
330
1D
100
AcDbEntity
  8
0
100
AcDbLine
 10
347.618
 20
155.96485
 30
0.0
 11
351.815
 21
152.85985
 31
0.0
  0
LINE
  5
353
330
1D
100
AcDbEntity
  8
0
100
AcDbLine
 10
351.144
 20
153.47285
 30
0.0
 11
356.096
 21
150.61885
 31
0.0
  0
LINE
  5
354
330
1D
100
AcDbEntity
  8
0
100
AcDbLine
 10
346.946
 20
156.62185
 30
0.0
 11
351.144
 21
153.47285
 31
0.0
  0
LINE
  5
355
330
1D
100
AcDbEntity
  8
0
100
AcDbLine
 10
346.946
 20
156.62185
 30
0.0
 11
347.618
 21
155.96485
 31
0.0
  0
LINE
  5
356
330
1D
100
AcDbEntity
  8
0
100
AcDbLine
 10
351.815
 20
152.85985
 30
0.0
 11
356.684
 21
150.04785
 31
0.0
  0
LINE
  5
357
330
1D
100
AcDbEntity
  8
0
100
AcDbLine
 10
351.144
 20
171.65985
 30
0.0
 11
356.096
 21
168.80585
 31
0.0
  0
LINE
  5
358
330
1D
100
AcDbEntity
  8
0
100
AcDbLine
 10
346.946
 20
174.80785
 30
0.0
 11
351.144
 21
171.65985
 31
0.0
  0
LINE
  5
359
330
1D
100
AcDbEntity
  8
0
100
AcDbLine
 10
375.067
 20
143.96085
 30
0.0
 11
382.454
 21
142.74485
 31
0.0
  0
LINE
  5
35A
330
1D
100
AcDbEntity
  8
0
100
AcDbLine
 10
362.308
 20
147.61285
 30
0.0
 11
368.52
 21
145.51385
 31
0.0
  0
LINE
  5
35B
330
1D
100
AcDbEntity
  8
0
100
AcDbLine
 10
356.684
 20
150.04785
 30
0.0
 11
362.308
 21
147.61285
 31
0.0
  0
LINE
  5
35C
330
1D
100
AcDbEntity
  8
0
100
AcDbLine
 10
356.096
 20
150.61885
 30
0.0
 11
361.804
 21
148.14285
 31
0.0
  0
LINE
  5
35D
330
1D
100
AcDbEntity
  8
0
100
AcDbLine
 10
361.804
 20
148.14285
 30
0.0
 11
368.1
 21
146.04385
 31
0.0
  0
LINE
  5
35E
330
1D
100
AcDbEntity
  8
0
100
AcDbLine
 10
368.52
 20
145.51385
 30
0.0
 11
375.067
 21
143.96085
 31
0.0
  0
LINE
  5
35F
330
1D
100
AcDbEntity
  8
0
100
AcDbLine
 10
368.1
 20
146.04385
 30
0.0
 11
374.731
 21
144.40785
 31
0.0
  0
LINE
  5
360
330
1D
100
AcDbEntity
  8
0
100
AcDbLine
 10
374.731
 20
144.40785
 30
0.0
 11
381.866
 21
143.23285
 31
0.0
  0
LINE
  5
361
330
1D
100
AcDbEntity
  8
0
100
AcDbLine
 10
381.866
 20
143.23285
 30
0.0
 11
389.337
 21
142.47685
 31
0.0
  0
LINE
  5
362
330
1D
100
AcDbEntity
  8
0
100
AcDbLine
 10
374.731
 20
162.59385
 30
0.0
 11
381.866
 21
161.41985
 31
0.0
  0
LINE
  5
363
330
1D
100
AcDbEntity
  8
0
100
AcDbLine
 10
382.454
 20
142.74485
 30
0.0
 11
389.421
 21
142.03085
 31
0.0
  0
LINE
  5
364
330
1D
100
AcDbEntity
  8
0
100
AcDbLine
 10
381.866
 20
161.41985
 30
0.0
 11
389.337
 21
160.66285
 31
0.0
  0
LINE
  5
365
330
1D
100
AcDbEntity
  8
0
100
AcDbLine
 10
368.1
 20
164.23085
 30
0.0
 11
374.731
 21
162.59385
 31
0.0
  0
LINE
  5
366
330
1D
100
AcDbEntity
  8
0
100
AcDbLine
 10
356.096
 20
168.80585
 30
0.0
 11
361.804
 21
166.32985
 31
0.0
  0
LINE
  5
367
330
1D
100
AcDbEntity
  8
0
100
AcDbLine
 10
361.804
 20
166.32985
 30
0.0
 11
368.1
 21
164.23085
 31
0.0
  0
LINE
  5
368
330
1D
100
AcDbEntity
  8
0
100
AcDbLine
 10
356.684
 20
169.96585
 30
0.0
 11
362.308
 21
167.53185
 31
0.0
  0
LINE
  5
369
330
1D
100
AcDbEntity
  8
0
100
AcDbLine
 10
362.308
 20
167.53185
 30
0.0
 11
368.52
 21
165.43285
 31
0.0
  0
LINE
  5
36A
330
1D
100
AcDbEntity
  8
0
100
AcDbLine
 10
368.52
 20
165.43285
 30
0.0
 11
375.067
 21
163.87985
 31
0.0
  0
LINE
  5
36B
330
1D
100
AcDbEntity
  8
0
100
AcDbLine
 10
375.067
 20
163.87985
 30
0.0
 11
382.454
 21
162.66285
 31
0.0
  0
LINE
  5
36C
330
1D
100
AcDbEntity
  8
0
100
AcDbLine
 10
382.454
 20
162.66285
 30
0.0
 11
389.421
 21
161.94985
 31
0.0
  0
LINE
  5
36D
330
1D
100
AcDbEntity
  8
0
100
AcDbLine
 10
351.815
 20
172.77785
 30
0.0
 11
356.684
 21
169.96585
 31
0.0
  0
LINE
  5
36E
330
1D
100
AcDbEntity
  8
0
100
AcDbLine
 10
347.618
 20
175.88385
 30
0.0
 11
351.815
 21
172.77785
 31
0.0
  0
LINE
  5
36F
330
1D
100
AcDbEntity
  8
0
100
AcDbLine
 10
344.512
 20
179.15785
 30
0.0
 11
347.618
 21
175.88385
 31
0.0
  0
LINE
  5
370
330
1D
100
AcDbEntity
  8
0
100
AcDbLine
 10
339.811
 20
185.42685
 30
0.0
 11
341.322
 21
181.69085
 31
0.0
  0
LINE
  5
371
330
1D
100
AcDbEntity
  8
0
100
AcDbLine
 10
341.322
 20
181.69085
 30
0.0
 11
343.673
 21
178.12385
 31
0.0
  0
LINE
  5
372
330
1D
100
AcDbEntity
  8
0
100
AcDbLine
 10
342.078
 20
182.85085
 30
0.0
 11
344.512
 21
179.15785
 31
0.0
  0
LINE
  5
373
330
1D
100
AcDbEntity
  8
0
100
AcDbLine
 10
340.651
 20
186.33485
 30
0.0
 11
342.078
 21
182.85085
 31
0.0
  0
LINE
  5
374
330
1D
100
AcDbEntity
  8
0
100
AcDbLine
 10
339.224
 20
189.11985
 30
0.0
 11
339.811
 21
192.81385
 31
0.0
  0
LINE
  5
375
330
1D
100
AcDbEntity
  8
0
100
AcDbLine
 10
339.224
 20
189.11985
 30
0.0
 11
339.811
 21
185.42685
 31
0.0
  0
LINE
  5
376
330
1D
100
AcDbEntity
  8
0
100
AcDbLine
 10
339.224
 20
189.11985
 30
0.0
 11
339.224
 21
170.93385
 31
0.0
  0
LINE
  5
377
330
1D
100
AcDbEntity
  8
0
100
AcDbLine
 10
303.776
 20
193.85285
 30
0.0
 11
303.776
 21
198.54685
 31
0.0
  0
LINE
  5
378
330
1D
100
AcDbEntity
  8
0
100
AcDbLine
 10
303.776
 20
193.85285
 30
0.0
 11
303.776
 21
189.15885
 31
0.0
  0
LINE
  5
379
330
1D
100
AcDbEntity
  8
0
100
AcDbLine
 10
303.391
 20
193.85285
 30
0.0
 11
303.391
 21
198.65885
 31
0.0
  0
LINE
  5
37A
330
1D
100
AcDbEntity
  8
0
100
AcDbLine
 10
303.391
 20
193.85285
 30
0.0
 11
303.391
 21
189.04685
 31
0.0
  0
LINE
  5
37B
330
1D
100
AcDbEntity
  8
0
100
AcDbLine
 10
244.776
 20
193.85285
 30
0.0
 11
244.776
 21
198.71685
 31
0.0
  0
LINE
  5
37C
330
1D
100
AcDbEntity
  8
0
100
AcDbLine
 10
244.776
 20
193.85285
 30
0.0
 11
244.776
 21
188.99085
 31
0.0
  0
LINE
  5
37D
330
1D
100
AcDbEntity
  8
0
100
AcDbLine
 10
244.376
 20
193.85285
 30
0.0
 11
244.376
 21
188.98885
 31
0.0
  0
LINE
  5
37E
330
1D
100
AcDbEntity
  8
0
100
AcDbLine
 10
244.376
 20
193.85285
 30
0.0
 11
244.376
 21
198.71685
 31
0.0
  0
LINE
  5
37F
330
1D
100
AcDbEntity
  8
0
100
AcDbLine
 10
243.776
 20
193.85285
 30
0.0
 11
243.776
 21
189.15885
 31
0.0
  0
LINE
  5
380
330
1D
100
AcDbEntity
  8
0
100
AcDbLine
 10
243.776
 20
193.85285
 30
0.0
 11
243.776
 21
198.54685
 31
0.0
  0
LINE
  5
381
330
1D
100
AcDbEntity
  8
0
100
AcDbLine
 10
243.776
 20
193.85285
 30
0.0
 11
243.776
 21
189.06485
 31
0.0
  0
LINE
  5
382
330
1D
100
AcDbEntity
  8
0
100
AcDbLine
 10
243.776
 20
193.85285
 30
0.0
 11
243.776
 21
198.64085
 31
0.0
  0
LINE
  5
383
330
1D
100
AcDbEntity
  8
0
100
AcDbLine
 10
243.46
 20
193.85285
 30
0.0
 11
243.46
 21
189.04685
 31
0.0
  0
LINE
  5
384
330
1D
100
AcDbEntity
  8
0
100
AcDbLine
 10
243.46
 20
193.85285
 30
0.0
 11
243.46
 21
198.65885
 31
0.0
  0
LINE
  5
385
330
1D
100
AcDbEntity
  8
0
100
AcDbLine
 10
339.811
 20
192.81385
 30
0.0
 11
341.322
 21
196.54885
 31
0.0
  0
LINE
  5
386
330
1D
100
AcDbEntity
  8
0
100
AcDbLine
 10
341.322
 20
196.54885
 30
0.0
 11
343.673
 21
200.11585
 31
0.0
  0
LINE
  5
387
330
1D
100
AcDbEntity
  8
0
100
AcDbLine
 10
342.078
 20
197.12085
 30
0.0
 11
344.512
 21
200.81385
 31
0.0
  0
LINE
  5
388
330
1D
100
AcDbEntity
  8
0
100
AcDbLine
 10
340.651
 20
193.63785
 30
0.0
 11
342.078
 21
197.12085
 31
0.0
  0
LINE
  5
389
330
1D
100
AcDbEntity
  8
0
100
AcDbLine
 10
340.063
 20
189.98585
 30
0.0
 11
340.651
 21
193.63785
 31
0.0
  0
LINE
  5
38A
330
1D
100
AcDbEntity
  8
0
100
AcDbLine
 10
340.063
 20
189.98585
 30
0.0
 11
340.651
 21
186.33485
 31
0.0
  0
LINE
  5
38B
330
1D
100
AcDbEntity
  8
0
100
AcDbLine
 10
389.337
 20
142.47685
 30
0.0
 11
396.724
 21
142.18285
 31
0.0
  0
LINE
  5
38C
330
1D
100
AcDbEntity
  8
0
100
AcDbLine
 10
389.421
 20
142.03085
 30
0.0
 11
396.724
 21
141.73685
 31
0.0
  0
LINE
  5
38D
330
1D
100
AcDbEntity
  8
0
100
AcDbLine
 10
389.337
 20
160.66285
 30
0.0
 11
396.724
 21
160.36985
 31
0.0
  0
LINE
  5
38E
330
1D
100
AcDbEntity
  8
0
100
AcDbLine
 10
389.421
 20
161.94985
 30
0.0
 11
396.724
 21
161.65485
 31
0.0
  0
LINE
  5
38F
330
1D
100
AcDbEntity
  8
0
100
AcDbLine
 10
303.776
 20
198.54685
 30
0.0
 11
303.776
 21
202.90585
 31
0.0
  0
LINE
  5
390
330
1D
100
AcDbEntity
  8
0
100
AcDbLine
 10
303.776
 20
198.54685
 30
0.0
 11
303.776
 21
193.85285
 31
0.0
  0
LINE
  5
391
330
1D
100
AcDbEntity
  8
0
100
AcDbLine
 10
243.776
 20
198.64085
 30
0.0
 11
243.776
 21
193.85285
 31
0.0
  0
LINE
  5
392
330
1D
100
AcDbEntity
  8
0
100
AcDbLine
 10
243.776
 20
198.64085
 30
0.0
 11
243.776
 21
203.04885
 31
0.0
  0
LINE
  5
393
330
1D
100
AcDbEntity
  8
0
100
AcDbLine
 10
303.391
 20
198.65885
 30
0.0
 11
303.391
 21
203.18485
 31
0.0
  0
LINE
  5
394
330
1D
100
AcDbEntity
  8
0
100
AcDbLine
 10
303.391
 20
198.65885
 30
0.0
 11
303.391
 21
193.85285
 31
0.0
  0
LINE
  5
395
330
1D
100
AcDbEntity
  8
0
100
AcDbLine
 10
244.776
 20
198.71485
 30
0.0
 11
244.776
 21
193.85285
 31
0.0
  0
LINE
  5
396
330
1D
100
AcDbEntity
  8
0
100
AcDbLine
 10
244.776
 20
198.71685
 30
0.0
 11
244.776
 21
203.27685
 31
0.0
  0
LINE
  5
397
330
1D
100
AcDbEntity
  8
0
100
AcDbLine
 10
244.376
 20
198.71685
 30
0.0
 11
244.376
 21
193.85285
 31
0.0
  0
LINE
  5
398
330
1D
100
AcDbEntity
  8
0
100
AcDbLine
 10
244.376
 20
198.71685
 30
0.0
 11
244.376
 21
203.27685
 31
0.0
  0
LINE
  5
399
330
1D
100
AcDbEntity
  8
0
100
AcDbLine
 10
243.776
 20
198.54685
 30
0.0
 11
243.776
 21
202.90585
 31
0.0
  0
LINE
  5
39A
330
1D
100
AcDbEntity
  8
0
100
AcDbLine
 10
243.776
 20
198.54685
 30
0.0
 11
243.776
 21
193.85285
 31
0.0
  0
LINE
  5
39B
330
1D
100
AcDbEntity
  8
0
100
AcDbLine
 10
243.46
 20
198.65885
 30
0.0
 11
243.46
 21
203.18485
 31
0.0
  0
LINE
  5
39C
330
1D
100
AcDbEntity
  8
0
100
AcDbLine
 10
243.46
 20
198.65885
 30
0.0
 11
243.46
 21
193.85285
 31
0.0
  0
LINE
  5
39D
330
1D
100
AcDbEntity
  8
0
100
AcDbLine
 10
303.776
 20
202.90585
 30
0.0
 11
303.776
 21
206.70585
 31
0.0
  0
LINE
  5
39E
330
1D
100
AcDbEntity
  8
0
100
AcDbLine
 10
303.776
 20
202.90585
 30
0.0
 11
303.776
 21
198.54685
 31
0.0
  0
LINE
  5
39F
330
1D
100
AcDbEntity
  8
0
100
AcDbLine
 10
243.776
 20
203.04885
 30
0.0
 11
243.776
 21
198.64085
 31
0.0
  0
LINE
  5
3A0
330
1D
100
AcDbEntity
  8
0
100
AcDbLine
 10
243.776
 20
203.04885
 30
0.0
 11
243.776
 21
206.92485
 31
0.0
  0
LINE
  5
3A1
330
1D
100
AcDbEntity
  8
0
100
AcDbLine
 10
303.391
 20
203.18485
 30
0.0
 11
303.391
 21
207.09685
 31
0.0
  0
LINE
  5
3A2
330
1D
100
AcDbEntity
  8
0
100
AcDbLine
 10
303.391
 20
203.18485
 30
0.0
 11
303.391
 21
198.65885
 31
0.0
  0
LINE
  5
3A3
330
1D
100
AcDbEntity
  8
0
100
AcDbLine
 10
244.776
 20
203.29685
 30
0.0
 11
244.776
 21
198.71485
 31
0.0
  0
LINE
  5
3A4
330
1D
100
AcDbEntity
  8
0
100
AcDbLine
 10
244.776
 20
203.27685
 30
0.0
 11
244.776
 21
207.30485
 31
0.0
  0
LINE
  5
3A5
330
1D
100
AcDbEntity
  8
0
100
AcDbLine
 10
244.376
 20
203.27685
 30
0.0
 11
244.376
 21
198.71685
 31
0.0
  0
LINE
  5
3A6
330
1D
100
AcDbEntity
  8
0
100
AcDbLine
 10
244.376
 20
203.27685
 30
0.0
 11
244.376
 21
207.30485
 31
0.0
  0
LINE
  5
3A7
330
1D
100
AcDbEntity
  8
0
100
AcDbLine
 10
243.776
 20
202.90585
 30
0.0
 11
243.776
 21
206.70585
 31
0.0
  0
LINE
  5
3A8
330
1D
100
AcDbEntity
  8
0
100
AcDbLine
 10
243.776
 20
202.90585
 30
0.0
 11
243.776
 21
198.54685
 31
0.0
  0
LINE
  5
3A9
330
1D
100
AcDbEntity
  8
0
100
AcDbLine
 10
243.46
 20
203.18485
 30
0.0
 11
243.46
 21
207.09685
 31
0.0
  0
LINE
  5
3AA
330
1D
100
AcDbEntity
  8
0
100
AcDbLine
 10
243.46
 20
203.18485
 30
0.0
 11
243.46
 21
198.65885
 31
0.0
  0
LINE
  5
3AB
330
1D
100
AcDbEntity
  8
0
100
AcDbLine
 10
343.673
 20
200.11585
 30
0.0
 11
346.946
 21
203.43185
 31
0.0
  0
LINE
  5
3AC
330
1D
100
AcDbEntity
  8
0
100
AcDbLine
 10
346.946
 20
203.43185
 30
0.0
 11
347.618
 21
204.08885
 31
0.0
  0
LINE
  5
3AD
330
1D
100
AcDbEntity
  8
0
100
AcDbLine
 10
346.946
 20
203.43185
 30
0.0
 11
347.115323491058
 21
203.558822451131
 31
0.0
  0
LINE
  5
3AE
330
1D
100
AcDbEntity
  8
0
100
AcDbLine
 10
347.618
 20
204.08885
 30
0.0
 11
351.815
 21
207.19385
 31
0.0
  0
LINE
  5
3AF
330
1D
100
AcDbEntity
  8
0
100
AcDbLine
 10
344.512
 20
200.81385
 30
0.0
 11
347.618
 21
204.08885
 31
0.0
  0
LINE
  5
3B0
330
1D
100
AcDbEntity
  8
0
100
AcDbLine
 10
396.724
 20
141.73685
 30
0.0
 11
404.027
 21
142.03085
 31
0.0
  0
LINE
  5
3B1
330
1D
100
AcDbEntity
  8
0
100
AcDbLine
 10
396.724
 20
142.18285
 30
0.0
 11
404.111
 21
142.47685
 31
0.0
  0
LINE
  5
3B2
330
1D
100
AcDbEntity
  8
0
100
AcDbLine
 10
404.027
 20
142.03085
 30
0.0
 11
410.994
 21
142.74485
 31
0.0
  0
LINE
  5
3B3
330
1D
100
AcDbEntity
  8
0
100
AcDbLine
 10
404.111
 20
142.47685
 30
0.0
 11
411.582
 21
143.23285
 31
0.0
  0
LINE
  5
3B4
330
1D
100
AcDbEntity
  8
0
100
AcDbLine
 10
404.111
 20
160.66285
 30
0.0
 11
411.582
 21
161.41985
 31
0.0
  0
LINE
  5
3B5
330
1D
100
AcDbEntity
  8
0
100
AcDbLine
 10
396.724
 20
160.36985
 30
0.0
 11
404.111
 21
160.66285
 31
0.0
  0
LINE
  5
3B6
330
1D
100
AcDbEntity
  8
0
100
AcDbLine
 10
404.027
 20
161.94985
 30
0.0
 11
410.994
 21
162.66285
 31
0.0
  0
LINE
  5
3B7
330
1D
100
AcDbEntity
  8
0
100
AcDbLine
 10
396.724
 20
161.65485
 30
0.0
 11
404.027
 21
161.94985
 31
0.0
  0
LINE
  5
3B8
330
1D
100
AcDbEntity
  8
0
100
AcDbLine
 10
243.46
 20
210.05885
 30
0.0
 11
243.46
 21
211.90285
 31
0.0
  0
LINE
  5
3B9
330
1D
100
AcDbEntity
  8
0
100
AcDbLine
 10
243.46
 20
210.05885
 30
0.0
 11
243.46
 21
207.09685
 31
0.0
  0
LINE
  5
3BA
330
1D
100
AcDbEntity
  8
0
100
AcDbLine
 10
243.46
 20
211.90285
 30
0.0
 11
243.46
 21
212.57385
 31
0.0
  0
LINE
  5
3BB
330
1D
100
AcDbEntity
  8
0
100
AcDbLine
 10
243.46
 20
211.90285
 30
0.0
 11
243.46
 21
210.05885
 31
0.0
  0
LINE
  5
3BC
330
1D
100
AcDbEntity
  8
0
100
AcDbLine
 10
243.46
 20
207.09685
 30
0.0
 11
243.46
 21
203.18485
 31
0.0
  0
LINE
  5
3BD
330
1D
100
AcDbEntity
  8
0
100
AcDbLine
 10
243.46
 20
207.09685
 30
0.0
 11
243.46
 21
210.05885
 31
0.0
  0
LINE
  5
3BE
330
1D
100
AcDbEntity
  8
0
100
AcDbLine
 10
303.776
 20
206.70585
 30
0.0
 11
303.776
 21
202.90585
 31
0.0
  0
LINE
  5
3BF
330
1D
100
AcDbEntity
  8
0
100
AcDbLine
 10
303.776
 20
206.70585
 30
0.0
 11
303.776
 21
211.34385
 31
0.0
  0
LINE
  5
3C0
330
1D
100
AcDbEntity
  8
0
100
AcDbLine
 10
243.776
 20
211.71285
 30
0.0
 11
243.776
 21
209.88885
 31
0.0
  0
LINE
  5
3C1
330
1D
100
AcDbEntity
  8
0
100
AcDbLine
 10
243.776
 20
211.71285
 30
0.0
 11
243.776
 21
212.39685
 31
0.0
  0
LINE
  5
3C2
330
1D
100
AcDbEntity
  8
0
100
AcDbLine
 10
243.776
 20
209.88885
 30
0.0
 11
243.776
 21
206.92485
 31
0.0
  0
LINE
  5
3C3
330
1D
100
AcDbEntity
  8
0
100
AcDbLine
 10
243.776
 20
209.88885
 30
0.0
 11
243.776
 21
211.71285
 31
0.0
  0
LINE
  5
3C4
330
1D
100
AcDbEntity
  8
0
100
AcDbLine
 10
243.776
 20
206.92485
 30
0.0
 11
243.776
 21
203.04885
 31
0.0
  0
LINE
  5
3C5
330
1D
100
AcDbEntity
  8
0
100
AcDbLine
 10
243.776
 20
206.92485
 30
0.0
 11
243.776
 21
209.88885
 31
0.0
  0
LINE
  5
3C6
330
1D
100
AcDbEntity
  8
0
100
AcDbLine
 10
243.776
 20
209.55585
 30
0.0
 11
243.776
 21
206.70585
 31
0.0
  0
LINE
  5
3C7
330
1D
100
AcDbEntity
  8
0
100
AcDbLine
 10
243.776
 20
212.39685
 30
0.0
 11
243.776
 21
211.71285
 31
0.0
  0
LINE
  5
3C8
330
1D
100
AcDbEntity
  8
0
100
AcDbLine
 10
243.776
 20
212.39685
 30
0.0
 11
244.376
 21
212.85285
 31
0.0
  0
LINE
  5
3C9
330
1D
100
AcDbEntity
  8
0
100
AcDbLine
 10
243.776
 20
212.39685
 30
0.0
 11
243.776
 21
212.01485
 31
0.0
  0
LINE
  5
3CA
330
1D
100
AcDbEntity
  8
0
100
AcDbLine
 10
243.776
 20
212.01485
 30
0.0
 11
243.776
 21
211.34385
 31
0.0
  0
LINE
  5
3CB
330
1D
100
AcDbEntity
  8
0
100
AcDbLine
 10
243.776
 20
212.01485
 30
0.0
 11
243.776
 21
212.39685
 31
0.0
  0
LINE
  5
3CC
330
1D
100
AcDbEntity
  8
0
100
AcDbLine
 10
244.776
 20
207.26485
 30
0.0
 11
244.776
 21
203.29685
 31
0.0
  0
LINE
  5
3CD
330
1D
100
AcDbEntity
  8
0
100
AcDbLine
 10
303.391
 20
207.09685
 30
0.0
 11
303.391
 21
203.18485
 31
0.0
  0
LINE
  5
3CE
330
1D
100
AcDbEntity
  8
0
100
AcDbLine
 10
303.391
 20
207.09685
 30
0.0
 11
303.391
 21
210.05885
 31
0.0
  0
LINE
  5
3CF
330
1D
100
AcDbEntity
  8
0
100
AcDbLine
 10
244.776
 20
207.30485
 30
0.0
 11
244.776
 21
210.34485
 31
0.0
  0
LINE
  5
3D0
330
1D
100
AcDbEntity
  8
0
100
AcDbLine
 10
244.376
 20
212.85285
 30
0.0
 11
244.376
 21
212.16885
 31
0.0
  0
LINE
  5
3D1
330
1D
100
AcDbEntity
  8
0
100
AcDbLine
 10
244.376
 20
212.85285
 30
0.0
 11
244.776
 21
212.85285
 31
0.0
  0
LINE
  5
3D2
330
1D
100
AcDbEntity
  8
0
100
AcDbLine
 10
244.376
 20
212.16885
 30
0.0
 11
244.376
 21
210.34485
 31
0.0
  0
LINE
  5
3D3
330
1D
100
AcDbEntity
  8
0
100
AcDbLine
 10
244.376
 20
212.16885
 30
0.0
 11
244.376
 21
212.85285
 31
0.0
  0
LINE
  5
3D4
330
1D
100
AcDbEntity
  8
0
100
AcDbLine
 10
303.776
 20
211.34385
 30
0.0
 11
303.776
 21
206.70585
 31
0.0
  0
LINE
  5
3D5
330
1D
100
AcDbEntity
  8
0
100
AcDbLine
 10
303.391
 20
210.05885
 30
0.0
 11
303.391
 21
211.90285
 31
0.0
  0
LINE
  5
3D6
330
1D
100
AcDbEntity
  8
0
100
AcDbLine
 10
303.391
 20
210.05885
 30
0.0
 11
303.391
 21
207.09685
 31
0.0
  0
LINE
  5
3D7
330
1D
100
AcDbEntity
  8
0
100
AcDbLine
 10
244.776
 20
210.28185
 30
0.0
 11
244.776
 21
207.26485
 31
0.0
  0
LINE
  5
3D8
330
1D
100
AcDbEntity
  8
0
100
AcDbLine
 10
244.776
 20
212.18185
 30
0.0
 11
244.776
 21
210.28185
 31
0.0
  0
LINE
  5
3D9
330
1D
100
AcDbEntity
  8
0
100
AcDbLine
 10
244.776
 20
212.85285
 30
0.0
 11
302.622
 21
212.85285
 31
0.0
  0
LINE
  5
3DA
330
1D
100
AcDbEntity
  8
0
100
AcDbLine
 10
244.776
 20
212.85285
 30
0.0
 11
244.776
 21
212.18185
 31
0.0
  0
LINE
  5
3DB
330
1D
100
AcDbEntity
  8
0
100
AcDbLine
 10
303.391
 20
211.90285
 30
0.0
 11
303.391
 21
212.57385
 31
0.0
  0
LINE
  5
3DC
330
1D
100
AcDbEntity
  8
0
100
AcDbLine
 10
303.391
 20
211.90285
 30
0.0
 11
303.391
 21
210.05885
 31
0.0
  0
LINE
  5
3DD
330
1D
100
AcDbEntity
  8
0
100
AcDbLine
 10
303.776
 20
212.01485
 30
0.0
 11
303.776
 21
211.34385
 31
0.0
  0
LINE
  5
3DE
330
1D
100
AcDbEntity
  8
0
100
AcDbLine
 10
303.776
 20
211.34385
 30
0.0
 11
303.776
 21
212.01485
 31
0.0
  0
LINE
  5
3DF
330
1D
100
AcDbEntity
  8
0
100
AcDbLine
 10
303.391
 20
212.57385
 30
0.0
 11
303.776
 21
212.01485
 31
0.0
  0
LINE
  5
3E0
330
1D
100
AcDbEntity
  8
0
100
AcDbLine
 10
303.391
 20
212.57385
 30
0.0
 11
303.391
 21
211.90285
 31
0.0
  0
LINE
  5
3E1
330
1D
100
AcDbEntity
  8
0
100
AcDbLine
 10
302.622
 20
212.85285
 30
0.0
 11
303.391
 21
212.57385
 31
0.0
  0
LINE
  5
3E2
330
1D
100
AcDbEntity
  8
0
100
AcDbLine
 10
244.776
 20
212.16885
 30
0.0
 11
244.776
 21
212.85285
 31
0.0
  0
LINE
  5
3E3
330
1D
100
AcDbEntity
  8
0
100
AcDbLine
 10
244.776
 20
210.34485
 30
0.0
 11
244.776
 21
212.16885
 31
0.0
  0
LINE
  5
3E4
330
1D
100
AcDbEntity
  8
0
100
AcDbLine
 10
244.376
 20
210.34485
 30
0.0
 11
244.376
 21
207.30485
 31
0.0
  0
LINE
  5
3E5
330
1D
100
AcDbEntity
  8
0
100
AcDbLine
 10
244.376
 20
210.34485
 30
0.0
 11
244.376
 21
212.16885
 31
0.0
  0
LINE
  5
3E6
330
1D
100
AcDbEntity
  8
0
100
AcDbLine
 10
244.376
 20
207.30485
 30
0.0
 11
244.376
 21
203.27685
 31
0.0
  0
LINE
  5
3E7
330
1D
100
AcDbEntity
  8
0
100
AcDbLine
 10
244.376
 20
207.30485
 30
0.0
 11
244.376
 21
210.34485
 31
0.0
  0
LINE
  5
3E8
330
1D
100
AcDbEntity
  8
0
100
AcDbLine
 10
243.776
 20
211.34385
 30
0.0
 11
243.776
 21
212.01485
 31
0.0
  0
LINE
  5
3E9
330
1D
100
AcDbEntity
  8
0
100
AcDbLine
 10
243.776
 20
206.70585
 30
0.0
 11
243.776
 21
202.90585
 31
0.0
  0
LINE
  5
3EA
330
1D
100
AcDbEntity
  8
0
100
AcDbLine
 10
243.776
 20
206.70585
 30
0.0
 11
243.776
 21
209.55585
 31
0.0
  0
LINE
  5
3EB
330
1D
100
AcDbEntity
  8
0
100
AcDbLine
 10
243.46
 20
212.57385
 30
0.0
 11
243.776
 21
212.01485
 31
0.0
  0
LINE
  5
3EC
330
1D
100
AcDbEntity
  8
0
100
AcDbLine
 10
243.46
 20
212.57385
 30
0.0
 11
243.46
 21
211.90285
 31
0.0
  0
LINE
  5
3ED
330
1D
100
AcDbEntity
  8
0
100
AcDbLine
 10
242.829
 20
212.85285
 30
0.0
 11
243.46
 21
212.57385
 31
0.0
  0
LINE
  5
3EE
330
1D
100
AcDbEntity
  8
0
100
AcDbLine
 10
351.815
 20
207.19385
 30
0.0
 11
356.684
 21
210.00585
 31
0.0
  0
LINE
  5
3EF
330
1D
100
AcDbEntity
  8
0
100
AcDbLine
 10
356.684
 20
210.00585
 30
0.0
 11
362.308
 21
212.44085
 31
0.0
  0
LINE
  5
3F0
330
1D
100
AcDbEntity
  8
0
100
AcDbLine
 10
362.308
 20
212.44085
 30
0.0
 11
368.52
 21
214.53885
 31
0.0
  0
LINE
  5
3F1
330
1D
100
AcDbEntity
  8
0
100
AcDbLine
 10
368.52
 20
214.53885
 30
0.0
 11
375.067
 21
216.09185
 31
0.0
  0
LINE
  5
3F2
330
1D
100
AcDbEntity
  8
0
100
AcDbLine
 10
348.87
 20
210.65285
 30
0.0
 11
362.373050644024
 21
212.462819776427
 31
0.0
  0
LINE
  5
3F3
330
1D
100
AcDbEntity
  8
0
100
AcDbLine
 10
330.007
 20
208.19685
 30
0.0
 11
348.87
 21
210.65285
 31
0.0
  0
LINE
  5
3F4
330
1D
100
AcDbEntity
  8
0
100
AcDbLine
 10
311.434
 20
205.89385
 30
0.0
 11
330.007
 21
208.19685
 31
0.0
  0
LINE
  5
3F5
330
1D
100
AcDbEntity
  8
0
100
AcDbLine
 10
303.776
 20
204.97185028218
 30
0.0
 11
311.434
 21
205.89385
 31
0.0
  0
LINE
  5
3F6
330
1D
100
AcDbEntity
  8
0
100
AcDbLine
 10
242.776
 20
214.043221682247
 30
0.0
 11
257.347
 21
215.64085
 31
0.0
  0
LINE
  5
3F7
330
1D
100
AcDbEntity
  8
0
100
AcDbLine
 10
375.067
 20
216.09185
 30
0.0
 11
382.454
 21
217.30885
 31
0.0
  0
LINE
  5
3F8
330
1D
100
AcDbEntity
  8
0
100
AcDbLine
 10
382.454
 20
217.30885
 30
0.0
 11
389.421
 21
218.02285
 31
0.0
  0
LINE
  5
3F9
330
1D
100
AcDbEntity
  8
0
100
AcDbLine
 10
384.724
 20
217.541486715947
 30
0.0
 11
384.724
 21
218.85085
 31
0.0
  0
LINE
  5
3FA
330
1D
100
AcDbEntity
  8
0
100
AcDbLine
 10
389.421
 20
218.02285
 30
0.0
 11
396.724
 21
218.31685
 31
0.0
  0
LINE
  5
3FB
330
1D
100
AcDbEntity
  8
0
100
AcDbLine
 10
387.53979345586
 20
217.830058056191
 30
0.0
 11
388.276
 21
218.75185
 31
0.0
  0
LINE
  5
3FC
330
1D
100
AcDbEntity
  8
0
100
AcDbLine
 10
384.724
 20
218.85085
 30
0.0
 11
385.108
 21
221.93185
 31
0.0
  0
LINE
  5
3FD
330
1D
100
AcDbEntity
  8
0
100
AcDbLine
 10
384.724
 20
218.85085
 30
0.0
 11
384.724
 21
217.541486715947
 31
0.0
  0
LINE
  5
3FE
330
1D
100
AcDbEntity
  8
0
100
AcDbLine
 10
388.276
 20
218.75185
 30
0.0
 11
390.772
 21
220.57685
 31
0.0
  0
LINE
  5
3FF
330
1D
100
AcDbEntity
  8
0
100
AcDbLine
 10
396.724
 20
218.31685
 30
0.0
 11
404.027
 21
218.02285
 31
0.0
  0
LINE
  5
400
330
1D
100
AcDbEntity
  8
0
100
AcDbLine
 10
394.516
 20
218.58585
 30
0.0
 11
396.724
 21
218.91785
 31
0.0
  0
LINE
  5
401
330
1D
100
AcDbEntity
  8
0
100
AcDbLine
 10
393.50002638122
 20
218.187061112704
 30
0.0
 11
394.516
 21
218.58585
 31
0.0
  0
LINE
  5
402
330
1D
100
AcDbEntity
  8
0
100
AcDbLine
 10
404.027
 20
218.02285
 30
0.0
 11
410.994
 21
217.30885
 31
0.0
  0
LINE
  5
403
330
1D
100
AcDbEntity
  8
0
100
AcDbLine
 10
408.724
 20
217.541486715947
 30
0.0
 11
408.724
 21
218.85085
 31
0.0
  0
LINE
  5
404
330
1D
100
AcDbEntity
  8
0
100
AcDbLine
 10
408.724
 20
218.85085
 30
0.0
 11
408.724
 21
217.541486715947
 31
0.0
  0
LINE
  5
405
330
1D
100
AcDbEntity
  8
0
100
AcDbLine
 10
405.172
 20
218.75185
 30
0.0
 11
405.90820654414
 21
217.830058056191
 31
0.0
  0
LINE
  5
406
330
1D
100
AcDbEntity
  8
0
100
AcDbLine
 10
398.932
 20
218.58585
 30
0.0
 11
399.94797361878
 21
218.187061112704
 31
0.0
  0
LINE
  5
407
330
1D
100
AcDbEntity
  8
0
100
AcDbLine
 10
396.724
 20
218.91785
 30
0.0
 11
398.932
 21
218.58585
 31
0.0
  0
LINE
  5
408
330
1D
100
AcDbEntity
  8
0
100
AcDbLine
 10
390.772
 20
220.57685
 30
0.0
 11
393.652
 21
221.65485
 31
0.0
  0
LINE
  5
409
330
1D
100
AcDbEntity
  8
0
100
AcDbLine
 10
402.676
 20
220.57685
 30
0.0
 11
405.172
 21
218.75185
 31
0.0
  0
LINE
  5
40A
330
1D
100
AcDbEntity
  8
0
100
AcDbLine
 10
288.367
 20
219.20785
 30
0.0
 11
309.631
 21
221.76685
 31
0.0
  0
LINE
  5
40B
330
1D
100
AcDbEntity
  8
0
100
AcDbLine
 10
272.866
 20
217.39485
 30
0.0
 11
288.367
 21
219.20785
 31
0.0
  0
LINE
  5
40C
330
1D
100
AcDbEntity
  8
0
100
AcDbLine
 10
257.347
 20
215.64085
 30
0.0
 11
272.866
 21
217.39485
 31
0.0
  0
LINE
  5
40D
330
1D
100
AcDbEntity
  8
0
100
AcDbLine
 10
410.994
 20
142.74485
 30
0.0
 11
418.381
 21
143.96085
 31
0.0
  0
LINE
  5
40E
330
1D
100
AcDbEntity
  8
0
100
AcDbLine
 10
411.582
 20
143.23285
 30
0.0
 11
418.717
 21
144.40785
 31
0.0
  0
LINE
  5
40F
330
1D
100
AcDbEntity
  8
0
100
AcDbLine
 10
418.381
 20
143.96085
 30
0.0
 11
424.928
 21
145.51385
 31
0.0
  0
LINE
  5
410
330
1D
100
AcDbEntity
  8
0
100
AcDbLine
 10
424.928
 20
145.51385
 30
0.0
 11
431.14
 21
147.61285
 31
0.0
  0
LINE
  5
411
330
1D
100
AcDbEntity
  8
0
100
AcDbLine
 10
431.14
 20
147.61285
 30
0.0
 11
436.764
 21
150.04785
 31
0.0
  0
LINE
  5
412
330
1D
100
AcDbEntity
  8
0
100
AcDbLine
 10
436.764
 20
150.04785
 30
0.0
 11
441.633
 21
152.85985
 31
0.0
  0
LINE
  5
413
330
1D
100
AcDbEntity
  8
0
100
AcDbLine
 10
441.633
 20
152.85985
 30
0.0
 11
445.83
 21
155.96485
 31
0.0
  0
LINE
  5
414
330
1D
100
AcDbEntity
  8
0
100
AcDbLine
 10
437.352
 20
150.61885
 30
0.0
 11
442.304
 21
153.47285
 31
0.0
  0
LINE
  5
415
330
1D
100
AcDbEntity
  8
0
100
AcDbLine
 10
445.83
 20
155.96485
 30
0.0
 11
446.501
 21
156.62185
 31
0.0
  0
LINE
  5
416
330
1D
100
AcDbEntity
  8
0
100
AcDbLine
 10
442.304
 20
153.47285
 30
0.0
 11
446.501
 21
156.62185
 31
0.0
  0
LINE
  5
417
330
1D
100
AcDbEntity
  8
0
100
AcDbLine
 10
446.501
 20
156.62185
 30
0.0
 11
449.775
 21
159.93785
 31
0.0
  0
LINE
  5
418
330
1D
100
AcDbEntity
  8
0
100
AcDbLine
 10
449.775
 20
159.93785
 30
0.0
 11
452.125
 21
163.50485
 31
0.0
  0
LINE
  5
419
330
1D
100
AcDbEntity
  8
0
100
AcDbLine
 10
431.644
 20
148.14285
 30
0.0
 11
437.352
 21
150.61885
 31
0.0
  0
LINE
  5
41A
330
1D
100
AcDbEntity
  8
0
100
AcDbLine
 10
425.348
 20
146.04385
 30
0.0
 11
431.644
 21
148.14285
 31
0.0
  0
LINE
  5
41B
330
1D
100
AcDbEntity
  8
0
100
AcDbLine
 10
418.717
 20
144.40785
 30
0.0
 11
425.348
 21
146.04385
 31
0.0
  0
LINE
  5
41C
330
1D
100
AcDbEntity
  8
0
100
AcDbLine
 10
418.717
 20
162.59385
 30
0.0
 11
425.348
 21
164.23085
 31
0.0
  0
LINE
  5
41D
330
1D
100
AcDbEntity
  8
0
100
AcDbLine
 10
411.582
 20
161.41985
 30
0.0
 11
418.717
 21
162.59385
 31
0.0
  0
LINE
  5
41E
330
1D
100
AcDbEntity
  8
0
100
AcDbLine
 10
418.381
 20
216.09185
 30
0.0
 11
424.928
 21
214.53885
 31
0.0
  0
LINE
  5
41F
330
1D
100
AcDbEntity
  8
0
100
AcDbLine
 10
410.994
 20
217.30885
 30
0.0
 11
418.381
 21
216.09185
 31
0.0
  0
LINE
  5
420
330
1D
100
AcDbEntity
  8
0
100
AcDbLine
 10
452.125
 20
163.50485
 30
0.0
 11
453.636
 21
167.23985
 31
0.0
  0
LINE
  5
421
330
1D
100
AcDbEntity
  8
0
100
AcDbLine
 10
425.348
 20
164.23085
 30
0.0
 11
431.644
 21
166.32985
 31
0.0
  0
LINE
  5
422
330
1D
100
AcDbEntity
  8
0
100
AcDbLine
 10
431.14
 20
212.44085
 30
0.0
 11
436.764
 21
210.00585
 31
0.0
  0
LINE
  5
423
330
1D
100
AcDbEntity
  8
0
100
AcDbLine
 10
424.928
 20
214.53885
 30
0.0
 11
431.14
 21
212.44085
 31
0.0
  0
LINE
  5
424
330
1D
100
AcDbEntity
  8
0
100
AcDbLine
 10
437.352
 20
168.80585
 30
0.0
 11
442.304
 21
171.65985
 31
0.0
  0
LINE
  5
425
330
1D
100
AcDbEntity
  8
0
100
AcDbLine
 10
436.764
 20
169.96585
 30
0.0
 11
441.633
 21
172.77785
 31
0.0
  0
LINE
  5
426
330
1D
100
AcDbEntity
  8
0
100
AcDbLine
 10
442.304
 20
171.65985
 30
0.0
 11
446.501
 21
174.80785
 31
0.0
  0
LINE
  5
427
330
1D
100
AcDbEntity
  8
0
100
AcDbLine
 10
446.501
 20
174.80785
 30
0.0
 11
449.775
 21
178.12385
 31
0.0
  0
LINE
  5
428
330
1D
100
AcDbEntity
  8
0
100
AcDbLine
 10
441.633
 20
172.77785
 30
0.0
 11
445.83
 21
175.88385
 31
0.0
  0
LINE
  5
429
330
1D
100
AcDbEntity
  8
0
100
AcDbLine
 10
445.83
 20
175.88385
 30
0.0
 11
448.936
 21
179.15785
 31
0.0
  0
LINE
  5
42A
330
1D
100
AcDbEntity
  8
0
100
AcDbLine
 10
449.775
 20
178.12385
 30
0.0
 11
452.125
 21
181.69085
 31
0.0
  0
LINE
  5
42B
330
1D
100
AcDbEntity
  8
0
100
AcDbLine
 10
452.125
 20
181.69085
 30
0.0
 11
453.636
 21
185.42685
 31
0.0
  0
LINE
  5
42C
330
1D
100
AcDbEntity
  8
0
100
AcDbLine
 10
448.936
 20
179.15785
 30
0.0
 11
451.37
 21
182.85085
 31
0.0
  0
LINE
  5
42D
330
1D
100
AcDbEntity
  8
0
100
AcDbLine
 10
452.125
 20
196.54885
 30
0.0
 11
453.636
 21
192.81385
 31
0.0
  0
LINE
  5
42E
330
1D
100
AcDbEntity
  8
0
100
AcDbLine
 10
446.335041560565
 20
203.556328715116
 30
0.0
 11
446.501
 21
203.43185
 31
0.0
  0
LINE
  5
42F
330
1D
100
AcDbEntity
  8
0
100
AcDbLine
 10
446.501
 20
203.43185
 30
0.0
 11
449.775
 21
200.11585
 31
0.0
  0
LINE
  5
430
330
1D
100
AcDbEntity
  8
0
100
AcDbLine
 10
436.764
 20
210.00585
 30
0.0
 11
441.633
 21
207.19385
 31
0.0
  0
LINE
  5
431
330
1D
100
AcDbEntity
  8
0
100
AcDbLine
 10
441.633
 20
207.19385
 30
0.0
 11
445.83
 21
204.08885
 31
0.0
  0
LINE
  5
432
330
1D
100
AcDbEntity
  8
0
100
AcDbLine
 10
445.83
 20
204.08885
 30
0.0
 11
448.936
 21
200.81385
 31
0.0
  0
LINE
  5
433
330
1D
100
AcDbEntity
  8
0
100
AcDbLine
 10
445.83
 20
204.08885
 30
0.0
 11
446.501
 21
203.43185
 31
0.0
  0
LINE
  5
434
330
1D
100
AcDbEntity
  8
0
100
AcDbLine
 10
449.775
 20
200.11585
 30
0.0
 11
452.125
 21
196.54885
 31
0.0
  0
LINE
  5
435
330
1D
100
AcDbEntity
  8
0
100
AcDbLine
 10
448.936
 20
200.81385
 30
0.0
 11
451.37
 21
197.12085
 31
0.0
  0
LINE
  5
436
330
1D
100
AcDbEntity
  8
0
100
AcDbLine
 10
451.37
 20
197.12085
 30
0.0
 11
452.797
 21
193.63785
 31
0.0
  0
LINE
  5
437
330
1D
100
AcDbEntity
  8
0
100
AcDbLine
 10
452.797
 20
193.63785
 30
0.0
 11
453.385
 21
189.98585
 31
0.0
  0
LINE
  5
438
330
1D
100
AcDbEntity
  8
0
100
AcDbLine
 10
451.37
 20
182.85085
 30
0.0
 11
452.797
 21
186.33485
 31
0.0
  0
LINE
  5
439
330
1D
100
AcDbEntity
  8
0
100
AcDbLine
 10
454.224
 20
170.93385
 30
0.0
 11
454.224
 21
189.11985
 31
0.0
  0
LINE
  5
43A
330
1D
100
AcDbEntity
  8
0
100
AcDbLine
 10
453.636
 20
167.23985
 30
0.0
 11
454.224
 21
170.93385
 31
0.0
  0
LINE
  5
43B
330
1D
100
AcDbEntity
  8
0
100
AcDbLine
 10
454.224
 20
189.11985
 30
0.0
 11
454.224
 21
170.93385
 31
0.0
  0
LINE
  5
43C
330
1D
100
AcDbEntity
  8
0
100
AcDbLine
 10
453.636
 20
192.81385
 30
0.0
 11
454.224
 21
189.11985
 31
0.0
  0
LINE
  5
43D
330
1D
100
AcDbEntity
  8
0
100
AcDbLine
 10
453.636
 20
185.42685
 30
0.0
 11
454.224
 21
189.11985
 31
0.0
  0
LINE
  5
43E
330
1D
100
AcDbEntity
  8
0
100
AcDbLine
 10
452.797
 20
186.33485
 30
0.0
 11
453.385
 21
189.98585
 31
0.0
  0
LINE
  5
43F
330
1D
100
AcDbEntity
  8
0
100
AcDbLine
 10
431.644
 20
166.32985
 30
0.0
 11
437.352
 21
168.80585
 31
0.0
  0
LINE
  5
440
330
1D
100
AcDbEntity
  8
0
100
AcDbLine
 10
431.14
 20
167.53185
 30
0.0
 11
436.764
 21
169.96585
 31
0.0
  0
LINE
  5
441
330
1D
100
AcDbEntity
  8
0
100
AcDbLine
 10
424.928
 20
165.43285
 30
0.0
 11
431.14
 21
167.53185
 31
0.0
  0
LINE
  5
442
330
1D
100
AcDbEntity
  8
0
100
AcDbLine
 10
418.381
 20
163.87985
 30
0.0
 11
424.928
 21
165.43285
 31
0.0
  0
LINE
  5
443
330
1D
100
AcDbEntity
  8
0
100
AcDbLine
 10
410.994
 20
162.66285
 30
0.0
 11
418.381
 21
163.87985
 31
0.0
  0
LINE
  5
444
330
1D
100
AcDbEntity
  8
0
100
AcDbLine
 10
410.333235886517
 20
217.376567177699
 30
0.0
 11
410.776
 21
220.58485
 31
0.0
  0
LINE
  5
445
330
1D
100
AcDbEntity
  8
0
100
AcDbLine
 10
242.776
 20
230.18685
 30
0.0
 11
242.776
 21
212.85285
 31
0.0
  0
LINE
  5
475
330
1D
100
AcDbEntity
  8
0
100
AcDbLine
 10
213.129
 20
230.63085
 30
0.0
 11
215.623
 21
230.63085
 31
0.0
  0
LINE
  5
476
330
1D
100
AcDbEntity
  8
0
100
AcDbLine
 10
211.576
 20
230.63085
 30
0.0
 11
213.129
 21
230.63085
 31
0.0
  0
LINE
  5
477
330
1D
100
AcDbEntity
  8
0
100
AcDbLine
 10
215.623
 20
230.63085
 30
0.0
 11
218.917
 21
230.63085
 31
0.0
  0
LINE
  5
478
330
1D
100
AcDbEntity
  8
0
100
AcDbLine
 10
218.917
 20
230.63085
 30
0.0
 11
222.729
 21
230.63085
 31
0.0
  0
LINE
  5
479
330
1D
100
AcDbEntity
  8
0
100
AcDbLine
 10
222.729
 20
230.63085
 30
0.0
 11
226.776
 21
230.63085
 31
0.0
  0
LINE
  5
47A
330
1D
100
AcDbEntity
  8
0
100
AcDbLine
 10
237.929
 20
230.63085
 30
0.0
 11
240.423
 21
230.63085
 31
0.0
  0
LINE
  5
47B
330
1D
100
AcDbEntity
  8
0
100
AcDbLine
 10
240.423
 20
230.63085
 30
0.0
 11
241.976
 21
230.63085
 31
0.0
  0
LINE
  5
47C
330
1D
100
AcDbEntity
  8
0
100
AcDbLine
 10
241.976
 20
230.63085
 30
0.0
 11
242.541
 21
230.63085
 31
0.0
  0
LINE
  5
47D
330
1D
100
AcDbEntity
  8
0
100
AcDbLine
 10
234.635
 20
230.63085
 30
0.0
 11
237.929
 21
230.63085
 31
0.0
  0
LINE
  5
47E
330
1D
100
AcDbEntity
  8
0
100
AcDbLine
 10
230.823
 20
230.63085
 30
0.0
 11
234.635
 21
230.63085
 31
0.0
  0
LINE
  5
47F
330
1D
100
AcDbEntity
  8
0
100
AcDbLine
 10
226.776
 20
230.63085
 30
0.0
 11
230.823
 21
230.63085
 31
0.0
  0
LINE
  5
480
330
1D
100
AcDbEntity
  8
0
100
AcDbLine
 10
212.776
 20
230.85285
 30
0.0
 11
212.776
 21
232.85285
 31
0.0
  0
LINE
  5
481
330
1D
100
AcDbEntity
  8
0
100
AcDbLine
 10
213.553
 20
230.85285
 30
0.0
 11
215.952
 21
230.85285
 31
0.0
  0
LINE
  5
482
330
1D
100
AcDbEntity
  8
0
100
AcDbLine
 10
212.047
 20
230.85285
 30
0.0
 11
213.553
 21
230.85285
 31
0.0
  0
LINE
  5
483
330
1D
100
AcDbEntity
  8
0
100
AcDbLine
 10
211.482
 20
230.85285
 30
0.0
 11
212.047
 21
230.85285
 31
0.0
  0
LINE
  5
484
330
1D
100
AcDbEntity
  8
0
100
AcDbLine
 10
215.952
 20
230.85285
 30
0.0
 11
219.152
 21
230.85285
 31
0.0
  0
LINE
  5
485
330
1D
100
AcDbEntity
  8
0
100
AcDbLine
 10
219.152
 20
230.85285
 30
0.0
 11
222.823
 21
230.85285
 31
0.0
  0
LINE
  5
486
330
1D
100
AcDbEntity
  8
0
100
AcDbLine
 10
222.823
 20
230.85285
 30
0.0
 11
226.776
 21
230.85285
 31
0.0
  0
LINE
  5
488
330
1D
100
AcDbEntity
  8
0
100
AcDbLine
 10
237.6
 20
230.85285
 30
0.0
 11
239.999
 21
230.85285
 31
0.0
  0
LINE
  5
489
330
1D
100
AcDbEntity
  8
0
100
AcDbLine
 10
239.999
 20
230.85285
 30
0.0
 11
241.505
 21
230.85285
 31
0.0
  0
LINE
  5
48A
330
1D
100
AcDbEntity
  8
0
100
AcDbLine
 10
241.505
 20
230.85285
 30
0.0
 11
242.07
 21
230.85285
 31
0.0
  0
LINE
  5
48B
330
1D
100
AcDbEntity
  8
0
100
AcDbLine
 10
234.4
 20
230.85285
 30
0.0
 11
237.6
 21
230.85285
 31
0.0
  0
LINE
  5
48C
330
1D
100
AcDbEntity
  8
0
100
AcDbLine
 10
230.729
 20
230.85285
 30
0.0
 11
234.4
 21
230.85285
 31
0.0
  0
LINE
  5
48D
330
1D
100
AcDbEntity
  8
0
100
AcDbLine
 10
212.46
 20
232.85285
 30
0.0
 11
212.776
 21
232.85285
 31
0.0
  0
LINE
  5
494
330
1D
100
AcDbEntity
  8
0
100
AcDbLine
 10
212.776
 20
232.85285
 30
0.0
 11
212.776
 21
230.85285
 31
0.0
  0
LINE
  5
4E8
330
1D
100
AcDbEntity
  8
0
100
AcDbLine
 10
226.776
 20
230.85285
 30
0.0
 11
230.729
 21
230.85285
 31
0.0
  0
LINE
  5
513
330
1D
100
AcDbEntity
  8
0
100
AcDbLine
 10
242.07
 20
230.85285
 30
0.0
 11
242.541
 21
230.63085
 31
0.0
  0
LINE
  5
514
330
1D
100
AcDbEntity
  8
0
100
AcDbLine
 10
242.541
 20
230.63085
 30
0.0
 11
242.776
 21
230.18685
 31
0.0
  0
LINE
  5
515
330
1D
100
AcDbEntity
  8
0
100
AcDbLine
 10
211.011
 20
230.63085
 30
0.0
 11
211.482
 21
230.85285
 31
0.0
  0
LINE
  5
516
330
1D
100
AcDbEntity
  8
0
100
AcDbLine
 10
211.011
 20
230.63085
 30
0.0
 11
211.576
 21
230.63085
 31
0.0
  0
LINE
  5
517
330
1D
100
AcDbEntity
  8
0
100
AcDbLine
 10
210.776
 20
230.18685
 30
0.0
 11
210.776
 21
212.85285
 31
0.0
  0
LINE
  5
518
330
1D
100
AcDbEntity
  8
0
100
AcDbLine
 10
210.776
 20
230.18685
 30
0.0
 11
211.011
 21
230.63085
 31
0.0
  0
LINE
  5
519
330
1D
100
AcDbEntity
  8
0
100
AcDbLine
 10
361.846
 20
228.50685
 30
0.0
 11
372.937
 21
230.13285
 31
0.0
  0
LINE
  5
51A
330
1D
100
AcDbEntity
  8
0
100
AcDbLine
 10
347.057
 20
226.52485
 30
0.0
 11
361.846
 21
228.50685
 31
0.0
  0
LINE
  5
51B
330
1D
100
AcDbEntity
  8
0
100
AcDbLine
 10
328.204
 20
224.06885
 30
0.0
 11
347.057
 21
226.52485
 31
0.0
  0
LINE
  5
51C
330
1D
100
AcDbEntity
  8
0
100
AcDbLine
 10
309.631
 20
221.76685
 30
0.0
 11
328.204
 21
224.06885
 31
0.0
  0
LINE
  5
51D
330
1D
100
AcDbEntity
  8
0
100
AcDbLine
 10
367.496
 20
265.85285
 30
0.0
 11
368.576
 21
265.85285
 31
0.0
  0
LINE
  5
51E
330
1D
100
AcDbEntity
  8
0
100
AcDbLine
 10
372.937
 20
230.13285
 30
0.0
 11
382.939
 21
231.67785
 31
0.0
  0
LINE
  5
51F
330
1D
100
AcDbEntity
  8
0
100
AcDbLine
 10
368.576
 20
265.85285
 30
0.0
 11
371.456
 21
265.85285
 31
0.0
  0
LINE
  5
520
330
1D
100
AcDbEntity
  8
0
100
AcDbLine
 10
371.456
 20
265.85285
 30
0.0
 11
376.136
 21
265.85285
 31
0.0
  0
LINE
  5
521
330
1D
100
AcDbEntity
  8
0
100
AcDbLine
 10
378.232
 20
247.85285
 30
0.0
 11
378.916
 21
247.85285
 31
0.0
  0
LINE
  5
522
330
1D
100
AcDbEntity
  8
0
100
AcDbLine
 10
377.776
 20
248.29585
 30
0.0
 11
378.46
 21
248.29585
 31
0.0
  0
LINE
  5
523
330
1D
100
AcDbEntity
  8
0
100
AcDbLine
 10
377.776
 20
248.29585
 30
0.0
 11
378.232
 21
247.85285
 31
0.0
  0
LINE
  5
524
330
1D
100
AcDbEntity
  8
0
100
AcDbLine
 10
377.776
 20
248.29585
 30
0.0
 11
377.776
 21
265.85285
 31
0.0
  0
LINE
  5
525
330
1D
100
AcDbEntity
  8
0
100
AcDbLine
 10
382.939
 20
231.67785
 30
0.0
 11
386.776
 21
232.370499933511
 31
0.0
  0
LINE
  5
526
330
1D
100
AcDbEntity
  8
0
100
AcDbLine
 10
378.916
 20
247.85285
 30
0.0
 11
380.74
 21
247.85285
 31
0.0
  0
LINE
  5
527
330
1D
100
AcDbEntity
  8
0
100
AcDbLine
 10
380.74
 20
247.85285
 30
0.0
 11
383.704
 21
247.85285
 31
0.0
  0
LINE
  5
528
330
1D
100
AcDbEntity
  8
0
100
AcDbLine
 10
378.46
 20
248.29585
 30
0.0
 11
380.284
 21
248.29585
 31
0.0
  0
LINE
  5
529
330
1D
100
AcDbEntity
  8
0
100
AcDbLine
 10
377.776
 20
265.85285
 30
0.0
 11
377.776
 21
248.29585
 31
0.0
  0
LINE
  5
52A
330
1D
100
AcDbEntity
  8
0
100
AcDbLine
 10
377.776
 20
265.85285
 30
0.0
 11
378.46
 21
265.85285
 31
0.0
  0
LINE
  5
52B
330
1D
100
AcDbEntity
  8
0
100
AcDbLine
 10
378.46
 20
265.85285
 30
0.0
 11
380.284
 21
265.85285
 31
0.0
  0
LINE
  5
52C
330
1D
100
AcDbEntity
  8
0
100
AcDbLine
 10
380.284
 20
265.85285
 30
0.0
 11
383.324
 21
265.85285
 31
0.0
  0
LINE
  5
52D
330
1D
100
AcDbEntity
  8
0
100
AcDbLine
 10
380.284
 20
248.29585
 30
0.0
 11
383.324
 21
248.29585
 31
0.0
  0
LINE
  5
52E
330
1D
100
AcDbEntity
  8
0
100
AcDbLine
 10
376.136
 20
265.85285
 30
0.0
 11
382.256
 21
265.85285
 31
0.0
  0
LINE
  5
52F
330
1D
100
AcDbEntity
  8
0
100
AcDbLine
 10
376.136
 20
265.85285
 30
0.0
 11
377.776
 21
265.85285
 31
0.0
  0
LINE
  5
530
330
1D
100
AcDbEntity
  8
0
100
AcDbLine
 10
382.256
 20
265.85285
 30
0.0
 11
389.216
 21
265.85285
 31
0.0
  0
LINE
  5
531
330
1D
100
AcDbEntity
  8
0
100
AcDbLine
 10
385.108
 20
221.93185
 30
0.0
 11
386.356
 21
224.79885
 31
0.0
  0
LINE
  5
532
330
1D
100
AcDbEntity
  8
0
100
AcDbLine
 10
386.356
 20
224.79885
 30
0.0
 11
388.276
 21
227.32085
 31
0.0
  0
LINE
  5
533
330
1D
100
AcDbEntity
  8
0
100
AcDbLine
 10
393.652
 20
221.65485
 30
0.0
 11
396.724
 21
222.06885
 31
0.0
  0
LINE
  5
534
330
1D
100
AcDbEntity
  8
0
100
AcDbLine
 10
408.34
 20
221.93185
 30
0.0
 11
408.724
 21
218.85085
 31
0.0
  0
LINE
  5
535
330
1D
100
AcDbEntity
  8
0
100
AcDbLine
 10
407.092
 20
224.79885
 30
0.0
 11
408.34
 21
221.93185
 31
0.0
  0
LINE
  5
536
330
1D
100
AcDbEntity
  8
0
100
AcDbLine
 10
399.796
 20
221.65485
 30
0.0
 11
402.676
 21
220.57685
 31
0.0
  0
LINE
  5
537
330
1D
100
AcDbEntity
  8
0
100
AcDbLine
 10
396.724
 20
222.06885
 30
0.0
 11
399.796
 21
221.65485
 31
0.0
  0
LINE
  5
538
330
1D
100
AcDbEntity
  8
0
100
AcDbLine
 10
406.324
 20
226.14585
 30
0.0
 11
406.597900759261
 21
225.447869940179
 31
0.0
  0
LINE
  5
539
330
1D
100
AcDbEntity
  8
0
100
AcDbLine
 10
410.272
 20
224.23785
 30
0.0
 11
410.776
 21
220.58485
 31
0.0
  0
LINE
  5
53A
330
1D
100
AcDbEntity
  8
0
100
AcDbLine
 10
388.276
 20
227.32085
 30
0.0
 11
390.772
 21
229.19985
 31
0.0
  0
LINE
  5
53B
330
1D
100
AcDbEntity
  8
0
100
AcDbLine
 10
405.172
 20
227.32085
 30
0.0
 11
407.092
 21
224.79885
 31
0.0
  0
LINE
  5
53C
330
1D
100
AcDbEntity
  8
0
100
AcDbLine
 10
408.928
 20
227.66185
 30
0.0
 11
410.272
 21
224.23785
 31
0.0
  0
LINE
  5
53D
330
1D
100
AcDbEntity
  8
0
100
AcDbLine
 10
387.228
 20
226.14585
 30
0.0
 11
388.988
 21
228.52185
 31
0.0
  0
LINE
  5
53E
330
1D
100
AcDbEntity
  8
0
100
AcDbLine
 10
387.064735332464
 20
225.72980338983
 30
0.0
 11
387.228
 21
226.14585
 31
0.0
  0
LINE
  5
53F
330
1D
100
AcDbEntity
  8
0
100
AcDbLine
 10
383.704
 20
247.85285
 30
0.0
 11
387.58
 21
247.85285
 31
0.0
  0
LINE
  5
540
330
1D
100
AcDbEntity
  8
0
100
AcDbLine
 10
383.704
 20
247.85285
 30
0.0
 11
386.776
 21
247.85285
 31
0.0
  0
LINE
  5
541
330
1D
100
AcDbEntity
  8
0
100
AcDbLine
 10
386.776
 20
230.568010714286
 30
0.0
 11
386.776
 21
247.85285
 31
0.0
  0
LINE
  5
542
330
1D
100
AcDbEntity
  8
0
100
AcDbLine
 10
383.324
 20
265.85285
 30
0.0
 11
387.352
 21
265.85285
 31
0.0
  0
LINE
  5
543
330
1D
100
AcDbEntity
  8
0
100
AcDbLine
 10
383.324
 20
248.29585
 30
0.0
 11
387.352
 21
248.29585
 31
0.0
  0
LINE
  5
544
330
1D
100
AcDbEntity
  8
0
100
AcDbLine
 10
386.776
 20
247.85285
 30
0.0
 11
386.776
 21
230.568010714286
 31
0.0
  0
LINE
  5
545
330
1D
100
AcDbEntity
  8
0
100
AcDbLine
 10
386.776
 20
247.85285
 30
0.0
 11
387.136
 21
247.85285
 31
0.0
  0
LINE
  5
546
330
1D
100
AcDbEntity
  8
0
100
AcDbLine
 10
390.772
 20
229.19985
 30
0.0
 11
393.652
 21
230.35385
 31
0.0
  0
LINE
  5
547
330
1D
100
AcDbEntity
  8
0
100
AcDbLine
 10
402.676
 20
229.19985
 30
0.0
 11
405.172
 21
227.32085
 31
0.0
  0
LINE
  5
548
330
1D
100
AcDbEntity
  8
0
100
AcDbLine
 10
401.755
 20
230.04685
 30
0.0
 11
401.927054928363
 21
229.499948129399
 31
0.0
  0
LINE
  5
549
330
1D
100
AcDbEntity
  8
0
100
AcDbLine
 10
402.232
 20
230.31585
 30
0.0
 11
404.564
 21
228.52185
 31
0.0
  0
LINE
  5
54A
330
1D
100
AcDbEntity
  8
0
100
AcDbLine
 10
404.564
 20
228.52185
 30
0.0
 11
406.324
 21
226.14585
 31
0.0
  0
LINE
  5
54B
330
1D
100
AcDbEntity
  8
0
100
AcDbLine
 10
393.652
 20
230.35385
 30
0.0
 11
396.724
 21
230.78185
 31
0.0
  0
LINE
  5
54C
330
1D
100
AcDbEntity
  8
0
100
AcDbLine
 10
399.796
 20
230.35385
 30
0.0
 11
402.676
 21
229.19985
 31
0.0
  0
LINE
  5
54D
330
1D
100
AcDbEntity
  8
0
100
AcDbLine
 10
396.724
 20
230.78185
 30
0.0
 11
399.796
 21
230.35385
 31
0.0
  0
LINE
  5
54E
330
1D
100
AcDbEntity
  8
0
100
AcDbLine
 10
401.083302889752
 20
230.784031094934
 30
0.0
 11
401.755
 21
230.04685
 31
0.0
  0
LINE
  5
54F
330
1D
100
AcDbEntity
  8
0
100
AcDbLine
 10
399.592
 20
231.39185
 30
0.0
 11
402.232
 21
230.31585
 31
0.0
  0
LINE
  5
550
330
1D
100
AcDbEntity
  8
0
100
AcDbLine
 10
406.688
 20
230.68685
 30
0.0
 11
408.928
 21
227.66185
 31
0.0
  0
LINE
  5
551
330
1D
100
AcDbEntity
  8
0
100
AcDbLine
 10
406.776
 20
230.568010714286
 30
0.0
 11
406.776
 21
247.85285
 31
0.0
  0
LINE
  5
552
330
1D
100
AcDbEntity
  8
0
100
AcDbLine
 10
397.377567975656
 20
231.709545503492
 30
0.0
 11
399.592
 21
231.39185
 31
0.0
  0
LINE
  5
553
330
1D
100
AcDbEntity
  8
0
100
AcDbLine
 10
396.776
 20
231.79585
 30
0.0
 11
399.592
 21
231.39185
 31
0.0
  0
LINE
  5
554
330
1D
100
AcDbEntity
  8
0
100
AcDbLine
 10
403.72
 20
232.96985
 30
0.0
 11
406.688
 21
230.68685
 31
0.0
  0
LINE
  5
555
330
1D
100
AcDbEntity
  8
0
100
AcDbLine
 10
393.96
 20
231.39185
 30
0.0
 11
396.776
 21
231.79585
 31
0.0
  0
LINE
  5
556
330
1D
100
AcDbEntity
  8
0
100
AcDbLine
 10
391.32
 20
230.31585
 30
0.0
 11
393.96
 21
231.39185
 31
0.0
  0
LINE
  5
557
330
1D
100
AcDbEntity
  8
0
100
AcDbLine
 10
388.988
 20
228.52185
 30
0.0
 11
391.32
 21
230.31585
 31
0.0
  0
LINE
  5
558
330
1D
100
AcDbEntity
  8
0
100
AcDbLine
 10
387.58
 20
247.85285
 30
0.0
 11
391.988
 21
247.85285
 31
0.0
  0
LINE
  5
559
330
1D
100
AcDbEntity
  8
0
100
AcDbLine
 10
387.136
 20
247.85285
 30
0.0
 11
388.096
 21
247.85285
 31
0.0
  0
LINE
  5
55A
330
1D
100
AcDbEntity
  8
0
100
AcDbLine
 10
388.096
 20
247.85285
 30
0.0
 11
389.696
 21
247.85285
 31
0.0
  0
LINE
  5
55B
330
1D
100
AcDbEntity
  8
0
100
AcDbLine
 10
391.988
 20
247.85285
 30
0.0
 11
396.776
 21
247.85285
 31
0.0
  0
LINE
  5
55C
330
1D
100
AcDbEntity
  8
0
100
AcDbLine
 10
389.696
 20
247.85285
 30
0.0
 11
391.816
 21
247.85285
 31
0.0
  0
LINE
  5
55D
330
1D
100
AcDbEntity
  8
0
100
AcDbLine
 10
387.352
 20
265.85285
 30
0.0
 11
391.912
 21
265.85285
 31
0.0
  0
LINE
  5
55E
330
1D
100
AcDbEntity
  8
0
100
AcDbLine
 10
387.352
 20
248.29585
 30
0.0
 11
391.912
 21
248.29585
 31
0.0
  0
LINE
  5
55F
330
1D
100
AcDbEntity
  8
0
100
AcDbLine
 10
391.912
 20
265.85285
 30
0.0
 11
396.776
 21
265.85285
 31
0.0
  0
LINE
  5
560
330
1D
100
AcDbEntity
  8
0
100
AcDbLine
 10
391.912
 20
248.29585
 30
0.0
 11
396.776
 21
248.29585
 31
0.0
  0
LINE
  5
561
330
1D
100
AcDbEntity
  8
0
100
AcDbLine
 10
389.216
 20
265.85285
 30
0.0
 11
396.776
 21
265.85285
 31
0.0
  0
LINE
  5
562
330
1D
100
AcDbEntity
  8
0
100
AcDbLine
 10
391.816
 20
247.85285
 30
0.0
 11
394.216
 21
247.85285
 31
0.0
  0
LINE
  5
563
330
1D
100
AcDbEntity
  8
0
100
AcDbLine
 10
396.776
 20
234.85285
 30
0.0
 11
400.36
 21
234.33885
 31
0.0
  0
LINE
  5
564
330
1D
100
AcDbEntity
  8
0
100
AcDbLine
 10
401.564
 20
247.85285
 30
0.0
 11
405.972
 21
247.85285
 31
0.0
  0
LINE
  5
565
330
1D
100
AcDbEntity
  8
0
100
AcDbLine
 10
400.36
 20
234.33885
 30
0.0
 11
403.72
 21
232.96985
 31
0.0
  0
LINE
  5
566
330
1D
100
AcDbEntity
  8
0
100
AcDbLine
 10
405.972
 20
247.85285
 30
0.0
 11
409.848
 21
247.85285
 31
0.0
  0
LINE
  5
567
330
1D
100
AcDbEntity
  8
0
100
AcDbLine
 10
415.32
 20
247.85285
 30
0.0
 11
415.776
 21
248.29585
 31
0.0
  0
LINE
  5
568
330
1D
100
AcDbEntity
  8
0
100
AcDbLine
 10
414.636
 20
247.85285
 30
0.0
 11
415.32
 21
247.85285
 31
0.0
  0
LINE
  5
569
330
1D
100
AcDbEntity
  8
0
100
AcDbLine
 10
412.812
 20
247.85285
 30
0.0
 11
414.636
 21
247.85285
 31
0.0
  0
LINE
  5
56A
330
1D
100
AcDbEntity
  8
0
100
AcDbLine
 10
409.848
 20
247.85285
 30
0.0
 11
412.812
 21
247.85285
 31
0.0
  0
LINE
  5
56B
330
1D
100
AcDbEntity
  8
0
100
AcDbLine
 10
406.776
 20
247.85285
 30
0.0
 11
406.776
 21
230.568010714286
 31
0.0
  0
LINE
  5
56C
330
1D
100
AcDbEntity
  8
0
100
AcDbLine
 10
406.776
 20
247.85285
 30
0.0
 11
409.848
 21
247.85285
 31
0.0
  0
LINE
  5
56D
330
1D
100
AcDbEntity
  8
0
100
AcDbLine
 10
406.416
 20
247.85285
 30
0.0
 11
406.776
 21
247.85285
 31
0.0
  0
LINE
  5
56E
330
1D
100
AcDbEntity
  8
0
100
AcDbLine
 10
405.456
 20
247.85285
 30
0.0
 11
406.416
 21
247.85285
 31
0.0
  0
LINE
  5
56F
330
1D
100
AcDbEntity
  8
0
100
AcDbLine
 10
403.856
 20
247.85285
 30
0.0
 11
405.456
 21
247.85285
 31
0.0
  0
LINE
  5
570
330
1D
100
AcDbEntity
  8
0
100
AcDbLine
 10
401.736
 20
247.85285
 30
0.0
 11
403.856
 21
247.85285
 31
0.0
  0
LINE
  5
571
330
1D
100
AcDbEntity
  8
0
100
AcDbLine
 10
399.336
 20
247.85285
 30
0.0
 11
401.736
 21
247.85285
 31
0.0
  0
LINE
  5
572
330
1D
100
AcDbEntity
  8
0
100
AcDbLine
 10
396.776
 20
247.85285
 30
0.0
 11
399.336
 21
247.85285
 31
0.0
  0
LINE
  5
573
330
1D
100
AcDbEntity
  8
0
100
AcDbLine
 10
396.776
 20
247.85285
 30
0.0
 11
401.564
 21
247.85285
 31
0.0
  0
LINE
  5
574
330
1D
100
AcDbEntity
  8
0
100
AcDbLine
 10
401.64
 20
248.29585
 30
0.0
 11
406.2
 21
248.29585
 31
0.0
  0
LINE
  5
575
330
1D
100
AcDbEntity
  8
0
100
AcDbLine
 10
401.64
 20
265.85285
 30
0.0
 11
406.2
 21
265.85285
 31
0.0
  0
LINE
  5
576
330
1D
100
AcDbEntity
  8
0
100
AcDbLine
 10
396.776
 20
248.29585
 30
0.0
 11
401.64
 21
248.29585
 31
0.0
  0
LINE
  5
577
330
1D
100
AcDbEntity
  8
0
100
AcDbLine
 10
406.2
 20
265.85285
 30
0.0
 11
410.228
 21
265.85285
 31
0.0
  0
LINE
  5
578
330
1D
100
AcDbEntity
  8
0
100
AcDbLine
 10
415.092
 20
248.29585
 30
0.0
 11
415.776
 21
248.29585
 31
0.0
  0
LINE
  5
579
330
1D
100
AcDbEntity
  8
0
100
AcDbLine
 10
415.776
 20
248.29585
 30
0.0
 11
415.776
 21
265.85285
 31
0.0
  0
LINE
  5
57A
330
1D
100
AcDbEntity
  8
0
100
AcDbLine
 10
413.268
 20
248.29585
 30
0.0
 11
415.092
 21
248.29585
 31
0.0
  0
LINE
  5
57B
330
1D
100
AcDbEntity
  8
0
100
AcDbLine
 10
415.092
 20
265.85285
 30
0.0
 11
415.776
 21
265.85285
 31
0.0
  0
LINE
  5
57C
330
1D
100
AcDbEntity
  8
0
100
AcDbLine
 10
413.268
 20
265.85285
 30
0.0
 11
415.092
 21
265.85285
 31
0.0
  0
LINE
  5
57D
330
1D
100
AcDbEntity
  8
0
100
AcDbLine
 10
410.228
 20
265.85285
 30
0.0
 11
413.268
 21
265.85285
 31
0.0
  0
LINE
  5
57E
330
1D
100
AcDbEntity
  8
0
100
AcDbLine
 10
410.228
 20
248.29585
 30
0.0
 11
413.268
 21
248.29585
 31
0.0
  0
LINE
  5
57F
330
1D
100
AcDbEntity
  8
0
100
AcDbLine
 10
406.2
 20
248.29585
 30
0.0
 11
410.228
 21
248.29585
 31
0.0
  0
LINE
  5
580
330
1D
100
AcDbEntity
  8
0
100
AcDbLine
 10
411.296
 20
265.85285
 30
0.0
 11
417.416
 21
265.85285
 31
0.0
  0
LINE
  5
581
330
1D
100
AcDbEntity
  8
0
100
AcDbLine
 10
404.336
 20
265.85285
 30
0.0
 11
411.296
 21
265.85285
 31
0.0
  0
LINE
  5
582
330
1D
100
AcDbEntity
  8
0
100
AcDbLine
 10
396.776
 20
265.85285
 30
0.0
 11
404.336
 21
265.85285
 31
0.0
  0
LINE
  5
583
330
1D
100
AcDbEntity
  8
0
100
AcDbLine
 10
396.776
 20
265.85285
 30
0.0
 11
401.64
 21
265.85285
 31
0.0
  0
LINE
  5
584
330
1D
100
AcDbEntity
  8
0
100
AcDbLine
 10
426.056
 20
265.85285
 30
0.0
 11
426.776
 21
266.45285
 31
0.0
  0
LINE
  5
585
330
1D
100
AcDbEntity
  8
0
100
AcDbLine
 10
424.976
 20
265.85285
 30
0.0
 11
426.056
 21
265.85285
 31
0.0
  0
LINE
  5
586
330
1D
100
AcDbEntity
  8
0
100
AcDbLine
 10
422.096
 20
265.85285
 30
0.0
 11
424.976
 21
265.85285
 31
0.0
  0
LINE
  5
587
330
1D
100
AcDbEntity
  8
0
100
AcDbLine
 10
417.416
 20
265.85285
 30
0.0
 11
422.096
 21
265.85285
 31
0.0
  0
LINE
  5
588
330
1D
100
AcDbEntity
  8
0
100
AcDbLine
 10
415.776
 20
265.85285
 30
0.0
 11
417.416
 21
265.85285
 31
0.0
  0
LINE
  5
589
330
1D
100
AcDbEntity
  8
0
100
AcDbLine
 10
415.776
 20
265.85285
 30
0.0
 11
415.776
 21
248.29585
 31
0.0
  0
LINE
  5
58A
330
1D
100
AcDbEntity
  8
0
100
AcDbLine
 10
394.216
 20
247.85285
 30
0.0
 11
396.776
 21
247.85285
 31
0.0
  0
LINE
  5
58B
330
1D
100
AcDbEntity
  8
0
100
AcDbLine
 10
393.192
 20
234.33885
 30
0.0
 11
396.776
 21
234.85285
 31
0.0
  0
LINE
  5
58C
330
1D
100
AcDbEntity
  8
0
100
AcDbLine
 10
389.832
 20
232.96985
 30
0.0
 11
393.192
 21
234.33885
 31
0.0
  0
LINE
  5
58D
330
1D
100
AcDbEntity
  8
0
100
AcDbLine
 10
386.864
 20
230.68685
 30
0.0
 11
389.832
 21
232.96985
 31
0.0
  0
LINE
  5
58E
330
1D
100
AcDbEntity
  8
0
100
AcDbLine
 10
384.624
 20
227.66185
 30
0.0
 11
386.864
 21
230.68685
 31
0.0
  0
LINE
  5
58F
330
1D
100
AcDbEntity
  8
0
100
AcDbLine
 10
384.624
 20
227.66185
 30
0.0
 11
386.776
 21
230.568010714286
 31
0.0
  0
LINE
  5
590
330
1D
100
AcDbEntity
  8
0
100
AcDbLine
 10
383.28
 20
224.23785
 30
0.0
 11
384.624
 21
227.66185
 31
0.0
  0
LINE
  5
591
330
1D
100
AcDbEntity
  8
0
100
AcDbLine
 10
382.776
 20
220.58485
 30
0.0
 11
383.217313718922
 21
217.387076782734
 31
0.0
  0
LINE
  5
592
330
1D
100
AcDbEntity
  8
0
100
AcDbLine
 10
382.776
 20
220.58485
 30
0.0
 11
383.28
 21
224.23785
 31
0.0
  0
LINE
  5
593
330
1D
100
AcDbEntity
  8
0
100
AcDbLine
 10
181.056
 20
265.85285
 30
0.0
 11
181.776
 21
266.45285
 31
0.0
  0
LINE
  5
594
330
1D
100
AcDbEntity
  8
0
100
AcDbLine
 10
179.976
 20
265.85285
 30
0.0
 11
181.056
 21
265.85285
 31
0.0
  0
LINE
  5
595
330
1D
100
AcDbEntity
  8
0
100
AcDbLine
 10
177.096
 20
265.85285
 30
0.0
 11
179.976
 21
265.85285
 31
0.0
  0
LINE
  5
596
330
1D
100
AcDbEntity
  8
0
100
AcDbLine
 10
172.416
 20
265.85285
 30
0.0
 11
177.096
 21
265.85285
 31
0.0
  0
LINE
  5
597
330
1D
100
AcDbEntity
  8
0
100
AcDbLine
 10
166.296
 20
265.85285
 30
0.0
 11
172.416
 21
265.85285
 31
0.0
  0
LINE
  5
598
330
1D
100
AcDbEntity
  8
0
100
AcDbLine
 10
159.336
 20
265.85285
 30
0.0
 11
166.296
 21
265.85285
 31
0.0
  0
LINE
  5
599
330
1D
100
AcDbEntity
  8
0
100
AcDbLine
 10
151.776
 20
265.85285
 30
0.0
 11
159.336
 21
265.85285
 31
0.0
  0
LINE
  5
59A
330
1D
100
AcDbEntity
  8
0
100
AcDbLine
 10
151.776
 20
265.85285
 30
0.0
 11
154.08
 21
265.85285
 31
0.0
  0
LINE
  5
59B
330
1D
100
AcDbEntity
  8
0
100
AcDbLine
 10
144.216
 20
265.85285
 30
0.0
 11
151.776
 21
265.85285
 31
0.0
  0
LINE
  5
59C
330
1D
100
AcDbEntity
  8
0
100
AcDbLine
 10
131.136
 20
265.85285
 30
0.0
 11
137.256
 21
265.85285
 31
0.0
  0
LINE
  5
59D
330
1D
100
AcDbEntity
  8
0
100
AcDbLine
 10
122.856
 20
266.45285
 30
0.0
 11
125.736
 21
266.45285
 31
0.0
  0
LINE
  5
59E
330
1D
100
AcDbEntity
  8
0
100
AcDbLine
 10
125.736
 20
266.45285
 30
0.0
 11
130.536
 21
266.45285
 31
0.0
  0
LINE
  5
59F
330
1D
100
AcDbEntity
  8
0
100
AcDbLine
 10
130.536
 20
266.45285
 30
0.0
 11
136.896
 21
266.45285
 31
0.0
  0
LINE
  5
5A0
330
1D
100
AcDbEntity
  8
0
100
AcDbLine
 10
122.856
 20
275.85285
 30
0.0
 11
125.736
 21
275.85285
 31
0.0
  0
LINE
  5
5A1
330
1D
100
AcDbEntity
  8
0
100
AcDbLine
 10
125.736
 20
275.85285
 30
0.0
 11
130.536
 21
275.85285
 31
0.0
  0
LINE
  5
5A2
330
1D
100
AcDbEntity
  8
0
100
AcDbLine
 10
136.896
 20
266.45285
 30
0.0
 11
144.096
 21
266.45285
 31
0.0
  0
LINE
  5
5A3
330
1D
100
AcDbEntity
  8
0
100
AcDbLine
 10
144.096
 20
266.45285
 30
0.0
 11
151.776
 21
266.45285
 31
0.0
  0
LINE
  5
5A4
330
1D
100
AcDbEntity
  8
0
100
AcDbLine
 10
130.536
 20
275.85285
 30
0.0
 11
136.896
 21
275.85285
 31
0.0
  0
LINE
  5
5A5
330
1D
100
AcDbEntity
  8
0
100
AcDbLine
 10
136.896
 20
275.85285
 30
0.0
 11
144.096
 21
275.85285
 31
0.0
  0
LINE
  5
5A6
330
1D
100
AcDbEntity
  8
0
100
AcDbLine
 10
159.456
 20
266.45285
 30
0.0
 11
166.656
 21
266.45285
 31
0.0
  0
LINE
  5
5A7
330
1D
100
AcDbEntity
  8
0
100
AcDbLine
 10
151.776
 20
266.45285
 30
0.0
 11
159.456
 21
266.45285
 31
0.0
  0
LINE
  5
5A8
330
1D
100
AcDbEntity
  8
0
100
AcDbLine
 10
173.016
 20
266.45285
 30
0.0
 11
177.816
 21
266.45285
 31
0.0
  0
LINE
  5
5A9
330
1D
100
AcDbEntity
  8
0
100
AcDbLine
 10
166.656
 20
266.45285
 30
0.0
 11
173.016
 21
266.45285
 31
0.0
  0
LINE
  5
5AA
330
1D
100
AcDbEntity
  8
0
100
AcDbLine
 10
180.696
 20
266.45285
 30
0.0
 11
181.776
 21
266.45285
 31
0.0
  0
LINE
  5
5AB
330
1D
100
AcDbEntity
  8
0
100
AcDbLine
 10
177.816
 20
266.45285
 30
0.0
 11
180.696
 21
266.45285
 31
0.0
  0
LINE
  5
5AC
330
1D
100
AcDbEntity
  8
0
100
AcDbLine
 10
366.776
 20
266.45285
 30
0.0
 11
367.856
 21
266.45285
 31
0.0
  0
LINE
  5
5AD
330
1D
100
AcDbEntity
  8
0
100
AcDbLine
 10
366.776
 20
266.45285
 30
0.0
 11
367.496
 21
265.85285
 31
0.0
  0
LINE
  5
5AE
330
1D
100
AcDbEntity
  8
0
100
AcDbLine
 10
366.776
 20
266.45285
 30
0.0
 11
366.776
 21
275.85285
 31
0.0
  0
LINE
  5
5AF
330
1D
100
AcDbEntity
  8
0
100
AcDbLine
 10
367.856
 20
266.45285
 30
0.0
 11
370.736
 21
266.45285
 31
0.0
  0
LINE
  5
5B0
330
1D
100
AcDbEntity
  8
0
100
AcDbLine
 10
370.736
 20
266.45285
 30
0.0
 11
375.536
 21
266.45285
 31
0.0
  0
LINE
  5
5B1
330
1D
100
AcDbEntity
  8
0
100
AcDbLine
 10
375.536
 20
266.45285
 30
0.0
 11
381.896
 21
266.45285
 31
0.0
  0
LINE
  5
5B2
330
1D
100
AcDbEntity
  8
0
100
AcDbLine
 10
381.896
 20
266.45285
 30
0.0
 11
389.096
 21
266.45285
 31
0.0
  0
LINE
  5
5B3
330
1D
100
AcDbEntity
  8
0
100
AcDbLine
 10
389.096
 20
266.45285
 30
0.0
 11
396.776
 21
266.45285
 31
0.0
  0
LINE
  5
5C2
330
1D
100
AcDbEntity
  8
0
100
AcDbLine
 10
366.776
 20
275.85285
 30
0.0
 11
367.856
 21
275.85285
 31
0.0
  0
LINE
  5
5C3
330
1D
100
AcDbEntity
  8
0
100
AcDbLine
 10
366.776
 20
275.85285
 30
0.0
 11
366.776
 21
266.45285
 31
0.0
  0
LINE
  5
5C4
330
1D
100
AcDbEntity
  8
0
100
AcDbLine
 10
367.856
 20
275.85285
 30
0.0
 11
370.736
 21
275.85285
 31
0.0
  0
LINE
  5
5C5
330
1D
100
AcDbEntity
  8
0
100
AcDbLine
 10
370.736
 20
275.85285
 30
0.0
 11
375.536
 21
275.85285
 31
0.0
  0
LINE
  5
5C6
330
1D
100
AcDbEntity
  8
0
100
AcDbLine
 10
375.536
 20
275.85285
 30
0.0
 11
381.896
 21
275.85285
 31
0.0
  0
LINE
  5
5C7
330
1D
100
AcDbEntity
  8
0
100
AcDbLine
 10
381.896
 20
275.85285
 30
0.0
 11
389.096
 21
275.85285
 31
0.0
  0
LINE
  5
5C8
330
1D
100
AcDbEntity
  8
0
100
AcDbLine
 10
389.096
 20
275.85285
 30
0.0
 11
396.776
 21
275.85285
 31
0.0
  0
LINE
  5
5C9
330
1D
100
AcDbEntity
  8
0
100
AcDbLine
 10
396.776
 20
266.45285
 30
0.0
 11
404.456
 21
266.45285
 31
0.0
  0
LINE
  5
5CA
330
1D
100
AcDbEntity
  8
0
100
AcDbLine
 10
411.656
 20
266.45285
 30
0.0
 11
418.016
 21
266.45285
 31
0.0
  0
LINE
  5
5CB
330
1D
100
AcDbEntity
  8
0
100
AcDbLine
 10
404.456
 20
266.45285
 30
0.0
 11
411.656
 21
266.45285
 31
0.0
  0
LINE
  5
5CC
330
1D
100
AcDbEntity
  8
0
100
AcDbLine
 10
422.816
 20
266.45285
 30
0.0
 11
425.696
 21
266.45285
 31
0.0
  0
LINE
  5
5CD
330
1D
100
AcDbEntity
  8
0
100
AcDbLine
 10
418.016
 20
266.45285
 30
0.0
 11
422.816
 21
266.45285
 31
0.0
  0
LINE
  5
5CE
330
1D
100
AcDbEntity
  8
0
100
AcDbLine
 10
425.696
 20
266.45285
 30
0.0
 11
426.776
 21
266.45285
 31
0.0
  0
LINE
  5
5CF
330
1D
100
AcDbEntity
  8
0
100
AcDbLine
 10
426.776
 20
266.45285
 30
0.0
 11
426.776
 21
275.85285
 31
0.0
  0
LINE
  5
5D0
330
1D
100
AcDbEntity
  8
0
100
AcDbLine
 10
425.696
 20
275.85285
 30
0.0
 11
426.776
 21
275.85285
 31
0.0
  0
LINE
  5
5D1
330
1D
100
AcDbEntity
  8
0
100
AcDbLine
 10
422.816
 20
275.85285
 30
0.0
 11
425.696
 21
275.85285
 31
0.0
  0
LINE
  5
5D2
330
1D
100
AcDbEntity
  8
0
100
AcDbLine
 10
418.016
 20
275.85285
 30
0.0
 11
422.816
 21
275.85285
 31
0.0
  0
LINE
  5
5D3
330
1D
100
AcDbEntity
  8
0
100
AcDbLine
 10
411.656
 20
275.85285
 30
0.0
 11
418.016
 21
275.85285
 31
0.0
  0
LINE
  5
5D4
330
1D
100
AcDbEntity
  8
0
100
AcDbLine
 10
404.456
 20
275.85285
 30
0.0
 11
411.656
 21
275.85285
 31
0.0
  0
LINE
  5
5D5
330
1D
100
AcDbEntity
  8
0
100
AcDbLine
 10
396.776
 20
275.85285
 30
0.0
 11
404.456
 21
275.85285
 31
0.0
  0
LINE
  5
5D6
330
1D
100
AcDbEntity
  8
0
100
AcDbLine
 10
426.776
 20
275.85285
 30
0.0
 11
426.776
 21
266.45285
 31
0.0
  0
LINE
  5
5D7
330
1D
100
AcDbEntity
  8
0
100
AcDbLine
 10
181.776
 20
266.45285
 30
0.0
 11
181.776
 21
275.85285
 31
0.0
  0
LINE
  5
5D8
330
1D
100
AcDbEntity
  8
0
100
AcDbLine
 10
181.776
 20
275.85285
 30
0.0
 11
181.776
 21
266.45285
 31
0.0
  0
LINE
  5
5D9
330
1D
100
AcDbEntity
  8
0
100
AcDbLine
 10
180.696
 20
275.85285
 30
0.0
 11
181.776
 21
275.85285
 31
0.0
  0
LINE
  5
5DA
330
1D
100
AcDbEntity
  8
0
100
AcDbLine
 10
177.816
 20
275.85285
 30
0.0
 11
180.696
 21
275.85285
 31
0.0
  0
LINE
  5
5DB
330
1D
100
AcDbEntity
  8
0
100
AcDbLine
 10
173.016
 20
275.85285
 30
0.0
 11
177.816
 21
275.85285
 31
0.0
  0
LINE
  5
5DC
330
1D
100
AcDbEntity
  8
0
100
AcDbLine
 10
166.656
 20
275.85285
 30
0.0
 11
173.016
 21
275.85285
 31
0.0
  0
LINE
  5
5DD
330
1D
100
AcDbEntity
  8
0
100
AcDbLine
 10
159.456
 20
275.85285
 30
0.0
 11
166.656
 21
275.85285
 31
0.0
  0
LINE
  5
5DE
330
1D
100
AcDbEntity
  8
0
100
AcDbLine
 10
151.776
 20
275.85285
 30
0.0
 11
159.456
 21
275.85285
 31
0.0
  0
LINE
  5
5DF
330
1D
100
AcDbEntity
  8
0
100
AcDbLine
 10
144.096
 20
275.85285
 30
0.0
 11
151.776
 21
275.85285
 31
0.0
  0
LINE
  5
5E0
330
1D
100
AcDbEntity
  8
0
100
AcDbLine
 10
137.256
 20
265.85285
 30
0.0
 11
142.776
 21
265.85285
 31
0.0
  0
LINE
  5
5E1
330
1D
100
AcDbEntity
  8
0
100
AcDbLine
 10
137.256
 20
265.85285
 30
0.0
 11
144.216
 21
265.85285
 31
0.0
  0
LINE
  5
5E2
330
1D
100
AcDbEntity
  8
0
100
AcDbLine
 10
121.776
 20
275.85285
 30
0.0
 11
121.776
 21
266.45285
 31
0.0
  0
LINE
  5
5E3
330
1D
100
AcDbEntity
  8
0
100
AcDbLine
 10
121.776
 20
275.85285
 30
0.0
 11
122.856
 21
275.85285
 31
0.0
  0
LINE
  5
69B
330
1D
100
AcDbEntity
  8
0
100
AcDbLine
 10
240.776
 20
232.85285
 30
0.0
 11
212.776
 21
232.85285
 31
0.0
  0
LINE
  5
69C
330
1D
100
AcDbEntity
  8
0
100
AcDbLine
 10
228.8771
 20
233.92385
 30
0.0
 11
226.776
 21
233.92385
 31
0.0
  0
LINE
  5
69D
330
1D
100
AcDbEntity
  8
0
100
AcDbLine
 10
231.3999
 20
247.40385
 30
0.0
 11
226.776
 21
246.78185
 31
0.0
  0
LINE
  5
69E
330
1D
100
AcDbEntity
  8
0
100
AcDbLine
 10
235.376
 20
250.23785
 30
0.0
 11
226.776
 21
250.23785
 31
0.0
  0
LINE
  5
69F
330
1D
100
AcDbEntity
  8
0
100
AcDbLine
 10
230.3583
 20
249.85285
 30
0.0
 11
226.776
 21
249.85285
 31
0.0
  0
LINE
  5
6A0
330
1D
100
AcDbEntity
  8
0
100
AcDbLine
 10
231.0707
 20
247.85285
 30
0.0
 11
226.776
 21
247.85285
 31
0.0
  0
LINE
  5
6A1
330
1D
100
AcDbEntity
  8
0
100
AcDbLine
 10
235.476
 20
275.85285
 30
0.0
 11
226.776
 21
275.85285
 31
0.0
  0
LINE
  5
6A2
330
1D
100
AcDbEntity
  8
0
100
AcDbLine
 10
193.276
 20
250.23785
 30
0.0
 11
192.776
 21
251.00685
 31
0.0
  0
LINE
  5
6A3
330
1D
100
AcDbEntity
  8
0
100
AcDbLine
 10
210.076
 20
250.23785
 30
0.0
 11
203.076
 21
250.23785
 31
0.0
  0
LINE
  5
6A4
330
1D
100
AcDbEntity
  8
0
100
AcDbLine
 10
210.576
 20
249.85285
 30
0.0
 11
203.776
 21
249.85285
 31
0.0
  0
LINE
  5
6A5
330
1D
100
AcDbEntity
  8
0
100
AcDbLine
 10
194.476
 20
250.23785
 30
0.0
 11
193.276
 21
250.23785
 31
0.0
  0
LINE
  5
6A6
330
1D
100
AcDbEntity
  8
0
100
AcDbLine
 10
194.276
 20
249.85285
 30
0.0
 11
193.276
 21
250.23785
 31
0.0
  0
LINE
  5
6A7
330
1D
100
AcDbEntity
  8
0
100
AcDbLine
 10
203.076
 20
250.23785
 30
0.0
 11
197.776
 21
250.23785
 31
0.0
  0
LINE
  5
6A8
330
1D
100
AcDbEntity
  8
0
100
AcDbLine
 10
203.776
 20
249.85285
 30
0.0
 11
198.676
 21
249.85285
 31
0.0
  0
LINE
  5
6A9
330
1D
100
AcDbEntity
  8
0
100
AcDbLine
 10
197.776
 20
250.23785
 30
0.0
 11
194.476
 21
250.23785
 31
0.0
  0
LINE
  5
6AA
330
1D
100
AcDbEntity
  8
0
100
AcDbLine
 10
198.676
 20
249.85285
 30
0.0
 11
195.476
 21
249.85285
 31
0.0
  0
LINE
  5
6AB
330
1D
100
AcDbEntity
  8
0
100
AcDbLine
 10
195.476
 20
249.85285
 30
0.0
 11
194.276
 21
249.85285
 31
0.0
  0
LINE
  5
6AC
330
1D
100
AcDbEntity
  8
0
100
AcDbLine
 10
212.776
 20
232.85285
 30
0.0
 11
212.776
 21
230.85285
 31
0.0
  0
LINE
  5
6AD
330
1D
100
AcDbEntity
  8
0
100
AcDbLine
 10
212.776
 20
230.85285
 30
0.0
 11
212.776
 21
232.85285
 31
0.0
  0
LINE
  5
6AE
330
1D
100
AcDbEntity
  8
0
100
AcDbLine
 10
222.1521
 20
233.30185
 30
0.0
 11
218.1225
 21
233.06985
 31
0.0
  0
LINE
  5
6AF
330
1D
100
AcDbEntity
  8
0
100
AcDbLine
 10
218.5445
 20
247.85285
 30
0.0
 11
215.055
 21
247.85285
 31
0.0
  0
LINE
  5
6B0
330
1D
100
AcDbEntity
  8
0
100
AcDbLine
 10
222.1521
 20
247.40385
 30
0.0
 11
218.1225
 21
247.63585
 31
0.0
  0
LINE
  5
6B1
330
1D
100
AcDbEntity
  8
0
100
AcDbLine
 10
226.776
 20
250.23785
 30
0.0
 11
218.176
 21
250.23785
 31
0.0
  0
LINE
  5
6B2
330
1D
100
AcDbEntity
  8
0
100
AcDbLine
 10
219.8172
 20
249.85285
 30
0.0
 11
216.8936
 21
249.85285
 31
0.0
  0
LINE
  5
6B3
330
1D
100
AcDbEntity
  8
0
100
AcDbLine
 10
209.776
 20
234.99585
 30
0.0
 11
209.776
 21
245.70985
 31
0.0
  0
LINE
  5
6B4
330
1D
100
AcDbEntity
  8
0
100
AcDbLine
 10
209.776
 20
245.70985
 30
0.0
 11
209.776
 21
234.99585
 31
0.0
  0
LINE
  5
6B5
330
1D
100
AcDbEntity
  8
0
100
AcDbLine
 10
209.776
 20
233.10985
 30
0.0
 11
209.776
 21
233.92385
 31
0.0
  0
LINE
  5
6B6
330
1D
100
AcDbEntity
  8
0
100
AcDbLine
 10
209.776
 20
233.92385
 30
0.0
 11
209.776
 21
233.10985
 31
0.0
  0
LINE
  5
6B7
330
1D
100
AcDbEntity
  8
0
100
AcDbLine
 10
214.0707
 20
233.24285
 30
0.0
 11
211.233
 21
233.92385
 31
0.0
  0
LINE
  5
6B8
330
1D
100
AcDbEntity
  8
0
100
AcDbLine
 10
218.1225
 20
233.06985
 30
0.0
 11
214.0707
 21
233.24285
 31
0.0
  0
LINE
  5
6B9
330
1D
100
AcDbEntity
  8
0
100
AcDbLine
 10
210.8497
 20
232.85285
 30
0.0
 11
210.2233
 21
232.85285
 31
0.0
  0
LINE
  5
6BA
330
1D
100
AcDbEntity
  8
0
100
AcDbLine
 10
212.4602
 20
232.85285
 30
0.0
 11
210.8497
 21
232.85285
 31
0.0
  0
LINE
  5
6BB
330
1D
100
AcDbEntity
  8
0
100
AcDbLine
 10
212.776
 20
232.85285
 30
0.0
 11
212.4602
 21
232.85285
 31
0.0
  0
LINE
  5
6BC
330
1D
100
AcDbEntity
  8
0
100
AcDbLine
 10
209.776
 20
233.10985
 30
0.0
 11
209.776
 21
232.95985
 31
0.0
  0
LINE
  5
6BD
330
1D
100
AcDbEntity
  8
0
100
AcDbLine
 10
209.776
 20
232.95985
 30
0.0
 11
209.776
 21
233.10985
 31
0.0
  0
LINE
  5
6BE
330
1D
100
AcDbEntity
  8
0
100
AcDbLine
 10
210.2233
 20
232.85285
 30
0.0
 11
209.776
 21
232.95985
 31
0.0
  0
LINE
  5
6BF
330
1D
100
AcDbEntity
  8
0
100
AcDbLine
 10
211.233
 20
233.92385
 30
0.0
 11
210.1338
 21
233.92385
 31
0.0
  0
LINE
  5
6C0
330
1D
100
AcDbEntity
  8
0
100
AcDbLine
 10
209.776
 20
233.92385
 30
0.0
 11
209.776
 21
234.99585
 31
0.0
  0
LINE
  5
6C1
330
1D
100
AcDbEntity
  8
0
100
AcDbLine
 10
209.776
 20
234.99585
 30
0.0
 11
209.776
 21
233.92385
 31
0.0
  0
LINE
  5
6C2
330
1D
100
AcDbEntity
  8
0
100
AcDbLine
 10
210.1338
 20
233.92385
 30
0.0
 11
209.776
 21
233.92385
 31
0.0
  0
LINE
  5
6C3
330
1D
100
AcDbEntity
  8
0
100
AcDbLine
 10
212.776
 20
247.85285
 30
0.0
 11
212.776
 21
249.85285
 31
0.0
  0
LINE
  5
6C4
330
1D
100
AcDbEntity
  8
0
100
AcDbLine
 10
212.776
 20
249.85285
 30
0.0
 11
212.776
 21
247.85285
 31
0.0
  0
LINE
  5
6C5
330
1D
100
AcDbEntity
  8
0
100
AcDbLine
 10
218.1225
 20
247.63585
 30
0.0
 11
214.0707
 21
247.46285
 31
0.0
  0
LINE
  5
6C6
330
1D
100
AcDbEntity
  8
0
100
AcDbLine
 10
211.233
 20
246.78185
 30
0.0
 11
209.776
 21
245.70985
 31
0.0
  0
LINE
  5
6C7
330
1D
100
AcDbEntity
  8
0
100
AcDbLine
 10
210.8497
 20
247.85285
 30
0.0
 11
210.2233
 21
247.85285
 31
0.0
  0
LINE
  5
6C8
330
1D
100
AcDbEntity
  8
0
100
AcDbLine
 10
214.0707
 20
247.46285
 30
0.0
 11
211.233
 21
246.78185
 31
0.0
  0
LINE
  5
6C9
330
1D
100
AcDbEntity
  8
0
100
AcDbLine
 10
215.055
 20
247.85285
 30
0.0
 11
212.4602
 21
247.85285
 31
0.0
  0
LINE
  5
6CA
330
1D
100
AcDbEntity
  8
0
100
AcDbLine
 10
212.4602
 20
247.85285
 30
0.0
 11
210.8497
 21
247.85285
 31
0.0
  0
LINE
  5
6CB
330
1D
100
AcDbEntity
  8
0
100
AcDbLine
 10
209.776
 20
247.59585
 30
0.0
 11
209.776
 21
246.78185
 31
0.0
  0
LINE
  5
6CC
330
1D
100
AcDbEntity
  8
0
100
AcDbLine
 10
209.776
 20
246.78185
 30
0.0
 11
209.776
 21
247.59585
 31
0.0
  0
LINE
  5
6CD
330
1D
100
AcDbEntity
  8
0
100
AcDbLine
 10
209.776
 20
245.70985
 30
0.0
 11
209.776
 21
246.78185
 31
0.0
  0
LINE
  5
6CE
330
1D
100
AcDbEntity
  8
0
100
AcDbLine
 10
209.776
 20
246.78185
 30
0.0
 11
209.776
 21
245.70985
 31
0.0
  0
LINE
  5
6CF
330
1D
100
AcDbEntity
  8
0
100
AcDbLine
 10
209.776
 20
247.74585
 30
0.0
 11
209.776
 21
247.59585
 31
0.0
  0
LINE
  5
6D0
330
1D
100
AcDbEntity
  8
0
100
AcDbLine
 10
210.2233
 20
247.85285
 30
0.0
 11
209.776
 21
247.74585
 31
0.0
  0
LINE
  5
6D1
330
1D
100
AcDbEntity
  8
0
100
AcDbLine
 10
218.176
 20
250.23785
 30
0.0
 11
210.076
 21
250.23785
 31
0.0
  0
LINE
  5
6D2
330
1D
100
AcDbEntity
  8
0
100
AcDbLine
 10
216.8936
 20
249.85285
 30
0.0
 11
214.6701
 21
249.85285
 31
0.0
  0
LINE
  5
6D3
330
1D
100
AcDbEntity
  8
0
100
AcDbLine
 10
212.776
 20
249.85285
 30
0.0
 11
210.576
 21
249.85285
 31
0.0
  0
LINE
  5
6D4
330
1D
100
AcDbEntity
  8
0
100
AcDbLine
 10
214.6701
 20
249.85285
 30
0.0
 11
213.2701
 21
249.85285
 31
0.0
  0
LINE
  5
6D5
330
1D
100
AcDbEntity
  8
0
100
AcDbLine
 10
213.2701
 20
249.85285
 30
0.0
 11
212.776
 21
249.85285
 31
0.0
  0
LINE
  5
6D6
330
1D
100
AcDbEntity
  8
0
100
AcDbLine
 10
226.776
 20
233.92385
 30
0.0
 11
226.776
 21
246.78185
 31
0.0
  0
LINE
  5
6D7
330
1D
100
AcDbEntity
  8
0
100
AcDbLine
 10
226.776
 20
233.92385
 30
0.0
 11
224.6749
 21
233.92385
 31
0.0
  0
LINE
  5
6D8
330
1D
100
AcDbEntity
  8
0
100
AcDbLine
 10
224.6749
 20
233.92385
 30
0.0
 11
222.1521
 21
233.30185
 31
0.0
  0
LINE
  5
6D9
330
1D
100
AcDbEntity
  8
0
100
AcDbLine
 10
222.4813
 20
247.85285
 30
0.0
 11
218.5445
 21
247.85285
 31
0.0
  0
LINE
  5
6DA
330
1D
100
AcDbEntity
  8
0
100
AcDbLine
 10
226.776
 20
246.78185
 30
0.0
 11
222.1521
 21
247.40385
 31
0.0
  0
LINE
  5
6DB
330
1D
100
AcDbEntity
  8
0
100
AcDbLine
 10
226.776
 20
247.85285
 30
0.0
 11
222.4813
 21
247.85285
 31
0.0
  0
LINE
  5
6DC
330
1D
100
AcDbEntity
  8
0
100
AcDbLine
 10
223.1937
 20
249.85285
 30
0.0
 11
219.8172
 21
249.85285
 31
0.0
  0
LINE
  5
6DD
330
1D
100
AcDbEntity
  8
0
100
AcDbLine
 10
226.776
 20
249.85285
 30
0.0
 11
223.1937
 21
249.85285
 31
0.0
  0
LINE
  5
6DE
330
1D
100
AcDbEntity
  8
0
100
AcDbLine
 10
192.776
 20
275.85285
 30
0.0
 11
192.776
 21
251.00685
 31
0.0
  0
LINE
  5
6DF
330
1D
100
AcDbEntity
  8
0
100
AcDbLine
 10
192.776
 20
251.00685
 30
0.0
 11
192.776
 21
275.85285
 31
0.0
  0
LINE
  5
6E0
330
1D
100
AcDbEntity
  8
0
100
AcDbLine
 10
209.876
 20
275.85285
 30
0.0
 11
202.776
 21
275.85285
 31
0.0
  0
LINE
  5
6E1
330
1D
100
AcDbEntity
  8
0
100
AcDbLine
 10
218.076
 20
275.85285
 30
0.0
 11
209.876
 21
275.85285
 31
0.0
  0
LINE
  5
6E2
330
1D
100
AcDbEntity
  8
0
100
AcDbLine
 10
226.776
 20
275.85285
 30
0.0
 11
218.076
 21
275.85285
 31
0.0
  0
LINE
  5
6E3
330
1D
100
AcDbEntity
  8
0
100
AcDbLine
 10
193.976
 20
275.85285
 30
0.0
 11
192.776
 21
275.85285
 31
0.0
  0
LINE
  5
6E4
330
1D
100
AcDbEntity
  8
0
100
AcDbLine
 10
202.776
 20
275.85285
 30
0.0
 11
197.376
 21
275.85285
 31
0.0
  0
LINE
  5
6E5
330
1D
100
AcDbEntity
  8
0
100
AcDbLine
 10
197.376
 20
275.85285
 30
0.0
 11
193.976
 21
275.85285
 31
0.0
  0
LINE
  5
6E6
330
1D
100
AcDbEntity
  8
0
100
AcDbLine
 10
260.776
 20
251.00685
 30
0.0
 11
260.276
 21
250.23785
 31
0.0
  0
LINE
  5
6E7
330
1D
100
AcDbEntity
  8
0
100
AcDbLine
 10
250.476
 20
250.23785
 30
0.0
 11
243.476
 21
250.23785
 31
0.0
  0
LINE
  5
6E8
330
1D
100
AcDbEntity
  8
0
100
AcDbLine
 10
249.776
 20
249.85285
 30
0.0
 11
242.976
 21
249.85285
 31
0.0
  0
LINE
  5
6E9
330
1D
100
AcDbEntity
  8
0
100
AcDbLine
 10
240.776
 20
232.85285
 30
0.0
 11
240.776
 21
230.85285
 31
0.0
  0
LINE
  5
6EA
330
1D
100
AcDbEntity
  8
0
100
AcDbLine
 10
240.776
 20
230.85285
 30
0.0
 11
240.776
 21
232.85285
 31
0.0
  0
LINE
  5
6EB
330
1D
100
AcDbEntity
  8
0
100
AcDbLine
 10
239.4813
 20
233.24285
 30
0.0
 11
235.4295
 21
233.06985
 31
0.0
  0
LINE
  5
6EC
330
1D
100
AcDbEntity
  8
0
100
AcDbLine
 10
239.4813
 20
247.46285
 30
0.0
 11
235.4295
 21
247.63585
 31
0.0
  0
LINE
  5
6ED
330
1D
100
AcDbEntity
  8
0
100
AcDbLine
 10
238.4971
 20
247.85285
 30
0.0
 11
235.0076
 21
247.85285
 31
0.0
  0
LINE
  5
6EE
330
1D
100
AcDbEntity
  8
0
100
AcDbLine
 10
243.476
 20
250.23785
 30
0.0
 11
235.376
 21
250.23785
 31
0.0
  0
LINE
  5
6EF
330
1D
100
AcDbEntity
  8
0
100
AcDbLine
 10
238.8819
 20
249.85285
 30
0.0
 11
236.6583
 21
249.85285
 31
0.0
  0
LINE
  5
6F0
330
1D
100
AcDbEntity
  8
0
100
AcDbLine
 10
235.4295
 20
233.06985
 30
0.0
 11
231.3999
 21
233.30185
 31
0.0
  0
LINE
  5
6F1
330
1D
100
AcDbEntity
  8
0
100
AcDbLine
 10
231.3999
 20
233.30185
 30
0.0
 11
228.8771
 21
233.92385
 31
0.0
  0
LINE
  5
6F2
330
1D
100
AcDbEntity
  8
0
100
AcDbLine
 10
235.0076
 20
247.85285
 30
0.0
 11
231.0707
 21
247.85285
 31
0.0
  0
LINE
  5
6F3
330
1D
100
AcDbEntity
  8
0
100
AcDbLine
 10
235.4295
 20
247.63585
 30
0.0
 11
231.3999
 21
247.40385
 31
0.0
  0
LINE
  5
6F4
330
1D
100
AcDbEntity
  8
0
100
AcDbLine
 10
233.7348
 20
249.85285
 30
0.0
 11
230.3583
 21
249.85285
 31
0.0
  0
LINE
  5
6F5
330
1D
100
AcDbEntity
  8
0
100
AcDbLine
 10
236.6583
 20
249.85285
 30
0.0
 11
233.7348
 21
249.85285
 31
0.0
  0
LINE
  5
6F6
330
1D
100
AcDbEntity
  8
0
100
AcDbLine
 10
243.776
 20
245.70985
 30
0.0
 11
243.776
 21
234.99585
 31
0.0
  0
LINE
  5
6F7
330
1D
100
AcDbEntity
  8
0
100
AcDbLine
 10
243.776
 20
234.99585
 30
0.0
 11
243.776
 21
245.70985
 31
0.0
  0
LINE
  5
6F8
330
1D
100
AcDbEntity
  8
0
100
AcDbLine
 10
242.319
 20
233.92385
 30
0.0
 11
239.4813
 21
233.24285
 31
0.0
  0
LINE
  5
6F9
330
1D
100
AcDbEntity
  8
0
100
AcDbLine
 10
243.776
 20
233.10985
 30
0.0
 11
243.776
 21
233.92385
 31
0.0
  0
LINE
  5
6FA
330
1D
100
AcDbEntity
  8
0
100
AcDbLine
 10
243.776
 20
233.92385
 30
0.0
 11
243.776
 21
233.10985
 31
0.0
  0
LINE
  5
6FB
330
1D
100
AcDbEntity
  8
0
100
AcDbLine
 10
242.7023
 20
232.85285
 30
0.0
 11
241.0918
 21
232.85285
 31
0.0
  0
LINE
  5
6FC
330
1D
100
AcDbEntity
  8
0
100
AcDbLine
 10
243.776
 20
232.95985
 30
0.0
 11
243.3286
 21
232.85285
 31
0.0
  0
LINE
  5
6FD
330
1D
100
AcDbEntity
  8
0
100
AcDbLine
 10
243.776
 20
232.95985
 30
0.0
 11
243.776
 21
233.10985
 31
0.0
  0
LINE
  5
6FE
330
1D
100
AcDbEntity
  8
0
100
AcDbLine
 10
243.3286
 20
232.85285
 30
0.0
 11
242.7023
 21
232.85285
 31
0.0
  0
LINE
  5
6FF
330
1D
100
AcDbEntity
  8
0
100
AcDbLine
 10
243.776
 20
233.10985
 30
0.0
 11
243.776
 21
232.95985
 31
0.0
  0
LINE
  5
700
330
1D
100
AcDbEntity
  8
0
100
AcDbLine
 10
241.0918
 20
232.85285
 30
0.0
 11
240.776
 21
232.85285
 31
0.0
  0
LINE
  5
701
330
1D
100
AcDbEntity
  8
0
100
AcDbLine
 10
243.4181
 20
233.92385
 30
0.0
 11
242.319
 21
233.92385
 31
0.0
  0
LINE
  5
702
330
1D
100
AcDbEntity
  8
0
100
AcDbLine
 10
243.776
 20
233.92385
 30
0.0
 11
243.4181
 21
233.92385
 31
0.0
  0
LINE
  5
703
330
1D
100
AcDbEntity
  8
0
100
AcDbLine
 10
243.776
 20
233.92385
 30
0.0
 11
243.776
 21
234.99585
 31
0.0
  0
LINE
  5
704
330
1D
100
AcDbEntity
  8
0
100
AcDbLine
 10
243.776
 20
234.99585
 30
0.0
 11
243.776
 21
233.92385
 31
0.0
  0
LINE
  5
705
330
1D
100
AcDbEntity
  8
0
100
AcDbLine
 10
242.319
 20
246.78185
 30
0.0
 11
239.4813
 21
247.46285
 31
0.0
  0
LINE
  5
706
330
1D
100
AcDbEntity
  8
0
100
AcDbLine
 10
242.7023
 20
247.85285
 30
0.0
 11
241.0918
 21
247.85285
 31
0.0
  0
LINE
  5
707
330
1D
100
AcDbEntity
  8
0
100
AcDbLine
 10
242.976
 20
249.85285
 30
0.0
 11
240.776
 21
249.85285
 31
0.0
  0
LINE
  5
708
330
1D
100
AcDbEntity
  8
0
100
AcDbLine
 10
240.776
 20
249.85285
 30
0.0
 11
240.776
 21
247.85285
 31
0.0
  0
LINE
  5
709
330
1D
100
AcDbEntity
  8
0
100
AcDbLine
 10
240.776
 20
247.85285
 30
0.0
 11
240.776
 21
249.85285
 31
0.0
  0
LINE
  5
70A
330
1D
100
AcDbEntity
  8
0
100
AcDbLine
 10
241.0918
 20
247.85285
 30
0.0
 11
238.4971
 21
247.85285
 31
0.0
  0
LINE
  5
70B
330
1D
100
AcDbEntity
  8
0
100
AcDbLine
 10
240.776
 20
249.85285
 30
0.0
 11
240.2819
 21
249.85285
 31
0.0
  0
LINE
  5
70C
330
1D
100
AcDbEntity
  8
0
100
AcDbLine
 10
240.2819
 20
249.85285
 30
0.0
 11
238.8819
 21
249.85285
 31
0.0
  0
LINE
  5
70D
330
1D
100
AcDbEntity
  8
0
100
AcDbLine
 10
243.776
 20
247.59585
 30
0.0
 11
243.776
 21
246.78185
 31
0.0
  0
LINE
  5
70E
330
1D
100
AcDbEntity
  8
0
100
AcDbLine
 10
243.776
 20
247.59585
 30
0.0
 11
243.776
 21
246.78185
 31
0.0
  0
LINE
  5
70F
330
1D
100
AcDbEntity
  8
0
100
AcDbLine
 10
243.776
 20
246.78185
 30
0.0
 11
243.776
 21
247.59585
 31
0.0
  0
LINE
  5
710
330
1D
100
AcDbEntity
  8
0
100
AcDbLine
 10
243.776
 20
246.78185
 30
0.0
 11
243.776
 21
247.59585
 31
0.0
  0
LINE
  5
711
330
1D
100
AcDbEntity
  8
0
100
AcDbLine
 10
243.776
 20
246.78185
 30
0.0
 11
243.776
 21
245.70985
 31
0.0
  0
LINE
  5
712
330
1D
100
AcDbEntity
  8
0
100
AcDbLine
 10
243.776
 20
245.70985
 30
0.0
 11
243.776
 21
246.78185
 31
0.0
  0
LINE
  5
713
330
1D
100
AcDbEntity
  8
0
100
AcDbLine
 10
243.776
 20
245.70985
 30
0.0
 11
242.319
 21
246.78185
 31
0.0
  0
LINE
  5
714
330
1D
100
AcDbEntity
  8
0
100
AcDbLine
 10
243.776
 20
245.70985
 30
0.0
 11
243.776
 21
246.78185
 31
0.0
  0
LINE
  5
715
330
1D
100
AcDbEntity
  8
0
100
AcDbLine
 10
243.776
 20
246.78185
 30
0.0
 11
243.776
 21
245.70985
 31
0.0
  0
LINE
  5
716
330
1D
100
AcDbEntity
  8
0
100
AcDbLine
 10
243.3286
 20
247.85285
 30
0.0
 11
242.7023
 21
247.85285
 31
0.0
  0
LINE
  5
717
330
1D
100
AcDbEntity
  8
0
100
AcDbLine
 10
243.776
 20
247.59585
 30
0.0
 11
243.776
 21
247.74585
 31
0.0
  0
LINE
  5
718
330
1D
100
AcDbEntity
  8
0
100
AcDbLine
 10
243.776
 20
247.74585
 30
0.0
 11
243.3286
 21
247.85285
 31
0.0
  0
LINE
  5
719
330
1D
100
AcDbEntity
  8
0
100
AcDbLine
 10
243.776
 20
247.74585
 30
0.0
 11
243.776
 21
247.59585
 31
0.0
  0
LINE
  5
71A
330
1D
100
AcDbEntity
  8
0
100
AcDbLine
 10
254.876
 20
249.85285
 30
0.0
 11
249.776
 21
249.85285
 31
0.0
  0
LINE
  5
71B
330
1D
100
AcDbEntity
  8
0
100
AcDbLine
 10
255.776
 20
250.23785
 30
0.0
 11
250.476
 21
250.23785
 31
0.0
  0
LINE
  5
71C
330
1D
100
AcDbEntity
  8
0
100
AcDbLine
 10
258.076
 20
249.85285
 30
0.0
 11
254.876
 21
249.85285
 31
0.0
  0
LINE
  5
71D
330
1D
100
AcDbEntity
  8
0
100
AcDbLine
 10
259.076
 20
250.23785
 30
0.0
 11
255.776
 21
250.23785
 31
0.0
  0
LINE
  5
71E
330
1D
100
AcDbEntity
  8
0
100
AcDbLine
 10
259.276
 20
249.85285
 30
0.0
 11
258.076
 21
249.85285
 31
0.0
  0
LINE
  5
71F
330
1D
100
AcDbEntity
  8
0
100
AcDbLine
 10
260.276
 20
250.23785
 30
0.0
 11
259.076
 21
250.23785
 31
0.0
  0
LINE
  5
720
330
1D
100
AcDbEntity
  8
0
100
AcDbLine
 10
260.276
 20
250.23785
 30
0.0
 11
259.276
 21
249.85285
 31
0.0
  0
LINE
  5
721
330
1D
100
AcDbEntity
  8
0
100
AcDbLine
 10
250.776
 20
275.85285
 30
0.0
 11
243.676
 21
275.85285
 31
0.0
  0
LINE
  5
722
330
1D
100
AcDbEntity
  8
0
100
AcDbLine
 10
260.776
 20
251.00685
 30
0.0
 11
260.776
 21
275.85285
 31
0.0
  0
LINE
  5
723
330
1D
100
AcDbEntity
  8
0
100
AcDbLine
 10
260.776
 20
275.85285
 30
0.0
 11
260.776
 21
251.00685
 31
0.0
  0
LINE
  5
724
330
1D
100
AcDbEntity
  8
0
100
AcDbLine
 10
256.176
 20
275.85285
 30
0.0
 11
250.776
 21
275.85285
 31
0.0
  0
LINE
  5
725
330
1D
100
AcDbEntity
  8
0
100
AcDbLine
 10
259.576
 20
275.85285
 30
0.0
 11
256.176
 21
275.85285
 31
0.0
  0
LINE
  5
726
330
1D
100
AcDbEntity
  8
0
100
AcDbLine
 10
260.776
 20
275.85285
 30
0.0
 11
259.576
 21
275.85285
 31
0.0
  0
LINE
  5
727
330
1D
100
AcDbEntity
  8
0
100
AcDbLine
 10
243.676
 20
275.85285
 30
0.0
 11
235.476
 21
275.85285
 31
0.0
  0
LINE
  5
7B8
330
1D
100
AcDbEntity
  8
0
100
AcDbLine
 10
90.776
 20
232.85285
 30
0.0
 11
62.776
 21
232.85285
 31
0.0
  0
LINE
  5
7B9
330
1D
100
AcDbEntity
  8
0
100
AcDbLine
 10
78.8771
 20
233.92385
 30
0.0
 11
76.776
 21
233.92385
 31
0.0
  0
LINE
  5
7BA
330
1D
100
AcDbEntity
  8
0
100
AcDbLine
 10
81.3999
 20
247.40385
 30
0.0
 11
76.776
 21
246.78185
 31
0.0
  0
LINE
  5
7BB
330
1D
100
AcDbEntity
  8
0
100
AcDbLine
 10
85.376
 20
250.23785
 30
0.0
 11
76.776
 21
250.23785
 31
0.0
  0
LINE
  5
7BC
330
1D
100
AcDbEntity
  8
0
100
AcDbLine
 10
80.3583
 20
249.85285
 30
0.0
 11
76.776
 21
249.85285
 31
0.0
  0
LINE
  5
7BD
330
1D
100
AcDbEntity
  8
0
100
AcDbLine
 10
81.0707
 20
247.85285
 30
0.0
 11
76.776
 21
247.85285
 31
0.0
  0
LINE
  5
7BE
330
1D
100
AcDbEntity
  8
0
100
AcDbLine
 10
85.476
 20
275.85285
 30
0.0
 11
76.776
 21
275.85285
 31
0.0
  0
LINE
  5
7BF
330
1D
100
AcDbEntity
  8
0
100
AcDbLine
 10
43.276
 20
250.23785
 30
0.0
 11
42.776
 21
251.00685
 31
0.0
  0
LINE
  5
7C0
330
1D
100
AcDbEntity
  8
0
100
AcDbLine
 10
60.076
 20
250.23785
 30
0.0
 11
53.076
 21
250.23785
 31
0.0
  0
LINE
  5
7C1
330
1D
100
AcDbEntity
  8
0
100
AcDbLine
 10
60.576
 20
249.85285
 30
0.0
 11
53.776
 21
249.85285
 31
0.0
  0
LINE
  5
7C2
330
1D
100
AcDbEntity
  8
0
100
AcDbLine
 10
44.476
 20
250.23785
 30
0.0
 11
43.276
 21
250.23785
 31
0.0
  0
LINE
  5
7C3
330
1D
100
AcDbEntity
  8
0
100
AcDbLine
 10
44.276
 20
249.85285
 30
0.0
 11
43.276
 21
250.23785
 31
0.0
  0
LINE
  5
7C4
330
1D
100
AcDbEntity
  8
0
100
AcDbLine
 10
53.076
 20
250.23785
 30
0.0
 11
47.776
 21
250.23785
 31
0.0
  0
LINE
  5
7C5
330
1D
100
AcDbEntity
  8
0
100
AcDbLine
 10
53.776
 20
249.85285
 30
0.0
 11
48.676
 21
249.85285
 31
0.0
  0
LINE
  5
7C6
330
1D
100
AcDbEntity
  8
0
100
AcDbLine
 10
47.776
 20
250.23785
 30
0.0
 11
44.476
 21
250.23785
 31
0.0
  0
LINE
  5
7C7
330
1D
100
AcDbEntity
  8
0
100
AcDbLine
 10
48.676
 20
249.85285
 30
0.0
 11
45.476
 21
249.85285
 31
0.0
  0
LINE
  5
7C8
330
1D
100
AcDbEntity
  8
0
100
AcDbLine
 10
45.476
 20
249.85285
 30
0.0
 11
44.276
 21
249.85285
 31
0.0
  0
LINE
  5
7C9
330
1D
100
AcDbEntity
  8
0
100
AcDbLine
 10
62.776
 20
232.85285
 30
0.0
 11
62.776
 21
230.85285
 31
0.0
  0
LINE
  5
7CA
330
1D
100
AcDbEntity
  8
0
100
AcDbLine
 10
62.776
 20
230.85285
 30
0.0
 11
62.776
 21
232.85285
 31
0.0
  0
LINE
  5
7CB
330
1D
100
AcDbEntity
  8
0
100
AcDbLine
 10
72.1521
 20
233.30185
 30
0.0
 11
68.1225
 21
233.06985
 31
0.0
  0
LINE
  5
7CC
330
1D
100
AcDbEntity
  8
0
100
AcDbLine
 10
68.5445
 20
247.85285
 30
0.0
 11
65.055
 21
247.85285
 31
0.0
  0
LINE
  5
7CD
330
1D
100
AcDbEntity
  8
0
100
AcDbLine
 10
72.1521
 20
247.40385
 30
0.0
 11
68.1225
 21
247.63585
 31
0.0
  0
LINE
  5
7CE
330
1D
100
AcDbEntity
  8
0
100
AcDbLine
 10
76.776
 20
250.23785
 30
0.0
 11
68.176
 21
250.23785
 31
0.0
  0
LINE
  5
7CF
330
1D
100
AcDbEntity
  8
0
100
AcDbLine
 10
69.8172
 20
249.85285
 30
0.0
 11
66.8936
 21
249.85285
 31
0.0
  0
LINE
  5
7D0
330
1D
100
AcDbEntity
  8
0
100
AcDbLine
 10
59.776
 20
234.99585
 30
0.0
 11
59.776
 21
245.70985
 31
0.0
  0
LINE
  5
7D1
330
1D
100
AcDbEntity
  8
0
100
AcDbLine
 10
59.776
 20
245.70985
 30
0.0
 11
59.776
 21
234.99585
 31
0.0
  0
LINE
  5
7D2
330
1D
100
AcDbEntity
  8
0
100
AcDbLine
 10
59.776
 20
233.10985
 30
0.0
 11
59.776
 21
233.92385
 31
0.0
  0
LINE
  5
7D3
330
1D
100
AcDbEntity
  8
0
100
AcDbLine
 10
59.776
 20
233.92385
 30
0.0
 11
59.776
 21
233.10985
 31
0.0
  0
LINE
  5
7D4
330
1D
100
AcDbEntity
  8
0
100
AcDbLine
 10
64.0707
 20
233.24285
 30
0.0
 11
61.233
 21
233.92385
 31
0.0
  0
LINE
  5
7D5
330
1D
100
AcDbEntity
  8
0
100
AcDbLine
 10
68.1225
 20
233.06985
 30
0.0
 11
64.0707
 21
233.24285
 31
0.0
  0
LINE
  5
7D6
330
1D
100
AcDbEntity
  8
0
100
AcDbLine
 10
60.8497
 20
232.85285
 30
0.0
 11
60.2233
 21
232.85285
 31
0.0
  0
LINE
  5
7D7
330
1D
100
AcDbEntity
  8
0
100
AcDbLine
 10
62.4602
 20
232.85285
 30
0.0
 11
60.8497
 21
232.85285
 31
0.0
  0
LINE
  5
7D8
330
1D
100
AcDbEntity
  8
0
100
AcDbLine
 10
62.776
 20
232.85285
 30
0.0
 11
62.4602
 21
232.85285
 31
0.0
  0
LINE
  5
7D9
330
1D
100
AcDbEntity
  8
0
100
AcDbLine
 10
59.776
 20
233.10985
 30
0.0
 11
59.776
 21
232.95985
 31
0.0
  0
LINE
  5
7DA
330
1D
100
AcDbEntity
  8
0
100
AcDbLine
 10
59.776
 20
232.95985
 30
0.0
 11
59.776
 21
233.10985
 31
0.0
  0
LINE
  5
7DB
330
1D
100
AcDbEntity
  8
0
100
AcDbLine
 10
60.2233
 20
232.85285
 30
0.0
 11
59.776
 21
232.95985
 31
0.0
  0
LINE
  5
7DC
330
1D
100
AcDbEntity
  8
0
100
AcDbLine
 10
61.233
 20
233.92385
 30
0.0
 11
60.1338
 21
233.92385
 31
0.0
  0
LINE
  5
7DD
330
1D
100
AcDbEntity
  8
0
100
AcDbLine
 10
59.776
 20
233.92385
 30
0.0
 11
59.776
 21
234.99585
 31
0.0
  0
LINE
  5
7DE
330
1D
100
AcDbEntity
  8
0
100
AcDbLine
 10
59.776
 20
234.99585
 30
0.0
 11
59.776
 21
233.92385
 31
0.0
  0
LINE
  5
7DF
330
1D
100
AcDbEntity
  8
0
100
AcDbLine
 10
60.1338
 20
233.92385
 30
0.0
 11
59.776
 21
233.92385
 31
0.0
  0
LINE
  5
7E0
330
1D
100
AcDbEntity
  8
0
100
AcDbLine
 10
62.776
 20
247.85285
 30
0.0
 11
62.776
 21
249.85285
 31
0.0
  0
LINE
  5
7E1
330
1D
100
AcDbEntity
  8
0
100
AcDbLine
 10
62.776
 20
249.85285
 30
0.0
 11
62.776
 21
247.85285
 31
0.0
  0
LINE
  5
7E2
330
1D
100
AcDbEntity
  8
0
100
AcDbLine
 10
68.1225
 20
247.63585
 30
0.0
 11
64.0707
 21
247.46285
 31
0.0
  0
LINE
  5
7E3
330
1D
100
AcDbEntity
  8
0
100
AcDbLine
 10
61.233
 20
246.78185
 30
0.0
 11
59.776
 21
245.70985
 31
0.0
  0
LINE
  5
7E4
330
1D
100
AcDbEntity
  8
0
100
AcDbLine
 10
60.8497
 20
247.85285
 30
0.0
 11
60.2233
 21
247.85285
 31
0.0
  0
LINE
  5
7E5
330
1D
100
AcDbEntity
  8
0
100
AcDbLine
 10
64.0707
 20
247.46285
 30
0.0
 11
61.233
 21
246.78185
 31
0.0
  0
LINE
  5
7E6
330
1D
100
AcDbEntity
  8
0
100
AcDbLine
 10
65.055
 20
247.85285
 30
0.0
 11
62.4602
 21
247.85285
 31
0.0
  0
LINE
  5
7E7
330
1D
100
AcDbEntity
  8
0
100
AcDbLine
 10
62.4602
 20
247.85285
 30
0.0
 11
60.8497
 21
247.85285
 31
0.0
  0
LINE
  5
7E8
330
1D
100
AcDbEntity
  8
0
100
AcDbLine
 10
59.776
 20
247.59585
 30
0.0
 11
59.776
 21
246.78185
 31
0.0
  0
LINE
  5
7E9
330
1D
100
AcDbEntity
  8
0
100
AcDbLine
 10
59.776
 20
246.78185
 30
0.0
 11
59.776
 21
247.59585
 31
0.0
  0
LINE
  5
7EA
330
1D
100
AcDbEntity
  8
0
100
AcDbLine
 10
59.776
 20
245.70985
 30
0.0
 11
59.776
 21
246.78185
 31
0.0
  0
LINE
  5
7EB
330
1D
100
AcDbEntity
  8
0
100
AcDbLine
 10
59.776
 20
246.78185
 30
0.0
 11
59.776
 21
245.70985
 31
0.0
  0
LINE
  5
7EC
330
1D
100
AcDbEntity
  8
0
100
AcDbLine
 10
59.776
 20
247.74585
 30
0.0
 11
59.776
 21
247.59585
 31
0.0
  0
LINE
  5
7ED
330
1D
100
AcDbEntity
  8
0
100
AcDbLine
 10
60.2233
 20
247.85285
 30
0.0
 11
59.776
 21
247.74585
 31
0.0
  0
LINE
  5
7EE
330
1D
100
AcDbEntity
  8
0
100
AcDbLine
 10
68.176
 20
250.23785
 30
0.0
 11
60.076
 21
250.23785
 31
0.0
  0
LINE
  5
7EF
330
1D
100
AcDbEntity
  8
0
100
AcDbLine
 10
66.8936
 20
249.85285
 30
0.0
 11
64.6701
 21
249.85285
 31
0.0
  0
LINE
  5
7F0
330
1D
100
AcDbEntity
  8
0
100
AcDbLine
 10
62.776
 20
249.85285
 30
0.0
 11
60.576
 21
249.85285
 31
0.0
  0
LINE
  5
7F1
330
1D
100
AcDbEntity
  8
0
100
AcDbLine
 10
64.6701
 20
249.85285
 30
0.0
 11
63.2701
 21
249.85285
 31
0.0
  0
LINE
  5
7F2
330
1D
100
AcDbEntity
  8
0
100
AcDbLine
 10
63.2701
 20
249.85285
 30
0.0
 11
62.776
 21
249.85285
 31
0.0
  0
LINE
  5
7F3
330
1D
100
AcDbEntity
  8
0
100
AcDbLine
 10
76.776
 20
233.92385
 30
0.0
 11
76.776
 21
246.78185
 31
0.0
  0
LINE
  5
7F4
330
1D
100
AcDbEntity
  8
0
100
AcDbLine
 10
76.776
 20
233.92385
 30
0.0
 11
74.6749
 21
233.92385
 31
0.0
  0
LINE
  5
7F5
330
1D
100
AcDbEntity
  8
0
100
AcDbLine
 10
74.6749
 20
233.92385
 30
0.0
 11
72.1521
 21
233.30185
 31
0.0
  0
LINE
  5
7F6
330
1D
100
AcDbEntity
  8
0
100
AcDbLine
 10
72.4813
 20
247.85285
 30
0.0
 11
68.5445
 21
247.85285
 31
0.0
  0
LINE
  5
7F7
330
1D
100
AcDbEntity
  8
0
100
AcDbLine
 10
76.776
 20
246.78185
 30
0.0
 11
72.1521
 21
247.40385
 31
0.0
  0
LINE
  5
7F8
330
1D
100
AcDbEntity
  8
0
100
AcDbLine
 10
76.776
 20
247.85285
 30
0.0
 11
72.4813
 21
247.85285
 31
0.0
  0
LINE
  5
7F9
330
1D
100
AcDbEntity
  8
0
100
AcDbLine
 10
73.1937
 20
249.85285
 30
0.0
 11
69.8172
 21
249.85285
 31
0.0
  0
LINE
  5
7FA
330
1D
100
AcDbEntity
  8
0
100
AcDbLine
 10
76.776
 20
249.85285
 30
0.0
 11
73.1937
 21
249.85285
 31
0.0
  0
LINE
  5
7FB
330
1D
100
AcDbEntity
  8
0
100
AcDbLine
 10
42.776
 20
275.85285
 30
0.0
 11
42.776
 21
251.00685
 31
0.0
  0
LINE
  5
7FC
330
1D
100
AcDbEntity
  8
0
100
AcDbLine
 10
42.776
 20
251.00685
 30
0.0
 11
42.776
 21
275.85285
 31
0.0
  0
LINE
  5
7FD
330
1D
100
AcDbEntity
  8
0
100
AcDbLine
 10
59.876
 20
275.85285
 30
0.0
 11
52.776
 21
275.85285
 31
0.0
  0
LINE
  5
7FE
330
1D
100
AcDbEntity
  8
0
100
AcDbLine
 10
68.076
 20
275.85285
 30
0.0
 11
59.876
 21
275.85285
 31
0.0
  0
LINE
  5
7FF
330
1D
100
AcDbEntity
  8
0
100
AcDbLine
 10
76.776
 20
275.85285
 30
0.0
 11
68.076
 21
275.85285
 31
0.0
  0
LINE
  5
800
330
1D
100
AcDbEntity
  8
0
100
AcDbLine
 10
43.976
 20
275.85285
 30
0.0
 11
42.776
 21
275.85285
 31
0.0
  0
LINE
  5
801
330
1D
100
AcDbEntity
  8
0
100
AcDbLine
 10
52.776
 20
275.85285
 30
0.0
 11
47.376
 21
275.85285
 31
0.0
  0
LINE
  5
802
330
1D
100
AcDbEntity
  8
0
100
AcDbLine
 10
47.376
 20
275.85285
 30
0.0
 11
43.976
 21
275.85285
 31
0.0
  0
LINE
  5
803
330
1D
100
AcDbEntity
  8
0
100
AcDbLine
 10
110.776
 20
251.00685
 30
0.0
 11
110.276
 21
250.23785
 31
0.0
  0
LINE
  5
804
330
1D
100
AcDbEntity
  8
0
100
AcDbLine
 10
100.476
 20
250.23785
 30
0.0
 11
93.476
 21
250.23785
 31
0.0
  0
LINE
  5
805
330
1D
100
AcDbEntity
  8
0
100
AcDbLine
 10
99.776
 20
249.85285
 30
0.0
 11
92.976
 21
249.85285
 31
0.0
  0
LINE
  5
806
330
1D
100
AcDbEntity
  8
0
100
AcDbLine
 10
90.776
 20
232.85285
 30
0.0
 11
90.776
 21
230.85285
 31
0.0
  0
LINE
  5
807
330
1D
100
AcDbEntity
  8
0
100
AcDbLine
 10
90.776
 20
230.85285
 30
0.0
 11
90.776
 21
232.85285
 31
0.0
  0
LINE
  5
808
330
1D
100
AcDbEntity
  8
0
100
AcDbLine
 10
89.4813
 20
233.24285
 30
0.0
 11
85.4295
 21
233.06985
 31
0.0
  0
LINE
  5
809
330
1D
100
AcDbEntity
  8
0
100
AcDbLine
 10
89.4813
 20
247.46285
 30
0.0
 11
85.4295
 21
247.63585
 31
0.0
  0
LINE
  5
80A
330
1D
100
AcDbEntity
  8
0
100
AcDbLine
 10
88.4971
 20
247.85285
 30
0.0
 11
85.0076
 21
247.85285
 31
0.0
  0
LINE
  5
80B
330
1D
100
AcDbEntity
  8
0
100
AcDbLine
 10
93.476
 20
250.23785
 30
0.0
 11
85.376
 21
250.23785
 31
0.0
  0
LINE
  5
80C
330
1D
100
AcDbEntity
  8
0
100
AcDbLine
 10
88.8819
 20
249.85285
 30
0.0
 11
86.6583
 21
249.85285
 31
0.0
  0
LINE
  5
80D
330
1D
100
AcDbEntity
  8
0
100
AcDbLine
 10
85.4295
 20
233.06985
 30
0.0
 11
81.3999
 21
233.30185
 31
0.0
  0
LINE
  5
80E
330
1D
100
AcDbEntity
  8
0
100
AcDbLine
 10
81.3999
 20
233.30185
 30
0.0
 11
78.8771
 21
233.92385
 31
0.0
  0
LINE
  5
80F
330
1D
100
AcDbEntity
  8
0
100
AcDbLine
 10
85.0076
 20
247.85285
 30
0.0
 11
81.0707
 21
247.85285
 31
0.0
  0
LINE
  5
810
330
1D
100
AcDbEntity
  8
0
100
AcDbLine
 10
85.4295
 20
247.63585
 30
0.0
 11
81.3999
 21
247.40385
 31
0.0
  0
LINE
  5
811
330
1D
100
AcDbEntity
  8
0
100
AcDbLine
 10
83.7348
 20
249.85285
 30
0.0
 11
80.3583
 21
249.85285
 31
0.0
  0
LINE
  5
812
330
1D
100
AcDbEntity
  8
0
100
AcDbLine
 10
86.6583
 20
249.85285
 30
0.0
 11
83.7348
 21
249.85285
 31
0.0
  0
LINE
  5
813
330
1D
100
AcDbEntity
  8
0
100
AcDbLine
 10
93.776
 20
245.70985
 30
0.0
 11
93.776
 21
234.99585
 31
0.0
  0
LINE
  5
814
330
1D
100
AcDbEntity
  8
0
100
AcDbLine
 10
93.776
 20
234.99585
 30
0.0
 11
93.776
 21
245.70985
 31
0.0
  0
LINE
  5
815
330
1D
100
AcDbEntity
  8
0
100
AcDbLine
 10
92.319
 20
233.92385
 30
0.0
 11
89.4813
 21
233.24285
 31
0.0
  0
LINE
  5
816
330
1D
100
AcDbEntity
  8
0
100
AcDbLine
 10
93.776
 20
233.10985
 30
0.0
 11
93.776
 21
233.92385
 31
0.0
  0
LINE
  5
817
330
1D
100
AcDbEntity
  8
0
100
AcDbLine
 10
93.776
 20
233.92385
 30
0.0
 11
93.776
 21
233.10985
 31
0.0
  0
LINE
  5
818
330
1D
100
AcDbEntity
  8
0
100
AcDbLine
 10
92.7023
 20
232.85285
 30
0.0
 11
91.0918
 21
232.85285
 31
0.0
  0
LINE
  5
819
330
1D
100
AcDbEntity
  8
0
100
AcDbLine
 10
93.776
 20
232.95985
 30
0.0
 11
93.3286
 21
232.85285
 31
0.0
  0
LINE
  5
81A
330
1D
100
AcDbEntity
  8
0
100
AcDbLine
 10
93.776
 20
232.95985
 30
0.0
 11
93.776
 21
233.10985
 31
0.0
  0
LINE
  5
81B
330
1D
100
AcDbEntity
  8
0
100
AcDbLine
 10
93.3286
 20
232.85285
 30
0.0
 11
92.7023
 21
232.85285
 31
0.0
  0
LINE
  5
81C
330
1D
100
AcDbEntity
  8
0
100
AcDbLine
 10
93.776
 20
233.10985
 30
0.0
 11
93.776
 21
232.95985
 31
0.0
  0
LINE
  5
81D
330
1D
100
AcDbEntity
  8
0
100
AcDbLine
 10
91.0918
 20
232.85285
 30
0.0
 11
90.776
 21
232.85285
 31
0.0
  0
LINE
  5
81E
330
1D
100
AcDbEntity
  8
0
100
AcDbLine
 10
93.4181
 20
233.92385
 30
0.0
 11
92.319
 21
233.92385
 31
0.0
  0
LINE
  5
81F
330
1D
100
AcDbEntity
  8
0
100
AcDbLine
 10
93.776
 20
233.92385
 30
0.0
 11
93.4181
 21
233.92385
 31
0.0
  0
LINE
  5
820
330
1D
100
AcDbEntity
  8
0
100
AcDbLine
 10
93.776
 20
233.92385
 30
0.0
 11
93.776
 21
234.99585
 31
0.0
  0
LINE
  5
821
330
1D
100
AcDbEntity
  8
0
100
AcDbLine
 10
93.776
 20
234.99585
 30
0.0
 11
93.776
 21
233.92385
 31
0.0
  0
LINE
  5
822
330
1D
100
AcDbEntity
  8
0
100
AcDbLine
 10
92.319
 20
246.78185
 30
0.0
 11
89.4813
 21
247.46285
 31
0.0
  0
LINE
  5
823
330
1D
100
AcDbEntity
  8
0
100
AcDbLine
 10
92.7023
 20
247.85285
 30
0.0
 11
91.0918
 21
247.85285
 31
0.0
  0
LINE
  5
824
330
1D
100
AcDbEntity
  8
0
100
AcDbLine
 10
92.976
 20
249.85285
 30
0.0
 11
90.776
 21
249.85285
 31
0.0
  0
LINE
  5
825
330
1D
100
AcDbEntity
  8
0
100
AcDbLine
 10
90.776
 20
249.85285
 30
0.0
 11
90.776
 21
247.85285
 31
0.0
  0
LINE
  5
826
330
1D
100
AcDbEntity
  8
0
100
AcDbLine
 10
90.776
 20
247.85285
 30
0.0
 11
90.776
 21
249.85285
 31
0.0
  0
LINE
  5
827
330
1D
100
AcDbEntity
  8
0
100
AcDbLine
 10
91.0918
 20
247.85285
 30
0.0
 11
88.4971
 21
247.85285
 31
0.0
  0
LINE
  5
828
330
1D
100
AcDbEntity
  8
0
100
AcDbLine
 10
90.776
 20
249.85285
 30
0.0
 11
90.2819
 21
249.85285
 31
0.0
  0
LINE
  5
829
330
1D
100
AcDbEntity
  8
0
100
AcDbLine
 10
90.2819
 20
249.85285
 30
0.0
 11
88.8819
 21
249.85285
 31
0.0
  0
LINE
  5
82A
330
1D
100
AcDbEntity
  8
0
100
AcDbLine
 10
93.776
 20
247.59585
 30
0.0
 11
93.776
 21
246.78185
 31
0.0
  0
LINE
  5
82B
330
1D
100
AcDbEntity
  8
0
100
AcDbLine
 10
93.776
 20
247.59585
 30
0.0
 11
93.776
 21
246.78185
 31
0.0
  0
LINE
  5
82C
330
1D
100
AcDbEntity
  8
0
100
AcDbLine
 10
93.776
 20
246.78185
 30
0.0
 11
93.776
 21
247.59585
 31
0.0
  0
LINE
  5
82D
330
1D
100
AcDbEntity
  8
0
100
AcDbLine
 10
93.776
 20
246.78185
 30
0.0
 11
93.776
 21
247.59585
 31
0.0
  0
LINE
  5
82E
330
1D
100
AcDbEntity
  8
0
100
AcDbLine
 10
93.776
 20
246.78185
 30
0.0
 11
93.776
 21
245.70985
 31
0.0
  0
LINE
  5
82F
330
1D
100
AcDbEntity
  8
0
100
AcDbLine
 10
93.776
 20
245.70985
 30
0.0
 11
93.776
 21
246.78185
 31
0.0
  0
LINE
  5
830
330
1D
100
AcDbEntity
  8
0
100
AcDbLine
 10
93.776
 20
245.70985
 30
0.0
 11
92.319
 21
246.78185
 31
0.0
  0
LINE
  5
831
330
1D
100
AcDbEntity
  8
0
100
AcDbLine
 10
93.776
 20
245.70985
 30
0.0
 11
93.776
 21
246.78185
 31
0.0
  0
LINE
  5
832
330
1D
100
AcDbEntity
  8
0
100
AcDbLine
 10
93.776
 20
246.78185
 30
0.0
 11
93.776
 21
245.70985
 31
0.0
  0
LINE
  5
833
330
1D
100
AcDbEntity
  8
0
100
AcDbLine
 10
93.3286
 20
247.85285
 30
0.0
 11
92.7023
 21
247.85285
 31
0.0
  0
LINE
  5
834
330
1D
100
AcDbEntity
  8
0
100
AcDbLine
 10
93.776
 20
247.59585
 30
0.0
 11
93.776
 21
247.74585
 31
0.0
  0
LINE
  5
835
330
1D
100
AcDbEntity
  8
0
100
AcDbLine
 10
93.776
 20
247.74585
 30
0.0
 11
93.3286
 21
247.85285
 31
0.0
  0
LINE
  5
836
330
1D
100
AcDbEntity
  8
0
100
AcDbLine
 10
93.776
 20
247.74585
 30
0.0
 11
93.776
 21
247.59585
 31
0.0
  0
LINE
  5
837
330
1D
100
AcDbEntity
  8
0
100
AcDbLine
 10
104.876
 20
249.85285
 30
0.0
 11
99.776
 21
249.85285
 31
0.0
  0
LINE
  5
838
330
1D
100
AcDbEntity
  8
0
100
AcDbLine
 10
105.776
 20
250.23785
 30
0.0
 11
100.476
 21
250.23785
 31
0.0
  0
LINE
  5
839
330
1D
100
AcDbEntity
  8
0
100
AcDbLine
 10
108.076
 20
249.85285
 30
0.0
 11
104.876
 21
249.85285
 31
0.0
  0
LINE
  5
83A
330
1D
100
AcDbEntity
  8
0
100
AcDbLine
 10
109.076
 20
250.23785
 30
0.0
 11
105.776
 21
250.23785
 31
0.0
  0
LINE
  5
83B
330
1D
100
AcDbEntity
  8
0
100
AcDbLine
 10
109.276
 20
249.85285
 30
0.0
 11
108.076
 21
249.85285
 31
0.0
  0
LINE
  5
83C
330
1D
100
AcDbEntity
  8
0
100
AcDbLine
 10
110.276
 20
250.23785
 30
0.0
 11
109.076
 21
250.23785
 31
0.0
  0
LINE
  5
83D
330
1D
100
AcDbEntity
  8
0
100
AcDbLine
 10
110.276
 20
250.23785
 30
0.0
 11
109.276
 21
249.85285
 31
0.0
  0
LINE
  5
83E
330
1D
100
AcDbEntity
  8
0
100
AcDbLine
 10
100.776
 20
275.85285
 30
0.0
 11
93.676
 21
275.85285
 31
0.0
  0
LINE
  5
83F
330
1D
100
AcDbEntity
  8
0
100
AcDbLine
 10
110.776
 20
251.00685
 30
0.0
 11
110.776
 21
275.85285
 31
0.0
  0
LINE
  5
840
330
1D
100
AcDbEntity
  8
0
100
AcDbLine
 10
110.776
 20
275.85285
 30
0.0
 11
110.776
 21
251.00685
 31
0.0
  0
LINE
  5
841
330
1D
100
AcDbEntity
  8
0
100
AcDbLine
 10
106.176
 20
275.85285
 30
0.0
 11
100.776
 21
275.85285
 31
0.0
  0
LINE
  5
842
330
1D
100
AcDbEntity
  8
0
100
AcDbLine
 10
109.576
 20
275.85285
 30
0.0
 11
106.176
 21
275.85285
 31
0.0
  0
LINE
  5
843
330
1D
100
AcDbEntity
  8
0
100
AcDbLine
 10
110.776
 20
275.85285
 30
0.0
 11
109.576
 21
275.85285
 31
0.0
  0
LINE
  5
844
330
1D
100
AcDbEntity
  8
0
100
AcDbLine
 10
93.676
 20
275.85285
 30
0.0
 11
85.476
 21
275.85285
 31
0.0
  0
LINE
  5
845
330
1D
100
AcDbEntity
  8
0
100
AcDbLine
 10
140.776
 20
93.21485
 30
0.0
 11
141.416388058357
 21
90.58286786401
 31
0.0
  0
LINE
  5
846
330
1D
100
AcDbEntity
  8
0
100
AcDbLine
 10
141.416388058357
 20
90.58286786401
 30
0.0
 11
142.255
 21
88.48385
 31
0.0
  0
LINE
  5
847
330
1D
100
AcDbEntity
  8
0
100
AcDbLine
 10
161.297
 20
88.48385
 30
0.0
 11
162.369912046457
 21
90.896647757342
 31
0.0
  0
LINE
  5
848
330
1D
100
AcDbEntity
  8
0
100
AcDbLine
 10
162.369912046457
 20
90.896647757342
 30
0.0
 11
162.776
 21
93.21485
 31
0.0
  0
ENDSEC
  0
SECTION
  2
OBJECTS
  0
DICTIONARY
  5
C
330
0
100
AcDbDictionary
281
     1
  3
ACAD_GROUP
350
D
  3
ACAD_LAYOUT
350
1A
  3
ACAD_MLEADERSTYLE
350
84B
  3
ACAD_MLINESTYLE
350
17
  3
ACAD_PLOTSETTINGS
350
19
  3
ACAD_PLOTSTYLENAME
350
E
  3
ACAD_SCALELIST
350
5E9
  3
AcDbVariableDictionary
350
849
  3
DWGPROPS
350
84E
  0
DICTIONARY
  5
D
102
{ACAD_REACTORS
330
C
102
}
330
C
100
AcDbDictionary
281
     1
  0
DICTIONARY
  5
1A
102
{ACAD_REACTORS
330
C
102
}
330
C
100
AcDbDictionary
281
     1
  3
Layout1
350
1C
  3
Model
350
1E
  0
DICTIONARY
  5
84B
102
{ACAD_REACTORS
330
C
102
}
330
C
100
AcDbDictionary
281
     1
  0
DICTIONARY
  5
17
102
{ACAD_REACTORS
330
C
102
}
330
C
100
AcDbDictionary
281
     1
  3
Standard
350
18
  0
DICTIONARY
  5
19
102
{ACAD_REACTORS
330
C
102
}
330
C
100
AcDbDictionary
281
     1
  0
ACDBDICTIONARYWDFLT
  5
E
102
{ACAD_REACTORS
330
C
102
}
330
C
100
AcDbDictionary
281
     1
  3
Normal
350
F
100
AcDbDictionaryWithDefault
340
F
  0
DICTIONARY
  5
5E9
102
{ACAD_REACTORS
330
C
102
}
330
C
100
AcDbDictionary
281
     1
  3
A0
350
5EA
  3
A1
350
5EB
  3
A2
350
5EC
  3
A3
350
5ED
  3
A4
350
5EE
  3
A5
350
5EF
  3
A6
350
5F0
  3
A7
350
5F1
  3
A8
350
5F2
  3
A9
350
5F3
  3
B0
350
5F4
  3
B1
350
5F5
  3
B2
350
5F6
  3
B3
350
5F7
  3
B4
350
5F8
  3
B5
350
5F9
  3
B6
350
5FA
  3
B7
350
5FB
  3
B8
350
5FC
  3
B9
350
5FD
  3
C0
350
5FE
  3
C1
350
5FF
  3
C2
350
600
  3
C3
350
601
  3
C4
350
602
  3
C5
350
603
  3
C6
350
604
  3
C7
350
605
  3
C8
350
606
  3
C9
350
607
  3
D0
350
608
  3
D1
350
609
  3
D2
350
60A
  0
DICTIONARY
  5
849
102
{ACAD_REACTORS
330
C
102
}
330
C
100
AcDbDictionary
281
     1
  3
CANNOSCALE
350
84C
  0
XRECORD
  5
84E
102
{ACAD_REACTORS
330
C
102
}
330
C
100
AcDbXrecord
280
     1
  1
DWGPROPS COOKIE
  2

  3

  4

  6

  7

  8
MARTIN
  9

300
=
301
=
302
=
303
=
304
=
305
=
306
=
307
=
308
=
309
=
 40
0.0
 41
2455872.541989294
 42
2455872.546349282
  1

 90
        0
  0
LAYOUT
  5
1C
102
{ACAD_REACTORS
330
1A
102
}
330
1A
100
AcDbPlotSettings
  1

  2
none_device
  4

  6

 40
0.0
 41
0.0
 42
0.0
 43
0.0
 44
0.0
 45
0.0
 46
0.0
 47
0.0
 48
0.0
 49
0.0
140
0.0
141
0.0
142
1.0
143
1.0
 70
   688
 72
     0
 73
     0
 74
     5
  7

 75
    16
147
1.0
148
0.0
149
0.0
100
AcDbLayout
  1
Layout1
 70
     1
 71
     1
 10
0.0
 20
0.0
 11
12.0
 21
9.0
 12
0.0
 22
0.0
 32
0.0
 14
1.000000000000E+20
 24
1.000000000000E+20
 34
1.000000000000E+20
 15
-1.000000000000E+20
 25
-1.000000000000E+20
 35
-1.000000000000E+20
146
0.0
 13
0.0
 23
0.0
 33
0.0
 16
1.0
 26
0.0
 36
0.0
 17
0.0
 27
1.0
 37
0.0
 76
     0
330
1B
  0
LAYOUT
  5
1E
102
{ACAD_REACTORS
330
1A
102
}
330
1A
100
AcDbPlotSettings
  1

  2
none_device
  4

  6

 40
0.0
 41
0.0
 42
0.0
 43
0.0
 44
0.0
 45
0.0
 46
0.0
 47
0.0
 48
0.0
 49
0.0
140
0.0
141
0.0
142
1.0
143
1.0
 70
  1712
 72
     0
 73
     0
 74
     0
  7

 75
     0
147
1.0
148
0.0
149
0.0
100
AcDbLayout
  1
Model
 70
     1
 71
     0
 10
0.0
 20
0.0
 11
12.0
 21
9.0
 12
0.0
 22
0.0
 32
0.0
 14
-0.224
 24
0.14715
 34
0.0
 15
454.224
 25
275.85285
 35
0.0
146
0.0
 13
0.0
 23
0.0
 33
0.0
 16
1.0
 26
0.0
 36
0.0
 17
0.0
 27
1.0
 37
0.0
 76
     0
330
1D
331
5E4
  0
MLINESTYLE
  5
18
102
{ACAD_REACTORS
330
17
102
}
330
17
100
AcDbMlineStyle
  2
Standard
 70
     0
  3

 62
   256
 51
90.0
 52
90.0
 71
     2
 49
0.5
 62
   256
  6
BYLAYER
 49
-0.5
 62
   256
  6
BYLAYER
  0
ACDBPLACEHOLDER
  5
F
102
{ACAD_REACTORS
330
E
102
}
330
E
  0
SCALE
  5
5EA
102
{ACAD_REACTORS
330
5E9
102
}
330
5E9
100
AcDbScale
 70
     0
300
1:1
140
1.0
141
1.0
290
     1
  0
SCALE
  5
5EB
102
{ACAD_REACTORS
330
5E9
102
}
330
5E9
100
AcDbScale
 70
     0
300
1:2
140
1.0
141
2.0
290
     0
  0
SCALE
  5
5EC
102
{ACAD_REACTORS
330
5E9
102
}
330
5E9
100
AcDbScale
 70
     0
300
1:4
140
1.0
141
4.0
290
     0
  0
SCALE
  5
5ED
102
{ACAD_REACTORS
330
5E9
102
}
330
5E9
100
AcDbScale
 70
     0
300
1:5
140
1.0
141
5.0
290
     0
  0
SCALE
  5
5EE
102
{ACAD_REACTORS
330
5E9
102
}
330
5E9
100
AcDbScale
 70
     0
300
1:8
140
1.0
141
8.0
290
     0
  0
SCALE
  5
5EF
102
{ACAD_REACTORS
330
5E9
102
}
330
5E9
100
AcDbScale
 70
     0
300
1:10
140
1.0
141
10.0
290
     0
  0
SCALE
  5
5F0
102
{ACAD_REACTORS
330
5E9
102
}
330
5E9
100
AcDbScale
 70
     0
300
1:16
140
1.0
141
16.0
290
     0
  0
SCALE
  5
5F1
102
{ACAD_REACTORS
330
5E9
102
}
330
5E9
100
AcDbScale
 70
     0
300
1:20
140
1.0
141
20.0
290
     0
  0
SCALE
  5
5F2
102
{ACAD_REACTORS
330
5E9
102
}
330
5E9
100
AcDbScale
 70
     0
300
1:30
140
1.0
141
30.0
290
     0
  0
SCALE
  5
5F3
102
{ACAD_REACTORS
330
5E9
102
}
330
5E9
100
AcDbScale
 70
     0
300
1:40
140
1.0
141
40.0
290
     0
  0
SCALE
  5
5F4
102
{ACAD_REACTORS
330
5E9
102
}
330
5E9
100
AcDbScale
 70
     0
300
1:50
140
1.0
141
50.0
290
     0
  0
SCALE
  5
5F5
102
{ACAD_REACTORS
330
5E9
102
}
330
5E9
100
AcDbScale
 70
     0
300
1:100
140
1.0
141
100.0
290
     0
  0
SCALE
  5
5F6
102
{ACAD_REACTORS
330
5E9
102
}
330
5E9
100
AcDbScale
 70
     0
300
2:1
140
2.0
141
1.0
290
     0
  0
SCALE
  5
5F7
102
{ACAD_REACTORS
330
5E9
102
}
330
5E9
100
AcDbScale
 70
     0
300
4:1
140
4.0
141
1.0
290
     0
  0
SCALE
  5
5F8
102
{ACAD_REACTORS
330
5E9
102
}
330
5E9
100
AcDbScale
 70
     0
300
8:1
140
8.0
141
1.0
290
     0
  0
SCALE
  5
5F9
102
{ACAD_REACTORS
330
5E9
102
}
330
5E9
100
AcDbScale
 70
     0
300
10:1
140
10.0
141
1.0
290
     0
  0
SCALE
  5
5FA
102
{ACAD_REACTORS
330
5E9
102
}
330
5E9
100
AcDbScale
 70
     0
300
100:1
140
100.0
141
1.0
290
     0
  0
SCALE
  5
5FB
102
{ACAD_REACTORS
330
5E9
102
}
330
5E9
100
AcDbScale
 70
     0
300
1/128" = 1'-0"
140
0.0078125
141
12.0
290
     0
  0
SCALE
  5
5FC
102
{ACAD_REACTORS
330
5E9
102
}
330
5E9
100
AcDbScale
 70
     0
300
1/64" = 1'-0"
140
0.015625
141
12.0
290
     0
  0
SCALE
  5
5FD
102
{ACAD_REACTORS
330
5E9
102
}
330
5E9
100
AcDbScale
 70
     0
300
1/32" = 1'-0"
140
0.03125
141
12.0
290
     0
  0
SCALE
  5
5FE
102
{ACAD_REACTORS
330
5E9
102
}
330
5E9
100
AcDbScale
 70
     0
300
1/16" = 1'-0"
140
0.0625
141
12.0
290
     0
  0
SCALE
  5
5FF
102
{ACAD_REACTORS
330
5E9
102
}
330
5E9
100
AcDbScale
 70
     0
300
3/32" = 1'-0"
140
0.09375
141
12.0
290
     0
  0
SCALE
  5
600
102
{ACAD_REACTORS
330
5E9
102
}
330
5E9
100
AcDbScale
 70
     0
300
1/8" = 1'-0"
140
0.125
141
12.0
290
     0
  0
SCALE
  5
601
102
{ACAD_REACTORS
330
5E9
102
}
330
5E9
100
AcDbScale
 70
     0
300
3/16" = 1'-0"
140
0.1875
141
12.0
290
     0
  0
SCALE
  5
602
102
{ACAD_REACTORS
330
5E9
102
}
330
5E9
100
AcDbScale
 70
     0
300
1/4" = 1'-0"
140
0.25
141
12.0
290
     0
  0
SCALE
  5
603
102
{ACAD_REACTORS
330
5E9
102
}
330
5E9
100
AcDbScale
 70
     0
300
3/8" = 1'-0"
140
0.375
141
12.0
290
     0
  0
SCALE
  5
604
102
{ACAD_REACTORS
330
5E9
102
}
330
5E9
100
AcDbScale
 70
     0
300
1/2" = 1'-0"
140
0.5
141
12.0
290
     0
  0
SCALE
  5
605
102
{ACAD_REACTORS
330
5E9
102
}
330
5E9
100
AcDbScale
 70
     0
300
3/4" = 1'-0"
140
0.75
141
12.0
290
     0
  0
SCALE
  5
606
102
{ACAD_REACTORS
330
5E9
102
}
330
5E9
100
AcDbScale
 70
     0
300
1" = 1'-0"
140
1.0
141
12.0
290
     0
  0
SCALE
  5
607
102
{ACAD_REACTORS
330
5E9
102
}
330
5E9
100
AcDbScale
 70
     0
300
1-1/2" = 1'-0"
140
1.5
141
12.0
290
     0
  0
SCALE
  5
608
102
{ACAD_REACTORS
330
5E9
102
}
330
5E9
100
AcDbScale
 70
     0
300
3" = 1'-0"
140
3.0
141
12.0
290
     0
  0
SCALE
  5
609
102
{ACAD_REACTORS
330
5E9
102
}
330
5E9
100
AcDbScale
 70
     0
300
6" = 1'-0"
140
6.0
141
12.0
290
     0
  0
SCALE
  5
60A
102
{ACAD_REACTORS
330
5E9
102
}
330
5E9
100
AcDbScale
 70
     0
300
1'-0" = 1'-0"
140
12.0
141
12.0
290
     0
  0
DICTIONARYVAR
  5
84C
102
{ACAD_REACTORS
330
849
102
}
330
849
100
DictionaryVariables
280
     0
  1
1:1
  0
ENDSEC
  0
SECTION
  2
THUMBNAILIMAGE
 90
    16364
310
28000000B40000005500000001000800000000000000000000000000000000000000000000000000FFFFFF000000FF0000FFFF0000FF0000FFFF0000FF000000FF00FF000000000080808000C0C0C0000000FF007F7FFF000000A5005252A50000007F003F3F7F0000004C0026264C000000260013132600003FFF007F9FFF
310
000029A5005267A500001F7F003F4F7F0000134C00262F4C000009260013172600007FFF007FBFFF000052A500527CA500003F7F003F5F7F0000264C0026394C0000132600131C260000BFFF007FDFFF00007CA5005291A500005F7F003F6F7F0000394C0026424C00001C26001321260000FFFF007FFFFF0000A5A50052A5
310
A500007F7F003F7F7F00004C4C00264C4C00002626001326260000FFBF007FFFDF0000A57C0052A59100007F5F003F7F6F00004C3900264C420000261C001326210000FF7F007FFFBF0000A5520052A57C00007F3F003F7F5F00004C2600264C39000026130013261C0000FF3F007FFF9F0000A5290052A56700007F1F003F
310
7F4F00004C1300264C2F00002609001326170000FF00007FFF7F0000A5000052A55200007F00003F7F3F00004C0000264C260000260000132613003FFF00009FFF7F0029A5000067A552001F7F00004F7F3F00134C00002F4C260009260000172613007FFF0000BFFF7F0052A500007CA552003F7F00005F7F3F00264C0000
310
394C2600132600001C261300BFFF0000DFFF7F007CA5000091A552005F7F00006F7F3F00394C0000424C26001C26000021261300FFFF0000FFFF7F00A5A50000A5A552007F7F00007F7F3F004C4C00004C4C26002626000026261300FFBF0000FFDF7F00A57C0000A59152007F5F00007F6F3F004C3900004C422600261C00
310
0026211300FF7F0000FFBF7F00A5520000A57C52007F3F00007F5F3F004C2600004C39260026130000261C1300FF3F0000FF9F7F00A5290000A56752007F1F00007F4F3F004C1300004C2F26002609000026171300FF000000FF7F7F00A5000000A55252007F0000007F3F3F004C0000004C2626002600000026131300FF00
310
3F00FF7F9F00A5002900A55267007F001F007F3F4F004C0013004C262F002600090026131700FF007F00FF7FBF00A5005200A5527C007F003F007F3F5F004C0026004C2639002600130026131C00FF00BF00FF7FDF00A5007C00A55291007F005F007F3F6F004C0039004C26420026001C0026132100FF00FF00FF7FFF00A5
310
00A500A552A5007F007F007F3F7F004C004C004C264C002600260026132600BF00FF00DF7FFF007C00A5009152A5005F007F006F3F7F0039004C0042264C001C002600211326007F00FF00BF7FFF005200A5007C52A5003F007F005F3F7F0026004C0039264C00130026001C1326003F00FF009F7FFF002900A5006752A500
310
1F007F004F3F7F0013004C002F264C000900260017132600000000002D2D2D005B5B5B0089898900B7B7B700B3B3B30000000000000000000000000000000000000000000000000000000000000000000000000000000000000000000000000000000000000000000000000000000000000000000000000000000000000000
310
00000000000000000000000000000000000000000000000000000000000000000000000000000000000000000000000000000000000000000000000000000000000000000000000000000000000000000000000000000000000000000000000000000000000000000000000000000000000000000000000000000000000000
310
00000000000000000000000000000000000000000000000000000000000000000000000000000000000000000000000000000000000000000000000000000000000000000000000000000000000000000000000000000000000000000000000000000000000000000000000000000000000000000000000000000000000000
310
00000000000000000000000000000000000000000000000000000000000000000000000000000000000000000000000000000000000000000000000000000000000000000000000000000000000000000000000000000000000000000000000000000000000000000000000000000000000000000000000000000000000000
310
00000000000000000000000000000000000000000000000000000000000000000000000000000000000000000000000000000000000000000000000000000000000000000000000000000000000000000000000000000000000000000000000000000000000000000000000000000000000000000000000000000000000000
310
00000000000000000000000000000000000707070707070707070700000000000000000000000000000000000000000000000000000000000000000000000000000000000000000000000000000000000000000000000000000000000000000000000000000000000000000000000000000000000000000000000000000000
310
00000000000000000000000000000000000000000000000000000000000000000000000000000000000000000000000000000000000000000000000000000000000000000707000000000000000000000707000000000000000000000000000000000000000000000000000000000000000000000000000000000000000000
310
00000000000000000000000000000000000000000000000000000000000000000000000000000000000000000000000000000000000000000000000000000000000000000000000000000000000000000000000000000000000000000000000000000000000000000000000000000000000000000000000707000000000000
310
00000000000000000707000000000000000000000000000000000000000000000000000000000000000000000000000000000000000000000000000000000000000000000000000000000000000000000000000000000000000000000000000000000000000000000000000000000000000000000000000000000000000000
310
00000000000000000000000000000000000000000000000000000000000000000000000000000000000000070700000000000000000000000000000000000007070000000000000000000000000000000000000000000000000000000000000000000000000000000000000000000000000000000000000000000000000000
310
00000000000000000000000000000000000000000000000000000000000000000000000000000000000000000000000000000000000000000000000000000000000000000000000000000000000000000000000000000000000000000000000700000000000007070707070707070707000000000000070700000000000000
310
00000000000000000000000000000000000000000000000000000000000000000000000000000000000000000000000000000000000000000000000000000000000000000000000000000000000000000000000000000000000000000000000000000000000000000000000000000000000000000000000000000000000000
310
00000000000000000000000000000000000000000700000000000707070707070707070707070707000000000000070000000000000000000000000000000000000000000000000000000000000000000000000000000000000000000000000000000000000000000000000000000000000000000000000000000000000000
310
00000000000000000000000000000000000000000000000000000000000000000000000000000000000000000000000000000000000000000000000000000000000000000000000007000000000707070700000000000000000000070707070000000007000000000000000000000000000000000000000000000000000000
310
00000000000000000000000000000000000000000000000000000000000000000000000000000000000000000000000000000000000000000000000000000000000000000000000000000000000000000000000000000000000000000000000000000000000000000000000000000000000000000000000000000000070000
310
00070707070000000000000000000000000000070707070000000700000000000000000000000000000000000000000000000000000000000000000000000000000000000000000000000000000000000000000000000000000000000000000000000000000000000000000000000000000000000000000000000000000000
310
00000000000000000000000000000000000000000000000000000000000000000000000000000000000000000000000000000700000707070000000000000000000000000000000000000707070700070000000000000000000000000000000000000000000000000000000000000000000000000000000000000000000000
310
00000000000000000000000000000000000000000000000000000000000000000000000000000000000000000000000000000000000000000000000000000000000000000000000000000000000000000000000000000000000000000000000000000000000007000007070000000000000000000000000000000000000000
310
00000707070007000000000000000000000000000000000000000000000000000000000000000000000000000000000000000000000000000000000000000000000000000000000000000000000000000000000000000000000000000000000000000000000000000000000000000000000000000000000000000000000000
310
00000000000000000000000000000000000000000000000000000000070007070000000000000000000000000000000000000000000000000007000700000000000000000000000000000000000000000000000000000000000000000000000000000000000000000000000000000000000000000000000000000000000000
310
00000000000000000000000000000000000000000000000000000000000000000000000000000000000000000000000000000000000000000000000000000000000000000000000000000000000000000007070700000000000000000000000000000000000000000000000000000707000700000000000000000000000000
310
00000000000000000000000000000000000000000000000000000000000000000000000000000000000000000000000000000000000000000000000000000000000000000000000000000000000000000000000000000000000000000000000000000000000000000000000000000000000000000000000000000000000000
310
00000000000000070700000000000000000000000000000000000000000000000000000000070007000000000000000000000000000000000000000000000000000000000000000000000000000000000000000000000000000000000000000000000000000000000000000000000000000000000000000000000000000000
310
00000000000000000000000000000000000000000000000000000000000000000000000000000000000000000000000000000000000000000000000707070000000000000000000000000000000000000000000000000000000007070007000000000000000000000000000000000000000000000000000000000000000000
310
00000000000000000000000000000000000000000000000000000000000000000000000000000000000000000000000000000000000000000000000000000000000000000000000000000000000000000000000000000000000000000000000000000000000000000000000000000000070700000000000000000000000007
310
07070707070000000000000000000000000700070000000000000000000000000000000000000000000000000000000000000000000000000000000000000000000000000000000000000000000000000000000000000000000000000000000000000000000000000000000000000000000000000000000000000000000000
310
00000000000000000000000000000000000000000000000000000000000000000000000000000707000000000000000000000707000000000000070700000000000000000000070707000000000000000000000000000000000000000000000000000000000000000000000000000000000000000000000000000000000000
310
00000000000000000000000000000000000000000000000000000000000000000000000000000000000000000000000000000000000000000000000000000000000000000000000000000000000000000000000000000000000000070700000000000000000007000000000000000000000707000000000707070707070707
310
07070707000000000000000000000000000000000000000000000000000000000000000000000000000000000000000000000000000000000000000000000000000000000000000000000000000000000000000000000000000000000000000000000000000000000000000000000000000000000000000000000000000000
310
00000000000000000000000000000000000707000000000000000007000000000000000000000000000000000000000000000007000000000700000000000000000000000000000000000000000000000000000000000000000000000000000000000000000000000000000000000000000000000000000000000000000000
310
00000000000000000000000000000000000000000000000000000000000000000000000000000000000000000000000000000000000000000000000000000000000000000000070000000000000000070000000000070707070700000000000000000000000000000000000000070000000000000000000000000000000000
310
00000000000000000000000000000000000000000000000000000000000000000000000000000000000000000000000000000000000000000000000000000000000000000000000000000000000000000000000000000000000000000000000000000000000000000000000000000000000000000000000000000007000000
310
00000000070000000007070000000000070700000000000000000000000000000000000700000000000000000000000000000000000000000000000000000000000000000000000000000000000000000000000000000000000000000000000000000000000000000000000000000000000000000000000000000000000000
310
00000000000000000000000000000000000000000000000000000000000000000000000000000000000000000000000000070000000000000007000007070000000000000000000707000000000000000000000000000000070000000000000000000000000000000000000000000000000000000000000000000000000000
310
00000000000000000000000000000000000000000000000000000000000000000000000000000000000000000000000000000000000000000000000000000000000000000000000000000000000000000000000000000000000000000000000000000000000007000000000000000700070000000007070707070000000007
310
00000000000000000000000000000700000000000000000000000000000000000000000000000000000000000000000000000000000000000000000000000000000000000000000000000000000000000000000000000000000000000000000000000000000000000000000000000000000000000000000000000000000000
310
00000000000000000000000000000000000000000000000000000000000700000000000007070000000007000000000007000000070000000000000000000000000000070000000000000000000000000000000000000000000000000000000000000000000000000000000000000000000000000000000000000000000000
310
00000000000000000000000000000000000000000000000000000000000000000000000000000000000000000000000000000000000000000000000000000000000000000000000000000000000000000000070000000000000707000000070000070707000007000000070000000000000000000000000007000000000000
310
00000000000000000000000000000000000000000000000000000000000000000000000000000000000000000000000000000000000000000000000000000000000000000000000000000000000000000000000000000000000000000000000000000000000000000000000000000000000000000000000000000000000000
310
00000000000000000700000000000007070000070000070000070700070000000700000000000000000000000000070000000000000000000000000000000000000000000000000000000000000000000000000000000000000000000000000000000000000000000000000000000000000000000000000000000000000000
310
00000000000000000000000000000000000000000000000000000000000000000000000000000000000000000000000000000000000000000000000000070000000000000707000007000707070707070700000000000000000000000000000000000007000000000000000000000000000000000000000000000000000000
310
00000000000000000000000000000000000000000000000000000000000000000000000000000000000000000000000000000000000000000000000000000000000000000000000000000000000000000000000000000000000000000000000000000000000000000000000000000000000000070000000000000700000700
310
07070000000707070000000700000000000000000000000000070000000000000000000000000000000000000000000000000000000000000000000000000000000000000000000000000000000000000000000000000000000000000000000000000000000000000000000000000000000000000000000000000000000000
310
00000000000000000000000000000000000000000000000000000000000000000000000000000000000700000000000007000000070700000000000707000007070707070707070707070707070707000000000000000000000000000000000000000000000000000000000000000000000000000000000000000000000000
310
00000000000000000000000000000000000000000000000000000000000000000000000000000000000000000000000000000000000000000000000000000000000000000000000000000000000000000000000000000000000000000000000700000000000007000000070000000000070000000700000000000700000000
310
00000000000000000000000000000000000000000000000000000000000000000000000000000000000000000000000000000000000000000000000000000000000000000000000000000000000000000000000000000000000000000000000000000000000000000000000000000000000000000000000000000000000000
310
00000000000000000000000000000000000000000000070000000000070000000700000000000700000700000000000007000000000000000000000000000000000000000000000000000000000000000000000000000000000000000000000000000000000000000000000000000000000000000000000000000000000000
310
00000000000000000000000000000000000000000000000000000000000000000000000000000000000000000000000000000000000000000000000000000000000000000000000000000000070000000000070000070000000000070000070000000000070000000000000000000000000000000000000000000000000000
310
00000000000000000000000000000000000000000000000000000000000000000000000000000000000000000000000000000000000000000000000000000000000000000000000000000000000000000000000000000000000000000000000000000000000000000000000000000000000000000000000000000000000000
310
00000007070000000007070700000000000707070000000007070000000000000000000000000000000000000000000000000000000000000000000000000000000000000000000000000000000000000000000000000000000000000000000000000000000000000000000000000000000000000000000000000000000000
310
00000000000000000000000000000000000000000000000000000000000000000000000000000000000000000000000000000000000000000000070000000000070000000000070000000007070000000000000000000000000000000000000000000000000000000000000000000000000000000000000000000000000000
310
00000000000000000000000000000000000000000000000000000000000000000000000000000000000000000000000000000000000000000000000000000000000000000000000000000000000000000000000000000000000000000000000000000000000000000000000000000000070700000007000000000007000007
310
07000000000000000000000000000000000000000000000000000000000000000000000000000000000000000000000000000000000000000000000000000000000000000000000000000000000000000000000000000000000000000000000000000000000000000000000000000000000000000000000000000000000000
310
00000000000000000000000000000000000000000000000000000000000000000000000000000000070707070000000000070707000000000000000000000000000000000000000000000000000000000000000000000000000000000000000000000000000000000000000000000000000000000000000000000000000000
310
00000000000000000000000000000000000000000000000000000000000000000000000000000000000000000000000000000000000000000000000000000000000000000000000000000000000000000000000000000000000000000000000007000000000007000000000000000000000000000000000000000000000000
310
00000000000000000000000000000000000000000000000000000000000000000000000000000000000000000000000000000000000000000000000000000000000000000000000000000000000000000000000000000000000000000000000000000000000000000000000000000000000000000000000000000000000000
310
00000000000000000000000000000000000000000000070000000000070000000000000000000000000000000000000000000000000000000000000000000000000000000000000000000000000000000000000000000000000000000000000000000000000000000000000000000000000000000000000000000000000000
310
00000000000000000000000000000000000000000000000000000000000000000000000000000000000000000000000000000000000000000000000000000000000000000000000000000007000000000007000000000000000000000000000000000000000000000000000000000000000000000000000000000000000000
310
00000000000000000000000000000000000000000000000000000000000000000000000000000000000000000000000000000000000000000000000000000000000000000000000000000000000000000000000000000000000000000000000000000000000000000000000000000000000000000000000000000000000000
310
00070000000000070000000000000000000000000000000000000000000000000000000000000000000000000000000000000000000000000000000000000000000000000000000000000000000000000000000000000000000000000000000000000000000000000000000000000000000000000000000000000000000000
310
00000000000000000000000000000000000000000000000000000000000000000000000000000000000000000000000000000000000007000000000007000000000000000000000000000000000000000000000000000000000000000000000000000000000000000000000000000000000000000000000000000000000000
310
00000000000000000000000000000000000000000000000000000000000000000000000000000000000000000000000000000000000000000000000000000000000000000000000000000000000000000000000000000000000000000000000000000000000000000000000700000000000700000000000000000000000000
310
00000000000000000000000000000000000000000000000000000000000000000000000000000000000000000000070707070707070707070707070000000000000000000000000000000000000000000000000000000000000000000000000000000000000000000000000000000000000000000000000000000000000000
310
00000000000000000000000000000000000000000000000000000000000000000007000000000007000000000000000000000000000000000000000000000000000000000000000000000000000000000000000000000000000000000000000707070700000000000000000000000000070707070000000000000000000000
310
00000000000000000000000000000000000000000000000000000000000000000000000000000000000000000000000000000000000000000000000000000000000000000000000000000000000000000000000000000700000000000700000000000000000000000000000000000000000000000000000000000000000000
310
00000000000000000000000000000000000000070700000000000000000000000000000000000000000707000000000000000000000000000000000000000000000000000000000000000000000000000000000000000000000000000000000000000000000000000000000000000000000000000000000000000000000000
310
00000000000000000000000007000000000007000000000000000000000000000000000000000000000000000000000000000000000000000000000000000000000000000000000707000000000000000000000000000000000000000000000007070000000000000000000000000000000000000000000000000000000000
310
00000000000000000000000000000000000000000000000000000000000000000000000000000000000000000000000000000000000000000000000000000000000700000000000700000000000000000000000000000000000000000000000000000000000000000000000000000000000000000000000000000007000000
310
00000000000000000000000000000000000000000000000707000000000000000000000000000000000000000000000000000000000000000000000000000000000000000000000000000000000000000000000000000000000000000000000000000000000000000000000000000000000000000000070000000000070000
310
00000000000000000000000000000000000000000000000000000000000000000000000000000000000000000000000007000000000000000007070707070707070707070707000000000000000007000000000000000000000000000000000000000000000000000000000000000000000000000000000000000000000000
310
00000000000000000000000000000000000000000000000000000000000000000000000000000000000000000700000000000700000000000000000000000000000000000000000000000000000000000000000000000000000000000000000000000000070000000000070707070707000000000000000000070707070707
310
00000000070000000000000000000000000000000000000000000000000000000000000000000000000000000000000000000000000000000000000000000000000000000000000000000000000000000000000000000000000000000000000000070000000000070000000000000000000000000000000000000000000000
310
00000000000000000000000000000000000000000000000000000700000007070707000000000000000000000000000000000007000700000000070000000000000000000000000000000000000000000000000000000000000000000000000000000000000000000000000000000000000000000000000000000000000000
310
00000000000000000000000000000000000000000000000700000000000700000000000000000000000000000000000000000000000000000000000000000000000000000000000000000000000000070000070707000000000000000000000000000000000000000007070707000007000000000000000000000000000000
310
00000000000000000000000000000000000000000000000000000000000000000000000007070707070707070707070707070707070707070707070707070707070707070707070707070707070000000000070707070707070707070707070707070707070707070707070707070707070707070707070707070700000000
310
00000000000700070000000000000000000000000000000000000000000000000000070700070000000000000000000000000000000000000000000000000000000000000000000000000000000000000000000000000000000700000000000000000000000000000000070000000000000000000000000000000000000000
310
00000700000000000700000000000000000000000000000000000000000000070000000000000000000000000000000007000000000000000000070700000000000000000000000000000000000000000000000000000000070707000000000000000000000000000000000000000000000000000000000000000000000000
310
00000000000000000000000000000007000000070707070707070707070000000700000000000000000000000000000000000000000000070000000000070000000000000000000000000000000000000000000007000000000000000000000000000000000700000000000000000007000000000000000000000000000000
310
00000000000000000000000000000007070000000000000000000000000000000000000000000000000000000000000000000000000000000000000000000000000000000700070707070707070707070707070700070000000000000000000000000000000000000000000007000000000007000000000000000000000000
310
00000000000000000000070000000000000000000000000000000007000000000000000000070000000000000000000000000000000000000000000000000000000000000007000000000000000000000000000000000000000000000000000000000000000000000000000000000000000000000000000000070007000000
310
00000000000000000007000700000000000000000000000000000000000000000000070000000000070000000000000000000000000000000000000000000007000000000000000000000000000000000700000000000000000007000000000000000000000000000000000000000000000000000000000000000700000000
310
00000000000000000000000000000000000000000000000000000000000000000000000000000000000000000000000707070000000000000000000000000700070000000000000000000000000000000000000000000007000000000007000000000000000000000000000000000000000000000700000000000000000000
310
00000000000007000000000000000000070000000000000000000000000000000000000000000000000000000000000007000000000000000000000000000000000000000000000000000000000000000000000000000000000000000000000000000000070007000000000000000000000000070007000000000000000000
310
00000000000000000000000000070000000000070000000000000000000000000000000000000000000007000000000000000000000000000000000700000000000000000007000000000000000000000000000000000000000000000000000000000000070000000000000000000000000000000000000000000000000000
310
00000000000000000000000000000000000000000000000000000700070000000000000000000000000700070000000000000000000000000000000000000000000007000000000007000000000000000000000000000000000000000000000700000000000000000000000000000000070000000000000000000007000000
310
00000000000000000000000000000000000000000000000000070700000000000000000000000000000000000000000000000000000000000000000000000000000000000000000000000000000000070000070707070707070707070707000007000000000000000000000000000000000000000000000700000000000700
310
00000000000000000000000000000000000000000007000000000000000000000000000000000700000000000000000000000700000000000000000000000000000000000000000000000000000007000000000000000000000000000000000000000000000000000000000000000000000000000000000000000000000000
310
00000000000700000000000000000000000000000000070000000000000000000000000000000000000000000007000000000007000000000000000000000000000000000000000000000700000000000000000000000000000000070707070707070707070000000700000000000000000000000000000000000000000000
310
00000707000000000000000000000000000000000000000000000000000000000000000000000000000000000000000000000000000000000000070000000000000000000000000000000007000000000000000000000000000000000000000000000700000000000700000000000000000000000000000000000000000000
310
07000000000000000000000000000000000700000000000000000007070707070707000000000000000000000000000000000000070707000000000000000000000000000000000000000000000000000000000000000000000000000000000000000000000000000000000000000007070707070707070707070707070707
310
07070707070707070707070707070707070707070707070707000000000007070707070707070707070707070707070707070707070707070707070707070707070707070707070000000000000000000000000000000007070000000000000000000000000000000700000000000000000000000000000000000000000000
310
00000000000000000000000000000000000000000000000000000000000000000000000000000000000000000000000000000000000007000000000000000007000000000000000000000000000700000000000700000000000000000000000007000000000000000007000000000000070707070707070707000000000000
310
00000000000000000000000000000007070707070707070707070707070700000000000000000000000000000000000000000000000000000000000000000000000000000000000000000000000000000000000000000000000000000000000000000000000000000000000700000000000000000700000000000000000000
310
00000007070000000707000000000000000000000000070000000000000000070000000000000000000000000000000707070707070000000000000000000000000000000000000707070707070007000000000000000000000000000000000000000000000000000000000000000000000000000000000000000000000000
310
00000000000000000000000000000000000000000000000000000000000000000007000000000000000007000000000000000000000000000707070707070000000000000000000000000007000000000000000007000000000000000000000000000000000000000000070707070707070707070000000000000000070700
310
00000007070700000000000000000000000000000000000000000000000000000000000000000000000000000000000000000000000000000000000000000000000000000000000000000000000000000000000000000700000000000000000700000000000000000000000000070000000007000000000000000000000000
310
00070000000000000000070000000000000000000000000000000000000000000000000000000000000007070707070707000707070000070707000000000000000000000000000000000000000000000000000000000000000000000000000000000000000000000000000000000000000000000000000000000000000000
310
00000000000000000000000007070707070707070707000000000000000000000000000700000000070000000000000000000000000007070707070707070707070000000000000000000000000000000000000000000000000000000000000000000000000007070707070707070700000000000000000000000000000000
310
00000000000000000000000000000000000000000000000000000000000000000000000000000000000000000000000000000000000000000000000000000000000700000007070000000700000000000000000000000000070000000007000000000000000000000000000707000007070700000707000000000000000000
310
00000000000000000000000000000000000000000000000000000000000007000707070007000000000000000000000000000000000000000000000000000000000000000000000000000000000000000000000000000000000000000000000000000000000000000000000000000000000000000000070000000007000000
310
07000000000000000000000000000700000000070000000000000000000000000007000000000700000000070000000000000000000000000000000000000000000000000000000000000000000000000000000700000000000700000000000000000000000000000000000000000000000000000000000000000000000000
310
00000000000000000000000000000000000000000000000000000000000000000000000000000000000000000700000000070000000700000000000000000000000000070000000007000000000000000000000000000700000000070000000007000000000000000000000000000000000000000000000000000000000000
310
00000000000000000007000000000007000000000000000000000000000000000000000000000000000000000000000000000000000000000000000000000000000000000000000000000000000000000000000000000000000000000000000000070707070707070707070000000000000000000000000007000000000700
310
00000000000000000000000007070707070707070707070000000000000000000000000000000000000000000000000000000000000000000000000007070707070707070707070000000000000000000000000000000000000000000000000000000000000000000000000000000000000000000000000000000000000000
310
00000000000000000000000000000000000007070707070707070707070707070707070707070000000000000000070000000007000000000000000007070707070707070707070707070707070707070700000000000000000000000000000000000000000000000000000000000000070707070707070707070707000000
310
00000000000000000000000000000000000000000000000000000000000000000000000000000000000000000000000000000000000000000000000000000000000000000000000700000000000000000000000000000000000007000000000000000007000000000700000000000000000700000000000000000000000000
310
00000000000007000000000000000000000000000000000000000000000000000000000000000700000000000000000000070000000000000000000000000000000000000000000000000000000000000000000000000000000000000000000000000000000000000000000000000000000000000000000000000000070000
310
00000000000000000000000000000000070000000000000000070000000007000000000000000007000000000000000000000000000000000000000700000000000000000000000000000000000000000000000000000000000000070000000000000000000007000000000000000000000000000000000000000000000000
310
00000000000000000000000000000000000000000000000000000000000000000000000000000000000000000000000000000700000000000000000000000000000000000007000000000000000007000000000700000000000000000700000000000000000000000000000000000000070000000000000000000000000000
310
00000000000000000000000000000000000700000000000000000000070000000000000000000000000000000000000000000000000000000000000000000000000000000000000000000000000000000000000000000000000000000000000000000000000000070000000000000000000000000000000000000700000000
310
00000000070000000007000000000000000007000000000000000000000000000000000000000700000000000000000000000000000000000000000000000000000000000000070000000000000000000007000000000000000000000000000000000000000000000000000000000000000000000000000000000000000000
310
00000000000000000000000000000000000000000000000000000000000700000000000000000000000000000000000007000007070707070707070707070707070707070700000700000000000000000000000000000000000000070000000000000000000000000000000000000000000000000000000007070707070707
310
07070707070707070707070000000000000000000000000000000000000000000000000000000000000000000000000000000000000000000000000000000000000000000000000000000000000000000000070000000000000000000000000000000000000700000700000000000000000000000000000000070000070000
310
00000000000000000000000000000000000700000000000000000000000000000000000000000000000000000000070000000000000000000000000000000007000000000000000000000000000000000000000000000000000000000000000000000000000000000000000000000000000000000000000000000000000000
310
00000000000000000707070707070707070707070707070707070707000007070707070707070707070707070707070700000707070707070707070707070707070707070707070000000000000000000000000000000000000000000000000000000007070707070707070707070707070707070700000000000000000000
310
00000000000000000000000000000000000000000000000000000000000000000000000000000000000000000000000000000000000000000000000000000000000000000000000000000000000000000000000000000000000000000000000000000000000000000000000000000000000000000000000000000000000000
310
00000000000000000000000000000000000000000000000000000000000000000000000000000000000000000000000000000000000000000000000000000000000000000000000000000000000000000000000000000000000000000000000000000000000000000000000000000000000000000000000000000000000000
310
00000000000000000000000000000000000000000000000000000000000000000000000000000000000000000000000000000000000000000000000000000000000000000000000000000000000000000000000000000000000000000000000000000000000000000000000000000000000000000000000000000000000000
310
00000000000000000000000000000000000000000000000000000000000000000000000000000000000000000000000000000000000000000000000000000000000000000000000000000000000000000000000000000000000000000000000000000000000000000000000000000000000000000000000000000000000000
310
00000000000000000000000000000000000000000000000000000000000000000000000000000000000000000000000000000000000000000000000000000000000000000000000000000000000000000000000000000000000000000000000000000000000000000000000000000000000000000000000000000000000000
310
000000000000000000000000000000000000000000000000000000000000000000000000000000000000000000000000000000000000000000000000000000000000000000000000000000000000000000000000000000000000000000000000000000000000000000000000
  0
ENDSEC
  0
EOF
