  0
SECTION
  2
HEADER
  9
$ACADVER
  1
AC1015
  9
$ACADMAINTVER
 70
     6
  9
$DWGCODEPAGE
  3
ANSI_1252
  9
$INSBASE
 10
0.0
 20
0.0
 30
0.0
  9
$EXTMIN
 10
0.0
 20
0.25
 30
0.0
  9
$EXTMAX
 10
273.0
 20
87.75
 30
0.0
  9
$LIMMIN
 10
0.0
 20
0.0
  9
$LIMMAX
 10
12.0
 20
9.0
  9
$ORTHOMODE
 70
     0
  9
$REGENMODE
 70
     1
  9
$FILLMODE
 70
     1
  9
$QTEXTMODE
 70
     0
  9
$MIRRTEXT
 70
     1
  9
$LTSCALE
 40
1.0
  9
$ATTMODE
 70
     1
  9
$TEXTSIZE
 40
0.2
  9
$TRACEWID
 40
0.05
  9
$TEXTSTYLE
  7
Standard
  9
$CLAYER
  8
0
  9
$CELTYPE
  6
ByBlock
  9
$CECOLOR
 62
   256
  9
$CELTSCALE
 40
1.0
  9
$DISPSILH
 70
     0
  9
$DIMSCALE
 40
1.0
  9
$DIMASZ
 40
0.18
  9
$DIMEXO
 40
0.0625
  9
$DIMDLI
 40
0.38
  9
$DIMRND
 40
0.0
  9
$DIMDLE
 40
0.0
  9
$DIMEXE
 40
0.18
  9
$DIMTP
 40
0.0
  9
$DIMTM
 40
0.0
  9
$DIMTXT
 40
0.18
  9
$DIMCEN
 40
0.09
  9
$DIMTSZ
 40
0.0
  9
$DIMTOL
 70
     0
  9
$DIMLIM
 70
     0
  9
$DIMTIH
 70
     1
  9
$DIMTOH
 70
     1
  9
$DIMSE1
 70
     0
  9
$DIMSE2
 70
     0
  9
$DIMTAD
 70
     0
  9
$DIMZIN
 70
     0
  9
$DIMBLK
  1

  9
$DIMASO
 70
     1
  9
$DIMSHO
 70
     1
  9
$DIMPOST
  1

  9
$DIMAPOST
  1

  9
$DIMALT
 70
     0
  9
$DIMALTD
 70
     2
  9
$DIMALTF
 40
25.4
  9
$DIMLFAC
 40
1.0
  9
$DIMTOFL
 70
     0
  9
$DIMTVP
 40
0.0
  9
$DIMTIX
 70
     0
  9
$DIMSOXD
 70
     0
  9
$DIMSAH
 70
     0
  9
$DIMBLK1
  1

  9
$DIMBLK2
  1

  9
$DIMSTYLE
  2
Standard
  9
$DIMCLRD
 70
     0
  9
$DIMCLRE
 70
     0
  9
$DIMCLRT
 70
     0
  9
$DIMTFAC
 40
1.0
  9
$DIMGAP
 40
0.09
  9
$DIMJUST
 70
     0
  9
$DIMSD1
 70
     0
  9
$DIMSD2
 70
     0
  9
$DIMTOLJ
 70
     1
  9
$DIMTZIN
 70
     0
  9
$DIMALTZ
 70
     0
  9
$DIMALTTZ
 70
     0
  9
$DIMUPT
 70
     0
  9
$DIMDEC
 70
     4
  9
$DIMTDEC
 70
     4
  9
$DIMALTU
 70
     2
  9
$DIMALTTD
 70
     2
  9
$DIMTXSTY
  7
Standard
  9
$DIMAUNIT
 70
     0
  9
$DIMADEC
 70
     0
  9
$DIMALTRND
 40
0.0
  9
$DIMAZIN
 70
     0
  9
$DIMDSEP
 70
    46
  9
$DIMATFIT
 70
     3
  9
$DIMFRAC
 70
     0
  9
$DIMLDRBLK
  1

  9
$DIMLUNIT
 70
     2
  9
$DIMLWD
 70
    -2
  9
$DIMLWE
 70
    -2
  9
$DIMTMOVE
 70
     2
  9
$LUNITS
 70
     2
  9
$LUPREC
 70
     4
  9
$SKETCHINC
 40
0.1
  9
$FILLETRAD
 40
0.5
  9
$AUNITS
 70
     0
  9
$AUPREC
 70
     0
  9
$MENU
  1
.
  9
$ELEVATION
 40
0.0
  9
$PELEVATION
 40
0.0
  9
$THICKNESS
 40
0.0
  9
$LIMCHECK
 70
     0
  9
$CHAMFERA
 40
0.5
  9
$CHAMFERB
 40
0.5
  9
$CHAMFERC
 40
1.0
  9
$CHAMFERD
 40
0.0
  9
$SKPOLY
 70
     0
  9
$TDCREATE
 40
2455872.58916919
  9
$TDUCREATE
 40
2455872.547502523
  9
$TDUPDATE
 40
2455872.591175845
  9
$TDUUPDATE
 40
2455872.549509178
  9
$TDINDWG
 40
0.0020062963
  9
$TDUSRTIMER
 40
0.0020062963
  9
$USRTIMER
 70
     1
  9
$ANGBASE
 50
0.0
  9
$ANGDIR
 70
     0
  9
$PDMODE
 70
     0
  9
$PDSIZE
 40
0.0
  9
$PLINEWID
 40
0.0
  9
$SPLFRAME
 70
     0
  9
$SPLINETYPE
 70
     6
  9
$SPLINESEGS
 70
     8
  9
$HANDSEED
  5
45B
  9
$SURFTAB1
 70
     6
  9
$SURFTAB2
 70
     6
  9
$SURFTYPE
 70
     6
  9
$SURFU
 70
     6
  9
$SURFV
 70
     6
  9
$UCSBASE
  2

  9
$UCSNAME
  2

  9
$UCSORG
 10
0.0
 20
0.0
 30
0.0
  9
$UCSXDIR
 10
1.0
 20
0.0
 30
0.0
  9
$UCSYDIR
 10
0.0
 20
1.0
 30
0.0
  9
$UCSORTHOREF
  2

  9
$UCSORTHOVIEW
 70
     0
  9
$UCSORGTOP
 10
0.0
 20
0.0
 30
0.0
  9
$UCSORGBOTTOM
 10
0.0
 20
0.0
 30
0.0
  9
$UCSORGLEFT
 10
0.0
 20
0.0
 30
0.0
  9
$UCSORGRIGHT
 10
0.0
 20
0.0
 30
0.0
  9
$UCSORGFRONT
 10
0.0
 20
0.0
 30
0.0
  9
$UCSORGBACK
 10
0.0
 20
0.0
 30
0.0
  9
$PUCSBASE
  2

  9
$PUCSNAME
  2

  9
$PUCSORG
 10
0.0
 20
0.0
 30
0.0
  9
$PUCSXDIR
 10
1.0
 20
0.0
 30
0.0
  9
$PUCSYDIR
 10
0.0
 20
1.0
 30
0.0
  9
$PUCSORTHOREF
  2

  9
$PUCSORTHOVIEW
 70
     0
  9
$PUCSORGTOP
 10
0.0
 20
0.0
 30
0.0
  9
$PUCSORGBOTTOM
 10
0.0
 20
0.0
 30
0.0
  9
$PUCSORGLEFT
 10
0.0
 20
0.0
 30
0.0
  9
$PUCSORGRIGHT
 10
0.0
 20
0.0
 30
0.0
  9
$PUCSORGFRONT
 10
0.0
 20
0.0
 30
0.0
  9
$PUCSORGBACK
 10
0.0
 20
0.0
 30
0.0
  9
$USERI1
 70
     0
  9
$USERI2
 70
     0
  9
$USERI3
 70
     0
  9
$USERI4
 70
     0
  9
$USERI5
 70
     0
  9
$USERR1
 40
0.0
  9
$USERR2
 40
0.0
  9
$USERR3
 40
0.0
  9
$USERR4
 40
0.0
  9
$USERR5
 40
0.0
  9
$WORLDVIEW
 70
     1
  9
$SHADEDGE
 70
     3
  9
$SHADEDIF
 70
    70
  9
$TILEMODE
 70
     1
  9
$MAXACTVP
 70
    64
  9
$PINSBASE
 10
0.0
 20
0.0
 30
0.0
  9
$PLIMCHECK
 70
     0
  9
$PEXTMIN
 10
1.000000000000E+20
 20
1.000000000000E+20
 30
1.000000000000E+20
  9
$PEXTMAX
 10
-1.000000000000E+20
 20
-1.000000000000E+20
 30
-1.000000000000E+20
  9
$PLIMMIN
 10
0.0
 20
0.0
  9
$PLIMMAX
 10
12.0
 20
9.0
  9
$UNITMODE
 70
     0
  9
$VISRETAIN
 70
     1
  9
$PLINEGEN
 70
     0
  9
$PSLTSCALE
 70
     1
  9
$TREEDEPTH
 70
  3020
  9
$CMLSTYLE
  2
Standard
  9
$CMLJUST
 70
     0
  9
$CMLSCALE
 40
1.0
  9
$PROXYGRAPHICS
 70
     1
  9
$MEASUREMENT
 70
     0
  9
$CELWEIGHT
370
    -1
  9
$ENDCAPS
280
     0
  9
$JOINSTYLE
280
     0
  9
$LWDISPLAY
290
     0
  9
$INSUNITS
 70
     0
  9
$HYPERLINKBASE
  1

  9
$STYLESHEET
  1

  9
$XEDIT
290
     1
  9
$CEPSNTYPE
380
     0
  9
$PSTYLEMODE
290
     1
  9
$FINGERPRINTGUID
  2
{39412E15-B963-4302-8176-771F7D1435EA}
  9
$VERSIONGUID
  2
{FAEB1C32-E019-11D5-929B-00C0DF256EC4}
  9
$EXTNAMES
290
     1
  9
$PSVPSCALE
 40
0.0
  9
$OLESTARTUP
290
     0
  0
ENDSEC
  0
SECTION
  2
CLASSES
  0
CLASS
  1
ACDBDICTIONARYWDFLT
  2
AcDbDictionaryWithDefault
  3
ObjectDBX Classes
 90
        0
280
     0
281
     0
  0
CLASS
  1
SCALE
  2
AcDbScale
  3
ObjectDBX Classes
 90
     1153
280
     0
281
     0
  0
CLASS
  1
DICTIONARYVAR
  2
AcDbDictionaryVar
  3
ObjectDBX Classes
 90
        0
280
     0
281
     0
  0
CLASS
  1
ACDBPLACEHOLDER
  2
AcDbPlaceHolder
  3
ObjectDBX Classes
 90
        0
280
     0
281
     0
  0
CLASS
  1
LAYOUT
  2
AcDbLayout
  3
ObjectDBX Classes
 90
        0
280
     0
281
     0
  0
ENDSEC
  0
SECTION
  2
TABLES
  0
TABLE
  2
VPORT
  5
8
330
0
100
AcDbSymbolTable
 70
     1
  0
VPORT
  5
416
330
8
100
AcDbSymbolTableRecord
100
AcDbViewportTableRecord
  2
*Active
 70
     0
 10
0.0
 20
0.0
 11
1.0
 21
1.0
 12
136.5
 22
43.875
 13
0.0
 23
0.0
 14
0.5
 24
0.5
 15
0.5
 25
0.5
 16
0.0
 26
0.0
 36
1.0
 17
0.0
 27
0.0
 37
0.0
 40
122.57650273224
 41
2.271724137931
 42
50.0
 43
0.0
 44
0.0
 50
0.0
 51
0.0
 71
    16
 72
   100
 73
     1
 74
     3
 75
     0
 76
     0
 77
     0
 78
     0
281
     0
 65
     1
110
0.0
120
0.0
130
0.0
111
1.0
121
0.0
131
0.0
112
0.0
122
1.0
132
0.0
 79
     0
146
0.0
  0
ENDTAB
  0
TABLE
  2
LTYPE
  5
5
330
0
100
AcDbSymbolTable
 70
     1
  0
LTYPE
  5
14
330
5
100
AcDbSymbolTableRecord
100
AcDbLinetypeTableRecord
  2
ByBlock
 70
     0
  3

 72
    65
 73
     0
 40
0.0
  0
LTYPE
  5
15
330
5
100
AcDbSymbolTableRecord
100
AcDbLinetypeTableRecord
  2
ByLayer
 70
     0
  3

 72
    65
 73
     0
 40
0.0
  0
LTYPE
  5
16
330
5
100
AcDbSymbolTableRecord
100
AcDbLinetypeTableRecord
  2
Continuous
 70
     0
  3
Solid line
 72
    65
 73
     0
 40
0.0
  0
ENDTAB
  0
TABLE
  2
LAYER
  5
2
330
0
100
AcDbSymbolTable
 70
     1
  0
LAYER
  5
10
330
2
100
AcDbSymbolTableRecord
100
AcDbLayerTableRecord
  2
0
 70
     0
 62
     7
  6
Continuous
370
    -3
390
F
  0
ENDTAB
  0
TABLE
  2
STYLE
  5
3
330
0
100
AcDbSymbolTable
 70
     1
  0
STYLE
  5
11
330
3
100
AcDbSymbolTableRecord
100
AcDbTextStyleTableRecord
  2
Standard
 70
     0
 40
0.0
 41
1.0
 50
0.0
 71
     0
 42
0.2
  3
txt
  4

  0
ENDTAB
  0
TABLE
  2
VIEW
  5
6
330
0
100
AcDbSymbolTable
 70
     0
  0
ENDTAB
  0
TABLE
  2
UCS
  5
7
330
0
100
AcDbSymbolTable
 70
     0
  0
ENDTAB
  0
TABLE
  2
APPID
  5
9
330
0
100
AcDbSymbolTable
 70
     1
  0
APPID
  5
12
330
9
100
AcDbSymbolTableRecord
100
AcDbRegAppTableRecord
  2
ACAD
 70
     0
  0
ENDTAB
  0
TABLE
  2
DIMSTYLE
  5
A
330
0
100
AcDbSymbolTable
 70
     1
100
AcDbDimStyleTable
  0
DIMSTYLE
105
20
330
A
100
AcDbSymbolTableRecord
100
AcDbDimStyleTableRecord
  2
Standard
 70
     0
340
11
  0
ENDTAB
  0
TABLE
  2
BLOCK_RECORD
  5
1
330
0
100
AcDbSymbolTable
 70
     0
  0
BLOCK_RECORD
  5
1D
330
1
100
AcDbSymbolTableRecord
100
AcDbBlockTableRecord
  2
*Model_Space
340
1E
  0
BLOCK_RECORD
  5
1B
330
1
100
AcDbSymbolTableRecord
100
AcDbBlockTableRecord
  2
*Paper_Space
340
1C
  0
ENDTAB
  0
ENDSEC
  0
SECTION
  2
BLOCKS
  0
BLOCK
  5
419
330
1D
100
AcDbEntity
  8
0
100
AcDbBlockBegin
  2
*Model_Space
 70
     0
 10
0.0
 20
0.0
 30
0.0
  3
*Model_Space
  1
*Model_Space
  0
ENDBLK
  5
41A
330
1D
100
AcDbEntity
  8
0
100
AcDbBlockEnd
  0
BLOCK
  5
417
330
1B
100
AcDbEntity
 67
     1
  8
0
100
AcDbBlockBegin
  2
*Paper_Space
 70
     0
 10
0.0
 20
0.0
 30
0.0
  3
*Paper_Space
  1
*Paper_Space
  0
ENDBLK
  5
418
330
1B
100
AcDbEntity
 67
     1
  8
0
100
AcDbBlockEnd
  0
ENDSEC
  0
SECTION
  2
ENTITIES
  0
LINE
  5
21
330
1D
100
AcDbEntity
  8
0
100
AcDbLine
 10
143.244
 20
0.75
 30
0.0
 11
145.964
 21
0.75
 31
0.0
  0
LINE
  5
22
330
1D
100
AcDbEntity
  8
0
100
AcDbLine
 10
143.244
 20
0.75
 30
0.0
 11
145.964
 21
0.75
 31
0.0
  0
LINE
  5
23
330
1D
100
AcDbEntity
  8
0
100
AcDbLine
 10
141.612
 20
0.75
 30
0.0
 11
143.244
 21
0.75
 31
0.0
  0
LINE
  5
24
330
1D
100
AcDbEntity
  8
0
100
AcDbLine
 10
141.0
 20
0.75
 30
0.0
 11
141.0
 21
22.75
 31
0.0
  0
LINE
  5
25
330
1D
100
AcDbEntity
  8
0
100
AcDbLine
 10
141.0
 20
0.75
 30
0.0
 11
141.612
 21
0.75
 31
0.0
  0
LINE
  5
26
330
1D
100
AcDbEntity
  8
0
100
AcDbLine
 10
149.568
 20
0.75
 30
0.0
 11
153.648
 21
0.75
 31
0.0
  0
LINE
  5
27
330
1D
100
AcDbEntity
  8
0
100
AcDbLine
 10
145.964
 20
0.75
 30
0.0
 11
149.568
 21
0.75
 31
0.0
  0
LINE
  5
28
330
1D
100
AcDbEntity
  8
0
100
AcDbLine
 10
148.152
 20
0.75
 30
0.0
 11
151.101
 21
0.75
 31
0.0
  0
LINE
  5
29
330
1D
100
AcDbEntity
  8
0
100
AcDbLine
 10
151.101
 20
0.75
 30
0.0
 11
154.439
 21
0.75
 31
0.0
  0
LINE
  5
2A
330
1D
100
AcDbEntity
  8
0
100
AcDbLine
 10
149.568
 20
0.75
 30
0.0
 11
153.648
 21
0.75
 31
0.0
  0
LINE
  5
2B
330
1D
100
AcDbEntity
  8
0
100
AcDbLine
 10
145.964
 20
0.75
 30
0.0
 11
149.568
 21
0.75
 31
0.0
  0
LINE
  5
2C
330
1D
100
AcDbEntity
  8
0
100
AcDbLine
 10
153.648
 20
0.75
 30
0.0
 11
158.0
 21
0.75
 31
0.0
  0
LINE
  5
2D
330
1D
100
AcDbEntity
  8
0
100
AcDbLine
 10
158.0
 20
0.75
 30
0.0
 11
161.561
 21
0.75
 31
0.0
  0
LINE
  5
2E
330
1D
100
AcDbEntity
  8
0
100
AcDbLine
 10
158.0
 20
0.75
 30
0.0
 11
162.352
 21
0.75
 31
0.0
  0
LINE
  5
2F
330
1D
100
AcDbEntity
  8
0
100
AcDbLine
 10
154.439
 20
0.75
 30
0.0
 11
158.0
 21
0.75
 31
0.0
  0
LINE
  5
30
330
1D
100
AcDbEntity
  8
0
100
AcDbLine
 10
153.648
 20
0.75
 30
0.0
 11
158.0
 21
0.75
 31
0.0
  0
LINE
  5
31
330
1D
100
AcDbEntity
  8
0
100
AcDbLine
 10
154.439
 20
0.75
 30
0.0
 11
158.0
 21
0.75
 31
0.0
  0
LINE
  5
32
330
1D
100
AcDbEntity
  8
0
100
AcDbLine
 10
151.101
 20
0.75
 30
0.0
 11
154.439
 21
0.75
 31
0.0
  0
LINE
  5
33
330
1D
100
AcDbEntity
  8
0
100
AcDbLine
 10
148.152
 20
0.75
 30
0.0
 11
151.101
 21
0.75
 31
0.0
  0
LINE
  5
34
330
1D
100
AcDbEntity
  8
0
100
AcDbLine
 10
145.927
 20
0.75
 30
0.0
 11
148.152
 21
0.75
 31
0.0
  0
LINE
  5
35
330
1D
100
AcDbEntity
  8
0
100
AcDbLine
 10
145.927
 20
0.75
 30
0.0
 11
148.152
 21
0.75
 31
0.0
  0
LINE
  5
36
330
1D
100
AcDbEntity
  8
0
100
AcDbLine
 10
144.592
 20
0.75
 30
0.0
 11
145.927
 21
0.75
 31
0.0
  0
LINE
  5
37
330
1D
100
AcDbEntity
  8
0
100
AcDbLine
 10
144.091
 20
0.75
 30
0.0
 11
144.592
 21
0.75
 31
0.0
  0
LINE
  5
38
330
1D
100
AcDbEntity
  8
0
100
AcDbLine
 10
17.0
 20
4.75
 30
0.0
 11
19.746
 21
5.6147
 31
0.0
  0
LINE
  5
39
330
1D
100
AcDbEntity
  8
0
100
AcDbLine
 10
19.746
 20
5.6147
 30
0.0
 11
21.747
 21
6.8321
 31
0.0
  0
LINE
  5
3A
330
1D
100
AcDbEntity
  8
0
100
AcDbLine
 10
21.747
 20
6.8321
 30
0.0
 11
22.617
 21
8.9192
 31
0.0
  0
LINE
  5
3B
330
1D
100
AcDbEntity
  8
0
100
AcDbLine
 10
11.0
 20
4.75
 30
0.0
 11
17.0
 21
4.75
 31
0.0
  0
LINE
  5
3C
330
1D
100
AcDbEntity
  8
0
100
AcDbLine
 10
11.0
 20
4.75
 30
0.0
 11
11.0
 21
21.75
 31
0.0
  0
LINE
  5
3D
330
1D
100
AcDbEntity
  8
0
100
AcDbLine
 10
11.0
 20
4.75
 30
0.0
 11
11.0
 21
21.75
 31
0.0
  0
LINE
  5
3E
330
1D
100
AcDbEntity
  8
0
100
AcDbLine
 10
46.952
 20
8.038
 30
0.0
 11
49.0
 21
7.75
 31
0.0
  0
LINE
  5
3F
330
1D
100
AcDbEntity
  8
0
100
AcDbLine
 10
49.0
 20
7.75
 30
0.0
 11
51.048
 21
8.038
 31
0.0
  0
LINE
  5
40
330
1D
100
AcDbEntity
  8
0
100
AcDbLine
 10
17.0
 20
8.75
 30
0.0
 11
17.512
 21
8.822
 31
0.0
  0
LINE
  5
41
330
1D
100
AcDbEntity
  8
0
100
AcDbLine
 10
17.512
 20
8.822
 30
0.0
 11
17.992
 21
9.014
 31
0.0
  0
LINE
  5
42
330
1D
100
AcDbEntity
  8
0
100
AcDbLine
 10
16.488
 20
8.822
 30
0.0
 11
17.0
 21
8.75
 31
0.0
  0
LINE
  5
43
330
1D
100
AcDbEntity
  8
0
100
AcDbLine
 10
15.264
 20
9.758
 30
0.0
 11
15.584
 21
9.334
 31
0.0
  0
LINE
  5
44
330
1D
100
AcDbEntity
  8
0
100
AcDbLine
 10
17.992
 20
9.014
 30
0.0
 11
18.416
 21
9.334
 31
0.0
  0
LINE
  5
45
330
1D
100
AcDbEntity
  8
0
100
AcDbLine
 10
18.416
 20
9.334
 30
0.0
 11
18.736
 21
9.758
 31
0.0
  0
LINE
  5
46
330
1D
100
AcDbEntity
  8
0
100
AcDbLine
 10
18.416
 20
9.334
 30
0.0
 11
18.736
 21
9.758
 31
0.0
  0
LINE
  5
47
330
1D
100
AcDbEntity
  8
0
100
AcDbLine
 10
16.008
 20
9.014
 30
0.0
 11
16.488
 21
8.822
 31
0.0
  0
LINE
  5
48
330
1D
100
AcDbEntity
  8
0
100
AcDbLine
 10
18.736
 20
9.758
 30
0.0
 11
18.928
 21
10.238
 31
0.0
  0
LINE
  5
49
330
1D
100
AcDbEntity
  8
0
100
AcDbLine
 10
15.584
 20
9.334
 30
0.0
 11
16.008
 21
9.014
 31
0.0
  0
LINE
  5
4A
330
1D
100
AcDbEntity
  8
0
100
AcDbLine
 10
15.264
 20
9.758
 30
0.0
 11
15.584
 21
9.334
 31
0.0
  0
LINE
  5
4B
330
1D
100
AcDbEntity
  8
0
100
AcDbLine
 10
22.617
 20
8.9192
 30
0.0
 11
24.655406773289
 21
20.75
 31
0.0
  0
LINE
  5
4C
330
1D
100
AcDbEntity
  8
0
100
AcDbLine
 10
47.4823
 20
10.05
 30
0.0
 11
49.0
 21
9.8382
 31
0.0
  0
LINE
  5
4E
330
1D
100
AcDbEntity
  8
0
100
AcDbLine
 10
49.0
 20
9.8382
 30
0.0
 11
50.5177
 21
10.05
 31
0.0
  0
LINE
  5
4F
330
1D
100
AcDbEntity
  8
0
100
AcDbLine
 10
50.5177
 20
10.05
 30
0.0
 11
51.9471
 21
10.6324
 31
0.0
  0
LINE
  5
51
330
1D
100
AcDbEntity
  8
0
100
AcDbLine
 10
45.032
 20
8.806
 30
0.0
 11
46.952
 21
8.038
 31
0.0
  0
LINE
  5
52
330
1D
100
AcDbEntity
  8
0
100
AcDbLine
 10
43.336
 20
10.086
 30
0.0
 11
45.032
 21
8.806
 31
0.0
  0
LINE
  5
53
330
1D
100
AcDbEntity
  8
0
100
AcDbLine
 10
51.048
 20
8.038
 30
0.0
 11
52.968
 21
8.806
 31
0.0
  0
LINE
  5
54
330
1D
100
AcDbEntity
  8
0
100
AcDbLine
 10
52.968
 20
8.806
 30
0.0
 11
54.664
 21
10.086
 31
0.0
  0
LINE
  5
55
330
1D
100
AcDbEntity
  8
0
100
AcDbLine
 10
15.072
 20
10.238
 30
0.0
 11
15.264
 21
9.758
 31
0.0
  0
LINE
  5
56
330
1D
100
AcDbEntity
  8
0
100
AcDbLine
 10
18.928
 20
10.238
 30
0.0
 11
19.0
 21
10.75
 31
0.0
  0
LINE
  5
57
330
1D
100
AcDbEntity
  8
0
100
AcDbLine
 10
15.072
 20
10.238
 30
0.0
 11
15.264
 21
9.758
 31
0.0
  0
LINE
  5
58
330
1D
100
AcDbEntity
  8
0
100
AcDbLine
 10
15.072
 20
11.262
 30
0.0
 11
15.264
 21
11.742
 31
0.0
  0
LINE
  5
59
330
1D
100
AcDbEntity
  8
0
100
AcDbLine
 10
15.264
 20
11.742
 30
0.0
 11
15.584
 21
12.166
 31
0.0
  0
LINE
  5
5A
330
1D
100
AcDbEntity
  8
0
100
AcDbLine
 10
15.584
 20
12.166
 30
0.0
 11
16.008
 21
12.486
 31
0.0
  0
LINE
  5
5B
330
1D
100
AcDbEntity
  8
0
100
AcDbLine
 10
15.584
 20
12.166
 30
0.0
 11
16.008
 21
12.486
 31
0.0
  0
LINE
  5
5C
330
1D
100
AcDbEntity
  8
0
100
AcDbLine
 10
15.264
 20
11.742
 30
0.0
 11
15.584
 21
12.166
 31
0.0
  0
LINE
  5
5D
330
1D
100
AcDbEntity
  8
0
100
AcDbLine
 10
16.488
 20
12.678
 30
0.0
 11
17.0
 21
12.75
 31
0.0
  0
LINE
  5
5E
330
1D
100
AcDbEntity
  8
0
100
AcDbLine
 10
16.008
 20
12.486
 30
0.0
 11
16.488
 21
12.678
 31
0.0
  0
LINE
  5
5F
330
1D
100
AcDbEntity
  8
0
100
AcDbLine
 10
17.0
 20
12.75
 30
0.0
 11
17.512
 21
12.678
 31
0.0
  0
LINE
  5
60
330
1D
100
AcDbEntity
  8
0
100
AcDbLine
 10
17.512
 20
12.678
 30
0.0
 11
17.992
 21
12.486
 31
0.0
  0
LINE
  5
61
330
1D
100
AcDbEntity
  8
0
100
AcDbLine
 10
17.992
 20
12.486
 30
0.0
 11
18.416
 21
12.166
 31
0.0
  0
LINE
  5
62
330
1D
100
AcDbEntity
  8
0
100
AcDbLine
 10
18.416
 20
12.166
 30
0.0
 11
18.736
 21
11.742
 31
0.0
  0
LINE
  5
63
330
1D
100
AcDbEntity
  8
0
100
AcDbLine
 10
18.736
 20
11.742
 30
0.0
 11
18.928
 21
11.262
 31
0.0
  0
LINE
  5
64
330
1D
100
AcDbEntity
  8
0
100
AcDbLine
 10
18.928
 20
11.262
 30
0.0
 11
19.0
 21
10.75
 31
0.0
  0
LINE
  5
65
330
1D
100
AcDbEntity
  8
0
100
AcDbLine
 10
15.0
 20
10.75
 30
0.0
 11
15.072
 21
10.238
 31
0.0
  0
LINE
  5
66
330
1D
100
AcDbEntity
  8
0
100
AcDbLine
 10
15.0
 20
10.75
 30
0.0
 11
15.072
 21
11.262
 31
0.0
  0
LINE
  5
67
330
1D
100
AcDbEntity
  8
0
100
AcDbLine
 10
15.0
 20
10.75
 30
0.0
 11
15.072
 21
10.238
 31
0.0
  0
LINE
  5
68
330
1D
100
AcDbEntity
  8
0
100
AcDbLine
 10
15.0
 20
10.75
 30
0.0
 11
15.072
 21
11.262
 31
0.0
  0
LINE
  5
69
330
1D
100
AcDbEntity
  8
0
100
AcDbLine
 10
46.0529
 20
10.6324
 30
0.0
 11
47.4823
 21
10.05
 31
0.0
  0
LINE
  5
6B
330
1D
100
AcDbEntity
  8
0
100
AcDbLine
 10
43.8824
 20
12.80294
 30
0.0
 11
44.8176
 21
11.5676
 31
0.0
  0
LINE
  5
6D
330
1D
100
AcDbEntity
  8
0
100
AcDbLine
 10
53.1824
 20
11.5676
 30
0.0
 11
54.1176
 21
12.80294
 31
0.0
  0
LINE
  5
6E
330
1D
100
AcDbEntity
  8
0
100
AcDbLine
 10
54.1176
 20
12.80294
 30
0.0
 11
54.7
 21
14.23235
 31
0.0
  0
LINE
  5
6F
330
1D
100
AcDbEntity
  8
0
100
AcDbLine
 10
44.8176
 20
11.5676
 30
0.0
 11
46.0529
 21
10.6324
 31
0.0
  0
LINE
  5
71
330
1D
100
AcDbEntity
  8
0
100
AcDbLine
 10
51.9471
 20
10.6324
 30
0.0
 11
53.1824
 21
11.5676
 31
0.0
  0
LINE
  5
72
330
1D
100
AcDbEntity
  8
0
100
AcDbLine
 10
42.056
 20
11.782
 30
0.0
 11
43.336
 21
10.086
 31
0.0
  0
LINE
  5
73
330
1D
100
AcDbEntity
  8
0
100
AcDbLine
 10
43.3
 20
14.23235
 30
0.0
 11
43.8824
 21
12.80294
 31
0.0
  0
LINE
  5
77
330
1D
100
AcDbEntity
  8
0
100
AcDbLine
 10
54.7
 20
14.23235
 30
0.0
 11
54.9118
 21
15.75
 31
0.0
  0
LINE
  5
78
330
1D
100
AcDbEntity
  8
0
100
AcDbLine
 10
41.288
 20
13.702
 30
0.0
 11
42.056
 21
11.782
 31
0.0
  0
LINE
  5
79
330
1D
100
AcDbEntity
  8
0
100
AcDbLine
 10
41.0
 20
15.75
 30
0.0
 11
41.288
 21
13.702
 31
0.0
  0
LINE
  5
7B
330
1D
100
AcDbEntity
  8
0
100
AcDbLine
 10
41.0
 20
15.75
 30
0.0
 11
41.0
 21
22.75
 31
0.0
  0
LINE
  5
7C
330
1D
100
AcDbEntity
  8
0
100
AcDbLine
 10
54.7
 20
17.26765
 30
0.0
 11
54.9118
 21
15.75
 31
0.0
  0
LINE
  5
7E
330
1D
100
AcDbEntity
  8
0
100
AcDbLine
 10
43.3
 20
17.26765
 30
0.0
 11
43.8824
 21
18.69706
 31
0.0
  0
LINE
  5
7F
330
1D
100
AcDbEntity
  8
0
100
AcDbLine
 10
43.0882
 20
15.75
 30
0.0
 11
43.3
 21
17.26765
 31
0.0
  0
LINE
  5
80
330
1D
100
AcDbEntity
  8
0
100
AcDbLine
 10
43.0882
 20
15.75
 30
0.0
 11
43.3
 21
14.23235
 31
0.0
  0
LINE
  5
84
330
1D
100
AcDbEntity
  8
0
100
AcDbLine
 10
54.664
 20
10.086
 30
0.0
 11
55.944
 21
11.782
 31
0.0
  0
LINE
  5
85
330
1D
100
AcDbEntity
  8
0
100
AcDbLine
 10
57.0
 20
15.75
 30
0.0
 11
57.0
 21
22.75
 31
0.0
  0
LINE
  5
86
330
1D
100
AcDbEntity
  8
0
100
AcDbLine
 10
56.712
 20
13.702
 30
0.0
 11
57.0
 21
15.75
 31
0.0
  0
LINE
  5
87
330
1D
100
AcDbEntity
  8
0
100
AcDbLine
 10
55.944
 20
11.782
 30
0.0
 11
56.712
 21
13.702
 31
0.0
  0
LINE
  5
88
330
1D
100
AcDbEntity
  8
0
100
AcDbLine
 10
158.0
 20
0.75
 30
0.0
 11
161.561
 21
0.75
 31
0.0
  0
LINE
  5
89
330
1D
100
AcDbEntity
  8
0
100
AcDbLine
 10
158.0
 20
0.75
 30
0.0
 11
162.352
 21
0.75
 31
0.0
  0
LINE
  5
8A
330
1D
100
AcDbEntity
  8
0
100
AcDbLine
 10
158.0
 20
17.75
 30
0.0
 11
162.608
 21
18.398
 31
0.0
  0
LINE
  5
8B
330
1D
100
AcDbEntity
  8
0
100
AcDbLine
 10
54.1176
 20
18.69706
 30
0.0
 11
54.7
 21
17.26765
 31
0.0
  0
LINE
  5
8C
330
1D
100
AcDbEntity
  8
0
100
AcDbLine
 10
53.1824
 20
19.93235
 30
0.0
 11
54.1176
 21
18.69706
 31
0.0
  0
LINE
  5
8F
330
1D
100
AcDbEntity
  8
0
100
AcDbLine
 10
44.8176
 20
19.93235
 30
0.0
 11
46.0529
 21
20.867647
 31
0.0
  0
LINE
  5
91
330
1D
100
AcDbEntity
  8
0
100
AcDbLine
 10
43.8824
 20
18.69706
 30
0.0
 11
44.8176
 21
19.93235
 31
0.0
  0
LINE
  5
93
330
1D
100
AcDbEntity
  8
0
100
AcDbLine
 10
4.0
 20
21.29
 30
0.0
 11
4.0
 21
22.73
 31
0.0
  0
LINE
  5
94
330
1D
100
AcDbEntity
  8
0
100
AcDbLine
 10
4.0
 20
21.29
 30
0.0
 11
4.0
 21
20.75
 31
0.0
  0
LINE
  5
95
330
1D
100
AcDbEntity
  8
0
100
AcDbLine
 10
2.0
 20
20.75
 30
0.0
 11
4.0
 21
20.75
 31
0.0
  0
LINE
  5
96
330
1D
100
AcDbEntity
  8
0
100
AcDbLine
 10
2.0
 20
20.75
 30
0.0
 11
2.0
 21
21.29
 31
0.0
  0
LINE
  5
97
330
1D
100
AcDbEntity
  8
0
100
AcDbLine
 10
4.0
 20
20.75
 30
0.0
 11
4.0
 21
21.29
 31
0.0
  0
LINE
  5
98
330
1D
100
AcDbEntity
  8
0
100
AcDbLine
 10
2.0
 20
21.75
 30
0.0
 11
2.0
 21
21.29
 31
0.0
  0
LINE
  5
99
330
1D
100
AcDbEntity
  8
0
100
AcDbLine
 10
2.0
 20
21.29
 30
0.0
 11
2.0
 21
20.75
 31
0.0
  0
LINE
  5
9A
330
1D
100
AcDbEntity
  8
0
100
AcDbLine
 10
2.0
 20
21.29
 30
0.0
 11
2.0
 21
22.73
 31
0.0
  0
LINE
  5
9B
330
1D
100
AcDbEntity
  8
0
100
AcDbLine
 10
2.0
 20
21.29
 30
0.0
 11
2.0
 21
21.75
 31
0.0
  0
LINE
  5
9C
330
1D
100
AcDbEntity
  8
0
100
AcDbLine
 10
8.0
 20
21.29
 30
0.0
 11
8.0
 21
22.73
 31
0.0
  0
LINE
  5
9D
330
1D
100
AcDbEntity
  8
0
100
AcDbLine
 10
8.0
 20
21.29
 30
0.0
 11
8.0
 21
20.75
 31
0.0
  0
LINE
  5
9E
330
1D
100
AcDbEntity
  8
0
100
AcDbLine
 10
6.0
 20
20.75
 30
0.0
 11
8.0
 21
20.75
 31
0.0
  0
LINE
  5
9F
330
1D
100
AcDbEntity
  8
0
100
AcDbLine
 10
6.0
 20
20.75
 30
0.0
 11
6.0
 21
21.29
 31
0.0
  0
LINE
  5
A0
330
1D
100
AcDbEntity
  8
0
100
AcDbLine
 10
8.0
 20
20.75
 30
0.0
 11
8.0
 21
21.29
 31
0.0
  0
LINE
  5
A1
330
1D
100
AcDbEntity
  8
0
100
AcDbLine
 10
6.0
 20
21.75
 30
0.0
 11
6.0
 21
21.29
 31
0.0
  0
LINE
  5
A2
330
1D
100
AcDbEntity
  8
0
100
AcDbLine
 10
6.0
 20
21.29
 30
0.0
 11
6.0
 21
20.75
 31
0.0
  0
LINE
  5
A3
330
1D
100
AcDbEntity
  8
0
100
AcDbLine
 10
6.0
 20
21.29
 30
0.0
 11
6.0
 21
22.73
 31
0.0
  0
LINE
  5
A4
330
1D
100
AcDbEntity
  8
0
100
AcDbLine
 10
6.0
 20
21.29
 30
0.0
 11
6.0
 21
21.75
 31
0.0
  0
LINE
  5
A5
330
1D
100
AcDbEntity
  8
0
100
AcDbLine
 10
4.0
 20
21.75
 30
0.0
 11
6.0
 21
21.75
 31
0.0
  0
LINE
  5
A6
330
1D
100
AcDbEntity
  8
0
100
AcDbLine
 10
4.0
 20
21.75
 30
0.0
 11
6.0
 21
21.75
 31
0.0
  0
LINE
  5
A7
330
1D
100
AcDbEntity
  8
0
100
AcDbLine
 10
8.0
 20
21.75
 30
0.0
 11
11.0
 21
21.75
 31
0.0
  0
LINE
  5
A8
330
1D
100
AcDbEntity
  8
0
100
AcDbLine
 10
8.0
 20
21.75
 30
0.0
 11
11.0
 21
21.75
 31
0.0
  0
LINE
  5
A9
330
1D
100
AcDbEntity
  8
0
100
AcDbLine
 10
0.0
 20
21.75
 30
0.0
 11
2.0
 21
21.75
 31
0.0
  0
LINE
  5
AA
330
1D
100
AcDbEntity
  8
0
100
AcDbLine
 10
0.0
 20
21.75
 30
0.0
 11
0.0
 21
22.254
 31
0.0
  0
LINE
  5
AB
330
1D
100
AcDbEntity
  8
0
100
AcDbLine
 10
0.0
 20
21.75
 30
0.0
 11
2.0
 21
21.75
 31
0.0
  0
LINE
  5
AC
330
1D
100
AcDbEntity
  8
0
100
AcDbLine
 10
11.0
 20
20.75
 30
0.0
 11
11.0
 21
21.29
 31
0.0
  0
LINE
  5
AD
330
1D
100
AcDbEntity
  8
0
100
AcDbLine
 10
11.0
 20
20.75
 30
0.0
 11
35.4
 21
20.75
 31
0.0
  0
LINE
  5
AE
330
1D
100
AcDbEntity
  8
0
100
AcDbLine
 10
11.0
 20
22.254
 30
0.0
 11
11.0
 21
23.598
 31
0.0
  0
LINE
  5
AF
330
1D
100
AcDbEntity
  8
0
100
AcDbLine
 10
11.0
 20
22.254
 30
0.0
 11
11.0
 21
21.75
 31
0.0
  0
LINE
  5
B0
330
1D
100
AcDbEntity
  8
0
100
AcDbLine
 10
4.0
 20
22.73
 30
0.0
 11
4.0
 21
25.13
 31
0.0
  0
LINE
  5
B1
330
1D
100
AcDbEntity
  8
0
100
AcDbLine
 10
4.0
 20
22.73
 30
0.0
 11
4.0
 21
21.29
 31
0.0
  0
LINE
  5
B2
330
1D
100
AcDbEntity
  8
0
100
AcDbLine
 10
2.0
 20
22.73
 30
0.0
 11
2.0
 21
21.29
 31
0.0
  0
LINE
  5
B3
330
1D
100
AcDbEntity
  8
0
100
AcDbLine
 10
2.0
 20
22.73
 30
0.0
 11
2.0
 21
25.13
 31
0.0
  0
LINE
  5
B4
330
1D
100
AcDbEntity
  8
0
100
AcDbLine
 10
8.0
 20
22.73
 30
0.0
 11
8.0
 21
25.13
 31
0.0
  0
LINE
  5
B5
330
1D
100
AcDbEntity
  8
0
100
AcDbLine
 10
8.0
 20
22.73
 30
0.0
 11
8.0
 21
21.29
 31
0.0
  0
LINE
  5
B6
330
1D
100
AcDbEntity
  8
0
100
AcDbLine
 10
6.0
 20
22.73
 30
0.0
 11
6.0
 21
21.29
 31
0.0
  0
LINE
  5
B7
330
1D
100
AcDbEntity
  8
0
100
AcDbLine
 10
6.0
 20
22.73
 30
0.0
 11
6.0
 21
25.13
 31
0.0
  0
LINE
  5
B8
330
1D
100
AcDbEntity
  8
0
100
AcDbLine
 10
0.0
 20
22.254
 30
0.0
 11
0.0
 21
21.75
 31
0.0
  0
LINE
  5
B9
330
1D
100
AcDbEntity
  8
0
100
AcDbLine
 10
0.0
 20
22.254
 30
0.0
 11
0.0
 21
23.598
 31
0.0
  0
LINE
  5
BA
330
1D
100
AcDbEntity
  8
0
100
AcDbLine
 10
11.0
 20
22.73
 30
0.0
 11
11.0
 21
25.13
 31
0.0
  0
LINE
  5
BB
330
1D
100
AcDbEntity
  8
0
100
AcDbLine
 10
11.0
 20
22.73
 30
0.0
 11
11.0
 21
21.29
 31
0.0
  0
LINE
  5
BC
330
1D
100
AcDbEntity
  8
0
100
AcDbLine
 10
11.0
 20
21.75
 30
0.0
 11
11.0
 21
21.29
 31
0.0
  0
LINE
  5
BD
330
1D
100
AcDbEntity
  8
0
100
AcDbLine
 10
11.0
 20
21.75
 30
0.0
 11
11.0
 21
22.254
 31
0.0
  0
LINE
  5
BE
330
1D
100
AcDbEntity
  8
0
100
AcDbLine
 10
11.0
 20
21.75
 30
0.0
 11
11.0
 21
4.75
 31
0.0
  0
LINE
  5
BF
330
1D
100
AcDbEntity
  8
0
100
AcDbLine
 10
36.0
 20
21.65
 30
0.0
 11
36.0
 21
23.09
 31
0.0
  0
LINE
  5
C0
330
1D
100
AcDbEntity
  8
0
100
AcDbLine
 10
36.0
 20
21.65
 30
0.0
 11
36.0
 21
21.11
 31
0.0
  0
LINE
  5
C1
330
1D
100
AcDbEntity
  8
0
100
AcDbLine
 10
36.0
 20
21.11
 30
0.0
 11
36.0
 21
21.65
 31
0.0
  0
LINE
  5
C2
330
1D
100
AcDbEntity
  8
0
100
AcDbLine
 10
35.4
 20
20.75
 30
0.0
 11
36.0
 21
21.11
 31
0.0
  0
LINE
  5
C3
330
1D
100
AcDbEntity
  8
0
100
AcDbLine
 10
11.0
 20
21.29
 30
0.0
 11
11.0
 21
20.75
 31
0.0
  0
LINE
  5
C4
330
1D
100
AcDbEntity
  8
0
100
AcDbLine
 10
11.0
 20
21.29
 30
0.0
 11
11.0
 21
21.75
 31
0.0
  0
LINE
  5
C5
330
1D
100
AcDbEntity
  8
0
100
AcDbLine
 10
11.0
 20
21.29
 30
0.0
 11
11.0
 21
22.73
 31
0.0
  0
LINE
  5
C6
330
1D
100
AcDbEntity
  8
0
100
AcDbLine
 10
36.0
 20
22.75
 30
0.0
 11
141.0
 21
22.75
 31
0.0
  0
LINE
  5
C7
330
1D
100
AcDbEntity
  8
0
100
AcDbLine
 10
41.0
 20
22.75
 30
0.0
 11
57.0
 21
22.75
 31
0.0
  0
LINE
  5
C8
330
1D
100
AcDbEntity
  8
0
100
AcDbLine
 10
51.9471
 20
20.867647
 30
0.0
 11
53.1824
 21
19.93235
 31
0.0
  0
LINE
  5
C9
330
1D
100
AcDbEntity
  8
0
100
AcDbLine
 10
50.5177
 20
21.45
 30
0.0
 11
51.9471
 21
20.867647
 31
0.0
  0
LINE
  5
CB
330
1D
100
AcDbEntity
  8
0
100
AcDbLine
 10
46.0529
 20
20.867647
 30
0.0
 11
47.4823
 21
21.45
 31
0.0
  0
LINE
  5
CD
330
1D
100
AcDbEntity
  8
0
100
AcDbLine
 10
47.4823
 20
21.45
 30
0.0
 11
49.0
 21
21.661765
 31
0.0
  0
LINE
  5
CF
330
1D
100
AcDbEntity
  8
0
100
AcDbLine
 10
49.0
 20
21.661765
 30
0.0
 11
50.5177
 21
21.45
 31
0.0
  0
LINE
  5
D2
330
1D
100
AcDbEntity
  8
0
100
AcDbLine
 10
57.0
 20
22.75
 30
0.0
 11
57.0
 21
15.75
 31
0.0
  0
LINE
  5
D3
330
1D
100
AcDbEntity
  8
0
100
AcDbLine
 10
41.0
 20
22.75
 30
0.0
 11
41.0
 21
15.75
 31
0.0
  0
LINE
  5
D4
330
1D
100
AcDbEntity
  8
0
100
AcDbLine
 10
141.0
 20
22.75
 30
0.0
 11
141.0
 21
0.75
 31
0.0
  0
LINE
  5
D5
330
1D
100
AcDbEntity
  8
0
100
AcDbLine
 10
36.0
 20
22.75
 30
0.0
 11
141.0
 21
22.75
 31
0.0
  0
LINE
  5
D6
330
1D
100
AcDbEntity
  8
0
100
AcDbLine
 10
0.0
 20
23.598
 30
0.0
 11
0.0
 21
22.254
 31
0.0
  0
LINE
  5
D7
330
1D
100
AcDbEntity
  8
0
100
AcDbLine
 10
0.0
 20
23.598
 30
0.0
 11
0.0
 21
25.838
 31
0.0
  0
LINE
  5
D8
330
1D
100
AcDbEntity
  8
0
100
AcDbLine
 10
0.0
 20
24.70782
 30
0.0
 11
0.0
 21
25.80746
 31
0.0
  0
LINE
  5
D9
330
1D
100
AcDbEntity
  8
0
100
AcDbLine
 10
0.0
 20
24.70782
 30
0.0
 11
0.0
 21
24.29545
 31
0.0
  0
LINE
  5
DA
330
1D
100
AcDbEntity
  8
0
100
AcDbLine
 10
4.0
 20
25.13
 30
0.0
 11
4.0
 21
28.31
 31
0.0
  0
LINE
  5
DB
330
1D
100
AcDbEntity
  8
0
100
AcDbLine
 10
4.0
 20
25.13
 30
0.0
 11
4.0
 21
22.73
 31
0.0
  0
LINE
  5
DC
330
1D
100
AcDbEntity
  8
0
100
AcDbLine
 10
2.0
 20
25.13
 30
0.0
 11
2.0
 21
22.73
 31
0.0
  0
LINE
  5
DD
330
1D
100
AcDbEntity
  8
0
100
AcDbLine
 10
2.0
 20
25.13
 30
0.0
 11
2.0
 21
28.31
 31
0.0
  0
LINE
  5
DE
330
1D
100
AcDbEntity
  8
0
100
AcDbLine
 10
8.0
 20
25.13
 30
0.0
 11
8.0
 21
28.31
 31
0.0
  0
LINE
  5
DF
330
1D
100
AcDbEntity
  8
0
100
AcDbLine
 10
8.0
 20
25.13
 30
0.0
 11
8.0
 21
22.73
 31
0.0
  0
LINE
  5
E0
330
1D
100
AcDbEntity
  8
0
100
AcDbLine
 10
6.0
 20
25.13
 30
0.0
 11
6.0
 21
22.73
 31
0.0
  0
LINE
  5
E1
330
1D
100
AcDbEntity
  8
0
100
AcDbLine
 10
6.0
 20
25.13
 30
0.0
 11
6.0
 21
28.31
 31
0.0
  0
LINE
  5
E2
330
1D
100
AcDbEntity
  8
0
100
AcDbLine
 10
11.0
 20
23.598
 30
0.0
 11
11.0
 21
25.838
 31
0.0
  0
LINE
  5
E3
330
1D
100
AcDbEntity
  8
0
100
AcDbLine
 10
11.0
 20
23.598
 30
0.0
 11
11.0
 21
22.254
 31
0.0
  0
LINE
  5
E4
330
1D
100
AcDbEntity
  8
0
100
AcDbLine
 10
0.0
 20
24.29545
 30
0.0
 11
0.0
 21
24.70782
 31
0.0
  0
LINE
  5
E5
330
1D
100
AcDbEntity
  8
0
100
AcDbLine
 10
11.0
 20
25.838
 30
0.0
 11
11.0
 21
28.806
 31
0.0
  0
LINE
  5
E6
330
1D
100
AcDbEntity
  8
0
100
AcDbLine
 10
11.0
 20
25.838
 30
0.0
 11
11.0
 21
23.598
 31
0.0
  0
LINE
  5
E7
330
1D
100
AcDbEntity
  8
0
100
AcDbLine
 10
0.0
 20
25.838
 30
0.0
 11
0.0
 21
23.598
 31
0.0
  0
LINE
  5
E8
330
1D
100
AcDbEntity
  8
0
100
AcDbLine
 10
0.0
 20
25.838
 30
0.0
 11
0.0
 21
28.806
 31
0.0
  0
LINE
  5
E9
330
1D
100
AcDbEntity
  8
0
100
AcDbLine
 10
0.0
 20
25.80746
 30
0.0
 11
0.0
 21
27.64018
 31
0.0
  0
LINE
  5
EA
330
1D
100
AcDbEntity
  8
0
100
AcDbLine
 10
0.0
 20
25.80746
 30
0.0
 11
0.0
 21
24.70782
 31
0.0
  0
LINE
  5
EB
330
1D
100
AcDbEntity
  8
0
100
AcDbLine
 10
36.0
 20
25.43
 30
0.0
 11
36.0
 21
28.49
 31
0.0
  0
LINE
  5
EC
330
1D
100
AcDbEntity
  8
0
100
AcDbLine
 10
36.0
 20
25.43
 30
0.0
 11
36.0
 21
23.09
 31
0.0
  0
LINE
  5
ED
330
1D
100
AcDbEntity
  8
0
100
AcDbLine
 10
11.0
 20
25.13
 30
0.0
 11
11.0
 21
28.31
 31
0.0
  0
LINE
  5
EE
330
1D
100
AcDbEntity
  8
0
100
AcDbLine
 10
11.0
 20
25.13
 30
0.0
 11
11.0
 21
22.73
 31
0.0
  0
LINE
  5
EF
330
1D
100
AcDbEntity
  8
0
100
AcDbLine
 10
36.0
 20
23.09
 30
0.0
 11
36.0
 21
25.43
 31
0.0
  0
LINE
  5
F0
330
1D
100
AcDbEntity
  8
0
100
AcDbLine
 10
36.0
 20
23.09
 30
0.0
 11
36.0
 21
21.65
 31
0.0
  0
LINE
  5
F1
330
1D
100
AcDbEntity
  8
0
100
AcDbLine
 10
0.0
 20
28.806
 30
0.0
 11
0.0
 21
25.838
 31
0.0
  0
LINE
  5
F2
330
1D
100
AcDbEntity
  8
0
100
AcDbLine
 10
0.0
 20
28.806
 30
0.0
 11
0.0
 21
32.166
 31
0.0
  0
LINE
  5
F3
330
1D
100
AcDbEntity
  8
0
100
AcDbLine
 10
4.0
 20
28.31
 30
0.0
 11
4.0
 21
31.91
 31
0.0
  0
LINE
  5
F4
330
1D
100
AcDbEntity
  8
0
100
AcDbLine
 10
4.0
 20
28.31
 30
0.0
 11
4.0
 21
25.13
 31
0.0
  0
LINE
  5
F5
330
1D
100
AcDbEntity
  8
0
100
AcDbLine
 10
2.0
 20
28.31
 30
0.0
 11
2.0
 21
25.13
 31
0.0
  0
LINE
  5
F6
330
1D
100
AcDbEntity
  8
0
100
AcDbLine
 10
2.0
 20
28.31
 30
0.0
 11
2.0
 21
31.91
 31
0.0
  0
LINE
  5
F7
330
1D
100
AcDbEntity
  8
0
100
AcDbLine
 10
8.0
 20
28.31
 30
0.0
 11
8.0
 21
31.91
 31
0.0
  0
LINE
  5
F8
330
1D
100
AcDbEntity
  8
0
100
AcDbLine
 10
8.0
 20
28.31
 30
0.0
 11
8.0
 21
25.13
 31
0.0
  0
LINE
  5
F9
330
1D
100
AcDbEntity
  8
0
100
AcDbLine
 10
6.0
 20
28.31
 30
0.0
 11
6.0
 21
25.13
 31
0.0
  0
LINE
  5
FA
330
1D
100
AcDbEntity
  8
0
100
AcDbLine
 10
6.0
 20
28.31
 30
0.0
 11
6.0
 21
31.91
 31
0.0
  0
LINE
  5
FB
330
1D
100
AcDbEntity
  8
0
100
AcDbLine
 10
11.0
 20
28.806
 30
0.0
 11
11.0
 21
32.166
 31
0.0
  0
LINE
  5
FC
330
1D
100
AcDbEntity
  8
0
100
AcDbLine
 10
11.0
 20
28.806
 30
0.0
 11
11.0
 21
25.838
 31
0.0
  0
LINE
  5
FD
330
1D
100
AcDbEntity
  8
0
100
AcDbLine
 10
0.0
 20
30.06855
 30
0.0
 11
0.0
 21
32.8176
 31
0.0
  0
LINE
  5
FE
330
1D
100
AcDbEntity
  8
0
100
AcDbLine
 10
0.0
 20
30.06855
 30
0.0
 11
0.0
 21
27.64018
 31
0.0
  0
LINE
  5
FF
330
1D
100
AcDbEntity
  8
0
100
AcDbLine
 10
0.0
 20
30.06855
 30
0.0
 11
0.0
 21
32.8176
 31
0.0
  0
LINE
  5
100
330
1D
100
AcDbEntity
  8
0
100
AcDbLine
 10
0.0
 20
27.64018
 30
0.0
 11
0.0
 21
30.06855
 31
0.0
  0
LINE
  5
101
330
1D
100
AcDbEntity
  8
0
100
AcDbLine
 10
0.0
 20
27.64018
 30
0.0
 11
0.0
 21
25.80746
 31
0.0
  0
LINE
  5
102
330
1D
100
AcDbEntity
  8
0
100
AcDbLine
 10
36.0
 20
28.49
 30
0.0
 11
36.0
 21
31.97
 31
0.0
  0
LINE
  5
103
330
1D
100
AcDbEntity
  8
0
100
AcDbLine
 10
36.0
 20
28.49
 30
0.0
 11
36.0
 21
25.43
 31
0.0
  0
LINE
  5
104
330
1D
100
AcDbEntity
  8
0
100
AcDbLine
 10
11.0
 20
28.31
 30
0.0
 11
11.0
 21
31.91
 31
0.0
  0
LINE
  5
105
330
1D
100
AcDbEntity
  8
0
100
AcDbLine
 10
11.0
 20
28.31
 30
0.0
 11
11.0
 21
25.13
 31
0.0
  0
LINE
  5
106
330
1D
100
AcDbEntity
  8
0
100
AcDbLine
 10
4.0
 20
31.91
 30
0.0
 11
4.0
 21
35.75
 31
0.0
  0
LINE
  5
107
330
1D
100
AcDbEntity
  8
0
100
AcDbLine
 10
4.0
 20
31.91
 30
0.0
 11
4.0
 21
28.31
 31
0.0
  0
LINE
  5
108
330
1D
100
AcDbEntity
  8
0
100
AcDbLine
 10
2.0
 20
31.91
 30
0.0
 11
2.0
 21
28.31
 31
0.0
  0
LINE
  5
109
330
1D
100
AcDbEntity
  8
0
100
AcDbLine
 10
2.0
 20
31.91
 30
0.0
 11
2.0
 21
35.75
 31
0.0
  0
LINE
  5
10A
330
1D
100
AcDbEntity
  8
0
100
AcDbLine
 10
8.0
 20
31.91
 30
0.0
 11
8.0
 21
35.75
 31
0.0
  0
LINE
  5
10B
330
1D
100
AcDbEntity
  8
0
100
AcDbLine
 10
8.0
 20
31.91
 30
0.0
 11
8.0
 21
28.31
 31
0.0
  0
LINE
  5
10C
330
1D
100
AcDbEntity
  8
0
100
AcDbLine
 10
6.0
 20
31.91
 30
0.0
 11
6.0
 21
28.31
 31
0.0
  0
LINE
  5
10D
330
1D
100
AcDbEntity
  8
0
100
AcDbLine
 10
6.0
 20
31.91
 30
0.0
 11
6.0
 21
35.75
 31
0.0
  0
LINE
  5
10E
330
1D
100
AcDbEntity
  8
0
100
AcDbLine
 10
0.0
 20
32.8176
 30
0.0
 11
0.0
 21
35.75
 31
0.0
  0
LINE
  5
10F
330
1D
100
AcDbEntity
  8
0
100
AcDbLine
 10
0.0
 20
32.8176
 30
0.0
 11
0.0
 21
30.06855
 31
0.0
  0
LINE
  5
110
330
1D
100
AcDbEntity
  8
0
100
AcDbLine
 10
0.0
 20
32.166
 30
0.0
 11
0.0
 21
28.806
 31
0.0
  0
LINE
  5
111
330
1D
100
AcDbEntity
  8
0
100
AcDbLine
 10
0.0
 20
32.166
 30
0.0
 11
0.0
 21
35.75
 31
0.0
  0
LINE
  5
112
330
1D
100
AcDbEntity
  8
0
100
AcDbLine
 10
0.0
 20
32.8176
 30
0.0
 11
0.0
 21
35.75
 31
0.0
  0
LINE
  5
113
330
1D
100
AcDbEntity
  8
0
100
AcDbLine
 10
0.0
 20
32.8176
 30
0.0
 11
0.0
 21
30.06855
 31
0.0
  0
LINE
  5
114
330
1D
100
AcDbEntity
  8
0
100
AcDbLine
 10
2.0
 20
35.75
 30
0.0
 11
2.0
 21
39.59
 31
0.0
  0
LINE
  5
115
330
1D
100
AcDbEntity
  8
0
100
AcDbLine
 10
2.0
 20
35.75
 30
0.0
 11
2.0
 21
31.91
 31
0.0
  0
LINE
  5
116
330
1D
100
AcDbEntity
  8
0
100
AcDbLine
 10
4.0
 20
35.75
 30
0.0
 11
4.0
 21
39.59
 31
0.0
  0
LINE
  5
117
330
1D
100
AcDbEntity
  8
0
100
AcDbLine
 10
4.0
 20
35.75
 30
0.0
 11
4.0
 21
31.91
 31
0.0
  0
LINE
  5
118
330
1D
100
AcDbEntity
  8
0
100
AcDbLine
 10
6.0
 20
35.75
 30
0.0
 11
6.0
 21
39.59
 31
0.0
  0
LINE
  5
119
330
1D
100
AcDbEntity
  8
0
100
AcDbLine
 10
6.0
 20
35.75
 30
0.0
 11
6.0
 21
31.91
 31
0.0
  0
LINE
  5
11A
330
1D
100
AcDbEntity
  8
0
100
AcDbLine
 10
8.0
 20
35.75
 30
0.0
 11
8.0
 21
39.59
 31
0.0
  0
LINE
  5
11B
330
1D
100
AcDbEntity
  8
0
100
AcDbLine
 10
8.0
 20
35.75
 30
0.0
 11
8.0
 21
31.91
 31
0.0
  0
LINE
  5
11C
330
1D
100
AcDbEntity
  8
0
100
AcDbLine
 10
11.0
 20
32.166
 30
0.0
 11
11.0
 21
35.75
 31
0.0
  0
LINE
  5
11D
330
1D
100
AcDbEntity
  8
0
100
AcDbLine
 10
11.0
 20
32.166
 30
0.0
 11
11.0
 21
28.806
 31
0.0
  0
LINE
  5
11E
330
1D
100
AcDbEntity
  8
0
100
AcDbLine
 10
0.0
 20
35.75
 30
0.0
 11
0.0
 21
38.6824
 31
0.0
  0
LINE
  5
11F
330
1D
100
AcDbEntity
  8
0
100
AcDbLine
 10
0.0
 20
35.75
 30
0.0
 11
0.0
 21
39.334
 31
0.0
  0
LINE
  5
120
330
1D
100
AcDbEntity
  8
0
100
AcDbLine
 10
0.0
 20
35.75
 30
0.0
 11
0.0
 21
32.166
 31
0.0
  0
LINE
  5
121
330
1D
100
AcDbEntity
  8
0
100
AcDbLine
 10
0.0
 20
35.75
 30
0.0
 11
0.0
 21
32.8176
 31
0.0
  0
LINE
  5
122
330
1D
100
AcDbEntity
  8
0
100
AcDbLine
 10
0.0
 20
35.75
 30
0.0
 11
0.0
 21
32.8176
 31
0.0
  0
LINE
  5
123
330
1D
100
AcDbEntity
  8
0
100
AcDbLine
 10
11.0
 20
31.91
 30
0.0
 11
11.0
 21
35.75
 31
0.0
  0
LINE
  5
124
330
1D
100
AcDbEntity
  8
0
100
AcDbLine
 10
11.0
 20
31.91
 30
0.0
 11
11.0
 21
28.31
 31
0.0
  0
LINE
  5
125
330
1D
100
AcDbEntity
  8
0
100
AcDbLine
 10
17.0
 20
35.75
 30
0.0
 11
19.746
 21
35.75
 31
0.0
  0
LINE
  5
126
330
1D
100
AcDbEntity
  8
0
100
AcDbLine
 10
19.746
 20
35.75
 30
0.0
 11
21.747
 21
35.75
 31
0.0
  0
LINE
  5
127
330
1D
100
AcDbEntity
  8
0
100
AcDbLine
 10
21.747
 20
35.75
 30
0.0
 11
22.617
 21
35.75
 31
0.0
  0
LINE
  5
128
330
1D
100
AcDbEntity
  8
0
100
AcDbLine
 10
21.747
 20
35.75
 30
0.0
 11
21.747
 21
42.75
 31
0.0
  0
LINE
  5
129
330
1D
100
AcDbEntity
  8
0
100
AcDbLine
 10
22.617
 20
35.75
 30
0.0
 11
25.0
 21
35.75
 31
0.0
  0
LINE
  5
12A
330
1D
100
AcDbEntity
  8
0
100
AcDbLine
 10
36.0
 20
31.97
 30
0.0
 11
36.0
 21
35.75
 31
0.0
  0
LINE
  5
12B
330
1D
100
AcDbEntity
  8
0
100
AcDbLine
 10
36.0
 20
31.97
 30
0.0
 11
36.0
 21
28.49
 31
0.0
  0
LINE
  5
12C
330
1D
100
AcDbEntity
  8
0
100
AcDbLine
 10
36.0
 20
35.75
 30
0.0
 11
36.0
 21
39.53
 31
0.0
  0
LINE
  5
12D
330
1D
100
AcDbEntity
  8
0
100
AcDbLine
 10
36.0
 20
35.75
 30
0.0
 11
36.0
 21
31.97
 31
0.0
  0
LINE
  5
12E
330
1D
100
AcDbEntity
  8
0
100
AcDbLine
 10
11.0
 20
35.75
 30
0.0
 11
11.0
 21
39.59
 31
0.0
  0
LINE
  5
12F
330
1D
100
AcDbEntity
  8
0
100
AcDbLine
 10
11.0
 20
35.75
 30
0.0
 11
11.0
 21
31.91
 31
0.0
  0
LINE
  5
130
330
1D
100
AcDbEntity
  8
0
100
AcDbLine
 10
11.0
 20
35.75
 30
0.0
 11
11.0
 21
39.334
 31
0.0
  0
LINE
  5
131
330
1D
100
AcDbEntity
  8
0
100
AcDbLine
 10
11.0
 20
35.75
 30
0.0
 11
11.0
 21
32.166
 31
0.0
  0
LINE
  5
132
330
1D
100
AcDbEntity
  8
0
100
AcDbLine
 10
11.0
 20
35.75
 30
0.0
 11
17.0
 21
35.75
 31
0.0
  0
LINE
  5
133
330
1D
100
AcDbEntity
  8
0
100
AcDbLine
 10
11.0
 20
35.75
 30
0.0
 11
11.0
 21
42.75
 31
0.0
  0
LINE
  5
134
330
1D
100
AcDbEntity
  8
0
100
AcDbLine
 10
0.0
 20
39.334
 30
0.0
 11
0.0
 21
35.75
 31
0.0
  0
LINE
  5
135
330
1D
100
AcDbEntity
  8
0
100
AcDbLine
 10
0.0
 20
39.334
 30
0.0
 11
0.0
 21
42.694
 31
0.0
  0
LINE
  5
136
330
1D
100
AcDbEntity
  8
0
100
AcDbLine
 10
0.0
 20
39.334
 30
0.0
 11
0.0
 21
42.694
 31
0.0
  0
LINE
  5
137
330
1D
100
AcDbEntity
  8
0
100
AcDbLine
 10
2.0
 20
39.59
 30
0.0
 11
2.0
 21
35.75
 31
0.0
  0
LINE
  5
138
330
1D
100
AcDbEntity
  8
0
100
AcDbLine
 10
2.0
 20
39.59
 30
0.0
 11
2.0
 21
43.19
 31
0.0
  0
LINE
  5
139
330
1D
100
AcDbEntity
  8
0
100
AcDbLine
 10
4.0
 20
39.59
 30
0.0
 11
4.0
 21
43.19
 31
0.0
  0
LINE
  5
13A
330
1D
100
AcDbEntity
  8
0
100
AcDbLine
 10
4.0
 20
39.59
 30
0.0
 11
4.0
 21
35.75
 31
0.0
  0
LINE
  5
13B
330
1D
100
AcDbEntity
  8
0
100
AcDbLine
 10
6.0
 20
39.59
 30
0.0
 11
6.0
 21
35.75
 31
0.0
  0
LINE
  5
13C
330
1D
100
AcDbEntity
  8
0
100
AcDbLine
 10
6.0
 20
39.59
 30
0.0
 11
6.0
 21
43.19
 31
0.0
  0
LINE
  5
13D
330
1D
100
AcDbEntity
  8
0
100
AcDbLine
 10
8.0
 20
39.59
 30
0.0
 11
8.0
 21
43.19
 31
0.0
  0
LINE
  5
13E
330
1D
100
AcDbEntity
  8
0
100
AcDbLine
 10
8.0
 20
39.59
 30
0.0
 11
8.0
 21
35.75
 31
0.0
  0
LINE
  5
13F
330
1D
100
AcDbEntity
  8
0
100
AcDbLine
 10
11.0
 20
39.334
 30
0.0
 11
11.0
 21
42.694
 31
0.0
  0
LINE
  5
140
330
1D
100
AcDbEntity
  8
0
100
AcDbLine
 10
11.0
 20
39.334
 30
0.0
 11
11.0
 21
35.75
 31
0.0
  0
LINE
  5
141
330
1D
100
AcDbEntity
  8
0
100
AcDbLine
 10
11.0
 20
39.334
 30
0.0
 11
11.0
 21
42.75
 31
0.0
  0
LINE
  5
142
330
1D
100
AcDbEntity
  8
0
100
AcDbLine
 10
0.0
 20
38.6824
 30
0.0
 11
0.0
 21
41.4315
 31
0.0
  0
LINE
  5
143
330
1D
100
AcDbEntity
  8
0
100
AcDbLine
 10
0.0
 20
38.6824
 30
0.0
 11
0.0
 21
35.75
 31
0.0
  0
LINE
  5
144
330
1D
100
AcDbEntity
  8
0
100
AcDbLine
 10
0.0
 20
42.694
 30
0.0
 11
0.0
 21
45.662
 31
0.0
  0
LINE
  5
145
330
1D
100
AcDbEntity
  8
0
100
AcDbLine
 10
0.0
 20
42.694
 30
0.0
 11
0.0
 21
39.334
 31
0.0
  0
LINE
  5
146
330
1D
100
AcDbEntity
  8
0
100
AcDbLine
 10
0.0
 20
42.694
 30
0.0
 11
0.0
 21
39.334
 31
0.0
  0
LINE
  5
147
330
1D
100
AcDbEntity
  8
0
100
AcDbLine
 10
0.0
 20
42.694
 30
0.0
 11
0.0
 21
45.662
 31
0.0
  0
LINE
  5
148
330
1D
100
AcDbEntity
  8
0
100
AcDbLine
 10
0.0
 20
41.4315
 30
0.0
 11
0.0
 21
43.8598
 31
0.0
  0
LINE
  5
149
330
1D
100
AcDbEntity
  8
0
100
AcDbLine
 10
0.0
 20
41.4315
 30
0.0
 11
0.0
 21
38.6824
 31
0.0
  0
LINE
  5
14A
330
1D
100
AcDbEntity
  8
0
100
AcDbLine
 10
0.0
 20
45.662
 30
0.0
 11
0.0
 21
42.694
 31
0.0
  0
LINE
  5
14B
330
1D
100
AcDbEntity
  8
0
100
AcDbLine
 10
0.0
 20
45.662
 30
0.0
 11
0.0
 21
47.902
 31
0.0
  0
LINE
  5
14C
330
1D
100
AcDbEntity
  8
0
100
AcDbLine
 10
0.0
 20
45.662
 30
0.0
 11
0.0
 21
42.694
 31
0.0
  0
LINE
  5
14D
330
1D
100
AcDbEntity
  8
0
100
AcDbLine
 10
0.0
 20
43.8598
 30
0.0
 11
0.0
 21
45.6925
 31
0.0
  0
LINE
  5
14E
330
1D
100
AcDbEntity
  8
0
100
AcDbLine
 10
0.0
 20
43.8598
 30
0.0
 11
0.0
 21
41.4315
 31
0.0
  0
LINE
  5
14F
330
1D
100
AcDbEntity
  8
0
100
AcDbLine
 10
11.0
 20
42.75
 30
0.0
 11
11.0
 21
39.334
 31
0.0
  0
LINE
  5
150
330
1D
100
AcDbEntity
  8
0
100
AcDbLine
 10
2.0
 20
43.19
 30
0.0
 11
2.0
 21
39.59
 31
0.0
  0
LINE
  5
151
330
1D
100
AcDbEntity
  8
0
100
AcDbLine
 10
2.0
 20
43.19
 30
0.0
 11
2.0
 21
46.37
 31
0.0
  0
LINE
  5
152
330
1D
100
AcDbEntity
  8
0
100
AcDbLine
 10
4.0
 20
43.19
 30
0.0
 11
4.0
 21
46.37
 31
0.0
  0
LINE
  5
153
330
1D
100
AcDbEntity
  8
0
100
AcDbLine
 10
4.0
 20
43.19
 30
0.0
 11
4.0
 21
39.59
 31
0.0
  0
LINE
  5
154
330
1D
100
AcDbEntity
  8
0
100
AcDbLine
 10
6.0
 20
43.19
 30
0.0
 11
6.0
 21
39.59
 31
0.0
  0
LINE
  5
155
330
1D
100
AcDbEntity
  8
0
100
AcDbLine
 10
6.0
 20
43.19
 30
0.0
 11
6.0
 21
46.37
 31
0.0
  0
LINE
  5
156
330
1D
100
AcDbEntity
  8
0
100
AcDbLine
 10
8.0
 20
43.19
 30
0.0
 11
8.0
 21
46.37
 31
0.0
  0
LINE
  5
157
330
1D
100
AcDbEntity
  8
0
100
AcDbLine
 10
8.0
 20
43.19
 30
0.0
 11
8.0
 21
39.59
 31
0.0
  0
LINE
  5
158
330
1D
100
AcDbEntity
  8
0
100
AcDbLine
 10
11.0
 20
42.75
 30
0.0
 11
11.0
 21
35.75
 31
0.0
  0
LINE
  5
159
330
1D
100
AcDbEntity
  8
0
100
AcDbLine
 10
11.0
 20
42.75
 30
0.0
 11
17.0
 21
42.75
 31
0.0
  0
LINE
  5
15A
330
1D
100
AcDbEntity
  8
0
100
AcDbLine
 10
11.0
 20
42.694
 30
0.0
 11
11.0
 21
45.662
 31
0.0
  0
LINE
  5
15B
330
1D
100
AcDbEntity
  8
0
100
AcDbLine
 10
11.0
 20
42.694
 30
0.0
 11
11.0
 21
39.334
 31
0.0
  0
LINE
  5
15C
330
1D
100
AcDbEntity
  8
0
100
AcDbLine
 10
2.0
 20
46.37
 30
0.0
 11
2.0
 21
43.19
 31
0.0
  0
LINE
  5
15D
330
1D
100
AcDbEntity
  8
0
100
AcDbLine
 10
2.0
 20
46.37
 30
0.0
 11
2.0
 21
48.77
 31
0.0
  0
LINE
  5
15E
330
1D
100
AcDbEntity
  8
0
100
AcDbLine
 10
4.0
 20
46.37
 30
0.0
 11
4.0
 21
48.77
 31
0.0
  0
LINE
  5
15F
330
1D
100
AcDbEntity
  8
0
100
AcDbLine
 10
4.0
 20
46.37
 30
0.0
 11
4.0
 21
43.19
 31
0.0
  0
LINE
  5
160
330
1D
100
AcDbEntity
  8
0
100
AcDbLine
 10
6.0
 20
46.37
 30
0.0
 11
6.0
 21
43.19
 31
0.0
  0
LINE
  5
161
330
1D
100
AcDbEntity
  8
0
100
AcDbLine
 10
6.0
 20
46.37
 30
0.0
 11
6.0
 21
48.77
 31
0.0
  0
LINE
  5
162
330
1D
100
AcDbEntity
  8
0
100
AcDbLine
 10
8.0
 20
46.37
 30
0.0
 11
8.0
 21
48.77
 31
0.0
  0
LINE
  5
163
330
1D
100
AcDbEntity
  8
0
100
AcDbLine
 10
8.0
 20
46.37
 30
0.0
 11
8.0
 21
43.19
 31
0.0
  0
LINE
  5
164
330
1D
100
AcDbEntity
  8
0
100
AcDbLine
 10
11.0
 20
45.662
 30
0.0
 11
11.0
 21
47.902
 31
0.0
  0
LINE
  5
165
330
1D
100
AcDbEntity
  8
0
100
AcDbLine
 10
11.0
 20
45.662
 30
0.0
 11
11.0
 21
42.694
 31
0.0
  0
LINE
  5
166
330
1D
100
AcDbEntity
  8
0
100
AcDbLine
 10
0.0
 20
45.6925
 30
0.0
 11
0.0
 21
46.7922
 31
0.0
  0
LINE
  5
167
330
1D
100
AcDbEntity
  8
0
100
AcDbLine
 10
0.0
 20
45.6925
 30
0.0
 11
0.0
 21
43.8598
 31
0.0
  0
LINE
  5
168
330
1D
100
AcDbEntity
  8
0
100
AcDbLine
 10
11.0
 20
39.59
 30
0.0
 11
11.0
 21
43.19
 31
0.0
  0
LINE
  5
169
330
1D
100
AcDbEntity
  8
0
100
AcDbLine
 10
11.0
 20
39.59
 30
0.0
 11
11.0
 21
35.75
 31
0.0
  0
LINE
  5
16A
330
1D
100
AcDbEntity
  8
0
100
AcDbLine
 10
11.0
 20
43.19
 30
0.0
 11
11.0
 21
46.37
 31
0.0
  0
LINE
  5
16B
330
1D
100
AcDbEntity
  8
0
100
AcDbLine
 10
11.0
 20
43.19
 30
0.0
 11
11.0
 21
39.59
 31
0.0
  0
LINE
  5
16C
330
1D
100
AcDbEntity
  8
0
100
AcDbLine
 10
0.0
 20
47.2045
 30
0.0
 11
0.0
 21
46.7922
 31
0.0
  0
LINE
  5
16D
330
1D
100
AcDbEntity
  8
0
100
AcDbLine
 10
0.0
 20
47.902
 30
0.0
 11
0.0
 21
45.662
 31
0.0
  0
LINE
  5
16E
330
1D
100
AcDbEntity
  8
0
100
AcDbLine
 10
0.0
 20
47.902
 30
0.0
 11
0.0
 21
49.246
 31
0.0
  0
LINE
  5
16F
330
1D
100
AcDbEntity
  8
0
100
AcDbLine
 10
0.0
 20
49.246
 30
0.0
 11
0.0
 21
47.902
 31
0.0
  0
LINE
  5
170
330
1D
100
AcDbEntity
  8
0
100
AcDbLine
 10
0.0
 20
49.246
 30
0.0
 11
0.0
 21
49.75
 31
0.0
  0
LINE
  5
171
330
1D
100
AcDbEntity
  8
0
100
AcDbLine
 10
0.0
 20
49.75
 30
0.0
 11
0.0
 21
49.246
 31
0.0
  0
LINE
  5
172
330
1D
100
AcDbEntity
  8
0
100
AcDbLine
 10
0.0
 20
49.75
 30
0.0
 11
2.0
 21
49.75
 31
0.0
  0
LINE
  5
173
330
1D
100
AcDbEntity
  8
0
100
AcDbLine
 10
2.0
 20
48.77
 30
0.0
 11
2.0
 21
46.37
 31
0.0
  0
LINE
  5
174
330
1D
100
AcDbEntity
  8
0
100
AcDbLine
 10
2.0
 20
48.77
 30
0.0
 11
2.0
 21
50.21
 31
0.0
  0
LINE
  5
175
330
1D
100
AcDbEntity
  8
0
100
AcDbLine
 10
4.0
 20
48.77
 30
0.0
 11
4.0
 21
50.21
 31
0.0
  0
LINE
  5
176
330
1D
100
AcDbEntity
  8
0
100
AcDbLine
 10
4.0
 20
48.77
 30
0.0
 11
4.0
 21
46.37
 31
0.0
  0
LINE
  5
177
330
1D
100
AcDbEntity
  8
0
100
AcDbLine
 10
6.0
 20
48.77
 30
0.0
 11
6.0
 21
46.37
 31
0.0
  0
LINE
  5
178
330
1D
100
AcDbEntity
  8
0
100
AcDbLine
 10
6.0
 20
48.77
 30
0.0
 11
6.0
 21
50.21
 31
0.0
  0
LINE
  5
179
330
1D
100
AcDbEntity
  8
0
100
AcDbLine
 10
8.0
 20
48.77
 30
0.0
 11
8.0
 21
50.21
 31
0.0
  0
LINE
  5
17A
330
1D
100
AcDbEntity
  8
0
100
AcDbLine
 10
8.0
 20
48.77
 30
0.0
 11
8.0
 21
46.37
 31
0.0
  0
LINE
  5
17B
330
1D
100
AcDbEntity
  8
0
100
AcDbLine
 10
11.0
 20
47.902
 30
0.0
 11
11.0
 21
49.246
 31
0.0
  0
LINE
  5
17C
330
1D
100
AcDbEntity
  8
0
100
AcDbLine
 10
11.0
 20
47.902
 30
0.0
 11
11.0
 21
45.662
 31
0.0
  0
LINE
  5
17D
330
1D
100
AcDbEntity
  8
0
100
AcDbLine
 10
2.0
 20
49.75
 30
0.0
 11
2.0
 21
50.21
 31
0.0
  0
LINE
  5
17E
330
1D
100
AcDbEntity
  8
0
100
AcDbLine
 10
6.0
 20
49.75
 30
0.0
 11
6.0
 21
50.21
 31
0.0
  0
LINE
  5
17F
330
1D
100
AcDbEntity
  8
0
100
AcDbLine
 10
4.0
 20
49.75
 30
0.0
 11
6.0
 21
49.75
 31
0.0
  0
LINE
  5
180
330
1D
100
AcDbEntity
  8
0
100
AcDbLine
 10
4.0
 20
49.75
 30
0.0
 11
6.0
 21
49.75
 31
0.0
  0
LINE
  5
181
330
1D
100
AcDbEntity
  8
0
100
AcDbLine
 10
8.0
 20
49.75
 30
0.0
 11
11.0
 21
49.75
 31
0.0
  0
LINE
  5
182
330
1D
100
AcDbEntity
  8
0
100
AcDbLine
 10
11.0
 20
49.246
 30
0.0
 11
11.0
 21
49.75
 31
0.0
  0
LINE
  5
183
330
1D
100
AcDbEntity
  8
0
100
AcDbLine
 10
11.0
 20
49.246
 30
0.0
 11
11.0
 21
47.902
 31
0.0
  0
LINE
  5
184
330
1D
100
AcDbEntity
  8
0
100
AcDbLine
 10
0.0
 20
46.7922
 30
0.0
 11
0.0
 21
47.2045
 31
0.0
  0
LINE
  5
185
330
1D
100
AcDbEntity
  8
0
100
AcDbLine
 10
0.0
 20
46.7922
 30
0.0
 11
0.0
 21
45.6925
 31
0.0
  0
LINE
  5
186
330
1D
100
AcDbEntity
  8
0
100
AcDbLine
 10
11.0
 20
46.37
 30
0.0
 11
11.0
 21
48.77
 31
0.0
  0
LINE
  5
187
330
1D
100
AcDbEntity
  8
0
100
AcDbLine
 10
11.0
 20
46.37
 30
0.0
 11
11.0
 21
43.19
 31
0.0
  0
LINE
  5
188
330
1D
100
AcDbEntity
  8
0
100
AcDbLine
 10
11.0
 20
48.77
 30
0.0
 11
11.0
 21
50.21
 31
0.0
  0
LINE
  5
189
330
1D
100
AcDbEntity
  8
0
100
AcDbLine
 10
11.0
 20
48.77
 30
0.0
 11
11.0
 21
46.37
 31
0.0
  0
LINE
  5
18A
330
1D
100
AcDbEntity
  8
0
100
AcDbLine
 10
2.0
 20
50.21
 30
0.0
 11
2.0
 21
48.77
 31
0.0
  0
LINE
  5
18B
330
1D
100
AcDbEntity
  8
0
100
AcDbLine
 10
2.0
 20
50.21
 30
0.0
 11
2.0
 21
50.75
 31
0.0
  0
LINE
  5
18C
330
1D
100
AcDbEntity
  8
0
100
AcDbLine
 10
2.0
 20
50.21
 30
0.0
 11
2.0
 21
49.75
 31
0.0
  0
LINE
  5
18D
330
1D
100
AcDbEntity
  8
0
100
AcDbLine
 10
4.0
 20
50.75
 30
0.0
 11
4.0
 21
50.21
 31
0.0
  0
LINE
  5
18E
330
1D
100
AcDbEntity
  8
0
100
AcDbLine
 10
2.0
 20
50.75
 30
0.0
 11
2.0
 21
50.21
 31
0.0
  0
LINE
  5
18F
330
1D
100
AcDbEntity
  8
0
100
AcDbLine
 10
2.0
 20
50.75
 30
0.0
 11
4.0
 21
50.75
 31
0.0
  0
LINE
  5
190
330
1D
100
AcDbEntity
  8
0
100
AcDbLine
 10
4.0
 20
50.21
 30
0.0
 11
4.0
 21
50.75
 31
0.0
  0
LINE
  5
191
330
1D
100
AcDbEntity
  8
0
100
AcDbLine
 10
4.0
 20
50.21
 30
0.0
 11
4.0
 21
48.77
 31
0.0
  0
LINE
  5
192
330
1D
100
AcDbEntity
  8
0
100
AcDbLine
 10
8.0
 20
50.75
 30
0.0
 11
8.0
 21
50.21
 31
0.0
  0
LINE
  5
193
330
1D
100
AcDbEntity
  8
0
100
AcDbLine
 10
6.0
 20
50.21
 30
0.0
 11
6.0
 21
48.77
 31
0.0
  0
LINE
  5
194
330
1D
100
AcDbEntity
  8
0
100
AcDbLine
 10
6.0
 20
50.21
 30
0.0
 11
6.0
 21
50.75
 31
0.0
  0
LINE
  5
195
330
1D
100
AcDbEntity
  8
0
100
AcDbLine
 10
6.0
 20
50.21
 30
0.0
 11
6.0
 21
49.75
 31
0.0
  0
LINE
  5
196
330
1D
100
AcDbEntity
  8
0
100
AcDbLine
 10
6.0
 20
50.75
 30
0.0
 11
6.0
 21
50.21
 31
0.0
  0
LINE
  5
197
330
1D
100
AcDbEntity
  8
0
100
AcDbLine
 10
6.0
 20
50.75
 30
0.0
 11
8.0
 21
50.75
 31
0.0
  0
LINE
  5
198
330
1D
100
AcDbEntity
  8
0
100
AcDbLine
 10
8.0
 20
50.21
 30
0.0
 11
8.0
 21
50.75
 31
0.0
  0
LINE
  5
199
330
1D
100
AcDbEntity
  8
0
100
AcDbLine
 10
8.0
 20
50.21
 30
0.0
 11
8.0
 21
48.77
 31
0.0
  0
LINE
  5
19A
330
1D
100
AcDbEntity
  8
0
100
AcDbLine
 10
11.0
 20
49.75
 30
0.0
 11
11.0
 21
50.21
 31
0.0
  0
LINE
  5
19B
330
1D
100
AcDbEntity
  8
0
100
AcDbLine
 10
11.0
 20
49.75
 30
0.0
 11
11.0
 21
49.246
 31
0.0
  0
LINE
  5
19C
330
1D
100
AcDbEntity
  8
0
100
AcDbLine
 10
11.0
 20
49.75
 30
0.0
 11
11.0
 21
66.75
 31
0.0
  0
LINE
  5
19D
330
1D
100
AcDbEntity
  8
0
100
AcDbLine
 10
19.0
 20
42.75
 30
0.0
 11
19.0
 21
47.75
 31
0.0
  0
LINE
  5
19E
330
1D
100
AcDbEntity
  8
0
100
AcDbLine
 10
19.746
 20
42.75
 30
0.0
 11
21.747
 21
42.75
 31
0.0
  0
LINE
  5
19F
330
1D
100
AcDbEntity
  8
0
100
AcDbLine
 10
15.0
 20
42.75
 30
0.0
 11
15.0
 21
47.75
 31
0.0
  0
LINE
  5
1A0
330
1D
100
AcDbEntity
  8
0
100
AcDbLine
 10
17.0
 20
47.75
 30
0.0
 11
17.512
 21
47.75
 31
0.0
  0
LINE
  5
1A1
330
1D
100
AcDbEntity
  8
0
100
AcDbLine
 10
16.488
 20
47.75
 30
0.0
 11
17.0
 21
47.75
 31
0.0
  0
LINE
  5
1A2
330
1D
100
AcDbEntity
  8
0
100
AcDbLine
 10
16.008
 20
47.75
 30
0.0
 11
16.488
 21
47.75
 31
0.0
  0
LINE
  5
1A3
330
1D
100
AcDbEntity
  8
0
100
AcDbLine
 10
15.584
 20
47.75
 30
0.0
 11
16.008
 21
47.75
 31
0.0
  0
LINE
  5
1A4
330
1D
100
AcDbEntity
  8
0
100
AcDbLine
 10
15.264
 20
47.75
 30
0.0
 11
15.584
 21
47.75
 31
0.0
  0
LINE
  5
1A5
330
1D
100
AcDbEntity
  8
0
100
AcDbLine
 10
15.072
 20
47.75
 30
0.0
 11
15.264
 21
47.75
 31
0.0
  0
LINE
  5
1A6
330
1D
100
AcDbEntity
  8
0
100
AcDbLine
 10
15.0
 20
47.75
 30
0.0
 11
15.0
 21
42.75
 31
0.0
  0
LINE
  5
1A7
330
1D
100
AcDbEntity
  8
0
100
AcDbLine
 10
15.0
 20
47.75
 30
0.0
 11
15.072
 21
47.75
 31
0.0
  0
LINE
  5
1A8
330
1D
100
AcDbEntity
  8
0
100
AcDbLine
 10
17.512
 20
47.75
 30
0.0
 11
17.992
 21
47.75
 31
0.0
  0
LINE
  5
1A9
330
1D
100
AcDbEntity
  8
0
100
AcDbLine
 10
17.992
 20
47.75
 30
0.0
 11
18.416
 21
47.75
 31
0.0
  0
LINE
  5
1AA
330
1D
100
AcDbEntity
  8
0
100
AcDbLine
 10
18.416
 20
47.75
 30
0.0
 11
18.736
 21
47.75
 31
0.0
  0
LINE
  5
1AB
330
1D
100
AcDbEntity
  8
0
100
AcDbLine
 10
19.0
 20
47.75
 30
0.0
 11
19.0
 21
42.75
 31
0.0
  0
LINE
  5
1AC
330
1D
100
AcDbEntity
  8
0
100
AcDbLine
 10
18.736
 20
47.75
 30
0.0
 11
18.928
 21
47.75
 31
0.0
  0
LINE
  5
1AD
330
1D
100
AcDbEntity
  8
0
100
AcDbLine
 10
18.928
 20
47.75
 30
0.0
 11
19.0
 21
47.75
 31
0.0
  0
LINE
  5
1AE
330
1D
100
AcDbEntity
  8
0
100
AcDbLine
 10
17.0
 20
42.75
 30
0.0
 11
19.746
 21
42.75
 31
0.0
  0
LINE
  5
1AF
330
1D
100
AcDbEntity
  8
0
100
AcDbLine
 10
21.747
 20
42.75
 30
0.0
 11
21.747
 21
35.75
 31
0.0
  0
LINE
  5
1B0
330
1D
100
AcDbEntity
  8
0
100
AcDbLine
 10
21.747
 20
42.75
 30
0.0
 11
22.617
 21
42.75
 31
0.0
  0
LINE
  5
1B1
330
1D
100
AcDbEntity
  8
0
100
AcDbLine
 10
22.617
 20
42.75
 30
0.0
 11
25.0
 21
42.75
 31
0.0
  0
LINE
  5
1B2
330
1D
100
AcDbEntity
  8
0
100
AcDbLine
 10
35.4
 20
50.75
 30
0.0
 11
36.0
 21
50.39
 31
0.0
  0
LINE
  5
1B3
330
1D
100
AcDbEntity
  8
0
100
AcDbLine
 10
11.0
 20
50.21
 30
0.0
 11
11.0
 21
49.75
 31
0.0
  0
LINE
  5
1B4
330
1D
100
AcDbEntity
  8
0
100
AcDbLine
 10
11.0
 20
50.21
 30
0.0
 11
11.0
 21
50.75
 31
0.0
  0
LINE
  5
1B5
330
1D
100
AcDbEntity
  8
0
100
AcDbLine
 10
11.0
 20
50.21
 30
0.0
 11
11.0
 21
48.77
 31
0.0
  0
LINE
  5
1B6
330
1D
100
AcDbEntity
  8
0
100
AcDbLine
 10
16.488
 20
58.822
 30
0.0
 11
17.0
 21
58.75
 31
0.0
  0
LINE
  5
1B7
330
1D
100
AcDbEntity
  8
0
100
AcDbLine
 10
17.0
 20
58.75
 30
0.0
 11
17.512
 21
58.822
 31
0.0
  0
LINE
  5
1B8
330
1D
100
AcDbEntity
  8
0
100
AcDbLine
 10
16.008
 20
59.014
 30
0.0
 11
16.488
 21
58.822
 31
0.0
  0
LINE
  5
1B9
330
1D
100
AcDbEntity
  8
0
100
AcDbLine
 10
15.584
 20
59.334
 30
0.0
 11
16.008
 21
59.014
 31
0.0
  0
LINE
  5
1BA
330
1D
100
AcDbEntity
  8
0
100
AcDbLine
 10
17.512
 20
58.822
 30
0.0
 11
17.992
 21
59.014
 31
0.0
  0
LINE
  5
1BB
330
1D
100
AcDbEntity
  8
0
100
AcDbLine
 10
17.992
 20
59.014
 30
0.0
 11
18.416
 21
59.334
 31
0.0
  0
LINE
  5
1BC
330
1D
100
AcDbEntity
  8
0
100
AcDbLine
 10
15.072
 20
60.238
 30
0.0
 11
15.264
 21
59.758
 31
0.0
  0
LINE
  5
1BD
330
1D
100
AcDbEntity
  8
0
100
AcDbLine
 10
15.264
 20
59.758
 30
0.0
 11
15.584
 21
59.334
 31
0.0
  0
LINE
  5
1BE
330
1D
100
AcDbEntity
  8
0
100
AcDbLine
 10
18.416
 20
59.334
 30
0.0
 11
18.736
 21
59.758
 31
0.0
  0
LINE
  5
1BF
330
1D
100
AcDbEntity
  8
0
100
AcDbLine
 10
18.736
 20
59.758
 30
0.0
 11
18.928
 21
60.238
 31
0.0
  0
LINE
  5
1C0
330
1D
100
AcDbEntity
  8
0
100
AcDbLine
 10
18.928
 20
60.238
 30
0.0
 11
19.0
 21
60.75
 31
0.0
  0
LINE
  5
1C1
330
1D
100
AcDbEntity
  8
0
100
AcDbLine
 10
18.928
 20
61.262
 30
0.0
 11
19.0
 21
60.75
 31
0.0
  0
LINE
  5
1C2
330
1D
100
AcDbEntity
  8
0
100
AcDbLine
 10
18.416
 20
62.166
 30
0.0
 11
18.736
 21
61.742
 31
0.0
  0
LINE
  5
1C3
330
1D
100
AcDbEntity
  8
0
100
AcDbLine
 10
18.736
 20
61.742
 30
0.0
 11
18.928
 21
61.262
 31
0.0
  0
LINE
  5
1C4
330
1D
100
AcDbEntity
  8
0
100
AcDbLine
 10
17.992
 20
62.486
 30
0.0
 11
18.416
 21
62.166
 31
0.0
  0
LINE
  5
1C5
330
1D
100
AcDbEntity
  8
0
100
AcDbLine
 10
16.008
 20
62.486
 30
0.0
 11
16.488
 21
62.678
 31
0.0
  0
LINE
  5
1C6
330
1D
100
AcDbEntity
  8
0
100
AcDbLine
 10
15.584
 20
62.166
 30
0.0
 11
16.008
 21
62.486
 31
0.0
  0
LINE
  5
1C7
330
1D
100
AcDbEntity
  8
0
100
AcDbLine
 10
15.264
 20
61.742
 30
0.0
 11
15.584
 21
62.166
 31
0.0
  0
LINE
  5
1C8
330
1D
100
AcDbEntity
  8
0
100
AcDbLine
 10
15.072
 20
61.262
 30
0.0
 11
15.264
 21
61.742
 31
0.0
  0
LINE
  5
1C9
330
1D
100
AcDbEntity
  8
0
100
AcDbLine
 10
15.0
 20
60.75
 30
0.0
 11
15.072
 21
61.262
 31
0.0
  0
LINE
  5
1CA
330
1D
100
AcDbEntity
  8
0
100
AcDbLine
 10
15.0
 20
60.75
 30
0.0
 11
15.072
 21
60.238
 31
0.0
  0
LINE
  5
1CB
330
1D
100
AcDbEntity
  8
0
100
AcDbLine
 10
17.0
 20
62.75
 30
0.0
 11
17.512
 21
62.678
 31
0.0
  0
LINE
  5
1CC
330
1D
100
AcDbEntity
  8
0
100
AcDbLine
 10
17.512
 20
62.678
 30
0.0
 11
17.992
 21
62.486
 31
0.0
  0
LINE
  5
1CD
330
1D
100
AcDbEntity
  8
0
100
AcDbLine
 10
16.488
 20
62.678
 30
0.0
 11
17.0
 21
62.75
 31
0.0
  0
LINE
  5
1CE
330
1D
100
AcDbEntity
  8
0
100
AcDbLine
 10
17.0
 20
66.75
 30
0.0
 11
19.746
 21
65.8853
 31
0.0
  0
LINE
  5
1CF
330
1D
100
AcDbEntity
  8
0
100
AcDbLine
 10
19.746
 20
65.8853
 30
0.0
 11
21.747
 21
64.6679
 31
0.0
  0
LINE
  5
1D0
330
1D
100
AcDbEntity
  8
0
100
AcDbLine
 10
21.747
 20
64.6679
 30
0.0
 11
22.617
 21
62.5808
 31
0.0
  0
LINE
  5
1D1
330
1D
100
AcDbEntity
  8
0
100
AcDbLine
 10
22.617
 20
62.5808
 30
0.0
 11
24.655406773289
 21
50.75
 31
0.0
  0
LINE
  5
1D2
330
1D
100
AcDbEntity
  8
0
100
AcDbLine
 10
11.0
 20
66.75
 30
0.0
 11
17.0
 21
66.75
 31
0.0
  0
LINE
  5
1D3
330
1D
100
AcDbEntity
  8
0
100
AcDbLine
 10
11.0
 20
66.75
 30
0.0
 11
11.0
 21
49.75
 31
0.0
  0
LINE
  5
1D4
330
1D
100
AcDbEntity
  8
0
100
AcDbLine
 10
11.0
 20
50.75
 30
0.0
 11
11.0
 21
50.21
 31
0.0
  0
LINE
  5
1D5
330
1D
100
AcDbEntity
  8
0
100
AcDbLine
 10
11.0
 20
50.75
 30
0.0
 11
35.4
 21
50.75
 31
0.0
  0
LINE
  5
1D6
330
1D
100
AcDbEntity
  8
0
100
AcDbLine
 10
36.0
 20
39.53
 30
0.0
 11
36.0
 21
43.01
 31
0.0
  0
LINE
  5
1D7
330
1D
100
AcDbEntity
  8
0
100
AcDbLine
 10
36.0
 20
39.53
 30
0.0
 11
36.0
 21
35.75
 31
0.0
  0
LINE
  5
1D8
330
1D
100
AcDbEntity
  8
0
100
AcDbLine
 10
36.0
 20
43.01
 30
0.0
 11
36.0
 21
46.07
 31
0.0
  0
LINE
  5
1D9
330
1D
100
AcDbEntity
  8
0
100
AcDbLine
 10
36.0
 20
43.01
 30
0.0
 11
36.0
 21
39.53
 31
0.0
  0
LINE
  5
1DA
330
1D
100
AcDbEntity
  8
0
100
AcDbLine
 10
36.0
 20
46.07
 30
0.0
 11
36.0
 21
48.41
 31
0.0
  0
LINE
  5
1DB
330
1D
100
AcDbEntity
  8
0
100
AcDbLine
 10
36.0
 20
46.07
 30
0.0
 11
36.0
 21
43.01
 31
0.0
  0
LINE
  5
1DC
330
1D
100
AcDbEntity
  8
0
100
AcDbLine
 10
57.0
 20
48.75
 30
0.0
 11
57.0
 21
55.75
 31
0.0
  0
LINE
  5
1DD
330
1D
100
AcDbEntity
  8
0
100
AcDbLine
 10
41.0
 20
48.75
 30
0.0
 11
57.0
 21
48.75
 31
0.0
  0
LINE
  5
1DE
330
1D
100
AcDbEntity
  8
0
100
AcDbLine
 10
41.0
 20
48.75
 30
0.0
 11
41.0
 21
55.75
 31
0.0
  0
LINE
  5
1DF
330
1D
100
AcDbEntity
  8
0
100
AcDbLine
 10
36.0
 20
48.41
 30
0.0
 11
36.0
 21
49.85
 31
0.0
  0
LINE
  5
1E0
330
1D
100
AcDbEntity
  8
0
100
AcDbLine
 10
36.0
 20
48.41
 30
0.0
 11
36.0
 21
46.07
 31
0.0
  0
LINE
  5
1E1
330
1D
100
AcDbEntity
  8
0
100
AcDbLine
 10
36.0
 20
50.39
 30
0.0
 11
36.0
 21
49.85
 31
0.0
  0
LINE
  5
1E2
330
1D
100
AcDbEntity
  8
0
100
AcDbLine
 10
44.8176
 20
51.5676
 30
0.0
 11
46.0529
 21
50.6324
 31
0.0
  0
LINE
  5
1E3
330
1D
100
AcDbEntity
  8
0
100
AcDbLine
 10
46.0529
 20
50.6324
 30
0.0
 11
47.4823
 21
50.05
 31
0.0
  0
LINE
  5
1E6
330
1D
100
AcDbEntity
  8
0
100
AcDbLine
 10
49.0
 20
49.8382
 30
0.0
 11
50.5177
 21
50.05
 31
0.0
  0
LINE
  5
1E7
330
1D
100
AcDbEntity
  8
0
100
AcDbLine
 10
50.5177
 20
50.05
 30
0.0
 11
51.9471
 21
50.6324
 31
0.0
  0
LINE
  5
1E9
330
1D
100
AcDbEntity
  8
0
100
AcDbLine
 10
53.1824
 20
51.5676
 30
0.0
 11
54.1176
 21
52.8029
 31
0.0
  0
LINE
  5
1EA
330
1D
100
AcDbEntity
  8
0
100
AcDbLine
 10
54.1176
 20
52.8029
 30
0.0
 11
54.7
 21
54.2323
 31
0.0
  0
LINE
  5
1EB
330
1D
100
AcDbEntity
  8
0
100
AcDbLine
 10
51.9471
 20
50.6324
 30
0.0
 11
53.1824
 21
51.5676
 31
0.0
  0
LINE
  5
1EC
330
1D
100
AcDbEntity
  8
0
100
AcDbLine
 10
47.4823
 20
50.05
 30
0.0
 11
49.0
 21
49.8382
 31
0.0
  0
LINE
  5
1EE
330
1D
100
AcDbEntity
  8
0
100
AcDbLine
 10
43.8824
 20
52.8029
 30
0.0
 11
44.8176
 21
51.5676
 31
0.0
  0
LINE
  5
1F0
330
1D
100
AcDbEntity
  8
0
100
AcDbLine
 10
54.7
 20
54.2323
 30
0.0
 11
54.9118
 21
55.75
 31
0.0
  0
LINE
  5
1F1
330
1D
100
AcDbEntity
  8
0
100
AcDbLine
 10
43.3
 20
54.2323
 30
0.0
 11
43.8824
 21
52.8029
 31
0.0
  0
LINE
  5
1F2
330
1D
100
AcDbEntity
  8
0
100
AcDbLine
 10
43.0882
 20
55.75
 30
0.0
 11
43.3
 21
54.2323
 31
0.0
  0
LINE
  5
1F3
330
1D
100
AcDbEntity
  8
0
100
AcDbLine
 10
43.0882
 20
55.75
 30
0.0
 11
43.3
 21
57.2677
 31
0.0
  0
LINE
  5
1F7
330
1D
100
AcDbEntity
  8
0
100
AcDbLine
 10
54.7
 20
57.2677
 30
0.0
 11
54.9118
 21
55.75
 31
0.0
  0
LINE
  5
1F9
330
1D
100
AcDbEntity
  8
0
100
AcDbLine
 10
43.3
 20
57.2677
 30
0.0
 11
43.8824
 21
58.6971
 31
0.0
  0
LINE
  5
1FB
330
1D
100
AcDbEntity
  8
0
100
AcDbLine
 10
41.288
 20
57.798
 30
0.0
 11
42.056
 21
59.718
 31
0.0
  0
LINE
  5
1FC
330
1D
100
AcDbEntity
  8
0
100
AcDbLine
 10
41.0
 20
55.75
 30
0.0
 11
41.288
 21
57.798
 31
0.0
  0
LINE
  5
1FE
330
1D
100
AcDbEntity
  8
0
100
AcDbLine
 10
41.0
 20
55.75
 30
0.0
 11
41.0
 21
48.75
 31
0.0
  0
LINE
  5
1FF
330
1D
100
AcDbEntity
  8
0
100
AcDbLine
 10
57.0
 20
55.75
 30
0.0
 11
57.0
 21
48.75
 31
0.0
  0
LINE
  5
201
330
1D
100
AcDbEntity
  8
0
100
AcDbLine
 10
43.8824
 20
58.6971
 30
0.0
 11
44.8176
 21
59.9324
 31
0.0
  0
LINE
  5
203
330
1D
100
AcDbEntity
  8
0
100
AcDbLine
 10
44.8176
 20
59.9324
 30
0.0
 11
46.0529
 21
60.8676
 31
0.0
  0
LINE
  5
204
330
1D
100
AcDbEntity
  8
0
100
AcDbLine
 10
46.0529
 20
60.8676
 30
0.0
 11
47.4823
 21
61.45
 31
0.0
  0
LINE
  5
207
330
1D
100
AcDbEntity
  8
0
100
AcDbLine
 10
51.9471
 20
60.8676
 30
0.0
 11
53.1824
 21
59.9324
 31
0.0
  0
LINE
  5
208
330
1D
100
AcDbEntity
  8
0
100
AcDbLine
 10
54.1176
 20
58.6971
 30
0.0
 11
54.7
 21
57.2677
 31
0.0
  0
LINE
  5
209
330
1D
100
AcDbEntity
  8
0
100
AcDbLine
 10
53.1824
 20
59.9324
 30
0.0
 11
54.1176
 21
58.6971
 31
0.0
  0
LINE
  5
20D
330
1D
100
AcDbEntity
  8
0
100
AcDbLine
 10
43.336
 20
61.414
 30
0.0
 11
45.032
 21
62.694
 31
0.0
  0
LINE
  5
20E
330
1D
100
AcDbEntity
  8
0
100
AcDbLine
 10
42.056
 20
59.718
 30
0.0
 11
43.336
 21
61.414
 31
0.0
  0
LINE
  5
20F
330
1D
100
AcDbEntity
  8
0
100
AcDbLine
 10
47.4823
 20
61.45
 30
0.0
 11
49.0
 21
61.6618
 31
0.0
  0
LINE
  5
211
330
1D
100
AcDbEntity
  8
0
100
AcDbLine
 10
49.0
 20
61.6618
 30
0.0
 11
50.5177
 21
61.45
 31
0.0
  0
LINE
  5
212
330
1D
100
AcDbEntity
  8
0
100
AcDbLine
 10
50.5177
 20
61.45
 30
0.0
 11
51.9471
 21
60.8676
 31
0.0
  0
LINE
  5
215
330
1D
100
AcDbEntity
  8
0
100
AcDbLine
 10
46.952
 20
63.462
 30
0.0
 11
49.0
 21
63.75
 31
0.0
  0
LINE
  5
216
330
1D
100
AcDbEntity
  8
0
100
AcDbLine
 10
45.032
 20
62.694
 30
0.0
 11
46.952
 21
63.462
 31
0.0
  0
LINE
  5
217
330
1D
100
AcDbEntity
  8
0
100
AcDbLine
 10
49.0
 20
63.75
 30
0.0
 11
51.048
 21
63.462
 31
0.0
  0
LINE
  5
218
330
1D
100
AcDbEntity
  8
0
100
AcDbLine
 10
51.048
 20
63.462
 30
0.0
 11
52.968
 21
62.694
 31
0.0
  0
LINE
  5
219
330
1D
100
AcDbEntity
  8
0
100
AcDbLine
 10
52.968
 20
62.694
 30
0.0
 11
54.664
 21
61.414
 31
0.0
  0
LINE
  5
21A
330
1D
100
AcDbEntity
  8
0
100
AcDbLine
 10
54.664
 20
61.414
 30
0.0
 11
55.944
 21
59.718
 31
0.0
  0
LINE
  5
21B
330
1D
100
AcDbEntity
  8
0
100
AcDbLine
 10
55.944
 20
59.718
 30
0.0
 11
56.712
 21
57.798
 31
0.0
  0
LINE
  5
21C
330
1D
100
AcDbEntity
  8
0
100
AcDbLine
 10
56.712
 20
57.798
 30
0.0
 11
57.0
 21
55.75
 31
0.0
  0
LINE
  5
21D
330
1D
100
AcDbEntity
  8
0
100
AcDbLine
 10
36.0
 20
49.85
 30
0.0
 11
36.0
 21
50.39
 31
0.0
  0
LINE
  5
21E
330
1D
100
AcDbEntity
  8
0
100
AcDbLine
 10
36.0
 20
49.85
 30
0.0
 11
36.0
 21
48.41
 31
0.0
  0
LINE
  5
21F
330
1D
100
AcDbEntity
  8
0
100
AcDbLine
 10
36.0
 20
48.75
 30
0.0
 11
141.0
 21
48.75
 31
0.0
  0
LINE
  5
220
330
1D
100
AcDbEntity
  8
0
100
AcDbLine
 10
36.0
 20
48.75
 30
0.0
 11
141.0
 21
48.75
 31
0.0
  0
LINE
  5
221
330
1D
100
AcDbEntity
  8
0
100
AcDbLine
 10
140.0
 20
35.75
 30
0.0
 11
140.648
 21
31.142
 31
0.0
  0
LINE
  5
222
330
1D
100
AcDbEntity
  8
0
100
AcDbLine
 10
140.0
 20
35.75
 30
0.0
 11
140.648
 21
40.358
 31
0.0
  0
LINE
  5
223
330
1D
100
AcDbEntity
  8
0
100
AcDbLine
 10
140.5
 20
35.75
 30
0.0
 11
141.13
 21
31.27
 31
0.0
  0
LINE
  5
224
330
1D
100
AcDbEntity
  8
0
100
AcDbLine
 10
140.5
 20
35.75
 30
0.0
 11
141.13
 21
40.23
 31
0.0
  0
LINE
  5
225
330
1D
100
AcDbEntity
  8
0
100
AcDbLine
 10
140.648
 20
40.358
 30
0.0
 11
142.376
 21
44.678
 31
0.0
  0
LINE
  5
226
330
1D
100
AcDbEntity
  8
0
100
AcDbLine
 10
140.0
 20
35.75
 30
0.0
 11
140.648
 21
31.142
 31
0.0
  0
LINE
  5
227
330
1D
100
AcDbEntity
  8
0
100
AcDbLine
 10
140.0
 20
35.75
 30
0.0
 11
140.648
 21
40.358
 31
0.0
  0
LINE
  5
228
330
1D
100
AcDbEntity
  8
0
100
AcDbLine
 10
140.648
 20
31.142
 30
0.0
 11
142.376
 21
26.822
 31
0.0
  0
LINE
  5
229
330
1D
100
AcDbEntity
  8
0
100
AcDbLine
 10
141.13
 20
40.23
 30
0.0
 11
142.81
 21
44.43
 31
0.0
  0
LINE
  5
22A
330
1D
100
AcDbEntity
  8
0
100
AcDbLine
 10
141.13
 20
31.27
 30
0.0
 11
142.81
 21
27.07
 31
0.0
  0
LINE
  5
22B
330
1D
100
AcDbEntity
  8
0
100
AcDbLine
 10
141.0
 20
70.15
 30
0.0
 11
141.408
 21
70.75
 31
0.0
  0
LINE
  5
22C
330
1D
100
AcDbEntity
  8
0
100
AcDbLine
 10
141.0
 20
70.15
 30
0.0
 11
141.0
 21
48.75
 31
0.0
  0
LINE
  5
22D
330
1D
100
AcDbEntity
  8
0
100
AcDbLine
 10
142.02
 20
70.75
 30
0.0
 11
143.652
 21
70.75
 31
0.0
  0
LINE
  5
22E
330
1D
100
AcDbEntity
  8
0
100
AcDbLine
 10
141.408
 20
70.75
 30
0.0
 11
142.02
 21
70.75
 31
0.0
  0
LINE
  5
230
330
1D
100
AcDbEntity
  8
0
100
AcDbLine
 10
141.0
 20
48.75
 30
0.0
 11
141.0
 21
70.15
 31
0.0
  0
LINE
  5
231
330
1D
100
AcDbEntity
  8
0
100
AcDbLine
 10
142.376
 20
44.678
 30
0.0
 11
145.256
 21
48.494
 31
0.0
  0
LINE
  5
232
330
1D
100
AcDbEntity
  8
0
100
AcDbLine
 10
142.376
 20
44.678
 30
0.0
 11
145.256
 21
48.494
 31
0.0
  0
LINE
  5
233
330
1D
100
AcDbEntity
  8
0
100
AcDbLine
 10
140.648
 20
31.142
 30
0.0
 11
142.376
 21
26.822
 31
0.0
  0
LINE
  5
234
330
1D
100
AcDbEntity
  8
0
100
AcDbLine
 10
142.376
 20
26.822
 30
0.0
 11
145.256
 21
23.006
 31
0.0
  0
LINE
  5
235
330
1D
100
AcDbEntity
  8
0
100
AcDbLine
 10
142.81
 20
44.43
 30
0.0
 11
145.61
 21
48.14
 31
0.0
  0
LINE
  5
236
330
1D
100
AcDbEntity
  8
0
100
AcDbLine
 10
142.81
 20
27.07
 30
0.0
 11
145.61
 21
23.36
 31
0.0
  0
LINE
  5
237
330
1D
100
AcDbEntity
  8
0
100
AcDbLine
 10
144.0
 20
70.75
 30
0.0
 11
144.0
 21
75.75
 31
0.0
  0
LINE
  5
238
330
1D
100
AcDbEntity
  8
0
100
AcDbLine
 10
144.504
 20
75.75
 30
0.0
 11
145.848
 21
75.75
 31
0.0
  0
LINE
  5
239
330
1D
100
AcDbEntity
  8
0
100
AcDbLine
 10
144.0
 20
75.75
 30
0.0
 11
144.0
 21
70.75
 31
0.0
  0
LINE
  5
23A
330
1D
100
AcDbEntity
  8
0
100
AcDbLine
 10
144.0
 20
75.75
 30
0.0
 11
144.504
 21
75.75
 31
0.0
  0
LINE
  5
23B
330
1D
100
AcDbEntity
  8
0
100
AcDbLine
 10
143.652
 20
70.75
 30
0.0
 11
146.304
 21
70.75
 31
0.0
  0
LINE
  5
23D
330
1D
100
AcDbEntity
  8
0
100
AcDbLine
 10
145.256
 20
48.494
 30
0.0
 11
149.072
 21
51.374
 31
0.0
  0
LINE
  5
23E
330
1D
100
AcDbEntity
  8
0
100
AcDbLine
 10
145.256
 20
48.494
 30
0.0
 11
149.072
 21
51.374
 31
0.0
  0
LINE
  5
23F
330
1D
100
AcDbEntity
  8
0
100
AcDbLine
 10
142.376
 20
26.822
 30
0.0
 11
145.256
 21
23.006
 31
0.0
  0
LINE
  5
240
330
1D
100
AcDbEntity
  8
0
100
AcDbLine
 10
145.256
 20
23.006
 30
0.0
 11
149.072
 21
20.126
 31
0.0
  0
LINE
  5
241
330
1D
100
AcDbEntity
  8
0
100
AcDbLine
 10
145.61
 20
48.14
 30
0.0
 11
149.32
 21
50.94
 31
0.0
  0
LINE
  5
242
330
1D
100
AcDbEntity
  8
0
100
AcDbLine
 10
145.61
 20
23.36
 30
0.0
 11
149.32
 21
20.56
 31
0.0
  0
LINE
  5
243
330
1D
100
AcDbEntity
  8
0
100
AcDbLine
 10
145.848
 20
75.75
 30
0.0
 11
148.088
 21
75.75
 31
0.0
  0
LINE
  5
244
330
1D
100
AcDbEntity
  8
0
100
AcDbLine
 10
148.088
 20
75.75
 30
0.0
 11
151.056
 21
75.75
 31
0.0
  0
LINE
  5
245
330
1D
100
AcDbEntity
  8
0
100
AcDbLine
 10
146.304
 20
70.75
 30
0.0
 11
149.772
 21
70.75
 31
0.0
  0
LINE
  5
247
330
1D
100
AcDbEntity
  8
0
100
AcDbLine
 10
149.072
 20
51.374
 30
0.0
 11
153.392
 21
53.102
 31
0.0
  0
LINE
  5
248
330
1D
100
AcDbEntity
  8
0
100
AcDbLine
 10
149.072
 20
51.374
 30
0.0
 11
153.392
 21
53.102
 31
0.0
  0
LINE
  5
249
330
1D
100
AcDbEntity
  8
0
100
AcDbLine
 10
145.256
 20
23.006
 30
0.0
 11
149.072
 21
20.126
 31
0.0
  0
LINE
  5
24A
330
1D
100
AcDbEntity
  8
0
100
AcDbLine
 10
149.072
 20
20.126
 30
0.0
 11
153.392
 21
18.398
 31
0.0
  0
LINE
  5
24B
330
1D
100
AcDbEntity
  8
0
100
AcDbLine
 10
149.32
 20
50.94
 30
0.0
 11
153.52
 21
52.62
 31
0.0
  0
LINE
  5
24C
330
1D
100
AcDbEntity
  8
0
100
AcDbLine
 10
149.32
 20
20.56
 30
0.0
 11
153.52
 21
18.88
 31
0.0
  0
LINE
  5
24D
330
1D
100
AcDbEntity
  8
0
100
AcDbLine
 10
149.32
 20
20.56
 30
0.0
 11
153.52
 21
18.88
 31
0.0
  0
LINE
  5
24E
330
1D
100
AcDbEntity
  8
0
100
AcDbLine
 10
149.6
 20
75.99
 30
0.0
 11
150.44
 21
75.75
 31
0.0
  0
LINE
  5
24F
330
1D
100
AcDbEntity
  8
0
100
AcDbLine
 10
149.6
 20
75.99
 30
0.0
 11
150.44
 21
75.99
 31
0.0
  0
LINE
  5
250
330
1D
100
AcDbEntity
  8
0
100
AcDbLine
 10
149.6
 20
75.99
 30
0.0
 11
149.6
 21
87.51
 31
0.0
  0
LINE
  5
251
330
1D
100
AcDbEntity
  8
0
100
AcDbLine
 10
150.44
 20
75.99
 30
0.0
 11
165.56
 21
75.99
 31
0.0
  0
LINE
  5
252
330
1D
100
AcDbEntity
  8
0
100
AcDbLine
 10
150.44
 20
75.99
 30
0.0
 11
150.44
 21
87.5084
 31
0.0
  0
LINE
  5
253
330
1D
100
AcDbEntity
  8
0
100
AcDbLine
 10
150.44
 20
87.75
 30
0.0
 11
165.56
 21
87.75
 31
0.0
  0
LINE
  5
254
330
1D
100
AcDbEntity
  8
0
100
AcDbLine
 10
150.44
 20
87.5084
 30
0.0
 11
165.56
 21
87.51
 31
0.0
  0
LINE
  5
255
330
1D
100
AcDbEntity
  8
0
100
AcDbLine
 10
150.44
 20
87.5084
 30
0.0
 11
150.44
 21
75.99
 31
0.0
  0
LINE
  5
256
330
1D
100
AcDbEntity
  8
0
100
AcDbLine
 10
149.6
 20
87.51
 30
0.0
 11
150.44
 21
87.75
 31
0.0
  0
LINE
  5
257
330
1D
100
AcDbEntity
  8
0
100
AcDbLine
 10
149.6
 20
87.51
 30
0.0
 11
150.44
 21
87.5084
 31
0.0
  0
LINE
  5
258
330
1D
100
AcDbEntity
  8
0
100
AcDbLine
 10
149.6
 20
87.51
 30
0.0
 11
149.6
 21
75.99
 31
0.0
  0
LINE
  5
259
330
1D
100
AcDbEntity
  8
0
100
AcDbLine
 10
151.056
 20
75.75
 30
0.0
 11
154.416
 21
75.75
 31
0.0
  0
LINE
  5
25A
330
1D
100
AcDbEntity
  8
0
100
AcDbLine
 10
149.772
 20
70.75
 30
0.0
 11
153.716
 21
70.75
 31
0.0
  0
LINE
  5
25C
330
1D
100
AcDbEntity
  8
0
100
AcDbLine
 10
153.392
 20
53.102
 30
0.0
 11
158.0
 21
53.75
 31
0.0
  0
LINE
  5
25D
330
1D
100
AcDbEntity
  8
0
100
AcDbLine
 10
149.072
 20
20.126
 30
0.0
 11
153.392
 21
18.398
 31
0.0
  0
LINE
  5
25E
330
1D
100
AcDbEntity
  8
0
100
AcDbLine
 10
153.392
 20
18.398
 30
0.0
 11
158.0
 21
17.75
 31
0.0
  0
LINE
  5
25F
330
1D
100
AcDbEntity
  8
0
100
AcDbLine
 10
153.392
 20
18.398
 30
0.0
 11
158.0
 21
17.75
 31
0.0
  0
LINE
  5
260
330
1D
100
AcDbEntity
  8
0
100
AcDbLine
 10
158.0
 20
18.25
 30
0.0
 11
162.48
 21
18.88
 31
0.0
  0
LINE
  5
261
330
1D
100
AcDbEntity
  8
0
100
AcDbLine
 10
153.52
 20
52.62
 30
0.0
 11
158.0
 21
53.25
 31
0.0
  0
LINE
  5
262
330
1D
100
AcDbEntity
  8
0
100
AcDbLine
 10
158.0
 20
53.25
 30
0.0
 11
162.48
 21
52.62
 31
0.0
  0
LINE
  5
263
330
1D
100
AcDbEntity
  8
0
100
AcDbLine
 10
153.52
 20
18.88
 30
0.0
 11
158.0
 21
18.25
 31
0.0
  0
LINE
  5
264
330
1D
100
AcDbEntity
  8
0
100
AcDbLine
 10
153.52
 20
18.88
 30
0.0
 11
158.0
 21
18.25
 31
0.0
  0
LINE
  5
265
330
1D
100
AcDbEntity
  8
0
100
AcDbLine
 10
158.0
 20
70.75
 30
0.0
 11
162.284
 21
70.75
 31
0.0
  0
LINE
  5
266
330
1D
100
AcDbEntity
  8
0
100
AcDbLine
 10
158.0
 20
75.75
 30
0.0
 11
161.584
 21
75.75
 31
0.0
  0
LINE
  5
267
330
1D
100
AcDbEntity
  8
0
100
AcDbLine
 10
154.416
 20
75.75
 30
0.0
 11
158.0
 21
75.75
 31
0.0
  0
LINE
  5
268
330
1D
100
AcDbEntity
  8
0
100
AcDbLine
 10
153.716
 20
70.75
 30
0.0
 11
158.0
 21
70.75
 31
0.0
  0
LINE
  5
269
330
1D
100
AcDbEntity
  8
0
100
AcDbLine
 10
153.392
 20
18.398
 30
0.0
 11
158.0
 21
17.75
 31
0.0
  0
LINE
  5
26A
330
1D
100
AcDbEntity
  8
0
100
AcDbLine
 10
158.0
 20
17.75
 30
0.0
 11
162.608
 21
18.398
 31
0.0
  0
LINE
  5
26B
330
1D
100
AcDbEntity
  8
0
100
AcDbLine
 10
161.561
 20
0.75
 30
0.0
 11
164.899
 21
0.75
 31
0.0
  0
LINE
  5
26C
330
1D
100
AcDbEntity
  8
0
100
AcDbLine
 10
162.352
 20
0.75
 30
0.0
 11
166.432
 21
0.75
 31
0.0
  0
LINE
  5
26D
330
1D
100
AcDbEntity
  8
0
100
AcDbLine
 10
162.352
 20
0.75
 30
0.0
 11
166.432
 21
0.75
 31
0.0
  0
LINE
  5
26E
330
1D
100
AcDbEntity
  8
0
100
AcDbLine
 10
161.561
 20
0.75
 30
0.0
 11
164.899
 21
0.75
 31
0.0
  0
LINE
  5
26F
330
1D
100
AcDbEntity
  8
0
100
AcDbLine
 10
162.48
 20
18.88
 30
0.0
 11
166.68
 21
20.56
 31
0.0
  0
LINE
  5
270
330
1D
100
AcDbEntity
  8
0
100
AcDbLine
 10
162.608
 20
18.398
 30
0.0
 11
166.928
 21
20.126
 31
0.0
  0
LINE
  5
271
330
1D
100
AcDbEntity
  8
0
100
AcDbLine
 10
164.899
 20
0.75
 30
0.0
 11
167.848
 21
0.75
 31
0.0
  0
LINE
  5
272
330
1D
100
AcDbEntity
  8
0
100
AcDbLine
 10
166.432
 20
0.75
 30
0.0
 11
170.036
 21
0.75
 31
0.0
  0
LINE
  5
273
330
1D
100
AcDbEntity
  8
0
100
AcDbLine
 10
166.432
 20
0.75
 30
0.0
 11
170.036
 21
0.75
 31
0.0
  0
LINE
  5
274
330
1D
100
AcDbEntity
  8
0
100
AcDbLine
 10
164.899
 20
0.75
 30
0.0
 11
167.848
 21
0.75
 31
0.0
  0
LINE
  5
275
330
1D
100
AcDbEntity
  8
0
100
AcDbLine
 10
166.68
 20
50.94
 30
0.0
 11
170.39
 21
48.14
 31
0.0
  0
LINE
  5
276
330
1D
100
AcDbEntity
  8
0
100
AcDbLine
 10
166.68
 20
20.56
 30
0.0
 11
170.39
 21
23.36
 31
0.0
  0
LINE
  5
277
330
1D
100
AcDbEntity
  8
0
100
AcDbLine
 10
166.928
 20
20.126
 30
0.0
 11
170.744
 21
23.006
 31
0.0
  0
LINE
  5
278
330
1D
100
AcDbEntity
  8
0
100
AcDbLine
 10
166.928
 20
20.126
 30
0.0
 11
170.744
 21
23.006
 31
0.0
  0
LINE
  5
279
330
1D
100
AcDbEntity
  8
0
100
AcDbLine
 10
162.608
 20
18.398
 30
0.0
 11
166.928
 21
20.126
 31
0.0
  0
LINE
  5
27A
330
1D
100
AcDbEntity
  8
0
100
AcDbLine
 10
162.48
 20
52.62
 30
0.0
 11
166.68
 21
50.94
 31
0.0
  0
LINE
  5
27B
330
1D
100
AcDbEntity
  8
0
100
AcDbLine
 10
166.928
 20
51.374
 30
0.0
 11
170.744
 21
48.494
 31
0.0
  0
LINE
  5
27C
330
1D
100
AcDbEntity
  8
0
100
AcDbLine
 10
167.848
 20
0.75
 30
0.0
 11
170.073
 21
0.75
 31
0.0
  0
LINE
  5
27D
330
1D
100
AcDbEntity
  8
0
100
AcDbLine
 10
170.036
 20
0.75
 30
0.0
 11
172.756
 21
0.75
 31
0.0
  0
LINE
  5
27E
330
1D
100
AcDbEntity
  8
0
100
AcDbLine
 10
170.036
 20
0.75
 30
0.0
 11
172.756
 21
0.75
 31
0.0
  0
LINE
  5
27F
330
1D
100
AcDbEntity
  8
0
100
AcDbLine
 10
167.848
 20
0.75
 30
0.0
 11
170.073
 21
0.75
 31
0.0
  0
LINE
  5
280
330
1D
100
AcDbEntity
  8
0
100
AcDbLine
 10
170.073
 20
0.75
 30
0.0
 11
171.408
 21
0.75
 31
0.0
  0
LINE
  5
281
330
1D
100
AcDbEntity
  8
0
100
AcDbLine
 10
172.756
 20
0.75
 30
0.0
 11
174.388
 21
0.75
 31
0.0
  0
LINE
  5
282
330
1D
100
AcDbEntity
  8
0
100
AcDbLine
 10
171.408
 20
0.75
 30
0.0
 11
171.909
 21
0.75
 31
0.0
  0
LINE
  5
283
330
1D
100
AcDbEntity
  8
0
100
AcDbLine
 10
170.39
 20
48.14
 30
0.0
 11
173.19
 21
44.43
 31
0.0
  0
LINE
  5
284
330
1D
100
AcDbEntity
  8
0
100
AcDbLine
 10
170.39
 20
23.36
 30
0.0
 11
173.19
 21
27.07
 31
0.0
  0
LINE
  5
285
330
1D
100
AcDbEntity
  8
0
100
AcDbLine
 10
173.19
 20
44.43
 30
0.0
 11
174.87
 21
40.23
 31
0.0
  0
LINE
  5
286
330
1D
100
AcDbEntity
  8
0
100
AcDbLine
 10
173.19
 20
27.07
 30
0.0
 11
174.87
 21
31.27
 31
0.0
  0
LINE
  5
287
330
1D
100
AcDbEntity
  8
0
100
AcDbLine
 10
173.624
 20
26.822
 30
0.0
 11
175.352
 21
31.142
 31
0.0
  0
LINE
  5
288
330
1D
100
AcDbEntity
  8
0
100
AcDbLine
 10
173.624
 20
26.822
 30
0.0
 11
175.352
 21
31.142
 31
0.0
  0
LINE
  5
289
330
1D
100
AcDbEntity
  8
0
100
AcDbLine
 10
170.744
 20
23.006
 30
0.0
 11
173.624
 21
26.822
 31
0.0
  0
LINE
  5
28A
330
1D
100
AcDbEntity
  8
0
100
AcDbLine
 10
170.744
 20
23.006
 30
0.0
 11
173.624
 21
26.822
 31
0.0
  0
LINE
  5
28B
330
1D
100
AcDbEntity
  8
0
100
AcDbLine
 10
175.0
 20
0.75
 30
0.0
 11
175.0
 21
22.75
 31
0.0
  0
LINE
  5
28C
330
1D
100
AcDbEntity
  8
0
100
AcDbLine
 10
175.0
 20
22.75
 30
0.0
 11
175.0
 21
0.75
 31
0.0
  0
LINE
  5
28D
330
1D
100
AcDbEntity
  8
0
100
AcDbLine
 10
174.388
 20
0.75
 30
0.0
 11
175.0
 21
0.75
 31
0.0
  0
LINE
  5
28E
330
1D
100
AcDbEntity
  8
0
100
AcDbLine
 10
175.0
 20
22.75
 30
0.0
 11
221.0
 21
22.75
 31
0.0
  0
LINE
  5
28F
330
1D
100
AcDbEntity
  8
0
100
AcDbLine
 10
174.87
 20
40.23
 30
0.0
 11
175.5
 21
35.75
 31
0.0
  0
LINE
  5
290
330
1D
100
AcDbEntity
  8
0
100
AcDbLine
 10
174.87
 20
31.27
 30
0.0
 11
175.5
 21
35.75
 31
0.0
  0
LINE
  5
291
330
1D
100
AcDbEntity
  8
0
100
AcDbLine
 10
175.352
 20
31.142
 30
0.0
 11
176.0
 21
35.75
 31
0.0
  0
LINE
  5
292
330
1D
100
AcDbEntity
  8
0
100
AcDbLine
 10
175.352
 20
31.142
 30
0.0
 11
176.0
 21
35.75
 31
0.0
  0
LINE
  5
293
330
1D
100
AcDbEntity
  8
0
100
AcDbLine
 10
209.952
 20
0.538
 30
0.0
 11
212.0
 21
0.25
 31
0.0
  0
LINE
  5
294
330
1D
100
AcDbEntity
  8
0
100
AcDbLine
 10
208.032
 20
1.306
 30
0.0
 11
209.952
 21
0.538
 31
0.0
  0
LINE
  5
295
330
1D
100
AcDbEntity
  8
0
100
AcDbLine
 10
212.0
 20
0.25
 30
0.0
 11
214.048
 21
0.538
 31
0.0
  0
LINE
  5
296
330
1D
100
AcDbEntity
  8
0
100
AcDbLine
 10
214.048
 20
0.538
 30
0.0
 11
215.968
 21
1.306
 31
0.0
  0
LINE
  5
297
330
1D
100
AcDbEntity
  8
0
100
AcDbLine
 10
210.482
 20
2.55
 30
0.0
 11
212.0
 21
2.3382
 31
0.0
  0
LINE
  5
299
330
1D
100
AcDbEntity
  8
0
100
AcDbLine
 10
213.518
 20
2.55
 30
0.0
 11
214.947
 21
3.1324
 31
0.0
  0
LINE
  5
29A
330
1D
100
AcDbEntity
  8
0
100
AcDbLine
 10
212.0
 20
2.3382
 30
0.0
 11
213.518
 21
2.55
 31
0.0
  0
LINE
  5
29B
330
1D
100
AcDbEntity
  8
0
100
AcDbLine
 10
207.818
 20
4.0676
 30
0.0
 11
209.053
 21
3.1324
 31
0.0
  0
LINE
  5
29C
330
1D
100
AcDbEntity
  8
0
100
AcDbLine
 10
209.053
 20
3.1324
 30
0.0
 11
210.482
 21
2.55
 31
0.0
  0
LINE
  5
29F
330
1D
100
AcDbEntity
  8
0
100
AcDbLine
 10
216.182
 20
4.0676
 30
0.0
 11
217.118
 21
5.3029
 31
0.0
  0
LINE
  5
2A0
330
1D
100
AcDbEntity
  8
0
100
AcDbLine
 10
214.947
 20
3.1324
 30
0.0
 11
216.182
 21
4.0676
 31
0.0
  0
LINE
  5
2A1
330
1D
100
AcDbEntity
  8
0
100
AcDbLine
 10
206.336
 20
2.586
 30
0.0
 11
208.032
 21
1.306
 31
0.0
  0
LINE
  5
2A2
330
1D
100
AcDbEntity
  8
0
100
AcDbLine
 10
205.056
 20
4.282
 30
0.0
 11
206.336
 21
2.586
 31
0.0
  0
LINE
  5
2A3
330
1D
100
AcDbEntity
  8
0
100
AcDbLine
 10
215.968
 20
1.306
 30
0.0
 11
217.664
 21
2.586
 31
0.0
  0
LINE
  5
2A4
330
1D
100
AcDbEntity
  8
0
100
AcDbLine
 10
217.664
 20
2.586
 30
0.0
 11
218.944
 21
4.282
 31
0.0
  0
LINE
  5
2A5
330
1D
100
AcDbEntity
  8
0
100
AcDbLine
 10
217.118
 20
5.3029
 30
0.0
 11
217.7
 21
6.7324
 31
0.0
  0
LINE
  5
2A6
330
1D
100
AcDbEntity
  8
0
100
AcDbLine
 10
206.882
 20
5.3029
 30
0.0
 11
207.818
 21
4.0676
 31
0.0
  0
LINE
  5
2A8
330
1D
100
AcDbEntity
  8
0
100
AcDbLine
 10
217.7
 20
6.7324
 30
0.0
 11
217.912
 21
8.25
 31
0.0
  0
LINE
  5
2A9
330
1D
100
AcDbEntity
  8
0
100
AcDbLine
 10
206.3
 20
6.7324
 30
0.0
 11
206.882
 21
5.3029
 31
0.0
  0
LINE
  5
2AC
330
1D
100
AcDbEntity
  8
0
100
AcDbLine
 10
206.088
 20
8.25
 30
0.0
 11
206.3
 21
6.7324
 31
0.0
  0
LINE
  5
2AF
330
1D
100
AcDbEntity
  8
0
100
AcDbLine
 10
204.288
 20
6.202
 30
0.0
 11
205.056
 21
4.282
 31
0.0
  0
LINE
  5
2C6
330
1D
100
AcDbEntity
  8
0
100
AcDbLine
 10
204.0
 20
8.25
 30
0.0
 11
204.288
 21
6.202
 31
0.0
  0
LINE
  5
2C8
330
1D
100
AcDbEntity
  8
0
100
AcDbLine
 10
204.0
 20
8.25
 30
0.0
 11
204.0
 21
22.75
 31
0.0
  0
LINE
  5
2CA
330
1D
100
AcDbEntity
  8
0
100
AcDbLine
 10
218.944
 20
4.282
 30
0.0
 11
219.712
 21
6.202
 31
0.0
  0
LINE
  5
2CB
330
1D
100
AcDbEntity
  8
0
100
AcDbLine
 10
220.0
 20
8.25
 30
0.0
 11
220.0
 21
22.75
 31
0.0
  0
LINE
  5
2CC
330
1D
100
AcDbEntity
  8
0
100
AcDbLine
 10
219.712
 20
6.202
 30
0.0
 11
220.0
 21
8.25
 31
0.0
  0
LINE
  5
2CD
330
1D
100
AcDbEntity
  8
0
100
AcDbLine
 10
241.0
 20
20.75
 30
0.0
 11
261.0
 21
20.75
 31
0.0
  0
LINE
  5
2CE
330
1D
100
AcDbEntity
  8
0
100
AcDbLine
 10
241.0
 20
20.75
 30
0.0
 11
241.0
 21
21.29
 31
0.0
  0
LINE
  5
2CF
330
1D
100
AcDbEntity
  8
0
100
AcDbLine
 10
241.0
 20
21.29
 30
0.0
 11
241.0
 21
20.75
 31
0.0
  0
LINE
  5
2D0
330
1D
100
AcDbEntity
  8
0
100
AcDbLine
 10
241.0
 20
21.29
 30
0.0
 11
241.0
 21
22.73
 31
0.0
  0
LINE
  5
2D1
330
1D
100
AcDbEntity
  8
0
100
AcDbLine
 10
241.0
 20
21.29
 30
0.0
 11
241.0
 21
21.75
 31
0.0
  0
LINE
  5
2D2
330
1D
100
AcDbEntity
  8
0
100
AcDbLine
 10
221.0
 20
22.086
 30
0.0
 11
221.6
 21
21.75
 31
0.0
  0
LINE
  5
2D3
330
1D
100
AcDbEntity
  8
0
100
AcDbLine
 10
221.0
 20
22.086
 30
0.0
 11
221.0
 21
22.59
 31
0.0
  0
LINE
  5
2D4
330
1D
100
AcDbEntity
  8
0
100
AcDbLine
 10
221.0
 20
22.086
 30
0.0
 11
221.0
 21
22.59
 31
0.0
  0
LINE
  5
2D5
330
1D
100
AcDbEntity
  8
0
100
AcDbLine
 10
221.6
 20
21.75
 30
0.0
 11
241.0
 21
21.75
 31
0.0
  0
LINE
  5
2D6
330
1D
100
AcDbEntity
  8
0
100
AcDbLine
 10
256.0
 20
4.75
 30
0.0
 11
267.0
 21
4.75
 31
0.0
  0
LINE
  5
2D7
330
1D
100
AcDbEntity
  8
0
100
AcDbLine
 10
244.0
 20
20.75
 30
0.0
 11
256.0
 21
4.75
 31
0.0
  0
LINE
  5
2D8
330
1D
100
AcDbEntity
  8
0
100
AcDbLine
 10
244.0
 20
20.75
 30
0.0
 11
256.0
 21
4.75
 31
0.0
  0
LINE
  5
2D9
330
1D
100
AcDbEntity
  8
0
100
AcDbLine
 10
256.0
 20
4.75
 30
0.0
 11
267.0
 21
4.75
 31
0.0
  0
LINE
  5
2DA
330
1D
100
AcDbEntity
  8
0
100
AcDbLine
 10
267.0
 20
4.75
 30
0.0
 11
269.746
 21
5.6147
 31
0.0
  0
LINE
  5
2DB
330
1D
100
AcDbEntity
  8
0
100
AcDbLine
 10
269.746
 20
5.6147
 30
0.0
 11
271.747
 21
6.8321
 31
0.0
  0
LINE
  5
2DC
330
1D
100
AcDbEntity
  8
0
100
AcDbLine
 10
271.747
 20
6.8321
 30
0.0
 11
272.617
 21
8.9192
 31
0.0
  0
LINE
  5
2DD
330
1D
100
AcDbEntity
  8
0
100
AcDbLine
 10
267.0
 20
7.75
 30
0.0
 11
267.768
 21
7.858
 31
0.0
  0
LINE
  5
2DE
330
1D
100
AcDbEntity
  8
0
100
AcDbLine
 10
267.768
 20
7.858
 30
0.0
 11
268.488
 21
8.146
 31
0.0
  0
LINE
  5
2DF
330
1D
100
AcDbEntity
  8
0
100
AcDbLine
 10
267.768
 20
7.858
 30
0.0
 11
268.488
 21
8.146
 31
0.0
  0
LINE
  5
2E0
330
1D
100
AcDbEntity
  8
0
100
AcDbLine
 10
268.488
 20
8.146
 30
0.0
 11
269.124
 21
8.626
 31
0.0
  0
LINE
  5
2E1
330
1D
100
AcDbEntity
  8
0
100
AcDbLine
 10
268.488
 20
8.146
 30
0.0
 11
269.124
 21
8.626
 31
0.0
  0
LINE
  5
2E2
330
1D
100
AcDbEntity
  8
0
100
AcDbLine
 10
269.124
 20
8.626
 30
0.0
 11
269.604
 21
9.262
 31
0.0
  0
LINE
  5
2E3
330
1D
100
AcDbEntity
  8
0
100
AcDbLine
 10
269.124
 20
8.626
 30
0.0
 11
269.604
 21
9.262
 31
0.0
  0
LINE
  5
2E4
330
1D
100
AcDbEntity
  8
0
100
AcDbLine
 10
266.232
 20
7.858
 30
0.0
 11
267.0
 21
7.75
 31
0.0
  0
LINE
  5
2E5
330
1D
100
AcDbEntity
  8
0
100
AcDbLine
 10
265.512
 20
8.146
 30
0.0
 11
266.232
 21
7.858
 31
0.0
  0
LINE
  5
2E6
330
1D
100
AcDbEntity
  8
0
100
AcDbLine
 10
269.604
 20
9.262
 30
0.0
 11
269.892
 21
9.982
 31
0.0
  0
LINE
  5
2E7
330
1D
100
AcDbEntity
  8
0
100
AcDbLine
 10
269.604
 20
9.262
 30
0.0
 11
269.892
 21
9.982
 31
0.0
  0
LINE
  5
2E8
330
1D
100
AcDbEntity
  8
0
100
AcDbLine
 10
272.617
 20
8.9192
 30
0.0
 11
273.0
 21
10.75
 31
0.0
  0
LINE
  5
2E9
330
1D
100
AcDbEntity
  8
0
100
AcDbLine
 10
269.892
 20
9.982
 30
0.0
 11
270.0
 21
10.75
 31
0.0
  0
LINE
  5
2EA
330
1D
100
AcDbEntity
  8
0
100
AcDbLine
 10
264.876
 20
8.626
 30
0.0
 11
265.512
 21
8.146
 31
0.0
  0
LINE
  5
2EB
330
1D
100
AcDbEntity
  8
0
100
AcDbLine
 10
264.396
 20
9.262
 30
0.0
 11
264.876
 21
8.626
 31
0.0
  0
LINE
  5
2EC
330
1D
100
AcDbEntity
  8
0
100
AcDbLine
 10
264.108
 20
11.518
 30
0.0
 11
264.396
 21
12.238
 31
0.0
  0
LINE
  5
2ED
330
1D
100
AcDbEntity
  8
0
100
AcDbLine
 10
264.876
 20
12.874
 30
0.0
 11
265.512
 21
13.354
 31
0.0
  0
LINE
  5
2EE
330
1D
100
AcDbEntity
  8
0
100
AcDbLine
 10
264.396
 20
12.238
 30
0.0
 11
264.876
 21
12.874
 31
0.0
  0
LINE
  5
2EF
330
1D
100
AcDbEntity
  8
0
100
AcDbLine
 10
266.232
 20
13.642
 30
0.0
 11
267.0
 21
13.75
 31
0.0
  0
LINE
  5
2F0
330
1D
100
AcDbEntity
  8
0
100
AcDbLine
 10
265.512
 20
13.354
 30
0.0
 11
266.232
 21
13.642
 31
0.0
  0
LINE
  5
2F1
330
1D
100
AcDbEntity
  8
0
100
AcDbLine
 10
267.0
 20
13.75
 30
0.0
 11
267.768
 21
13.642
 31
0.0
  0
LINE
  5
2F2
330
1D
100
AcDbEntity
  8
0
100
AcDbLine
 10
267.768
 20
13.642
 30
0.0
 11
268.488
 21
13.354
 31
0.0
  0
LINE
  5
2F3
330
1D
100
AcDbEntity
  8
0
100
AcDbLine
 10
268.488
 20
13.354
 30
0.0
 11
269.124
 21
12.874
 31
0.0
  0
LINE
  5
2F4
330
1D
100
AcDbEntity
  8
0
100
AcDbLine
 10
269.124
 20
12.874
 30
0.0
 11
269.604
 21
12.238
 31
0.0
  0
LINE
  5
2F5
330
1D
100
AcDbEntity
  8
0
100
AcDbLine
 10
269.604
 20
12.238
 30
0.0
 11
269.892
 21
11.518
 31
0.0
  0
LINE
  5
2F6
330
1D
100
AcDbEntity
  8
0
100
AcDbLine
 10
269.892
 20
11.518
 30
0.0
 11
270.0
 21
10.75
 31
0.0
  0
LINE
  5
2F7
330
1D
100
AcDbEntity
  8
0
100
AcDbLine
 10
273.0
 20
10.75
 30
0.0
 11
273.0
 21
21.75
 31
0.0
  0
LINE
  5
2F8
330
1D
100
AcDbEntity
  8
0
100
AcDbLine
 10
264.108
 20
9.982
 30
0.0
 11
264.396
 21
9.262
 31
0.0
  0
LINE
  5
2F9
330
1D
100
AcDbEntity
  8
0
100
AcDbLine
 10
264.0
 20
10.75
 30
0.0
 11
264.108
 21
9.982
 31
0.0
  0
LINE
  5
2FA
330
1D
100
AcDbEntity
  8
0
100
AcDbLine
 10
264.0
 20
10.75
 30
0.0
 11
264.108
 21
11.518
 31
0.0
  0
LINE
  5
2FB
330
1D
100
AcDbEntity
  8
0
100
AcDbLine
 10
261.0
 20
21.75
 30
0.0
 11
273.0
 21
21.75
 31
0.0
  0
LINE
  5
2FC
330
1D
100
AcDbEntity
  8
0
100
AcDbLine
 10
273.0
 20
21.75
 30
0.0
 11
273.0
 21
10.75
 31
0.0
  0
LINE
  5
2FD
330
1D
100
AcDbEntity
  8
0
100
AcDbLine
 10
261.0
 20
21.29
 30
0.0
 11
261.0
 21
22.73
 31
0.0
  0
LINE
  5
2FE
330
1D
100
AcDbEntity
  8
0
100
AcDbLine
 10
261.0
 20
21.29
 30
0.0
 11
261.0
 21
20.75
 31
0.0
  0
LINE
  5
2FF
330
1D
100
AcDbEntity
  8
0
100
AcDbLine
 10
261.0
 20
20.75
 30
0.0
 11
261.0
 21
21.29
 31
0.0
  0
LINE
  5
300
330
1D
100
AcDbEntity
  8
0
100
AcDbLine
 10
241.0
 20
21.75
 30
0.0
 11
241.0
 21
22.254
 31
0.0
  0
LINE
  5
301
330
1D
100
AcDbEntity
  8
0
100
AcDbLine
 10
241.0
 20
21.75
 30
0.0
 11
241.0
 21
21.29
 31
0.0
  0
LINE
  5
302
330
1D
100
AcDbEntity
  8
0
100
AcDbLine
 10
220.0
 20
22.75
 30
0.0
 11
220.0
 21
8.25
 31
0.0
  0
LINE
  5
303
330
1D
100
AcDbEntity
  8
0
100
AcDbLine
 10
204.0
 20
22.75
 30
0.0
 11
204.0
 21
8.25
 31
0.0
  0
LINE
  5
304
330
1D
100
AcDbEntity
  8
0
100
AcDbLine
 10
204.0
 20
22.75
 30
0.0
 11
220.0
 21
22.75
 31
0.0
  0
LINE
  5
305
330
1D
100
AcDbEntity
  8
0
100
AcDbLine
 10
221.0
 20
23.218
 30
0.0
 11
221.0
 21
24.466
 31
0.0
  0
LINE
  5
306
330
1D
100
AcDbEntity
  8
0
100
AcDbLine
 10
221.0
 20
22.75
 30
0.0
 11
221.0
 21
22.59
 31
0.0
  0
LINE
  5
307
330
1D
100
AcDbEntity
  8
0
100
AcDbLine
 10
221.0
 20
22.75
 30
0.0
 11
221.0
 21
23.218
 31
0.0
  0
LINE
  5
308
330
1D
100
AcDbEntity
  8
0
100
AcDbLine
 10
221.0
 20
22.59
 30
0.0
 11
221.0
 21
22.75
 31
0.0
  0
LINE
  5
309
330
1D
100
AcDbEntity
  8
0
100
AcDbLine
 10
221.0
 20
22.59
 30
0.0
 11
221.0
 21
22.086
 31
0.0
  0
LINE
  5
30A
330
1D
100
AcDbEntity
  8
0
100
AcDbLine
 10
221.0
 20
24.466
 30
0.0
 11
221.0
 21
26.546
 31
0.0
  0
LINE
  5
30B
330
1D
100
AcDbEntity
  8
0
100
AcDbLine
 10
221.0
 20
23.934
 30
0.0
 11
221.0
 21
22.59
 31
0.0
  0
LINE
  5
30C
330
1D
100
AcDbEntity
  8
0
100
AcDbLine
 10
221.0
 20
23.934
 30
0.0
 11
221.0
 21
26.118
 31
0.0
  0
LINE
  5
30D
330
1D
100
AcDbEntity
  8
0
100
AcDbLine
 10
241.0
 20
25.13
 30
0.0
 11
241.0
 21
22.73
 31
0.0
  0
LINE
  5
30E
330
1D
100
AcDbEntity
  8
0
100
AcDbLine
 10
241.0
 20
25.13
 30
0.0
 11
241.0
 21
28.31
 31
0.0
  0
LINE
  5
30F
330
1D
100
AcDbEntity
  8
0
100
AcDbLine
 10
241.0
 20
22.73
 30
0.0
 11
241.0
 21
21.29
 31
0.0
  0
LINE
  5
310
330
1D
100
AcDbEntity
  8
0
100
AcDbLine
 10
241.0
 20
22.73
 30
0.0
 11
241.0
 21
25.13
 31
0.0
  0
LINE
  5
311
330
1D
100
AcDbEntity
  8
0
100
AcDbLine
 10
221.0
 20
22.59
 30
0.0
 11
221.0
 21
22.086
 31
0.0
  0
LINE
  5
312
330
1D
100
AcDbEntity
  8
0
100
AcDbLine
 10
221.0
 20
22.59
 30
0.0
 11
221.0
 21
23.934
 31
0.0
  0
LINE
  5
313
330
1D
100
AcDbEntity
  8
0
100
AcDbLine
 10
221.0
 20
26.546
 30
0.0
 11
221.0
 21
29.302
 31
0.0
  0
LINE
  5
314
330
1D
100
AcDbEntity
  8
0
100
AcDbLine
 10
221.0
 20
29.302
 30
0.0
 11
221.0
 21
32.422
 31
0.0
  0
LINE
  5
315
330
1D
100
AcDbEntity
  8
0
100
AcDbLine
 10
221.0
 20
28.974
 30
0.0
 11
221.0
 21
26.118
 31
0.0
  0
LINE
  5
316
330
1D
100
AcDbEntity
  8
0
100
AcDbLine
 10
221.0
 20
28.974
 30
0.0
 11
221.0
 21
32.222
 31
0.0
  0
LINE
  5
317
330
1D
100
AcDbEntity
  8
0
100
AcDbLine
 10
241.0
 20
31.91
 30
0.0
 11
241.0
 21
28.31
 31
0.0
  0
LINE
  5
318
330
1D
100
AcDbEntity
  8
0
100
AcDbLine
 10
241.0
 20
31.91
 30
0.0
 11
241.0
 21
35.75
 31
0.0
  0
LINE
  5
319
330
1D
100
AcDbEntity
  8
0
100
AcDbLine
 10
241.0
 20
28.31
 30
0.0
 11
241.0
 21
25.13
 31
0.0
  0
LINE
  5
31A
330
1D
100
AcDbEntity
  8
0
100
AcDbLine
 10
241.0
 20
28.31
 30
0.0
 11
241.0
 21
31.91
 31
0.0
  0
LINE
  5
31B
330
1D
100
AcDbEntity
  8
0
100
AcDbLine
 10
221.0
 20
26.118
 30
0.0
 11
221.0
 21
23.934
 31
0.0
  0
LINE
  5
31C
330
1D
100
AcDbEntity
  8
0
100
AcDbLine
 10
221.0
 20
26.118
 30
0.0
 11
221.0
 21
28.974
 31
0.0
  0
LINE
  5
31D
330
1D
100
AcDbEntity
  8
0
100
AcDbLine
 10
221.0
 20
39.078
 30
0.0
 11
221.0
 21
42.198
 31
0.0
  0
LINE
  5
31E
330
1D
100
AcDbEntity
  8
0
100
AcDbLine
 10
221.0
 20
32.422
 30
0.0
 11
221.0
 21
35.75
 31
0.0
  0
LINE
  5
31F
330
1D
100
AcDbEntity
  8
0
100
AcDbLine
 10
221.0
 20
39.278
 30
0.0
 11
221.0
 21
35.75
 31
0.0
  0
LINE
  5
320
330
1D
100
AcDbEntity
  8
0
100
AcDbLine
 10
221.0
 20
39.278
 30
0.0
 11
221.0
 21
42.526
 31
0.0
  0
LINE
  5
321
330
1D
100
AcDbEntity
  8
0
100
AcDbLine
 10
241.0
 20
39.59
 30
0.0
 11
241.0
 21
35.75
 31
0.0
  0
LINE
  5
322
330
1D
100
AcDbEntity
  8
0
100
AcDbLine
 10
241.0
 20
39.59
 30
0.0
 11
241.0
 21
43.19
 31
0.0
  0
LINE
  5
323
330
1D
100
AcDbEntity
  8
0
100
AcDbLine
 10
241.0
 20
39.334
 30
0.0
 11
241.0
 21
35.75
 31
0.0
  0
LINE
  5
324
330
1D
100
AcDbEntity
  8
0
100
AcDbLine
 10
241.0
 20
39.334
 30
0.0
 11
241.0
 21
42.694
 31
0.0
  0
LINE
  5
325
330
1D
100
AcDbEntity
  8
0
100
AcDbLine
 10
221.0
 20
35.75
 30
0.0
 11
221.0
 21
32.222
 31
0.0
  0
LINE
  5
326
330
1D
100
AcDbEntity
  8
0
100
AcDbLine
 10
221.0
 20
35.75
 30
0.0
 11
221.0
 21
39.278
 31
0.0
  0
LINE
  5
327
330
1D
100
AcDbEntity
  8
0
100
AcDbLine
 10
221.0
 20
35.75
 30
0.0
 11
221.0
 21
39.078
 31
0.0
  0
LINE
  5
328
330
1D
100
AcDbEntity
  8
0
100
AcDbLine
 10
221.0
 20
32.222
 30
0.0
 11
221.0
 21
28.974
 31
0.0
  0
LINE
  5
329
330
1D
100
AcDbEntity
  8
0
100
AcDbLine
 10
221.0
 20
32.222
 30
0.0
 11
221.0
 21
35.75
 31
0.0
  0
LINE
  5
32A
330
1D
100
AcDbEntity
  8
0
100
AcDbLine
 10
241.0
 20
35.75
 30
0.0
 11
241.0
 21
32.166
 31
0.0
  0
LINE
  5
32B
330
1D
100
AcDbEntity
  8
0
100
AcDbLine
 10
241.0
 20
35.75
 30
0.0
 11
241.0
 21
39.334
 31
0.0
  0
LINE
  5
32C
330
1D
100
AcDbEntity
  8
0
100
AcDbLine
 10
241.0
 20
35.75
 30
0.0
 11
241.0
 21
39.59
 31
0.0
  0
LINE
  5
32D
330
1D
100
AcDbEntity
  8
0
100
AcDbLine
 10
241.0
 20
35.75
 30
0.0
 11
241.0
 21
31.91
 31
0.0
  0
LINE
  5
32E
330
1D
100
AcDbEntity
  8
0
100
AcDbLine
 10
241.0
 20
32.166
 30
0.0
 11
241.0
 21
28.806
 31
0.0
  0
LINE
  5
32F
330
1D
100
AcDbEntity
  8
0
100
AcDbLine
 10
241.0
 20
32.166
 30
0.0
 11
241.0
 21
35.75
 31
0.0
  0
LINE
  5
330
330
1D
100
AcDbEntity
  8
0
100
AcDbLine
 10
241.0
 20
28.806
 30
0.0
 11
241.0
 21
25.838
 31
0.0
  0
LINE
  5
331
330
1D
100
AcDbEntity
  8
0
100
AcDbLine
 10
241.0
 20
28.806
 30
0.0
 11
241.0
 21
32.166
 31
0.0
  0
LINE
  5
332
330
1D
100
AcDbEntity
  8
0
100
AcDbLine
 10
241.0
 20
25.838
 30
0.0
 11
241.0
 21
23.598
 31
0.0
  0
LINE
  5
333
330
1D
100
AcDbEntity
  8
0
100
AcDbLine
 10
241.0
 20
25.838
 30
0.0
 11
241.0
 21
28.806
 31
0.0
  0
LINE
  5
334
330
1D
100
AcDbEntity
  8
0
100
AcDbLine
 10
244.0
 20
28.75
 30
0.0
 11
256.0
 21
28.75
 31
0.0
  0
LINE
  5
335
330
1D
100
AcDbEntity
  8
0
100
AcDbLine
 10
244.0
 20
28.75
 30
0.0
 11
244.0
 21
35.75
 31
0.0
  0
LINE
  5
336
330
1D
100
AcDbEntity
  8
0
100
AcDbLine
 10
244.0
 20
35.75
 30
0.0
 11
244.0
 21
28.75
 31
0.0
  0
LINE
  5
337
330
1D
100
AcDbEntity
  8
0
100
AcDbLine
 10
244.0
 20
35.75
 30
0.0
 11
256.0
 21
35.75
 31
0.0
  0
LINE
  5
338
330
1D
100
AcDbEntity
  8
0
100
AcDbLine
 10
256.0
 20
35.75
 30
0.0
 11
256.0
 21
28.75
 31
0.0
  0
LINE
  5
339
330
1D
100
AcDbEntity
  8
0
100
AcDbLine
 10
256.0
 20
35.75
 30
0.0
 11
267.0
 21
35.75
 31
0.0
  0
LINE
  5
33A
330
1D
100
AcDbEntity
  8
0
100
AcDbLine
 10
256.0
 20
28.75
 30
0.0
 11
267.0
 21
28.75
 31
0.0
  0
LINE
  5
33B
330
1D
100
AcDbEntity
  8
0
100
AcDbLine
 10
256.0
 20
28.75
 30
0.0
 11
256.0
 21
35.75
 31
0.0
  0
LINE
  5
33C
330
1D
100
AcDbEntity
  8
0
100
AcDbLine
 10
261.0
 20
28.75
 30
0.0
 11
273.0
 21
28.75
 31
0.0
  0
LINE
  5
33D
330
1D
100
AcDbEntity
  8
0
100
AcDbLine
 10
261.0
 20
28.75
 30
0.0
 11
261.0
 21
28.31
 31
0.0
  0
LINE
  5
33E
330
1D
100
AcDbEntity
  8
0
100
AcDbLine
 10
261.0
 20
28.31
 30
0.0
 11
261.0
 21
28.75
 31
0.0
  0
LINE
  5
33F
330
1D
100
AcDbEntity
  8
0
100
AcDbLine
 10
261.0
 20
28.31
 30
0.0
 11
261.0
 21
25.13
 31
0.0
  0
LINE
  5
340
330
1D
100
AcDbEntity
  8
0
100
AcDbLine
 10
261.0
 20
25.13
 30
0.0
 11
261.0
 21
28.31
 31
0.0
  0
LINE
  5
341
330
1D
100
AcDbEntity
  8
0
100
AcDbLine
 10
261.0
 20
25.13
 30
0.0
 11
261.0
 21
22.73
 31
0.0
  0
LINE
  5
342
330
1D
100
AcDbEntity
  8
0
100
AcDbLine
 10
261.0
 20
22.73
 30
0.0
 11
261.0
 21
25.13
 31
0.0
  0
LINE
  5
343
330
1D
100
AcDbEntity
  8
0
100
AcDbLine
 10
261.0
 20
22.73
 30
0.0
 11
261.0
 21
21.29
 31
0.0
  0
LINE
  5
344
330
1D
100
AcDbEntity
  8
0
100
AcDbLine
 10
267.0
 20
28.75
 30
0.0
 11
267.768
 21
28.75
 31
0.0
  0
LINE
  5
345
330
1D
100
AcDbEntity
  8
0
100
AcDbLine
 10
267.0
 20
28.75
 30
0.0
 11
269.746
 21
28.75
 31
0.0
  0
LINE
  5
346
330
1D
100
AcDbEntity
  8
0
100
AcDbLine
 10
267.768
 20
28.75
 30
0.0
 11
268.488
 21
28.75
 31
0.0
  0
LINE
  5
347
330
1D
100
AcDbEntity
  8
0
100
AcDbLine
 10
268.488
 20
28.75
 30
0.0
 11
269.124
 21
28.75
 31
0.0
  0
LINE
  5
348
330
1D
100
AcDbEntity
  8
0
100
AcDbLine
 10
269.124
 20
28.75
 30
0.0
 11
269.604
 21
28.75
 31
0.0
  0
LINE
  5
349
330
1D
100
AcDbEntity
  8
0
100
AcDbLine
 10
269.746
 20
28.75
 30
0.0
 11
271.747
 21
28.75
 31
0.0
  0
LINE
  5
34A
330
1D
100
AcDbEntity
  8
0
100
AcDbLine
 10
271.747
 20
28.75
 30
0.0
 11
272.617
 21
28.75
 31
0.0
  0
LINE
  5
34B
330
1D
100
AcDbEntity
  8
0
100
AcDbLine
 10
271.747
 20
28.75
 30
0.0
 11
271.747
 21
35.75
 31
0.0
  0
LINE
  5
34C
330
1D
100
AcDbEntity
  8
0
100
AcDbLine
 10
272.617
 20
28.75
 30
0.0
 11
273.0
 21
28.75
 31
0.0
  0
LINE
  5
34D
330
1D
100
AcDbEntity
  8
0
100
AcDbLine
 10
273.0
 20
28.75
 30
0.0
 11
273.0
 21
35.75
 31
0.0
  0
LINE
  5
34E
330
1D
100
AcDbEntity
  8
0
100
AcDbLine
 10
269.604
 20
28.75
 30
0.0
 11
269.892
 21
28.75
 31
0.0
  0
LINE
  5
34F
330
1D
100
AcDbEntity
  8
0
100
AcDbLine
 10
269.892
 20
28.75
 30
0.0
 11
270.0
 21
28.75
 31
0.0
  0
LINE
  5
350
330
1D
100
AcDbEntity
  8
0
100
AcDbLine
 10
266.232
 20
28.75
 30
0.0
 11
267.0
 21
28.75
 31
0.0
  0
LINE
  5
351
330
1D
100
AcDbEntity
  8
0
100
AcDbLine
 10
265.512
 20
28.75
 30
0.0
 11
266.232
 21
28.75
 31
0.0
  0
LINE
  5
352
330
1D
100
AcDbEntity
  8
0
100
AcDbLine
 10
264.876
 20
28.75
 30
0.0
 11
265.512
 21
28.75
 31
0.0
  0
LINE
  5
353
330
1D
100
AcDbEntity
  8
0
100
AcDbLine
 10
264.396
 20
28.75
 30
0.0
 11
264.876
 21
28.75
 31
0.0
  0
LINE
  5
354
330
1D
100
AcDbEntity
  8
0
100
AcDbLine
 10
264.108
 20
28.75
 30
0.0
 11
264.396
 21
28.75
 31
0.0
  0
LINE
  5
355
330
1D
100
AcDbEntity
  8
0
100
AcDbLine
 10
267.0
 20
35.75
 30
0.0
 11
269.746
 21
35.75
 31
0.0
  0
LINE
  5
356
330
1D
100
AcDbEntity
  8
0
100
AcDbLine
 10
269.746
 20
35.75
 30
0.0
 11
271.747
 21
35.75
 31
0.0
  0
LINE
  5
357
330
1D
100
AcDbEntity
  8
0
100
AcDbLine
 10
271.747
 20
35.75
 30
0.0
 11
271.747
 21
28.75
 31
0.0
  0
LINE
  5
358
330
1D
100
AcDbEntity
  8
0
100
AcDbLine
 10
271.747
 20
35.75
 30
0.0
 11
272.617
 21
35.75
 31
0.0
  0
LINE
  5
359
330
1D
100
AcDbEntity
  8
0
100
AcDbLine
 10
272.617
 20
35.75
 30
0.0
 11
273.0
 21
35.75
 31
0.0
  0
LINE
  5
35A
330
1D
100
AcDbEntity
  8
0
100
AcDbLine
 10
273.0
 20
35.75
 30
0.0
 11
273.0
 21
28.75
 31
0.0
  0
LINE
  5
35B
330
1D
100
AcDbEntity
  8
0
100
AcDbLine
 10
264.0
 20
28.75
 30
0.0
 11
264.108
 21
28.75
 31
0.0
  0
LINE
  5
35C
330
1D
100
AcDbEntity
  8
0
100
AcDbLine
 10
261.0
 20
35.75
 30
0.0
 11
261.0
 21
39.59
 31
0.0
  0
LINE
  5
35D
330
1D
100
AcDbEntity
  8
0
100
AcDbLine
 10
261.0
 20
39.59
 30
0.0
 11
261.0
 21
43.19
 31
0.0
  0
LINE
  5
35E
330
1D
100
AcDbEntity
  8
0
100
AcDbLine
 10
261.0
 20
39.59
 30
0.0
 11
261.0
 21
35.75
 31
0.0
  0
LINE
  5
35F
330
1D
100
AcDbEntity
  8
0
100
AcDbLine
 10
241.0
 20
23.598
 30
0.0
 11
241.0
 21
22.254
 31
0.0
  0
LINE
  5
360
330
1D
100
AcDbEntity
  8
0
100
AcDbLine
 10
241.0
 20
23.598
 30
0.0
 11
241.0
 21
25.838
 31
0.0
  0
LINE
  5
361
330
1D
100
AcDbEntity
  8
0
100
AcDbLine
 10
241.0
 20
22.254
 30
0.0
 11
241.0
 21
21.75
 31
0.0
  0
LINE
  5
362
330
1D
100
AcDbEntity
  8
0
100
AcDbLine
 10
241.0
 20
22.254
 30
0.0
 11
241.0
 21
23.598
 31
0.0
  0
LINE
  5
363
330
1D
100
AcDbEntity
  8
0
100
AcDbLine
 10
221.0
 20
42.198
 30
0.0
 11
221.0
 21
44.954
 31
0.0
  0
LINE
  5
364
330
1D
100
AcDbEntity
  8
0
100
AcDbLine
 10
221.0
 20
44.954
 30
0.0
 11
221.0
 21
47.034
 31
0.0
  0
LINE
  5
365
330
1D
100
AcDbEntity
  8
0
100
AcDbLine
 10
241.0
 20
43.19
 30
0.0
 11
241.0
 21
39.59
 31
0.0
  0
LINE
  5
366
330
1D
100
AcDbEntity
  8
0
100
AcDbLine
 10
241.0
 20
43.19
 30
0.0
 11
241.0
 21
46.37
 31
0.0
  0
LINE
  5
367
330
1D
100
AcDbEntity
  8
0
100
AcDbLine
 10
221.0
 20
42.526
 30
0.0
 11
221.0
 21
39.278
 31
0.0
  0
LINE
  5
368
330
1D
100
AcDbEntity
  8
0
100
AcDbLine
 10
221.0
 20
42.526
 30
0.0
 11
221.0
 21
45.382
 31
0.0
  0
LINE
  5
369
330
1D
100
AcDbEntity
  8
0
100
AcDbLine
 10
221.0
 20
45.382
 30
0.0
 11
221.0
 21
42.526
 31
0.0
  0
LINE
  5
36A
330
1D
100
AcDbEntity
  8
0
100
AcDbLine
 10
221.0
 20
45.382
 30
0.0
 11
221.0
 21
47.566
 31
0.0
  0
LINE
  5
36B
330
1D
100
AcDbEntity
  8
0
100
AcDbLine
 10
241.0
 20
42.694
 30
0.0
 11
241.0
 21
39.334
 31
0.0
  0
LINE
  5
36C
330
1D
100
AcDbEntity
  8
0
100
AcDbLine
 10
241.0
 20
42.694
 30
0.0
 11
241.0
 21
45.662
 31
0.0
  0
LINE
  5
36D
330
1D
100
AcDbEntity
  8
0
100
AcDbLine
 10
221.0
 20
47.034
 30
0.0
 11
221.0
 21
48.282
 31
0.0
  0
LINE
  5
36E
330
1D
100
AcDbEntity
  8
0
100
AcDbLine
 10
221.0
 20
48.282
 30
0.0
 11
221.0
 21
48.75
 31
0.0
  0
LINE
  5
36F
330
1D
100
AcDbEntity
  8
0
100
AcDbLine
 10
241.0
 20
46.37
 30
0.0
 11
241.0
 21
43.19
 31
0.0
  0
LINE
  5
370
330
1D
100
AcDbEntity
  8
0
100
AcDbLine
 10
241.0
 20
46.37
 30
0.0
 11
241.0
 21
48.77
 31
0.0
  0
LINE
  5
371
330
1D
100
AcDbEntity
  8
0
100
AcDbLine
 10
221.0
 20
47.566
 30
0.0
 11
221.0
 21
45.382
 31
0.0
  0
LINE
  5
372
330
1D
100
AcDbEntity
  8
0
100
AcDbLine
 10
221.0
 20
47.566
 30
0.0
 11
221.0
 21
48.91
 31
0.0
  0
LINE
  5
373
330
1D
100
AcDbEntity
  8
0
100
AcDbLine
 10
241.0
 20
45.662
 30
0.0
 11
241.0
 21
42.694
 31
0.0
  0
LINE
  5
374
330
1D
100
AcDbEntity
  8
0
100
AcDbLine
 10
241.0
 20
45.662
 30
0.0
 11
241.0
 21
47.902
 31
0.0
  0
LINE
  5
375
330
1D
100
AcDbEntity
  8
0
100
AcDbLine
 10
261.0
 20
43.19
 30
0.0
 11
261.0
 21
46.37
 31
0.0
  0
LINE
  5
376
330
1D
100
AcDbEntity
  8
0
100
AcDbLine
 10
261.0
 20
43.19
 30
0.0
 11
261.0
 21
39.59
 31
0.0
  0
LINE
  5
377
330
1D
100
AcDbEntity
  8
0
100
AcDbLine
 10
261.0
 20
46.37
 30
0.0
 11
261.0
 21
48.77
 31
0.0
  0
LINE
  5
378
330
1D
100
AcDbEntity
  8
0
100
AcDbLine
 10
261.0
 20
46.37
 30
0.0
 11
261.0
 21
43.19
 31
0.0
  0
LINE
  5
379
330
1D
100
AcDbEntity
  8
0
100
AcDbLine
 10
241.0
 20
47.902
 30
0.0
 11
241.0
 21
45.662
 31
0.0
  0
LINE
  5
37A
330
1D
100
AcDbEntity
  8
0
100
AcDbLine
 10
241.0
 20
47.902
 30
0.0
 11
241.0
 21
49.246
 31
0.0
  0
LINE
  5
37B
330
1D
100
AcDbEntity
  8
0
100
AcDbLine
 10
175.352
 20
40.358
 30
0.0
 11
176.0
 21
35.75
 31
0.0
  0
LINE
  5
37C
330
1D
100
AcDbEntity
  8
0
100
AcDbLine
 10
175.352
 20
40.358
 30
0.0
 11
176.0
 21
35.75
 31
0.0
  0
LINE
  5
37D
330
1D
100
AcDbEntity
  8
0
100
AcDbLine
 10
173.624
 20
44.678
 30
0.0
 11
175.352
 21
40.358
 31
0.0
  0
LINE
  5
37E
330
1D
100
AcDbEntity
  8
0
100
AcDbLine
 10
220.0
 20
48.75
 30
0.0
 11
220.0
 21
63.25
 31
0.0
  0
LINE
  5
37F
330
1D
100
AcDbEntity
  8
0
100
AcDbLine
 10
204.0
 20
48.75
 30
0.0
 11
204.0
 21
63.25
 31
0.0
  0
LINE
  5
380
330
1D
100
AcDbEntity
  8
0
100
AcDbLine
 10
204.0
 20
48.75
 30
0.0
 11
220.0
 21
48.75
 31
0.0
  0
LINE
  5
381
330
1D
100
AcDbEntity
  8
0
100
AcDbLine
 10
175.0
 20
48.75
 30
0.0
 11
221.0
 21
48.75
 31
0.0
  0
LINE
  5
382
330
1D
100
AcDbEntity
  8
0
100
AcDbLine
 10
175.0
 20
48.75
 30
0.0
 11
175.0
 21
70.15
 31
0.0
  0
LINE
  5
383
330
1D
100
AcDbEntity
  8
0
100
AcDbLine
 10
221.0
 20
48.75
 30
0.0
 11
221.0
 21
48.91
 31
0.0
  0
LINE
  5
384
330
1D
100
AcDbEntity
  8
0
100
AcDbLine
 10
221.0
 20
48.91
 30
0.0
 11
221.0
 21
47.566
 31
0.0
  0
LINE
  5
385
330
1D
100
AcDbEntity
  8
0
100
AcDbLine
 10
221.0
 20
48.91
 30
0.0
 11
221.0
 21
49.414
 31
0.0
  0
LINE
  5
386
330
1D
100
AcDbEntity
  8
0
100
AcDbLine
 10
221.0
 20
48.91
 30
0.0
 11
221.0
 21
48.75
 31
0.0
  0
LINE
  5
387
330
1D
100
AcDbEntity
  8
0
100
AcDbLine
 10
241.0
 20
48.77
 30
0.0
 11
241.0
 21
46.37
 31
0.0
  0
LINE
  5
388
330
1D
100
AcDbEntity
  8
0
100
AcDbLine
 10
241.0
 20
48.77
 30
0.0
 11
241.0
 21
50.21
 31
0.0
  0
LINE
  5
389
330
1D
100
AcDbEntity
  8
0
100
AcDbLine
 10
221.0
 20
49.414
 30
0.0
 11
221.0
 21
48.91
 31
0.0
  0
LINE
  5
38A
330
1D
100
AcDbEntity
  8
0
100
AcDbLine
 10
221.0
 20
49.414
 30
0.0
 11
221.6
 21
49.75
 31
0.0
  0
LINE
  5
38B
330
1D
100
AcDbEntity
  8
0
100
AcDbLine
 10
221.6
 20
49.75
 30
0.0
 11
241.0
 21
49.75
 31
0.0
  0
LINE
  5
38C
330
1D
100
AcDbEntity
  8
0
100
AcDbLine
 10
261.0
 20
49.75
 30
0.0
 11
273.0
 21
49.75
 31
0.0
  0
LINE
  5
38D
330
1D
100
AcDbEntity
  8
0
100
AcDbLine
 10
273.0
 20
49.75
 30
0.0
 11
273.0
 21
60.75
 31
0.0
  0
LINE
  5
38E
330
1D
100
AcDbEntity
  8
0
100
AcDbLine
 10
261.0
 20
48.77
 30
0.0
 11
261.0
 21
50.21
 31
0.0
  0
LINE
  5
38F
330
1D
100
AcDbEntity
  8
0
100
AcDbLine
 10
261.0
 20
48.77
 30
0.0
 11
261.0
 21
46.37
 31
0.0
  0
LINE
  5
390
330
1D
100
AcDbEntity
  8
0
100
AcDbLine
 10
241.0
 20
49.246
 30
0.0
 11
241.0
 21
47.902
 31
0.0
  0
LINE
  5
391
330
1D
100
AcDbEntity
  8
0
100
AcDbLine
 10
241.0
 20
49.246
 30
0.0
 11
241.0
 21
49.75
 31
0.0
  0
LINE
  5
392
330
1D
100
AcDbEntity
  8
0
100
AcDbLine
 10
244.0
 20
50.75
 30
0.0
 11
256.0
 21
66.75
 31
0.0
  0
LINE
  5
393
330
1D
100
AcDbEntity
  8
0
100
AcDbLine
 10
261.0
 20
50.75
 30
0.0
 11
261.0
 21
50.21
 31
0.0
  0
LINE
  5
394
330
1D
100
AcDbEntity
  8
0
100
AcDbLine
 10
241.0
 20
50.21
 30
0.0
 11
241.0
 21
48.77
 31
0.0
  0
LINE
  5
395
330
1D
100
AcDbEntity
  8
0
100
AcDbLine
 10
241.0
 20
50.21
 30
0.0
 11
241.0
 21
50.75
 31
0.0
  0
LINE
  5
396
330
1D
100
AcDbEntity
  8
0
100
AcDbLine
 10
241.0
 20
50.21
 30
0.0
 11
241.0
 21
49.75
 31
0.0
  0
LINE
  5
397
330
1D
100
AcDbEntity
  8
0
100
AcDbLine
 10
241.0
 20
50.75
 30
0.0
 11
241.0
 21
50.21
 31
0.0
  0
LINE
  5
398
330
1D
100
AcDbEntity
  8
0
100
AcDbLine
 10
241.0
 20
50.75
 30
0.0
 11
261.0
 21
50.75
 31
0.0
  0
LINE
  5
399
330
1D
100
AcDbEntity
  8
0
100
AcDbLine
 10
261.0
 20
50.21
 30
0.0
 11
261.0
 21
50.75
 31
0.0
  0
LINE
  5
39A
330
1D
100
AcDbEntity
  8
0
100
AcDbLine
 10
261.0
 20
50.21
 30
0.0
 11
261.0
 21
48.77
 31
0.0
  0
LINE
  5
39B
330
1D
100
AcDbEntity
  8
0
100
AcDbLine
 10
241.0
 20
49.75
 30
0.0
 11
241.0
 21
49.246
 31
0.0
  0
LINE
  5
39C
330
1D
100
AcDbEntity
  8
0
100
AcDbLine
 10
241.0
 20
49.75
 30
0.0
 11
241.0
 21
50.21
 31
0.0
  0
LINE
  5
39D
330
1D
100
AcDbEntity
  8
0
100
AcDbLine
 10
170.744
 20
48.494
 30
0.0
 11
173.624
 21
44.678
 31
0.0
  0
LINE
  5
39E
330
1D
100
AcDbEntity
  8
0
100
AcDbLine
 10
170.744
 20
48.494
 30
0.0
 11
173.624
 21
44.678
 31
0.0
  0
LINE
  5
39F
330
1D
100
AcDbEntity
  8
0
100
AcDbLine
 10
166.928
 20
51.374
 30
0.0
 11
170.744
 21
48.494
 31
0.0
  0
LINE
  5
3A2
330
1D
100
AcDbEntity
  8
0
100
AcDbLine
 10
172.0
 20
70.75
 30
0.0
 11
172.0
 21
75.75
 31
0.0
  0
LINE
  5
3A3
330
1D
100
AcDbEntity
  8
0
100
AcDbLine
 10
172.348
 20
70.75
 30
0.0
 11
173.98
 21
70.75
 31
0.0
  0
LINE
  5
3A5
330
1D
100
AcDbEntity
  8
0
100
AcDbLine
 10
173.98
 20
70.75
 30
0.0
 11
174.592
 21
70.75
 31
0.0
  0
LINE
  5
3A7
330
1D
100
AcDbEntity
  8
0
100
AcDbLine
 10
162.284
 20
70.75
 30
0.0
 11
166.228
 21
70.75
 31
0.0
  0
LINE
  5
3A8
330
1D
100
AcDbEntity
  8
0
100
AcDbLine
 10
165.56
 20
75.75
 30
0.0
 11
166.4
 21
75.99
 31
0.0
  0
LINE
  5
3A9
330
1D
100
AcDbEntity
  8
0
100
AcDbLine
 10
161.584
 20
75.75
 30
0.0
 11
164.944
 21
75.75
 31
0.0
  0
LINE
  5
3AA
330
1D
100
AcDbEntity
  8
0
100
AcDbLine
 10
165.56
 20
75.99
 30
0.0
 11
166.4
 21
75.99
 31
0.0
  0
LINE
  5
3AB
330
1D
100
AcDbEntity
  8
0
100
AcDbLine
 10
165.56
 20
75.99
 30
0.0
 11
165.56
 21
87.51
 31
0.0
  0
LINE
  5
3AC
330
1D
100
AcDbEntity
  8
0
100
AcDbLine
 10
165.56
 20
87.51
 30
0.0
 11
166.4
 21
87.51
 31
0.0
  0
LINE
  5
3AD
330
1D
100
AcDbEntity
  8
0
100
AcDbLine
 10
165.56
 20
87.51
 30
0.0
 11
165.56
 21
75.99
 31
0.0
  0
LINE
  5
3AE
330
1D
100
AcDbEntity
  8
0
100
AcDbLine
 10
166.4
 20
87.51
 30
0.0
 11
166.4
 21
75.99
 31
0.0
  0
LINE
  5
3AF
330
1D
100
AcDbEntity
  8
0
100
AcDbLine
 10
166.4
 20
75.99
 30
0.0
 11
166.4
 21
87.51
 31
0.0
  0
LINE
  5
3B0
330
1D
100
AcDbEntity
  8
0
100
AcDbLine
 10
165.56
 20
87.75
 30
0.0
 11
166.4
 21
87.51
 31
0.0
  0
LINE
  5
3B1
330
1D
100
AcDbEntity
  8
0
100
AcDbLine
 10
164.944
 20
75.75
 30
0.0
 11
167.912
 21
75.75
 31
0.0
  0
LINE
  5
3B2
330
1D
100
AcDbEntity
  8
0
100
AcDbLine
 10
167.912
 20
75.75
 30
0.0
 11
170.152
 21
75.75
 31
0.0
  0
LINE
  5
3B3
330
1D
100
AcDbEntity
  8
0
100
AcDbLine
 10
166.228
 20
70.75
 30
0.0
 11
169.696
 21
70.75
 31
0.0
  0
LINE
  5
3B4
330
1D
100
AcDbEntity
  8
0
100
AcDbLine
 10
172.0
 20
75.75
 30
0.0
 11
172.0
 21
70.75
 31
0.0
  0
LINE
  5
3B5
330
1D
100
AcDbEntity
  8
0
100
AcDbLine
 10
170.152
 20
75.75
 30
0.0
 11
171.496
 21
75.75
 31
0.0
  0
LINE
  5
3B6
330
1D
100
AcDbEntity
  8
0
100
AcDbLine
 10
171.496
 20
75.75
 30
0.0
 11
172.0
 21
75.75
 31
0.0
  0
LINE
  5
3B7
330
1D
100
AcDbEntity
  8
0
100
AcDbLine
 10
169.696
 20
70.75
 30
0.0
 11
172.348
 21
70.75
 31
0.0
  0
LINE
  5
3B8
330
1D
100
AcDbEntity
  8
0
100
AcDbLine
 10
174.592
 20
70.75
 30
0.0
 11
175.0
 21
70.15
 31
0.0
  0
LINE
  5
3B9
330
1D
100
AcDbEntity
  8
0
100
AcDbLine
 10
207.818
 20
59.0676
 30
0.0
 11
209.053
 21
58.1324
 31
0.0
  0
LINE
  5
3BA
330
1D
100
AcDbEntity
  8
0
100
AcDbLine
 10
209.053
 20
58.1324
 30
0.0
 11
210.482
 21
57.55
 31
0.0
  0
LINE
  5
3BD
330
1D
100
AcDbEntity
  8
0
100
AcDbLine
 10
212.0
 20
57.3382
 30
0.0
 11
213.518
 21
57.55
 31
0.0
  0
LINE
  5
3BE
330
1D
100
AcDbEntity
  8
0
100
AcDbLine
 10
213.518
 20
57.55
 30
0.0
 11
214.947
 21
58.1324
 31
0.0
  0
LINE
  5
3C0
330
1D
100
AcDbEntity
  8
0
100
AcDbLine
 10
216.182
 20
59.0676
 30
0.0
 11
217.118
 21
60.3029
 31
0.0
  0
LINE
  5
3C1
330
1D
100
AcDbEntity
  8
0
100
AcDbLine
 10
217.118
 20
60.3029
 30
0.0
 11
217.7
 21
61.7323
 31
0.0
  0
LINE
  5
3C2
330
1D
100
AcDbEntity
  8
0
100
AcDbLine
 10
214.947
 20
58.1324
 30
0.0
 11
216.182
 21
59.0676
 31
0.0
  0
LINE
  5
3C3
330
1D
100
AcDbEntity
  8
0
100
AcDbLine
 10
210.482
 20
57.55
 30
0.0
 11
212.0
 21
57.3382
 31
0.0
  0
LINE
  5
3C5
330
1D
100
AcDbEntity
  8
0
100
AcDbLine
 10
206.882
 20
60.3029
 30
0.0
 11
207.818
 21
59.0676
 31
0.0
  0
LINE
  5
3C7
330
1D
100
AcDbEntity
  8
0
100
AcDbLine
 10
217.7
 20
61.7323
 30
0.0
 11
217.912
 21
63.25
 31
0.0
  0
LINE
  5
3C8
330
1D
100
AcDbEntity
  8
0
100
AcDbLine
 10
206.3
 20
61.7323
 30
0.0
 11
206.882
 21
60.3029
 31
0.0
  0
LINE
  5
3C9
330
1D
100
AcDbEntity
  8
0
100
AcDbLine
 10
206.088
 20
63.25
 30
0.0
 11
206.3
 21
61.7323
 31
0.0
  0
LINE
  5
3D2
330
1D
100
AcDbEntity
  8
0
100
AcDbLine
 10
204.288
 20
65.298
 30
0.0
 11
205.056
 21
67.218
 31
0.0
  0
LINE
  5
3D3
330
1D
100
AcDbEntity
  8
0
100
AcDbLine
 10
204.0
 20
63.25
 30
0.0
 11
204.288
 21
65.298
 31
0.0
  0
LINE
  5
3D5
330
1D
100
AcDbEntity
  8
0
100
AcDbLine
 10
204.0
 20
63.25
 30
0.0
 11
204.0
 21
48.75
 31
0.0
  0
LINE
  5
3D6
330
1D
100
AcDbEntity
  8
0
100
AcDbLine
 10
266.232
 20
57.858
 30
0.0
 11
267.0
 21
57.75
 31
0.0
  0
LINE
  5
3D7
330
1D
100
AcDbEntity
  8
0
100
AcDbLine
 10
267.0
 20
57.75
 30
0.0
 11
267.768
 21
57.858
 31
0.0
  0
LINE
  5
3D8
330
1D
100
AcDbEntity
  8
0
100
AcDbLine
 10
265.512
 20
58.146
 30
0.0
 11
266.232
 21
57.858
 31
0.0
  0
LINE
  5
3D9
330
1D
100
AcDbEntity
  8
0
100
AcDbLine
 10
264.876
 20
58.626
 30
0.0
 11
265.512
 21
58.146
 31
0.0
  0
LINE
  5
3DA
330
1D
100
AcDbEntity
  8
0
100
AcDbLine
 10
267.768
 20
57.858
 30
0.0
 11
268.488
 21
58.146
 31
0.0
  0
LINE
  5
3DB
330
1D
100
AcDbEntity
  8
0
100
AcDbLine
 10
268.488
 20
58.146
 30
0.0
 11
269.124
 21
58.626
 31
0.0
  0
LINE
  5
3DC
330
1D
100
AcDbEntity
  8
0
100
AcDbLine
 10
264.396
 20
59.262
 30
0.0
 11
264.876
 21
58.626
 31
0.0
  0
LINE
  5
3DD
330
1D
100
AcDbEntity
  8
0
100
AcDbLine
 10
264.108
 20
59.982
 30
0.0
 11
264.396
 21
59.262
 31
0.0
  0
LINE
  5
3DE
330
1D
100
AcDbEntity
  8
0
100
AcDbLine
 10
269.124
 20
58.626
 30
0.0
 11
269.604
 21
59.262
 31
0.0
  0
LINE
  5
3DF
330
1D
100
AcDbEntity
  8
0
100
AcDbLine
 10
269.604
 20
59.262
 30
0.0
 11
269.892
 21
59.982
 31
0.0
  0
LINE
  5
3E0
330
1D
100
AcDbEntity
  8
0
100
AcDbLine
 10
269.892
 20
59.982
 30
0.0
 11
270.0
 21
60.75
 31
0.0
  0
LINE
  5
3E1
330
1D
100
AcDbEntity
  8
0
100
AcDbLine
 10
273.0
 20
60.75
 30
0.0
 11
273.0
 21
49.75
 31
0.0
  0
LINE
  5
3E2
330
1D
100
AcDbEntity
  8
0
100
AcDbLine
 10
269.892
 20
61.518
 30
0.0
 11
270.0
 21
60.75
 31
0.0
  0
LINE
  5
3E3
330
1D
100
AcDbEntity
  8
0
100
AcDbLine
 10
269.124
 20
62.874
 30
0.0
 11
269.604
 21
62.238
 31
0.0
  0
LINE
  5
3E4
330
1D
100
AcDbEntity
  8
0
100
AcDbLine
 10
272.617
 20
62.5808
 30
0.0
 11
273.0
 21
60.75
 31
0.0
  0
LINE
  5
3E5
330
1D
100
AcDbEntity
  8
0
100
AcDbLine
 10
269.604
 20
62.238
 30
0.0
 11
269.892
 21
61.518
 31
0.0
  0
LINE
  5
3E6
330
1D
100
AcDbEntity
  8
0
100
AcDbLine
 10
264.876
 20
62.874
 30
0.0
 11
265.512
 21
63.354
 31
0.0
  0
LINE
  5
3E7
330
1D
100
AcDbEntity
  8
0
100
AcDbLine
 10
264.396
 20
62.238
 30
0.0
 11
264.876
 21
62.874
 31
0.0
  0
LINE
  5
3E8
330
1D
100
AcDbEntity
  8
0
100
AcDbLine
 10
264.108
 20
61.518
 30
0.0
 11
264.396
 21
62.238
 31
0.0
  0
LINE
  5
3E9
330
1D
100
AcDbEntity
  8
0
100
AcDbLine
 10
264.0
 20
60.75
 30
0.0
 11
264.108
 21
61.518
 31
0.0
  0
LINE
  5
3EA
330
1D
100
AcDbEntity
  8
0
100
AcDbLine
 10
264.0
 20
60.75
 30
0.0
 11
264.108
 21
59.982
 31
0.0
  0
LINE
  5
3EB
330
1D
100
AcDbEntity
  8
0
100
AcDbLine
 10
267.768
 20
63.642
 30
0.0
 11
268.488
 21
63.354
 31
0.0
  0
LINE
  5
3EC
330
1D
100
AcDbEntity
  8
0
100
AcDbLine
 10
268.488
 20
63.354
 30
0.0
 11
269.124
 21
62.874
 31
0.0
  0
LINE
  5
3ED
330
1D
100
AcDbEntity
  8
0
100
AcDbLine
 10
271.747
 20
64.6679
 30
0.0
 11
272.617
 21
62.5808
 31
0.0
  0
LINE
  5
3EE
330
1D
100
AcDbEntity
  8
0
100
AcDbLine
 10
267.0
 20
63.75
 30
0.0
 11
267.768
 21
63.642
 31
0.0
  0
LINE
  5
3EF
330
1D
100
AcDbEntity
  8
0
100
AcDbLine
 10
266.232
 20
63.642
 30
0.0
 11
267.0
 21
63.75
 31
0.0
  0
LINE
  5
3F0
330
1D
100
AcDbEntity
  8
0
100
AcDbLine
 10
265.512
 20
63.354
 30
0.0
 11
266.232
 21
63.642
 31
0.0
  0
LINE
  5
3F1
330
1D
100
AcDbEntity
  8
0
100
AcDbLine
 10
220.0
 20
63.25
 30
0.0
 11
220.0
 21
48.75
 31
0.0
  0
LINE
  5
3FF
330
1D
100
AcDbEntity
  8
0
100
AcDbLine
 10
206.336
 20
68.914
 30
0.0
 11
208.032
 21
70.194
 31
0.0
  0
LINE
  5
400
330
1D
100
AcDbEntity
  8
0
100
AcDbLine
 10
205.056
 20
67.218
 30
0.0
 11
206.336
 21
68.914
 31
0.0
  0
LINE
  5
407
330
1D
100
AcDbEntity
  8
0
100
AcDbLine
 10
209.952
 20
70.962
 30
0.0
 11
212.0
 21
71.25
 31
0.0
  0
LINE
  5
408
330
1D
100
AcDbEntity
  8
0
100
AcDbLine
 10
208.032
 20
70.194
 30
0.0
 11
209.952
 21
70.962
 31
0.0
  0
LINE
  5
409
330
1D
100
AcDbEntity
  8
0
100
AcDbLine
 10
212.0
 20
71.25
 30
0.0
 11
214.048
 21
70.962
 31
0.0
  0
LINE
  5
40A
330
1D
100
AcDbEntity
  8
0
100
AcDbLine
 10
214.048
 20
70.962
 30
0.0
 11
215.968
 21
70.194
 31
0.0
  0
LINE
  5
40B
330
1D
100
AcDbEntity
  8
0
100
AcDbLine
 10
215.968
 20
70.194
 30
0.0
 11
217.664
 21
68.914
 31
0.0
  0
LINE
  5
40C
330
1D
100
AcDbEntity
  8
0
100
AcDbLine
 10
217.664
 20
68.914
 30
0.0
 11
218.944
 21
67.218
 31
0.0
  0
LINE
  5
40D
330
1D
100
AcDbEntity
  8
0
100
AcDbLine
 10
256.0
 20
66.75
 30
0.0
 11
267.0
 21
66.75
 31
0.0
  0
LINE
  5
40E
330
1D
100
AcDbEntity
  8
0
100
AcDbLine
 10
267.0
 20
66.75
 30
0.0
 11
269.746
 21
65.8853
 31
0.0
  0
LINE
  5
40F
330
1D
100
AcDbEntity
  8
0
100
AcDbLine
 10
269.746
 20
65.8853
 30
0.0
 11
271.747
 21
64.6679
 31
0.0
  0
LINE
  5
410
330
1D
100
AcDbEntity
  8
0
100
AcDbLine
 10
218.944
 20
67.218
 30
0.0
 11
219.712
 21
65.298
 31
0.0
  0
LINE
  5
411
330
1D
100
AcDbEntity
  8
0
100
AcDbLine
 10
219.712
 20
65.298
 30
0.0
 11
220.0
 21
63.25
 31
0.0
  0
LINE
  5
412
330
1D
100
AcDbEntity
  8
0
100
AcDbLine
 10
175.0
 20
70.15
 30
0.0
 11
175.0
 21
48.75
 31
0.0
  0
LINE
  5
413
330
1D
100
AcDbEntity
  8
0
100
AcDbLine
 10
162.608
 20
53.102
 30
0.0
 11
166.928
 21
51.374
 31
0.0
  0
LINE
  5
414
330
1D
100
AcDbEntity
  8
0
100
AcDbLine
 10
162.608
 20
53.102
 30
0.0
 11
166.928
 21
51.374
 31
0.0
  0
LINE
  5
415
330
1D
100
AcDbEntity
  8
0
100
AcDbLine
 10
158.0
 20
53.75
 30
0.0
 11
162.608
 21
53.102
 31
0.0
  0
LINE
  5
43D
330
1D
100
AcDbEntity
  8
0
100
AcDbLine
 10
216.182
 20
12.4324
 30
0.0
 11
217.118
 21
11.1971
 31
0.0
  0
LINE
  5
43E
330
1D
100
AcDbEntity
  8
0
100
AcDbLine
 10
217.118
 20
11.1971
 30
0.0
 11
217.7
 21
9.7676
 31
0.0
  0
LINE
  5
43F
330
1D
100
AcDbEntity
  8
0
100
AcDbLine
 10
217.7
 20
9.7676
 30
0.0
 11
217.912
 21
8.25
 31
0.0
  0
LINE
  5
440
330
1D
100
AcDbEntity
  8
0
100
AcDbLine
 10
212.0
 20
14.1618
 30
0.0
 11
213.518
 21
13.95
 31
0.0
  0
LINE
  5
441
330
1D
100
AcDbEntity
  8
0
100
AcDbLine
 10
213.518
 20
13.95
 30
0.0
 11
214.947
 21
13.3676
 31
0.0
  0
LINE
  5
442
330
1D
100
AcDbEntity
  8
0
100
AcDbLine
 10
214.947
 20
13.3676
 30
0.0
 11
216.182
 21
12.4324
 31
0.0
  0
LINE
  5
443
330
1D
100
AcDbEntity
  8
0
100
AcDbLine
 10
210.482
 20
13.95
 30
0.0
 11
212.0
 21
14.1618
 31
0.0
  0
LINE
  5
444
330
1D
100
AcDbEntity
  8
0
100
AcDbLine
 10
209.053
 20
13.3676
 30
0.0
 11
210.482
 21
13.95
 31
0.0
  0
LINE
  5
445
330
1D
100
AcDbEntity
  8
0
100
AcDbLine
 10
207.818
 20
12.4324
 30
0.0
 11
209.053
 21
13.3676
 31
0.0
  0
LINE
  5
446
330
1D
100
AcDbEntity
  8
0
100
AcDbLine
 10
206.882
 20
11.1971
 30
0.0
 11
207.818
 21
12.4324
 31
0.0
  0
LINE
  5
447
330
1D
100
AcDbEntity
  8
0
100
AcDbLine
 10
206.3
 20
9.7676
 30
0.0
 11
206.882
 21
11.1971
 31
0.0
  0
LINE
  5
448
330
1D
100
AcDbEntity
  8
0
100
AcDbLine
 10
206.088
 20
8.25
 30
0.0
 11
206.3
 21
9.7676
 31
0.0
  0
LINE
  5
449
330
1D
100
AcDbEntity
  8
0
100
AcDbLine
 10
212.0
 20
69.1618
 30
0.0
 11
213.518
 21
68.95
 31
0.0
  0
LINE
  5
44A
330
1D
100
AcDbEntity
  8
0
100
AcDbLine
 10
207.818
 20
67.4324
 30
0.0
 11
209.053
 21
68.3676
 31
0.0
  0
LINE
  5
44B
330
1D
100
AcDbEntity
  8
0
100
AcDbLine
 10
209.053
 20
68.3676
 30
0.0
 11
210.482
 21
68.95
 31
0.0
  0
LINE
  5
44C
330
1D
100
AcDbEntity
  8
0
100
AcDbLine
 10
210.482
 20
68.95
 30
0.0
 11
212.0
 21
69.1618
 31
0.0
  0
LINE
  5
44D
330
1D
100
AcDbEntity
  8
0
100
AcDbLine
 10
206.882
 20
66.1971
 30
0.0
 11
207.818
 21
67.4324
 31
0.0
  0
LINE
  5
44E
330
1D
100
AcDbEntity
  8
0
100
AcDbLine
 10
206.3
 20
64.7677
 30
0.0
 11
206.882
 21
66.1971
 31
0.0
  0
LINE
  5
44F
330
1D
100
AcDbEntity
  8
0
100
AcDbLine
 10
206.088
 20
63.25
 30
0.0
 11
206.3
 21
64.7677
 31
0.0
  0
LINE
  5
450
330
1D
100
AcDbEntity
  8
0
100
AcDbLine
 10
213.518
 20
68.95
 30
0.0
 11
214.947
 21
68.3676
 31
0.0
  0
LINE
  5
451
330
1D
100
AcDbEntity
  8
0
100
AcDbLine
 10
216.182
 20
67.4324
 30
0.0
 11
217.118
 21
66.1971
 31
0.0
  0
LINE
  5
452
330
1D
100
AcDbEntity
  8
0
100
AcDbLine
 10
217.118
 20
66.1971
 30
0.0
 11
217.7
 21
64.7677
 31
0.0
  0
LINE
  5
453
330
1D
100
AcDbEntity
  8
0
100
AcDbLine
 10
214.947
 20
68.3676
 30
0.0
 11
216.182
 21
67.4324
 31
0.0
  0
LINE
  5
454
330
1D
100
AcDbEntity
  8
0
100
AcDbLine
 10
217.7
 20
64.7677
 30
0.0
 11
217.912
 21
63.25
 31
0.0
  0
ENDSEC
  0
SECTION
  2
OBJECTS
  0
DICTIONARY
  5
C
330
0
100
AcDbDictionary
281
     1
  3
ACAD_GROUP
350
D
  3
ACAD_LAYOUT
350
1A
  3
ACAD_MLEADERSTYLE
350
457
  3
ACAD_MLINESTYLE
350
17
  3
ACAD_PLOTSETTINGS
350
19
  3
ACAD_PLOTSTYLENAME
350
E
  3
ACAD_SCALELIST
350
41B
  3
AcDbVariableDictionary
350
455
  3
DWGPROPS
350
45A
  0
DICTIONARY
  5
D
102
{ACAD_REACTORS
330
C
102
}
330
C
100
AcDbDictionary
281
     1
  0
DICTIONARY
  5
1A
102
{ACAD_REACTORS
330
C
102
}
330
C
100
AcDbDictionary
281
     1
  3
Layout1
350
1C
  3
Model
350
1E
  0
DICTIONARY
  5
457
102
{ACAD_REACTORS
330
C
102
}
330
C
100
AcDbDictionary
281
     1
  0
DICTIONARY
  5
17
102
{ACAD_REACTORS
330
C
102
}
330
C
100
AcDbDictionary
281
     1
  3
Standard
350
18
  0
DICTIONARY
  5
19
102
{ACAD_REACTORS
330
C
102
}
330
C
100
AcDbDictionary
281
     1
  0
ACDBDICTIONARYWDFLT
  5
E
102
{ACAD_REACTORS
330
C
102
}
330
C
100
AcDbDictionary
281
     1
  3
Normal
350
F
100
AcDbDictionaryWithDefault
340
F
  0
DICTIONARY
  5
41B
102
{ACAD_REACTORS
330
C
102
}
330
C
100
AcDbDictionary
281
     1
  3
A0
350
41C
  3
A1
350
41D
  3
A2
350
41E
  3
A3
350
41F
  3
A4
350
420
  3
A5
350
421
  3
A6
350
422
  3
A7
350
423
  3
A8
350
424
  3
A9
350
425
  3
B0
350
426
  3
B1
350
427
  3
B2
350
428
  3
B3
350
429
  3
B4
350
42A
  3
B5
350
42B
  3
B6
350
42C
  3
B7
350
42D
  3
B8
350
42E
  3
B9
350
42F
  3
C0
350
430
  3
C1
350
431
  3
C2
350
432
  3
C3
350
433
  3
C4
350
434
  3
C5
350
435
  3
C6
350
436
  3
C7
350
437
  3
C8
350
438
  3
C9
350
439
  3
D0
350
43A
  3
D1
350
43B
  3
D2
350
43C
  0
DICTIONARY
  5
455
102
{ACAD_REACTORS
330
C
102
}
330
C
100
AcDbDictionary
281
     1
  3
CANNOSCALE
350
458
  0
XRECORD
  5
45A
102
{ACAD_REACTORS
330
C
102
}
330
C
100
AcDbXrecord
280
     1
  1
DWGPROPS COOKIE
  2

  3

  4

  6

  7

  8
MARTIN
  9

300
=
301
=
302
=
303
=
304
=
305
=
306
=
307
=
308
=
309
=
 40
0.0
 41
2455872.547502523
 42
2455872.549509178
  1

 90
        0
  0
LAYOUT
  5
1C
102
{ACAD_REACTORS
330
1A
102
}
330
1A
100
AcDbPlotSettings
  1

  2
none_device
  4

  6

 40
0.0
 41
0.0
 42
0.0
 43
0.0
 44
0.0
 45
0.0
 46
0.0
 47
0.0
 48
0.0
 49
0.0
140
0.0
141
0.0
142
1.0
143
1.0
 70
   688
 72
     0
 73
     0
 74
     5
  7

 75
    16
147
1.0
148
0.0
149
0.0
100
AcDbLayout
  1
Layout1
 70
     1
 71
     1
 10
0.0
 20
0.0
 11
12.0
 21
9.0
 12
0.0
 22
0.0
 32
0.0
 14
1.000000000000E+20
 24
1.000000000000E+20
 34
1.000000000000E+20
 15
-1.000000000000E+20
 25
-1.000000000000E+20
 35
-1.000000000000E+20
146
0.0
 13
0.0
 23
0.0
 33
0.0
 16
1.0
 26
0.0
 36
0.0
 17
0.0
 27
1.0
 37
0.0
 76
     0
330
1B
  0
LAYOUT
  5
1E
102
{ACAD_REACTORS
330
1A
102
}
330
1A
100
AcDbPlotSettings
  1

  2
none_device
  4

  6

 40
0.0
 41
0.0
 42
0.0
 43
0.0
 44
0.0
 45
0.0
 46
0.0
 47
0.0
 48
0.0
 49
0.0
140
0.0
141
0.0
142
1.0
143
1.0
 70
  1712
 72
     0
 73
     0
 74
     0
  7

 75
     0
147
1.0
148
0.0
149
0.0
100
AcDbLayout
  1
Model
 70
     1
 71
     0
 10
0.0
 20
0.0
 11
12.0
 21
9.0
 12
0.0
 22
0.0
 32
0.0
 14
0.0
 24
0.25
 34
0.0
 15
273.0
 25
87.75
 35
0.0
146
0.0
 13
0.0
 23
0.0
 33
0.0
 16
1.0
 26
0.0
 36
0.0
 17
0.0
 27
1.0
 37
0.0
 76
     0
330
1D
331
416
  0
MLINESTYLE
  5
18
102
{ACAD_REACTORS
330
17
102
}
330
17
100
AcDbMlineStyle
  2
Standard
 70
     0
  3

 62
   256
 51
90.0
 52
90.0
 71
     2
 49
0.5
 62
   256
  6
BYLAYER
 49
-0.5
 62
   256
  6
BYLAYER
  0
ACDBPLACEHOLDER
  5
F
102
{ACAD_REACTORS
330
E
102
}
330
E
  0
SCALE
  5
41C
102
{ACAD_REACTORS
330
41B
102
}
330
41B
100
AcDbScale
 70
     0
300
1:1
140
1.0
141
1.0
290
     1
  0
SCALE
  5
41D
102
{ACAD_REACTORS
330
41B
102
}
330
41B
100
AcDbScale
 70
     0
300
1:2
140
1.0
141
2.0
290
     0
  0
SCALE
  5
41E
102
{ACAD_REACTORS
330
41B
102
}
330
41B
100
AcDbScale
 70
     0
300
1:4
140
1.0
141
4.0
290
     0
  0
SCALE
  5
41F
102
{ACAD_REACTORS
330
41B
102
}
330
41B
100
AcDbScale
 70
     0
300
1:5
140
1.0
141
5.0
290
     0
  0
SCALE
  5
420
102
{ACAD_REACTORS
330
41B
102
}
330
41B
100
AcDbScale
 70
     0
300
1:8
140
1.0
141
8.0
290
     0
  0
SCALE
  5
421
102
{ACAD_REACTORS
330
41B
102
}
330
41B
100
AcDbScale
 70
     0
300
1:10
140
1.0
141
10.0
290
     0
  0
SCALE
  5
422
102
{ACAD_REACTORS
330
41B
102
}
330
41B
100
AcDbScale
 70
     0
300
1:16
140
1.0
141
16.0
290
     0
  0
SCALE
  5
423
102
{ACAD_REACTORS
330
41B
102
}
330
41B
100
AcDbScale
 70
     0
300
1:20
140
1.0
141
20.0
290
     0
  0
SCALE
  5
424
102
{ACAD_REACTORS
330
41B
102
}
330
41B
100
AcDbScale
 70
     0
300
1:30
140
1.0
141
30.0
290
     0
  0
SCALE
  5
425
102
{ACAD_REACTORS
330
41B
102
}
330
41B
100
AcDbScale
 70
     0
300
1:40
140
1.0
141
40.0
290
     0
  0
SCALE
  5
426
102
{ACAD_REACTORS
330
41B
102
}
330
41B
100
AcDbScale
 70
     0
300
1:50
140
1.0
141
50.0
290
     0
  0
SCALE
  5
427
102
{ACAD_REACTORS
330
41B
102
}
330
41B
100
AcDbScale
 70
     0
300
1:100
140
1.0
141
100.0
290
     0
  0
SCALE
  5
428
102
{ACAD_REACTORS
330
41B
102
}
330
41B
100
AcDbScale
 70
     0
300
2:1
140
2.0
141
1.0
290
     0
  0
SCALE
  5
429
102
{ACAD_REACTORS
330
41B
102
}
330
41B
100
AcDbScale
 70
     0
300
4:1
140
4.0
141
1.0
290
     0
  0
SCALE
  5
42A
102
{ACAD_REACTORS
330
41B
102
}
330
41B
100
AcDbScale
 70
     0
300
8:1
140
8.0
141
1.0
290
     0
  0
SCALE
  5
42B
102
{ACAD_REACTORS
330
41B
102
}
330
41B
100
AcDbScale
 70
     0
300
10:1
140
10.0
141
1.0
290
     0
  0
SCALE
  5
42C
102
{ACAD_REACTORS
330
41B
102
}
330
41B
100
AcDbScale
 70
     0
300
100:1
140
100.0
141
1.0
290
     0
  0
SCALE
  5
42D
102
{ACAD_REACTORS
330
41B
102
}
330
41B
100
AcDbScale
 70
     0
300
1/128" = 1'-0"
140
0.0078125
141
12.0
290
     0
  0
SCALE
  5
42E
102
{ACAD_REACTORS
330
41B
102
}
330
41B
100
AcDbScale
 70
     0
300
1/64" = 1'-0"
140
0.015625
141
12.0
290
     0
  0
SCALE
  5
42F
102
{ACAD_REACTORS
330
41B
102
}
330
41B
100
AcDbScale
 70
     0
300
1/32" = 1'-0"
140
0.03125
141
12.0
290
     0
  0
SCALE
  5
430
102
{ACAD_REACTORS
330
41B
102
}
330
41B
100
AcDbScale
 70
     0
300
1/16" = 1'-0"
140
0.0625
141
12.0
290
     0
  0
SCALE
  5
431
102
{ACAD_REACTORS
330
41B
102
}
330
41B
100
AcDbScale
 70
     0
300
3/32" = 1'-0"
140
0.09375
141
12.0
290
     0
  0
SCALE
  5
432
102
{ACAD_REACTORS
330
41B
102
}
330
41B
100
AcDbScale
 70
     0
300
1/8" = 1'-0"
140
0.125
141
12.0
290
     0
  0
SCALE
  5
433
102
{ACAD_REACTORS
330
41B
102
}
330
41B
100
AcDbScale
 70
     0
300
3/16" = 1'-0"
140
0.1875
141
12.0
290
     0
  0
SCALE
  5
434
102
{ACAD_REACTORS
330
41B
102
}
330
41B
100
AcDbScale
 70
     0
300
1/4" = 1'-0"
140
0.25
141
12.0
290
     0
  0
SCALE
  5
435
102
{ACAD_REACTORS
330
41B
102
}
330
41B
100
AcDbScale
 70
     0
300
3/8" = 1'-0"
140
0.375
141
12.0
290
     0
  0
SCALE
  5
436
102
{ACAD_REACTORS
330
41B
102
}
330
41B
100
AcDbScale
 70
     0
300
1/2" = 1'-0"
140
0.5
141
12.0
290
     0
  0
SCALE
  5
437
102
{ACAD_REACTORS
330
41B
102
}
330
41B
100
AcDbScale
 70
     0
300
3/4" = 1'-0"
140
0.75
141
12.0
290
     0
  0
SCALE
  5
438
102
{ACAD_REACTORS
330
41B
102
}
330
41B
100
AcDbScale
 70
     0
300
1" = 1'-0"
140
1.0
141
12.0
290
     0
  0
SCALE
  5
439
102
{ACAD_REACTORS
330
41B
102
}
330
41B
100
AcDbScale
 70
     0
300
1-1/2" = 1'-0"
140
1.5
141
12.0
290
     0
  0
SCALE
  5
43A
102
{ACAD_REACTORS
330
41B
102
}
330
41B
100
AcDbScale
 70
     0
300
3" = 1'-0"
140
3.0
141
12.0
290
     0
  0
SCALE
  5
43B
102
{ACAD_REACTORS
330
41B
102
}
330
41B
100
AcDbScale
 70
     0
300
6" = 1'-0"
140
6.0
141
12.0
290
     0
  0
SCALE
  5
43C
102
{ACAD_REACTORS
330
41B
102
}
330
41B
100
AcDbScale
 70
     0
300
1'-0" = 1'-0"
140
12.0
141
12.0
290
     0
  0
DICTIONARYVAR
  5
458
102
{ACAD_REACTORS
330
455
102
}
330
455
100
DictionaryVariables
280
     0
  1
1:1
  0
ENDSEC
  0
SECTION
  2
THUMBNAILIMAGE
 90
    16364
310
28000000B40000005500000001000800000000000000000000000000000000000000000000000000FFFFFF000000FF0000FFFF0000FF0000FFFF0000FF000000FF00FF000000000080808000C0C0C0000000FF007F7FFF000000A5005252A50000007F003F3F7F0000004C0026264C000000260013132600003FFF007F9FFF
310
000029A5005267A500001F7F003F4F7F0000134C00262F4C000009260013172600007FFF007FBFFF000052A500527CA500003F7F003F5F7F0000264C0026394C0000132600131C260000BFFF007FDFFF00007CA5005291A500005F7F003F6F7F0000394C0026424C00001C26001321260000FFFF007FFFFF0000A5A50052A5
310
A500007F7F003F7F7F00004C4C00264C4C00002626001326260000FFBF007FFFDF0000A57C0052A59100007F5F003F7F6F00004C3900264C420000261C001326210000FF7F007FFFBF0000A5520052A57C00007F3F003F7F5F00004C2600264C39000026130013261C0000FF3F007FFF9F0000A5290052A56700007F1F003F
310
7F4F00004C1300264C2F00002609001326170000FF00007FFF7F0000A5000052A55200007F00003F7F3F00004C0000264C260000260000132613003FFF00009FFF7F0029A5000067A552001F7F00004F7F3F00134C00002F4C260009260000172613007FFF0000BFFF7F0052A500007CA552003F7F00005F7F3F00264C0000
310
394C2600132600001C261300BFFF0000DFFF7F007CA5000091A552005F7F00006F7F3F00394C0000424C26001C26000021261300FFFF0000FFFF7F00A5A50000A5A552007F7F00007F7F3F004C4C00004C4C26002626000026261300FFBF0000FFDF7F00A57C0000A59152007F5F00007F6F3F004C3900004C422600261C00
310
0026211300FF7F0000FFBF7F00A5520000A57C52007F3F00007F5F3F004C2600004C39260026130000261C1300FF3F0000FF9F7F00A5290000A56752007F1F00007F4F3F004C1300004C2F26002609000026171300FF000000FF7F7F00A5000000A55252007F0000007F3F3F004C0000004C2626002600000026131300FF00
310
3F00FF7F9F00A5002900A55267007F001F007F3F4F004C0013004C262F002600090026131700FF007F00FF7FBF00A5005200A5527C007F003F007F3F5F004C0026004C2639002600130026131C00FF00BF00FF7FDF00A5007C00A55291007F005F007F3F6F004C0039004C26420026001C0026132100FF00FF00FF7FFF00A5
310
00A500A552A5007F007F007F3F7F004C004C004C264C002600260026132600BF00FF00DF7FFF007C00A5009152A5005F007F006F3F7F0039004C0042264C001C002600211326007F00FF00BF7FFF005200A5007C52A5003F007F005F3F7F0026004C0039264C00130026001C1326003F00FF009F7FFF002900A5006752A500
310
1F007F004F3F7F0013004C002F264C000900260017132600000000002D2D2D005B5B5B0089898900B7B7B700B3B3B30000000000000000000000000000000000000000000000000000000000000000000000000000000000000000000000000000000000000000000000000000000000000000000000000000000000000000
310
00000000000000000000000000000000000000000000000000000000000000000000000000000000000000000000000000000000000000000000000000000000000000000000000000000000000000000000000000000000000000000000000000000000000000000000000000000000000000000000000000000000000000
310
00000000000000000000000000000000000000000000000000000000000000000000000000000000000000000000000000000000000000000000000000000000000000000000000000000000000000000000000000000000000000000000000000000000000000000000000000000000000000000000000000000000000000
310
00000000000000000000000000000000000000000000000000000000000000000000000000000000000000000000000000000000000000000000000000000000000000000000000000000000000000000000000000000000000000000000000000000000000000000000000000000000000000000000000000000000000000
310
00000000000000000000000000000000000000000000000000000000000000000000000000000000000000000000000000000000000000000000000000000000000000000000000000000000000000000000000000000000000000000000000000000000000000000000000000000000000000000000000000000000000000
310
00000000000000000000000000000000000000000000000000000000000000000000000000000000000000000000000000000000000000000000000000000000000000000000000000000000000000000000000000000000000000000000000000000000000000000000000000000000000000000000000000000000000000
310
00000000000000000000000000000000000000000000000000000000000000000000000000000000000000000000000000000000000000000000000000000000000000000000000000000000000000000000000000000000000000000000000000000000000000000000000000000000000000000000000000000000000000
310
00000000000000000000000000000000000000000000000000000000000000000000000000000000000000000000000000000000000000000000000000000000000000000000000000000000000000000000000000000000000000000000000000000000000000000000000000000000000000000000000000000000000000
310
00000000000000000000000000000000000000000000000000000000000000000000000000000000000000000000000000000000000000000000000000000000000000000000000000000000000000000000000000000000000000000000000000000000000000000000000000000000000000000000000000000000000000
310
00000000000000000000000000000000000000000000000000000000000000000000000000000000000000000000000000000000000000000000000000000000000000000000000000000000000000000000000000000000000000000000000000000000000000000000000000000000000000000000000000000000000000
310
00000000000000000000000000000000000000000000000000000000000000000000000000000000000000000000000000000000000000000000000000000000000000000000000000000000000000000000000000000000000000000000000000000000000000000000000000000000000000000000000000000000000000
310
00000000000000000000000000000000000000000000000000000000000000000000000000000000000000000000000000000000000000000000000000000000000000000000000000000000000000000000000000000000000000000000000000000000000000000000000000000000000000000000000000000000000000
310
00000000000000000000000000000000000000000000000000000000000000000000000000000000000000000000000000000000000000000000000000000000000000000000000000000000000000000000000000000000000000000000000000000000000000000000000000000000000000000000000000000000000000
310
00000000000000000000000000000000000000000000000000000000000000000000000000000000000000000000000000000000000000000000000000000000000000000000000000000000000000000000000000000000000000000000000000000000000000000000000000000000000000000000000000000000000000
310
00000000000000000000000000000000000000000000000000000000000000000000000000000000000000000000000000000000000000000000000000000000000000000000000000000000000000000000000000000000000000000000000000000000000000000000000000000000000000000000000000000000000000
310
00000000000000000000000000000000000000000000000000000000000000000000000000000000000000000000000000000000000000000000000000000000000000000000000000000000000000000000000000000000000000000000000000000000000000000000000000000000000000000000000000000000000000
310
00000000000000000000000000000000000000000000000000000000000000000000000000000000000000000000000000000000000000000000000000000000000000000000000000000000000000000000000000000000000000000000000000000000000000000000000000000000000000000000000000000000000000
310
00000000000000000000000000000000000000000000000000000000000000000000000000000000000000000000000000000000000000000000000000000000000000000000000000000000000000000000000000000000000000000000000000000000000000000000000000000000000000000000000000000000000000
310
00000000000000000000000000000000000000000000000000000000000000000000000000000000000000000000000000000000000000000000000000000000000000000000000000000000000000000000000000000000000000000000000000000000000000000000000000000000000000000000000000000000000000
310
00000000000000000000000000000000000000000000000000000000000000000000000000000000000000000000000000000000000000000000000000000000000000000000000000000000000000000000000000000000000000000000000000000000000000000000000000000000070707070000000000000000000000
310
00000000000000000000000000000000000000000000000000000000000000000000000000000000000000000000000000000000000000000000000000000000000000000000000000000000000000000000000000000000000000000000000000000000000000000000000000000000000000000000000000070707070707
310
07070707070707070707070707070707070000000000000000000000000000000000000000070000000007000000000000000000000000000000000000000000000000000000000000000000000000000000000000000000000000000000000000000000000000000000000000000000000000000000000000000000000000
310
00000000000000000000000000000000000000000000000000000000000000000000000000000000000000000000000700000000000000000000000000000000000000000007000000000000000000000000000000000000000700070707070707000000000000000000000000000000000000000000000000000000000000
310
00000000000000000000000000000000070707070700000000000000000000000000000000000000000000000000000000000000000000000000000000000000000000000000000000000000000000000000000000000000000000000000000000000000070000000000000000000000000000000000000000000700000000
310
00000000000000000000000000000700070000000000070700000000000000000000000000000000000000000000000707070707070707000000000000000000000000000007000000000707000000000000000000000000000000000000000000000000000000000000000000000000000000000000000000000000000000
310
00000000000000000000000000000000000000000000000000000700000000000000000000000000000000000000000007000000000000000000000000000000000000070700000000000007000700000000000000000000000000000000000000000007000000000000000007070000000000000000000000000700000000
310
00000700000000000000000000000000000007070707000000000000000000000000000000000000000000000000000000000000000000000000000000000000000000000000000000000000000000070000000000000000000000000000000000000000000700000000000000000000000000000000000007070000000000
310
00000007000000000000000000000000000000000000000000070000000000000707070007000000000000000000000007000007070700070000000000000000000000000000070007000007000000000000000000000000000000000000000000000000000000000000000000000000000000000000000000000000000000
310
00000000000700000000000000000000000000000000000000000007000000000000000000000000000000000000070700000000000007000700000000000000000000000000000000000000000700000000000000070000070007000000000000000000000700070700070007000000000000000000000000000700070007
310
07000700000000000000000000000000000000000000000000000000000000000000000000000000000000000000000000000000000000000000070000000000000000000000000000000000000000000700000000000000000000000000000000000007070000000000000700070000000000000000000000000000000000
310
00000700000000000000070000000700070000000000000000000007000007070700070000000000000000000000000707070000000007070700000000000000000000000000000000000000000000000000000000000000000000000000000000000000000000000000000000000007000000000000000000000000000000
310
00000000000007000000000000000000000000000000000000070007000000000007000700000000000000000000000000000000000007000000000000000007070000070007000000000000000000000700000000000000070000000000000000000007000700000000000007070000000000000000000000000000000000
310
00000000000000000000000000000000000000000000000000000000000000000000000000070000000000000000000000000000000000000000000700000000000000000000000000000000000007000007070707070000070000000000000000000000000000000000000700000000000000000007070700000700000000
310
00000000000007000000000000000700000000000000000000070007000000000000000007000000000000000000000000000000000000000000000000000000000000000000000000000000000000000000000000000000000007000000000000000000000000000000000000000000070000000000000000000000000000
310
00000000070000000000000000000700000000000000000000000000000000000700000000000000000000000000000007000000000000000000000700000000000000070000000000000000000007000700000000000007000700000000000000000000000000000000000000000000000000000000000000000000000000
310
00000000000000000000000000000000070000000000000000000000000000000000000000000700000000000000000000000000000000000007000000000000000000070000000000000000000000000000000007000000000000000000000000000000000700000000000000000000070000000000000007000000000000
310
00000000070007000000000000070007000000000000000000000000000000000000000000000000000000000000000000000000000000000000000000000000000000000007000000000000070707070707070707000000000000070000000000000000000000000000000000000700000000000000000007000000000000
310
00000000000000000007000000000000000000000000000000000007000000000000000000000700000000000000000700000000000000000007000007000000000700000700000000000000000000000000000000000000000000000000000000000000000000000000000000000000000000000000000000000700000000
310
07070000000000000000000707000000000700000000000000000000000000000000000007000000000000000000070000000000000000000000000000000700000000000000000000000000000000000700000007070707070707070707070707070707070707070707070700000700000007070707000000070000000000
310
00000000000000000000000000000000000000000000000000000000000000000000000000000000000000000000000007000000070000000000000000000000000007000000070000000000000000000000000000000000000700000000000000000007070707070707070707070707070707070707070707070707070707
310
07070707070707000000070707000707000700000000000000000000000000000007070707070707070707070707070707070707070707070707070707070707070707070707070707070707070707070707070707070707070707070707070707070707070700000700000000000000000000000000000007000007070707
310
07070707070707070707070707070707070707070707070707070700000000000000000000000007000000000000000000000007000000000000000000000007070700070700070000000000000000000000000000000700000000000000000000000000000000000000000000000000000000000000000000000000000000
310
00000000000000000000000000000000000000000000000000000000000700000000000000000000000000000000000700000000000000000000000000000000000000000000000000000000000000070000000000000000000000000700000000000000000000000700000000000000000000000707070007070007000000
310
00000000000000000000000007000000000000000000000000000000000000000000000000000000000000000000000000000000000000000000000000000000000000000000000000000000000000000007070000000000000000000000000000000000070700000000000000000000000000000000000000000000000000
310
00000000000700000000000000000000000007000000000000000000000007000000000000000000000007070700070700070000000000000000000000000000000700000000000000000000000000000000000000000000000000000000000000000000000000000000000000000000000000000000000000000000000000
310
00000000000000070000000000000000000000000000000000000007000000000000000000000000000000000000000000000000000000000000070000000000000000000000000700000000000000000000000700000000000000000000000707070007070007000000000000000000000000000000070000000000000000
310
00000000000000000000000000000000000000000000000000000000000000000000000000000000000000000000000000000000000000000000000700000000000000000000000000000000000000000707000000000000000000000000000000000000000000000000000000000007000000000000000000000000070707
310
07070707070707070707070707070707070700000007070700070700070000000000000000000000000000000700000000000000000000000000000000000000000000000000000000000000000000000000000000000000000000000000000000000000000000000000000000000000070000000000000000000000000000
310
00000000000000070000000000000000000000000000000000000000000000000000000000070000000000000000000000000707000000000000000700000000000000000007070000000707070007070007000000000000000000000000000000070000000000000000000000000000000000000000000000000000000000
310
00000000000000000000000000000000000000000000000000000000000000000000000000000700000000000000000000000000000000000000000007000000000000000000000000000000000000000000000000000000000007000000000000000000000000070700000000000000070000000000000000000707000000
310
07070700070700070000000000000000000000000000000700000000000000000000000000000000000000000000000000000000000000000000000000000000000000000000000000000000000000000000000000000000000007070000000000000000000000000000000000000000000707000000000000000000000000
310
00000000000000000000000000000000070000000000000000000000000707000000000000000700000000000000000007070000000707070007070007070707070707070700000000000000070000000000000000000000000000000000000000000000000000000000000000000000000000000000000000000000000000
310
00000000000000000000000000000000070700000000000000000000000000000000000000000000000000000000000000000000000000000000000000000000000000000007000000000000000000000000070707070707070707070707070707070707070707000000070707000707000700000000000007000000000000
310
00000700000000000000000000000000000000000000000000000000000000000000000000000000000000000000000000000000000000000000000000000000000000000007070000000000000000000000000000000000000000000707000000000000000000000000000000000000000000000000000000000700000000
310
00000000000000000700000000000000000000000700000000000000000000000707070007070007000000000000070000000000000000070000000000000000000000000000000000000000000000000000000000000000000000000000000000000000000000000000000000000000000000000000000000000007000000
310
00000000000000000000000000000000000007000000000000000000000000000000000000000000000000000000000007000000000000000000000000070000000000000000000000070000000000000000000000070707000707000700000000000007000000000000000007000000000000000000000000000000000000
310
00000000000000000000000000000000000000000000000000000000000000000000000000000000000000000000000000070000000000000000000000000000000000000000000700000000000000000000000000000000000000000000000000000000000700000000000000000000000007000000000000000000000007
310
00000000000000000000000707070007070007000000000000070000000000000000070000000000000000000000000000000000000000000000000000000000000000000000000000000000000000000000000000000000000000000000000000000000000007000000000000000000000000000000000000000000070000
310
00000000000000000000000000000000000000000000000000000007000000000000000000000000070000000000000000000000070000000000000000000000070707000707000707070707070707070000000000000007000000000000000000000000000000000000000000000000000000000000000000000000000000
310
00000000000000000000000000000000000000000000000000000000000700000000000000000000000000000000000000070000000000000000000000000000000000000000000000000000000000000700000000000000000000000007000000000000000000000007000000000000000000000007070700070700070007
310
00000700000000000000000000070000000000000000000000000000000000000000000000000000000000000000000000000000000000000000000000000000000000000000000000000000000000000000070000000000000000000000000000000000000007000000000000000000000000000000000000000000000000
310
00000000000007000000000000000000000000070000000000000000000000070000000000000000000000070707000707000700070000070000000000000000000007000000000000000000000000000000000000000000000000000000000000000000000000000000000000000000000000000000000000000000000000
310
00000000000000000007000000000000000000000000000000000007000000000000000000000000000000000000000000000000000000000000000700000000000000000000000007000000000000000000000007000000000000000000000007070700070700070007070707000000000000000000000700000000000000
310
00000000000000000000000000000000000000000000000000000000000000000000000000000000000000000000000000000000000000000000000000000007000000000000000000000000000000070000000000000000000000000000000000000000000000000000000000000000070000000000000000000000000700
310
00000000000000000000070000000000000000000000070707070707070700000000000000000000000000000007070707070707070707070707070707070707070707070707070707070707070707070707070707070707070707070707070707070707070707070707070707070707070700000007000000000000000000
310
00000000070000000707070707070707070707070707070707070707070707070707070707070707070707070707070707070707000000000000000000000007070707070707070700000000070700070700070707070707070707070707070707070700000700000707000007070000070000000000000000000000000000
310
00000000000000000000000000000000000000000000000000000000000000000000000000000007000000000707000000000000000000070700000000070000000000000000000000000000000000000700000000000000000007000000000000000000000000000707070707070707070707070700000000000000070000
310
00000000000000000700000000000000000700000000000000000007000700000000000007000700000000000000000000000000000000000000000000000000000000000000000000000000000000000000000000000000000000000700000000000007070700000007070700000000000007000000000000000000000000
310
00000000000007000000000000000000070000000000000000000000000000000700000000000000000000000000000000000700000000000000000000070000000000000007000000000000000000000700070000000000000700070000000000000000000000000000000000000000000000000000000000000000000000
310
00000000000000000000000000000000000007000000000000000000070707000000000000000000070000000000000000000000000000000000000700000000000000000007000000000000000000000000000000000700000000000000000000000000000000070000000000000000000007000000000000000700000000
310
00000000000007000700000000000000000700000000000000000000000000000000000000000000000000000000000000000000000000000000000000000000000000000000000700000000000000000000000000000000000000000007000000000000000000000000000000000000070000000000000000000700000000
310
00000000000000000000000007000000000000000000000000000000000700000000000000000000070000000000000007000000000000000000000700070000000000000707000000000000000000000000000000000000000000000000000000000000000000000000000000000000000000000000000000000000070000
310
00000000000000000000000000000000000000070000000000000000000000000000000000000700000007070700000007000000000000000000000000000000000007000000000000000000000007000000070000000000000000000007000007070700000700000000000000000000070007000000000000070700000000
310
00000000000000000000000000000000000000000000000000000000000000000000000000000000000000000000000000000700000000000000000000000000000000000000000007000000000000000000000000000000000000070007070000000707000700000000000000000000000000000000000007000000000000
310
00000007070707000700000000000000000000070007070007000700000000000000000000000007000707000007070007000000000000000000000000000000000000000000000000000000000000000000000000000000000000000000000000000000000000070000000000000000000000000000000000000000000700
310
00000000000000000000000000000000000707000000000000070007000000000000000000000000000000000000000700000000000000070000000700070000000000000000000007000007000700070000000000000000000000000007000707070000070000000000000000000000000000000000000000000000000000
310
00000000000000000000000000000000000000000000000000000000000700000000000000000000000000000000000000000007000000000000000000000000000000000000070700000000000007000700000000000000000000000000000000000000000700000000000007070000070007000000000000000000000700
310
00070700000700000000000000000000000000000707070707070000000000000000000000000000000000000000000000000000000000000000000000000000000000000000000000000000000000000000070000000000000000000000000000000000000000000700000000000000000000000000000000000007070000
310
00000000000007000000000000000000000000000000000000000007000000000000000707070700070000000000000000000007000000000000070000000000000000000000000000000000000000000000000000000000000000000000000000000000000000000000000000000000000000000000000000000000000000
310
00000000000000000700000000000000000000000000000000000000000007000000000000000000000000000000000000070700000000000007000700000000000000000000000000000000000000000007000000000000000000000700000000000000000000000707070707070700000000000000000000000000000000
310
00000000000000000000000000000000000000000000000000000000000000000000000000000000000000000000000000000000000000000000000000070000000000000000000000000000000000000000000700000000000000000000000000000000000007070000000000000707000000000000000000000000000000
310
00000000000000000707070707070707070700000000000000000000000000000000000000000000000000000000000000000000000000000000000000000000000000000000000000000000000000000000000000000000000000000000000000000000000000000000000000000000000007000000000000000000000000
310
00000000000000000007000000000000000000000000000000000000070007070000000707070000000000000000000000000000000000000000000000000000000000000000000000000000000000000000000000000000000000000000000000000000000000000000000000000000000000000000000000000000000000
310
00000000000000000000000000000000000000000000000000000000000000000000000000000000070000000000000000000000000000000000000000000700000000000000000000000000000000000000070000070707000700000000000000000000000000000000000000000000000000000000000000000000000000
310
00000000000000000000000000000000000000000000000000000000000000000000000000000000000000000000000000000000000000000000000000000000000000000000000000000000000000000000000000000000000000000007070707070707070707070707070707070707070707070000000000000000000000
310
00000000000000000007070707070700000000000000000000000000000000000000000000000000000000000000000000000000000000000000000000000000000000000000000000000000000000000000000000000000000000000000000000000000000000000000000000000000000000000000000000000000000000
310
00000000000000000000000000000000000000000007000000000000000000000000000000000007000000000000000000000000000000000000000000000000000000000000000000000000000000000000000000000000000000000000000000000000000000000000000000000000000000000000000000000000000000
310
00000000000000000000000000000000000000000000000000000000000000000000000000000000000000000000000000000000000000000000000000000000000000000000000000000700000000000000000000000000000000000700000000000000000000000000000000000000000000000000000000000000000000
310
00000000000000000000000000000000000000000000000000000000000000000000000000000000000000000000000000000000000000000000000000000000000000000000000000000000000000000000000000000000000000000000000000000000000000000000000000000000000000000000000000000000000000
310
07070707070707070707070707070707070707000000000000000000000000000000000000000000000000000000000000000000000000000000000000000000000000000000000000000000000000000000000000000000000000000000000000000000000000000000000000000000000000000000000000000000000000
310
00000000000000000000000000000000000000000000000000000000000000000000000000000000000000000000000000000000000000000707000000000000000000070000000000000000000000000000000000000000000000000000000000000000000000000000000000000000000000000000000000000000000000
310
00000000000000000000000000000000000000000000000000000000000000000000000000000000000000000000000000000000000000000000000000000000000000000000000000000000000000000000000000000000000000000000000000000000000000000000000000070700000000000000000007000000000000
310
00000000000000000000000000000000000000000000000000000000000000000000000000000000000000000000000000000000000000000000000000000000000000000000000000000000000000000000000000000000000000000000000000000000000000000000000000000000000000000000000000000000000000
310
00000000000000000000000000000000000000000000000000000000000000000000000707000000000000000000070000000000000000000000000000000000000000000000000000000000000000000000000000000000000000000000000000000000000000000000000000000000000000000000000000000000000000
310
00000000000000000000000000000000000000000000000000000000000000000000000000000000000000000000000000000000000000000000000000000000000000000000000000000000000000000000000000000000070700000000000000000007000000000000000000000000000000000000000000000000000000
310
00000000000000000000000000000000000000000000000000000000000000000000000000000000000000000000000000000000000000000000000000000000000000000000000000000000000000000000000000000000000000000000000000000000000000000000000000000000000000000000000000000000000000
310
00000000000000000000000000000707000000000000000000070000000000000000000000000000000000000000000000000000000000000000000000000000000000000000000000000000000000000000000000000000000000000000000000000000000000000000000000000000000000000000000000000000000000
310
00000000000000000000000000000000000000000000000000000000000000000000000000000000000000000000000000000000000000000000000000000000000000070700000000000000000007000000000000000000000000000000000000000000000000000000000000000000000000000000000000000000000000
310
00000000000000000000000000000000000000000000000000000000000000000000000000000000000000000000000000000000000000000000000000000000000000000000000000000000000000000000000000000000000000000000000000000000000000000000000000000000000000000000000007070000000000
310
00000000070000000000000000000000000000000000000000000000000000000000000000000000000000000000000000000000000000000000000000000000000000000000000000000000000000000000000000000000000000000000000000000000000000000000000000000000000000000000000000000000000000
310
00000000000000000000000000000000000000000000000000000000000000000000000000000000000000000000070707070707070707070707000000000000000000000000000000000000000000000000000000000000000000000000000000000000000000000000000000000000000000000000000000000000000000
310
00000000000000000000000000000000000000000000000000000000000000000000000000000000000000000000000000000000000000000000000000000000000000000000000000000000000000000000000000000000000000000000000000000000000000000000000000000000000000000000000000000000000000
310
00000000000000000000000000000000000000000000000000000000000000000000000000000000000000000000000000000000000000000000000000000000000000000000000000000000000000000000000000000000000000000000000000000000000000000000000000000000000000000000000000000000000000
310
00000000000000000000000000000000000000000000000000000000000000000000000000000000000000000000000000000000000000000000000000000000000000000000000000000000000000000000000000000000000000000000000000000000000000000000000000000000000000000000000000000000000000
310
00000000000000000000000000000000000000000000000000000000000000000000000000000000000000000000000000000000000000000000000000000000000000000000000000000000000000000000000000000000000000000000000000000000000000000000000000000000000000000000000000000000000000
310
00000000000000000000000000000000000000000000000000000000000000000000000000000000000000000000000000000000000000000000000000000000000000000000000000000000000000000000000000000000000000000000000000000000000000000000000000000000000000000000000000000000000000
310
00000000000000000000000000000000000000000000000000000000000000000000000000000000000000000000000000000000000000000000000000000000000000000000000000000000000000000000000000000000000000000000000000000000000000000000000000000000000000000000000000000000000000
310
00000000000000000000000000000000000000000000000000000000000000000000000000000000000000000000000000000000000000000000000000000000000000000000000000000000000000000000000000000000000000000000000000000000000000000000000000000000000000000000000000000000000000
310
00000000000000000000000000000000000000000000000000000000000000000000000000000000000000000000000000000000000000000000000000000000000000000000000000000000000000000000000000000000000000000000000000000000000000000000000000000000000000000000000000000000000000
310
00000000000000000000000000000000000000000000000000000000000000000000000000000000000000000000000000000000000000000000000000000000000000000000000000000000000000000000000000000000000000000000000000000000000000000000000000000000000000000000000000000000000000
310
00000000000000000000000000000000000000000000000000000000000000000000000000000000000000000000000000000000000000000000000000000000000000000000000000000000000000000000000000000000000000000000000000000000000000000000000000000000000000000000000000000000000000
310
00000000000000000000000000000000000000000000000000000000000000000000000000000000000000000000000000000000000000000000000000000000000000000000000000000000000000000000000000000000000000000000000000000000000000000000000000000000000000000000000000000000000000
310
00000000000000000000000000000000000000000000000000000000000000000000000000000000000000000000000000000000000000000000000000000000000000000000000000000000000000000000000000000000000000000000000000000000000000000000000000000000000000000000000000000000000000
310
00000000000000000000000000000000000000000000000000000000000000000000000000000000000000000000000000000000000000000000000000000000000000000000000000000000000000000000000000000000000000000000000000000000000000000000000000000000000000000000000000000000000000
310
00000000000000000000000000000000000000000000000000000000000000000000000000000000000000000000000000000000000000000000000000000000000000000000000000000000000000000000000000000000000000000000000000000000000000000000000000000000000000000000000000000000000000
310
00000000000000000000000000000000000000000000000000000000000000000000000000000000000000000000000000000000000000000000000000000000000000000000000000000000000000000000000000000000000000000000000000000000000000000000000000000000000000000000000000000000000000
310
00000000000000000000000000000000000000000000000000000000000000000000000000000000000000000000000000000000000000000000000000000000000000000000000000000000000000000000000000000000000000000000000000000000000000000000000000000000000000000000000000000000000000
310
00000000000000000000000000000000000000000000000000000000000000000000000000000000000000000000000000000000000000000000000000000000000000000000000000000000000000000000000000000000000000000000000000000000000000000000000000000000000000000000000000000000000000
310
00000000000000000000000000000000000000000000000000000000000000000000000000000000000000000000000000000000000000000000000000000000000000000000000000000000000000000000000000000000000000000000000000000000000000000000000000000000000000000000000000000000000000
310
00000000000000000000000000000000000000000000000000000000000000000000000000000000000000000000000000000000000000000000000000000000000000000000000000000000000000000000000000000000000000000000000000000000000000000000000000000000000000000000000000000000000000
310
000000000000000000000000000000000000000000000000000000000000000000000000000000000000000000000000000000000000000000000000000000000000000000000000000000000000000000000000000000000000000000000000000000000000000000000000
  0
ENDSEC
  0
EOF
