  0
SECTION
  2
HEADER
  9
$ACADVER
  1
AC1015
  9
$ACADMAINTVER
 70
    13
  9
$DWGCODEPAGE
  3
ANSI_1252
  9
$INSBASE
 10
0.0
 20
0.0
 30
0.0
  9
$EXTMIN
 10
0.0
 20
0.0
 30
0.0
  9
$EXTMAX
 10
251.0
 20
120.0
 30
0.0
  9
$LIMMIN
 10
0.0
 20
0.0
  9
$LIMMAX
 10
12.0
 20
9.0
  9
$ORTHOMODE
 70
     0
  9
$REGENMODE
 70
     1
  9
$FILLMODE
 70
     1
  9
$QTEXTMODE
 70
     0
  9
$MIRRTEXT
 70
     1
  9
$LTSCALE
 40
1.0
  9
$ATTMODE
 70
     1
  9
$TEXTSIZE
 40
0.2
  9
$TRACEWID
 40
0.05
  9
$TEXTSTYLE
  7
Standard
  9
$CLAYER
  8
0
  9
$CELTYPE
  6
Continuous
  9
$CECOLOR
 62
   256
  9
$CELTSCALE
 40
1.0
  9
$DISPSILH
 70
     0
  9
$DIMSCALE
 40
1.0
  9
$DIMASZ
 40
0.18
  9
$DIMEXO
 40
0.0625
  9
$DIMDLI
 40
0.38
  9
$DIMRND
 40
0.0
  9
$DIMDLE
 40
0.0
  9
$DIMEXE
 40
0.18
  9
$DIMTP
 40
0.0
  9
$DIMTM
 40
0.0
  9
$DIMTXT
 40
0.18
  9
$DIMCEN
 40
0.09
  9
$DIMTSZ
 40
0.0
  9
$DIMTOL
 70
     0
  9
$DIMLIM
 70
     0
  9
$DIMTIH
 70
     1
  9
$DIMTOH
 70
     1
  9
$DIMSE1
 70
     0
  9
$DIMSE2
 70
     0
  9
$DIMTAD
 70
     0
  9
$DIMZIN
 70
     0
  9
$DIMBLK
  1

  9
$DIMASO
 70
     1
  9
$DIMSHO
 70
     1
  9
$DIMPOST
  1

  9
$DIMAPOST
  1

  9
$DIMALT
 70
     0
  9
$DIMALTD
 70
     2
  9
$DIMALTF
 40
25.4
  9
$DIMLFAC
 40
1.0
  9
$DIMTOFL
 70
     0
  9
$DIMTVP
 40
0.0
  9
$DIMTIX
 70
     0
  9
$DIMSOXD
 70
     0
  9
$DIMSAH
 70
     0
  9
$DIMBLK1
  1

  9
$DIMBLK2
  1

  9
$DIMSTYLE
  2
Standard
  9
$DIMCLRD
 70
     0
  9
$DIMCLRE
 70
     0
  9
$DIMCLRT
 70
     0
  9
$DIMTFAC
 40
1.0
  9
$DIMGAP
 40
0.09
  9
$DIMJUST
 70
     0
  9
$DIMSD1
 70
     0
  9
$DIMSD2
 70
     0
  9
$DIMTOLJ
 70
     1
  9
$DIMTZIN
 70
     0
  9
$DIMALTZ
 70
     0
  9
$DIMALTTZ
 70
     0
  9
$DIMUPT
 70
     0
  9
$DIMDEC
 70
     4
  9
$DIMTDEC
 70
     4
  9
$DIMALTU
 70
     2
  9
$DIMALTTD
 70
     2
  9
$DIMTXSTY
  7
Standard
  9
$DIMAUNIT
 70
     0
  9
$DIMADEC
 70
     0
  9
$DIMALTRND
 40
0.0
  9
$DIMAZIN
 70
     0
  9
$DIMDSEP
 70
    46
  9
$DIMATFIT
 70
     3
  9
$DIMFRAC
 70
     0
  9
$DIMLDRBLK
  1

  9
$DIMLUNIT
 70
     2
  9
$DIMLWD
 70
    -2
  9
$DIMLWE
 70
    -2
  9
$DIMTMOVE
 70
     0
  9
$LUNITS
 70
     2
  9
$LUPREC
 70
     4
  9
$SKETCHINC
 40
0.1
  9
$FILLETRAD
 40
0.0
  9
$AUNITS
 70
     0
  9
$AUPREC
 70
     0
  9
$MENU
  1
.
  9
$ELEVATION
 40
0.0
  9
$PELEVATION
 40
0.0
  9
$THICKNESS
 40
0.0
  9
$LIMCHECK
 70
     0
  9
$CHAMFERA
 40
0.0
  9
$CHAMFERB
 40
0.0
  9
$CHAMFERC
 40
0.0
  9
$CHAMFERD
 40
0.0
  9
$SKPOLY
 70
     0
  9
$TDCREATE
 40
2455508.889613344
  9
$TDUCREATE
 40
2455508.847946678
  9
$TDUPDATE
 40
2455508.891279467
  9
$TDUUPDATE
 40
2455508.849612801
  9
$TDINDWG
 40
0.0016661227
  9
$TDUSRTIMER
 40
0.0016661227
  9
$USRTIMER
 70
     1
  9
$ANGBASE
 50
0.0
  9
$ANGDIR
 70
     0
  9
$PDMODE
 70
     0
  9
$PDSIZE
 40
0.0
  9
$PLINEWID
 40
0.0
  9
$SPLFRAME
 70
     0
  9
$SPLINETYPE
 70
     6
  9
$SPLINESEGS
 70
     8
  9
$HANDSEED
  5
138
  9
$SURFTAB1
 70
     6
  9
$SURFTAB2
 70
     6
  9
$SURFTYPE
 70
     6
  9
$SURFU
 70
     6
  9
$SURFV
 70
     6
  9
$UCSBASE
  2

  9
$UCSNAME
  2

  9
$UCSORG
 10
0.0
 20
0.0
 30
0.0
  9
$UCSXDIR
 10
1.0
 20
0.0
 30
0.0
  9
$UCSYDIR
 10
0.0
 20
1.0
 30
0.0
  9
$UCSORTHOREF
  2

  9
$UCSORTHOVIEW
 70
     1
  9
$UCSORGTOP
 10
0.0
 20
0.0
 30
0.0
  9
$UCSORGBOTTOM
 10
0.0
 20
0.0
 30
0.0
  9
$UCSORGLEFT
 10
0.0
 20
0.0
 30
0.0
  9
$UCSORGRIGHT
 10
0.0
 20
0.0
 30
0.0
  9
$UCSORGFRONT
 10
0.0
 20
0.0
 30
0.0
  9
$UCSORGBACK
 10
0.0
 20
0.0
 30
0.0
  9
$PUCSBASE
  2

  9
$PUCSNAME
  2

  9
$PUCSORG
 10
0.0
 20
0.0
 30
0.0
  9
$PUCSXDIR
 10
1.0
 20
0.0
 30
0.0
  9
$PUCSYDIR
 10
0.0
 20
1.0
 30
0.0
  9
$PUCSORTHOREF
  2

  9
$PUCSORTHOVIEW
 70
     0
  9
$PUCSORGTOP
 10
0.0
 20
0.0
 30
0.0
  9
$PUCSORGBOTTOM
 10
0.0
 20
0.0
 30
0.0
  9
$PUCSORGLEFT
 10
0.0
 20
0.0
 30
0.0
  9
$PUCSORGRIGHT
 10
0.0
 20
0.0
 30
0.0
  9
$PUCSORGFRONT
 10
0.0
 20
0.0
 30
0.0
  9
$PUCSORGBACK
 10
0.0
 20
0.0
 30
0.0
  9
$USERI1
 70
     0
  9
$USERI2
 70
     0
  9
$USERI3
 70
     0
  9
$USERI4
 70
     0
  9
$USERI5
 70
     0
  9
$USERR1
 40
0.0
  9
$USERR2
 40
0.0
  9
$USERR3
 40
0.0
  9
$USERR4
 40
0.0
  9
$USERR5
 40
0.0
  9
$WORLDVIEW
 70
     1
  9
$SHADEDGE
 70
     3
  9
$SHADEDIF
 70
    70
  9
$TILEMODE
 70
     1
  9
$MAXACTVP
 70
    64
  9
$PINSBASE
 10
0.0
 20
0.0
 30
0.0
  9
$PLIMCHECK
 70
     0
  9
$PEXTMIN
 10
1.000000000000000E+20
 20
1.000000000000000E+20
 30
1.000000000000000E+20
  9
$PEXTMAX
 10
-1.000000000000000E+20
 20
-1.000000000000000E+20
 30
-1.000000000000000E+20
  9
$PLIMMIN
 10
0.0
 20
0.0
  9
$PLIMMAX
 10
12.0
 20
9.0
  9
$UNITMODE
 70
     0
  9
$VISRETAIN
 70
     1
  9
$PLINEGEN
 70
     0
  9
$PSLTSCALE
 70
     1
  9
$TREEDEPTH
 70
  3020
  9
$CMLSTYLE
  2
Standard
  9
$CMLJUST
 70
     0
  9
$CMLSCALE
 40
1.0
  9
$PROXYGRAPHICS
 70
     1
  9
$MEASUREMENT
 70
     0
  9
$CELWEIGHT
370
    -1
  9
$ENDCAPS
280
     0
  9
$JOINSTYLE
280
     0
  9
$LWDISPLAY
290
     0
  9
$INSUNITS
 70
     0
  9
$HYPERLINKBASE
  1

  9
$STYLESHEET
  1

  9
$XEDIT
290
     1
  9
$CEPSNTYPE
380
     0
  9
$PSTYLEMODE
290
     1
  9
$FINGERPRINTGUID
  2
{EA85C73B-FEC4-4ABE-97CB-2F50B1E8177C}
  9
$VERSIONGUID
  2
{1ACC9964-6313-465A-A792-E0B6BB28884F}
  9
$EXTNAMES
290
     1
  9
$PSVPSCALE
 40
0.0
  9
$OLESTARTUP
290
     0
  0
ENDSEC
  0
SECTION
  2
CLASSES
  0
CLASS
  1
ACDBDICTIONARYWDFLT
  2
AcDbDictionaryWithDefault
  3
AutoCAD 2000
 90
        0
280
     0
281
     0
  0
CLASS
  1
ACDBPLACEHOLDER
  2
AcDbPlaceHolder
  3
AutoCAD 2000
 90
        0
280
     0
281
     0
  0
CLASS
  1
LAYOUT
  2
AcDbLayout
  3
AutoCAD 2000
 90
        0
280
     0
281
     0
  0
CLASS
  1
DICTIONARYVAR
  2
AcDbDictionaryVar
  3
AutoCAD 2000
 90
        0
280
     0
281
     0
  0
ENDSEC
  0
SECTION
  2
TABLES
  0
TABLE
  2
VPORT
  5
8
330
0
100
AcDbSymbolTable
 70
     3
  0
VPORT
  5
137
330
8
100
AcDbSymbolTableRecord
100
AcDbViewportTableRecord
  2
*Active
 70
     0
 10
0.0
 20
0.0
 11
1.0
 21
1.0
 12
125.5
 22
60.0
 13
0.0
 23
0.0
 14
1.0
 24
1.0
 15
0.0
 25
0.0
 16
0.0
 26
0.0
 36
1.0
 17
0.0
 27
0.0
 37
0.0
 40
121.4545241300957
 41
2.073363431151241
 42
50.0
 43
0.0
 44
0.0
 50
0.0
 51
0.0
 71
     0
 72
   100
 73
     1
 74
     3
 75
     0
 76
     0
 77
     0
 78
     0
281
     0
 65
     1
110
0.0
120
0.0
130
0.0
111
1.0
121
0.0
131
0.0
112
0.0
122
1.0
132
0.0
 79
     1
146
0.0
  0
ENDTAB
  0
TABLE
  2
LTYPE
  5
5
330
0
100
AcDbSymbolTable
 70
     1
  0
LTYPE
  5
13
330
5
100
AcDbSymbolTableRecord
100
AcDbLinetypeTableRecord
  2
ByBlock
 70
     0
  3

 72
    65
 73
     0
 40
0.0
  0
LTYPE
  5
14
330
5
100
AcDbSymbolTableRecord
100
AcDbLinetypeTableRecord
  2
ByLayer
 70
     0
  3

 72
    65
 73
     0
 40
0.0
  0
LTYPE
  5
15
330
5
100
AcDbSymbolTableRecord
100
AcDbLinetypeTableRecord
  2
Continuous
 70
     0
  3
Solid line
 72
    65
 73
     0
 40
0.0
  0
ENDTAB
  0
TABLE
  2
LAYER
  5
2
330
0
100
AcDbSymbolTable
 70
     1
  0
LAYER
  5
10
330
2
100
AcDbSymbolTableRecord
100
AcDbLayerTableRecord
  2
0
 70
     0
 62
     7
  6
Continuous
370
    -3
390
F
  0
ENDTAB
  0
TABLE
  2
STYLE
  5
3
330
0
100
AcDbSymbolTable
 70
     1
  0
STYLE
  5
11
330
3
100
AcDbSymbolTableRecord
100
AcDbTextStyleTableRecord
  2
Standard
 70
     0
 40
0.0
 41
1.0
 50
0.0
 71
     0
 42
0.2
  3
txt
  4

  0
ENDTAB
  0
TABLE
  2
VIEW
  5
6
330
0
100
AcDbSymbolTable
 70
     0
  0
ENDTAB
  0
TABLE
  2
UCS
  5
7
330
0
100
AcDbSymbolTable
 70
     0
  0
ENDTAB
  0
TABLE
  2
APPID
  5
9
330
0
100
AcDbSymbolTable
 70
     1
  0
APPID
  5
12
330
9
100
AcDbSymbolTableRecord
100
AcDbRegAppTableRecord
  2
ACAD
 70
     0
  0
ENDTAB
  0
TABLE
  2
DIMSTYLE
  5
A
330
0
100
AcDbSymbolTable
 70
     1
100
AcDbDimStyleTable
 71
     0
  0
DIMSTYLE
105
12C
330
A
100
AcDbSymbolTableRecord
100
AcDbDimStyleTableRecord
  2
Standard
 70
     0
340
11
  0
ENDTAB
  0
TABLE
  2
BLOCK_RECORD
  5
1
330
0
100
AcDbSymbolTable
 70
     0
  0
BLOCK_RECORD
  5
1E
330
1
100
AcDbSymbolTableRecord
100
AcDbBlockTableRecord
  2
*Model_Space
340
21
  0
BLOCK_RECORD
  5
1A
330
1
100
AcDbSymbolTableRecord
100
AcDbBlockTableRecord
  2
*Paper_Space
340
1D
  0
ENDTAB
  0
ENDSEC
  0
SECTION
  2
BLOCKS
  0
BLOCK
  5
1F
330
1E
100
AcDbEntity
  8
0
100
AcDbBlockBegin
  2
*Model_Space
 70
     0
 10
0.0
 20
0.0
 30
0.0
  3
*Model_Space
  1

  0
ENDBLK
  5
20
330
1E
100
AcDbEntity
  8
0
100
AcDbBlockEnd
  0
BLOCK
  5
1B
330
1A
100
AcDbEntity
 67
     1
  8
0
100
AcDbBlockBegin
  2
*Paper_Space
 70
     0
 10
0.0
 20
0.0
 30
0.0
  3
*Paper_Space
  1

  0
ENDBLK
  5
1C
330
1A
100
AcDbEntity
 67
     1
  8
0
100
AcDbBlockEnd
  0
ENDSEC
  0
SECTION
  2
ENTITIES
  0
LINE
  5
22
330
1E
100
AcDbEntity
  8
0
100
AcDbLine
 10
25.9364
 20
0.0000000000000003
 30
0.0
 11
30.4884
 21
0.0000000000000002
 31
0.0
  0
LINE
  5
23
330
1E
100
AcDbEntity
  8
0
100
AcDbLine
 10
21.625
 20
0.0000000000000004
 30
0.0
 11
25.9364
 21
0.0000000000000003
 31
0.0
  0
LINE
  5
24
330
1E
100
AcDbEntity
  8
0
100
AcDbLine
 10
30.4884
 20
0.0000000000000002
 30
0.0
 11
35.2032
 21
0.0000000000000002
 31
0.0
  0
LINE
  5
25
330
1E
100
AcDbEntity
  8
0
100
AcDbLine
 10
35.2032
 20
0.0000000000000002
 30
0.0
 11
40.0
 21
0.0000000000000002
 31
0.0
  0
LINE
  5
26
330
1E
100
AcDbEntity
  8
0
100
AcDbLine
 10
17.628
 20
0.0000000000000006
 30
0.0
 11
21.625
 21
0.0000000000000004
 31
0.0
  0
LINE
  5
27
330
1E
100
AcDbEntity
  8
0
100
AcDbLine
 10
55.63
 20
0.0000000000000001
 30
0.0
 11
78.076
 21
0.0000000000000001
 31
0.0
  0
LINE
  5
28
330
1E
100
AcDbEntity
  8
0
100
AcDbLine
 10
78.076
 20
0.0000000000000001
 30
0.0
 11
100.511
 21
0.0000000000000001
 31
0.0
  0
LINE
  5
29
330
1E
100
AcDbEntity
  8
0
100
AcDbLine
 10
100.511
 20
0.0000000000000001
 30
0.0
 11
125.5
 21
0.0
 31
0.0
  0
LINE
  5
2A
330
1E
100
AcDbEntity
  8
0
100
AcDbLine
 10
40.0
 20
0.0000000000000002
 30
0.0
 11
55.63
 21
0.0000000000000001
 31
0.0
  0
LINE
  5
2B
330
1E
100
AcDbEntity
  8
0
100
AcDbLine
 10
4.502219999999999
 20
0.0000000000000016
 30
0.0
 11
6.04745
 21
0.0000000000000014
 31
0.0
  0
LINE
  5
2C
330
1E
100
AcDbEntity
  8
0
100
AcDbLine
 10
6.04745
 20
0.0000000000000014
 30
0.0
 11
8.17355
 21
0.0000000000000011
 31
0.0
  0
LINE
  5
2D
330
1E
100
AcDbEntity
  8
0
100
AcDbLine
 10
8.17355
 20
0.0000000000000011
 30
0.0
 11
10.8442
 21
0.0000000000000009
 31
0.0
  0
LINE
  5
2E
330
1E
100
AcDbEntity
  8
0
100
AcDbLine
 10
3.5644
 20
0.0000000000000019
 30
0.0
 11
4.502219999999999
 21
0.0000000000000016
 31
0.0
  0
LINE
  5
2F
330
1E
100
AcDbEntity
  8
0
100
AcDbLine
 10
0.25
 20
0.276600000000011
 30
0.0
 11
0.75
 21
0.0000000000000106
 31
0.0
  0
LINE
  5
30
330
1E
100
AcDbEntity
  8
0
100
AcDbLine
 10
0.25
 20
0.276600000000011
 30
0.0
 11
0.499115
 21
0.276600000000013
 31
0.0
  0
LINE
  5
31
330
1E
100
AcDbEntity
  8
0
100
AcDbLine
 10
0.25
 20
0.276600000000011
 30
0.0
 11
0.75
 21
0.0000000000000106
 31
0.0
  0
LINE
  5
32
330
1E
100
AcDbEntity
  8
0
100
AcDbLine
 10
0.0
 20
0.829800000000011
 30
0.0
 11
0.0815
 21
2.269600000000009
 31
0.0
  0
LINE
  5
33
330
1E
100
AcDbEntity
  8
0
100
AcDbLine
 10
0.0
 20
0.829800000000011
 30
0.0
 11
0.25
 21
0.276600000000011
 31
0.0
  0
LINE
  5
34
330
1E
100
AcDbEntity
  8
0
100
AcDbLine
 10
0.0
 20
0.829800000000011
 30
0.0
 11
0.25
 21
0.276600000000011
 31
0.0
  0
LINE
  5
35
330
1E
100
AcDbEntity
  8
0
100
AcDbLine
 10
0.0815
 20
2.269600000000009
 30
0.0
 11
0.35275
 21
4.281300000000009
 31
0.0
  0
LINE
  5
36
330
1E
100
AcDbEntity
  8
0
100
AcDbLine
 10
1.25
 20
0.0000000000000106
 30
0.0
 11
1.499109999999999
 21
0.0000000000000127
 31
0.0
  0
LINE
  5
37
330
1E
100
AcDbEntity
  8
0
100
AcDbLine
 10
0.9991149999999999
 20
0.0000000000000085
 30
0.0
 11
1.540669999999999
 21
0.0000000000000064
 31
0.0
  0
LINE
  5
38
330
1E
100
AcDbEntity
  8
0
100
AcDbLine
 10
0.499115
 20
0.276600000000013
 30
0.0
 11
1.040669999999999
 21
0.276600000000015
 31
0.0
  0
LINE
  5
39
330
1E
100
AcDbEntity
  8
0
100
AcDbLine
 10
1.040669999999999
 20
0.276600000000015
 30
0.0
 11
1.96132
 21
0.276600000000017
 31
0.0
  0
LINE
  5
3A
330
1E
100
AcDbEntity
  8
0
100
AcDbLine
 10
1.499109999999999
 20
0.0000000000000127
 30
0.0
 11
2.040669999999999
 21
0.0000000000000148
 31
0.0
  0
LINE
  5
3B
330
1E
100
AcDbEntity
  8
0
100
AcDbLine
 10
0.75
 20
0.0000000000000106
 30
0.0
 11
0.9991149999999999
 21
0.0000000000000085
 31
0.0
  0
LINE
  5
3C
330
1E
100
AcDbEntity
  8
0
100
AcDbLine
 10
0.35275
 20
4.281300000000009
 30
0.0
 11
1.3563
 21
7.193900000000009
 31
0.0
  0
LINE
  5
3D
330
1E
100
AcDbEntity
  8
0
100
AcDbLine
 10
1.3563
 20
7.193900000000009
 30
0.0
 11
3.851599999999999
 21
11.0372
 31
0.0
  0
LINE
  5
3E
330
1E
100
AcDbEntity
  8
0
100
AcDbLine
 10
1.96132
 20
0.276600000000017
 30
0.0
 11
2.75
 21
0.276600000000019
 31
0.0
  0
LINE
  5
3F
330
1E
100
AcDbEntity
  8
0
100
AcDbLine
 10
2.040669999999999
 20
0.0000000000000148
 30
0.0
 11
2.961309999999999
 21
0.0000000000000169
 31
0.0
  0
LINE
  5
40
330
1E
100
AcDbEntity
  8
0
100
AcDbLine
 10
2.961309999999999
 20
0.0000000000000169
 30
0.0
 11
3.75
 21
0.000000000000019
 31
0.0
  0
LINE
  5
41
330
1E
100
AcDbEntity
  8
0
100
AcDbLine
 10
4.98519
 20
0.0000000000000195
 30
0.0
 11
6.50935
 21
0.0000000000000197
 31
0.0
  0
LINE
  5
42
330
1E
100
AcDbEntity
  8
0
100
AcDbLine
 10
4.019269999999999
 20
0.27660000000002
 30
0.0
 11
5.585499999999999
 21
0.27660000000002
 31
0.0
  0
LINE
  5
43
330
1E
100
AcDbEntity
  8
0
100
AcDbLine
 10
6.50935
 20
0.0000000000000197
 30
0.0
 11
8.6066
 21
0.00000000000002
 31
0.0
  0
LINE
  5
44
330
1E
100
AcDbEntity
  8
0
100
AcDbLine
 10
5.585499999999999
 20
0.27660000000002
 30
0.0
 11
7.740549999999999
 21
0.27660000000002
 31
0.0
  0
LINE
  5
45
330
1E
100
AcDbEntity
  8
0
100
AcDbLine
 10
4.060119999999999
 20
0.0000000000000193
 30
0.0
 11
4.98519
 21
0.0000000000000195
 31
0.0
  0
LINE
  5
46
330
1E
100
AcDbEntity
  8
0
100
AcDbLine
 10
3.06868
 20
0.276600000000019
 30
0.0
 11
4.019269999999999
 21
0.27660000000002
 31
0.0
  0
LINE
  5
47
330
1E
100
AcDbEntity
  8
0
100
AcDbLine
 10
3.75
 20
0.000000000000019
 30
0.0
 11
4.060119999999999
 21
0.0000000000000193
 31
0.0
  0
LINE
  5
48
330
1E
100
AcDbEntity
  8
0
100
AcDbLine
 10
2.75
 20
0.276600000000019
 30
0.0
 11
3.06868
 21
0.276600000000019
 31
0.0
  0
LINE
  5
49
330
1E
100
AcDbEntity
  8
0
100
AcDbLine
 10
3.851599999999999
 20
11.0372
 30
0.0
 11
7.160599999999999
 21
14.0399
 31
0.0
  0
LINE
  5
4A
330
1E
100
AcDbEntity
  8
0
100
AcDbLine
 10
8.6066
 20
0.00000000000002
 30
0.0
 11
11.2409
 21
0.0000000000000202
 31
0.0
  0
LINE
  5
4B
330
1E
100
AcDbEntity
  8
0
100
AcDbLine
 10
7.740549999999999
 20
0.27660000000002
 30
0.0
 11
10.44759999999999
 21
0.27660000000002
 31
0.0
  0
LINE
  5
4C
330
1E
100
AcDbEntity
  8
0
100
AcDbLine
 10
10.44759999999999
 20
0.27660000000002
 30
0.0
 11
13.6602
 21
0.276600000000021
 31
0.0
  0
LINE
  5
4D
330
1E
100
AcDbEntity
  8
0
100
AcDbLine
 10
7.160599999999999
 20
14.0399
 30
0.0
 11
11.229
 21
16.2618
 31
0.0
  0
LINE
  5
4E
330
1E
100
AcDbEntity
  8
0
100
AcDbLine
 10
2.461309999999999
 20
0.0000000000000042
 30
0.0
 11
3.25
 21
0.0000000000000021
 31
0.0
  0
LINE
  5
4F
330
1E
100
AcDbEntity
  8
0
100
AcDbLine
 10
1.540669999999999
 20
0.0000000000000064
 30
0.0
 11
2.461309999999999
 21
0.0000000000000042
 31
0.0
  0
LINE
  5
50
330
1E
100
AcDbEntity
  8
0
100
AcDbLine
 10
3.25
 20
0.0000000000000021
 30
0.0
 11
3.5644
 21
0.0000000000000019
 31
0.0
  0
LINE
  5
51
330
1E
100
AcDbEntity
  8
0
100
AcDbLine
 10
11.2409
 20
0.0000000000000202
 30
0.0
 11
14.3674
 21
0.0000000000000204
 31
0.0
  0
LINE
  5
52
330
1E
100
AcDbEntity
  8
0
100
AcDbLine
 10
26.1278
 20
0.0000000000000208
 30
0.0
 11
30.6178
 21
0.0000000000000209
 31
0.0
  0
LINE
  5
53
330
1E
100
AcDbEntity
  8
0
100
AcDbLine
 10
21.875
 20
0.0000000000000207
 30
0.0
 11
26.1278
 21
0.0000000000000208
 31
0.0
  0
LINE
  5
54
330
1E
100
AcDbEntity
  8
0
100
AcDbLine
 10
30.6178
 20
0.0000000000000209
 30
0.0
 11
35.26839999999999
 21
0.0000000000000209
 31
0.0
  0
LINE
  5
55
330
1E
100
AcDbEntity
  8
0
100
AcDbLine
 10
35.26839999999999
 20
0.0000000000000209
 30
0.0
 11
40.0
 21
0.0000000000000209
 31
0.0
  0
LINE
  5
56
330
1E
100
AcDbEntity
  8
0
100
AcDbLine
 10
17.9324
 20
0.0000000000000205
 30
0.0
 11
21.875
 21
0.0000000000000207
 31
0.0
  0
LINE
  5
57
330
1E
100
AcDbEntity
  8
0
100
AcDbLine
 10
25.7451
 20
0.276600000000021
 30
0.0
 11
30.359
 21
0.276600000000021
 31
0.0
  0
LINE
  5
58
330
1E
100
AcDbEntity
  8
0
100
AcDbLine
 10
21.375
 20
0.276600000000021
 30
0.0
 11
25.7451
 21
0.276600000000021
 31
0.0
  0
LINE
  5
59
330
1E
100
AcDbEntity
  8
0
100
AcDbLine
 10
30.359
 20
0.276600000000021
 30
0.0
 11
35.1379
 21
0.276600000000021
 31
0.0
  0
LINE
  5
5A
330
1E
100
AcDbEntity
  8
0
100
AcDbLine
 10
35.1379
 20
0.276600000000021
 30
0.0
 11
40.0
 21
0.276600000000021
 31
0.0
  0
LINE
  5
5B
330
1E
100
AcDbEntity
  8
0
100
AcDbLine
 10
17.32369999999999
 20
0.276600000000021
 30
0.0
 11
21.375
 21
0.276600000000021
 31
0.0
  0
LINE
  5
5C
330
1E
100
AcDbEntity
  8
0
100
AcDbLine
 10
40.0
 20
0.0000000000000209
 30
0.0
 11
55.63
 21
0.000000000000021
 31
0.0
  0
LINE
  5
5D
330
1E
100
AcDbEntity
  8
0
100
AcDbLine
 10
55.63
 20
0.000000000000021
 30
0.0
 11
78.076
 21
0.000000000000021
 31
0.0
  0
LINE
  5
5E
330
1E
100
AcDbEntity
  8
0
100
AcDbLine
 10
55.63
 20
0.276600000000021
 30
0.0
 11
78.076
 21
0.276600000000021
 31
0.0
  0
LINE
  5
5F
330
1E
100
AcDbEntity
  8
0
100
AcDbLine
 10
78.076
 20
0.000000000000021
 30
0.0
 11
100.511
 21
0.000000000000021
 31
0.0
  0
LINE
  5
60
330
1E
100
AcDbEntity
  8
0
100
AcDbLine
 10
78.076
 20
0.276600000000021
 30
0.0
 11
100.511
 21
0.276600000000021
 31
0.0
  0
LINE
  5
61
330
1E
100
AcDbEntity
  8
0
100
AcDbLine
 10
100.511
 20
0.000000000000021
 30
0.0
 11
125.5
 21
0.0000000000000211
 31
0.0
  0
LINE
  5
62
330
1E
100
AcDbEntity
  8
0
100
AcDbLine
 10
100.511
 20
0.276600000000021
 30
0.0
 11
125.5
 21
0.276600000000021
 31
0.0
  0
LINE
  5
63
330
1E
100
AcDbEntity
  8
0
100
AcDbLine
 10
40.0
 20
0.276600000000021
 30
0.0
 11
55.63
 21
0.276600000000021
 31
0.0
  0
LINE
  5
64
330
1E
100
AcDbEntity
  8
0
100
AcDbLine
 10
14.3674
 20
0.0000000000000204
 30
0.0
 11
17.9324
 21
0.0000000000000205
 31
0.0
  0
LINE
  5
65
330
1E
100
AcDbEntity
  8
0
100
AcDbLine
 10
13.6602
 20
0.276600000000021
 30
0.0
 11
17.32369999999999
 21
0.276600000000021
 31
0.0
  0
LINE
  5
66
330
1E
100
AcDbEntity
  8
0
100
AcDbLine
 10
21.24909999999999
 20
18.25529999999999
 30
0.0
 11
21.7906
 21
18.25529999999999
 31
0.0
  0
LINE
  5
67
330
1E
100
AcDbEntity
  8
0
100
AcDbLine
 10
21.0
 20
18.25529999999999
 30
0.0
 11
21.24909999999999
 21
18.25529999999999
 31
0.0
  0
LINE
  5
68
330
1E
100
AcDbEntity
  8
0
100
AcDbLine
 10
22.7113
 20
18.25529999999999
 30
0.0
 11
23.5
 21
18.25529999999999
 31
0.0
  0
LINE
  5
69
330
1E
100
AcDbEntity
  8
0
100
AcDbLine
 10
21.7906
 20
18.25529999999999
 30
0.0
 11
22.7113
 21
18.25529999999999
 31
0.0
  0
LINE
  5
6A
330
1E
100
AcDbEntity
  8
0
100
AcDbLine
 10
24.0622
 20
18.25529999999999
 30
0.0
 11
24.756
 21
18.25529999999999
 31
0.0
  0
LINE
  5
6B
330
1E
100
AcDbEntity
  8
0
100
AcDbLine
 10
24.756
 20
18.25529999999999
 30
0.0
 11
25.7106
 21
18.25529999999999
 31
0.0
  0
LINE
  5
6C
330
1E
100
AcDbEntity
  8
0
100
AcDbLine
 10
26.9097
 20
18.25529999999999
 30
0.0
 11
28.3328
 21
18.25529999999999
 31
0.0
  0
LINE
  5
6D
330
1E
100
AcDbEntity
  8
0
100
AcDbLine
 10
25.7106
 20
18.25529999999999
 30
0.0
 11
26.9097
 21
18.25529999999999
 31
0.0
  0
LINE
  5
6E
330
1E
100
AcDbEntity
  8
0
100
AcDbLine
 10
23.6411
 20
18.25529999999999
 30
0.0
 11
24.0622
 21
18.25529999999999
 31
0.0
  0
LINE
  5
6F
330
1E
100
AcDbEntity
  8
0
100
AcDbLine
 10
23.5
 20
18.25529999999999
 30
0.0
 11
23.6411
 21
18.25529999999999
 31
0.0
  0
LINE
  5
70
330
1E
100
AcDbEntity
  8
0
100
AcDbLine
 10
33.6857
 20
18.25529999999999
 30
0.0
 11
35.7295
 21
18.25529999999999
 31
0.0
  0
LINE
  5
71
330
1E
100
AcDbEntity
  8
0
100
AcDbLine
 10
31.75
 20
18.25529999999999
 30
0.0
 11
33.6857
 21
18.25529999999999
 31
0.0
  0
LINE
  5
72
330
1E
100
AcDbEntity
  8
0
100
AcDbLine
 10
55.63
 20
18.25529999999999
 30
0.0
 11
78.076
 21
18.25529999999999
 31
0.0
  0
LINE
  5
73
330
1E
100
AcDbEntity
  8
0
100
AcDbLine
 10
78.076
 20
18.25529999999999
 30
0.0
 11
100.511
 21
18.25529999999999
 31
0.0
  0
LINE
  5
74
330
1E
100
AcDbEntity
  8
0
100
AcDbLine
 10
100.511
 20
18.25529999999999
 30
0.0
 11
125.5
 21
18.25529999999999
 31
0.0
  0
LINE
  5
75
330
1E
100
AcDbEntity
  8
0
100
AcDbLine
 10
35.7295
 20
18.25529999999999
 30
0.0
 11
37.84629999999999
 21
18.25529999999999
 31
0.0
  0
LINE
  5
76
330
1E
100
AcDbEntity
  8
0
100
AcDbLine
 10
37.84629999999999
 20
18.25529999999999
 30
0.0
 11
40.0
 21
18.25529999999999
 31
0.0
  0
LINE
  5
77
330
1E
100
AcDbEntity
  8
0
100
AcDbLine
 10
29.9555
 20
18.25529999999999
 30
0.0
 11
31.75
 21
18.25529999999999
 31
0.0
  0
LINE
  5
78
330
1E
100
AcDbEntity
  8
0
100
AcDbLine
 10
40.0
 20
18.25529999999999
 30
0.0
 11
55.63
 21
18.25529999999999
 31
0.0
  0
LINE
  5
79
330
1E
100
AcDbEntity
  8
0
100
AcDbLine
 10
28.3328
 20
18.25529999999999
 30
0.0
 11
29.9555
 21
18.25529999999999
 31
0.0
  0
LINE
  5
7A
330
1E
100
AcDbEntity
  8
0
100
AcDbLine
 10
11.229
 20
16.2618
 30
0.0
 11
15.3518
 21
17.583
 31
0.0
  0
LINE
  5
7B
330
1E
100
AcDbEntity
  8
0
100
AcDbLine
 10
10.8442
 20
0.0000000000000009
 30
0.0
 11
14.0139
 21
0.0000000000000007
 31
0.0
  0
LINE
  5
7C
330
1E
100
AcDbEntity
  8
0
100
AcDbLine
 10
14.0139
 20
0.0000000000000007
 30
0.0
 11
17.628
 21
0.0000000000000006
 31
0.0
  0
LINE
  5
7D
330
1E
100
AcDbEntity
  8
0
100
AcDbLine
 10
111.0
 20
76.0
 30
0.0
 11
111.2999999999999
 21
75.3
 31
0.0
  0
LINE
  5
7E
330
1E
100
AcDbEntity
  8
0
100
AcDbLine
 10
111.0
 20
76.0
 30
0.0
 11
111.0
 21
119.0
 31
0.0
  0
LINE
  5
7F
330
1E
100
AcDbEntity
  8
0
100
AcDbLine
 10
111.0
 20
119.0
 30
0.0
 11
111.2999999999999
 21
119.7
 31
0.0
  0
LINE
  5
80
330
1E
100
AcDbEntity
  8
0
100
AcDbLine
 10
111.0
 20
119.0
 30
0.0
 11
111.0
 21
76.0
 31
0.0
  0
LINE
  5
82
330
1E
100
AcDbEntity
  8
0
100
AcDbLine
 10
111.2999999999999
 20
75.3
 30
0.0
 11
112.0
 21
75.0
 31
0.0
  0
LINE
  5
84
330
1E
100
AcDbEntity
  8
0
100
AcDbLine
 10
111.2999999999999
 20
119.7
 30
0.0
 11
112.0
 21
120.0
 31
0.0
  0
LINE
  5
85
330
1E
100
AcDbEntity
  8
0
100
AcDbLine
 10
111.2999999999999
 20
119.0
 30
0.0
 11
111.4999999999999
 21
119.5
 31
0.0
  0
LINE
  5
86
330
1E
100
AcDbEntity
  8
0
100
AcDbLine
 10
111.2999999999999
 20
119.0
 30
0.0
 11
111.2999999999999
 21
76.0
 31
0.0
  0
LINE
  5
87
330
1E
100
AcDbEntity
  8
0
100
AcDbLine
 10
112.0
 20
75.0
 30
0.0
 11
113.0
 21
75.0
 31
0.0
  0
LINE
  5
88
330
1E
100
AcDbEntity
  8
0
100
AcDbLine
 10
113.0
 20
18.25529999999999
 30
0.0
 11
113.0
 21
58.9484
 31
0.0
  0
LINE
  5
89
330
1E
100
AcDbEntity
  8
0
100
AcDbLine
 10
113.0
 20
18.25529999999999
 30
0.0
 11
113.0
 21
62.3364
 31
0.0
  0
LINE
  5
8A
330
1E
100
AcDbEntity
  8
0
100
AcDbLine
 10
113.0
 20
62.3364
 30
0.0
 11
113.0
 21
18.25529999999999
 31
0.0
  0
LINE
  5
8B
330
1E
100
AcDbEntity
  8
0
100
AcDbLine
 10
113.0
 20
62.3364
 30
0.0
 11
113.0
 21
64.387
 31
0.0
  0
LINE
  5
8C
330
1E
100
AcDbEntity
  8
0
100
AcDbLine
 10
113.0
 20
58.9484
 30
0.0
 11
113.0
 21
61.534
 31
0.0
  0
LINE
  5
8D
330
1E
100
AcDbEntity
  8
0
100
AcDbLine
 10
113.0
 20
58.9484
 30
0.0
 11
113.0
 21
18.25529999999999
 31
0.0
  0
LINE
  5
8E
330
1E
100
AcDbEntity
  8
0
100
AcDbLine
 10
113.0
 20
61.534
 30
0.0
 11
113.0
 21
64.387
 31
0.0
  0
LINE
  5
8F
330
1E
100
AcDbEntity
  8
0
100
AcDbLine
 10
113.0
 20
61.534
 30
0.0
 11
113.0
 21
58.9484
 31
0.0
  0
LINE
  5
90
330
1E
100
AcDbEntity
  8
0
100
AcDbLine
 10
113.0
 20
66.3484
 30
0.0
 11
113.0
 21
64.387
 31
0.0
  0
LINE
  5
91
330
1E
100
AcDbEntity
  8
0
100
AcDbLine
 10
113.0
 20
66.3484
 30
0.0
 11
113.0
 21
69.20149999999999
 31
0.0
  0
LINE
  5
92
330
1E
100
AcDbEntity
  8
0
100
AcDbLine
 10
113.0
 20
69.20149999999999
 30
0.0
 11
113.0
 21
66.3484
 31
0.0
  0
LINE
  5
93
330
1E
100
AcDbEntity
  8
0
100
AcDbLine
 10
113.0
 20
69.20149999999999
 30
0.0
 11
113.0
 21
72.0545
 31
0.0
  0
LINE
  5
94
330
1E
100
AcDbEntity
  8
0
100
AcDbLine
 10
113.0
 20
64.387
 30
0.0
 11
113.0
 21
68.0424
 31
0.0
  0
LINE
  5
95
330
1E
100
AcDbEntity
  8
0
100
AcDbLine
 10
113.0
 20
64.387
 30
0.0
 11
113.0
 21
62.3364
 31
0.0
  0
LINE
  5
96
330
1E
100
AcDbEntity
  8
0
100
AcDbLine
 10
113.0
 20
64.387
 30
0.0
 11
113.0
 21
66.3484
 31
0.0
  0
LINE
  5
97
330
1E
100
AcDbEntity
  8
0
100
AcDbLine
 10
113.0
 20
64.387
 30
0.0
 11
113.0
 21
61.534
 31
0.0
  0
LINE
  5
98
330
1E
100
AcDbEntity
  8
0
100
AcDbLine
 10
113.0
 20
68.0424
 30
0.0
 11
113.0
 21
71.6087
 31
0.0
  0
LINE
  5
99
330
1E
100
AcDbEntity
  8
0
100
AcDbLine
 10
113.0
 20
68.0424
 30
0.0
 11
113.0
 21
64.387
 31
0.0
  0
LINE
  5
9A
330
1E
100
AcDbEntity
  8
0
100
AcDbLine
 10
113.0
 20
72.0545
 30
0.0
 11
113.0
 21
69.20149999999999
 31
0.0
  0
LINE
  5
9B
330
1E
100
AcDbEntity
  8
0
100
AcDbLine
 10
113.0
 20
72.0545
 30
0.0
 11
113.0
 21
75.0
 31
0.0
  0
LINE
  5
9C
330
1E
100
AcDbEntity
  8
0
100
AcDbLine
 10
113.0
 20
71.6087
 30
0.0
 11
113.0
 21
75.0
 31
0.0
  0
LINE
  5
9D
330
1E
100
AcDbEntity
  8
0
100
AcDbLine
 10
113.0
 20
71.6087
 30
0.0
 11
113.0
 21
68.0424
 31
0.0
  0
LINE
  5
9E
330
1E
100
AcDbEntity
  8
0
100
AcDbLine
 10
125.5
 20
0.0000000000000211
 30
0.0
 11
150.489
 21
0.000000000000021
 31
0.0
  0
LINE
  5
9F
330
1E
100
AcDbEntity
  8
0
100
AcDbLine
 10
125.5
 20
0.276600000000021
 30
0.0
 11
150.489
 21
0.276600000000021
 31
0.0
  0
LINE
  5
A0
330
1E
100
AcDbEntity
  8
0
100
AcDbLine
 10
125.5
 20
0.0
 30
0.0
 11
150.489
 21
0.0000000000000001
 31
0.0
  0
LINE
  5
A1
330
1E
100
AcDbEntity
  8
0
100
AcDbLine
 10
125.5
 20
18.25529999999999
 30
0.0
 11
150.489
 21
18.25529999999999
 31
0.0
  0
LINE
  5
A2
330
1E
100
AcDbEntity
  8
0
100
AcDbLine
 10
139.0
 20
18.25529999999999
 30
0.0
 11
139.0
 21
62.3364
 31
0.0
  0
LINE
  5
A3
330
1E
100
AcDbEntity
  8
0
100
AcDbLine
 10
139.0
 20
64.387
 30
0.0
 11
139.0
 21
66.3484
 31
0.0
  0
LINE
  5
A4
330
1E
100
AcDbEntity
  8
0
100
AcDbLine
 10
139.0
 20
64.387
 30
0.0
 11
139.0
 21
62.3364
 31
0.0
  0
LINE
  5
A5
330
1E
100
AcDbEntity
  8
0
100
AcDbLine
 10
139.0
 20
66.3484
 30
0.0
 11
139.0
 21
69.20149999999999
 31
0.0
  0
LINE
  5
A6
330
1E
100
AcDbEntity
  8
0
100
AcDbLine
 10
139.0
 20
66.3484
 30
0.0
 11
139.0
 21
64.387
 31
0.0
  0
LINE
  5
A7
330
1E
100
AcDbEntity
  8
0
100
AcDbLine
 10
139.0
 20
69.20149999999999
 30
0.0
 11
139.0
 21
72.0545
 31
0.0
  0
LINE
  5
A8
330
1E
100
AcDbEntity
  8
0
100
AcDbLine
 10
139.0
 20
69.20149999999999
 30
0.0
 11
139.0
 21
66.3484
 31
0.0
  0
LINE
  5
A9
330
1E
100
AcDbEntity
  8
0
100
AcDbLine
 10
139.0
 20
72.0545
 30
0.0
 11
139.0
 21
75.0
 31
0.0
  0
LINE
  5
AA
330
1E
100
AcDbEntity
  8
0
100
AcDbLine
 10
139.0
 20
72.0545
 30
0.0
 11
139.0
 21
69.20149999999999
 31
0.0
  0
LINE
  5
AB
330
1E
100
AcDbEntity
  8
0
100
AcDbLine
 10
139.0
 20
62.3364
 30
0.0
 11
139.0
 21
64.387
 31
0.0
  0
LINE
  5
AC
330
1E
100
AcDbEntity
  8
0
100
AcDbLine
 10
139.0
 20
62.3364
 30
0.0
 11
139.0
 21
18.25529999999999
 31
0.0
  0
LINE
  5
AD
330
1E
100
AcDbEntity
  8
0
100
AcDbLine
 10
113.0
 20
75.0
 30
0.0
 11
113.0
 21
87.0
 31
0.0
  0
LINE
  5
AE
330
1E
100
AcDbEntity
  8
0
100
AcDbLine
 10
113.0
 20
75.0
 30
0.0
 11
113.0
 21
72.0545
 31
0.0
  0
LINE
  5
AF
330
1E
100
AcDbEntity
  8
0
100
AcDbLine
 10
113.0
 20
75.0
 30
0.0
 11
113.0
 21
71.6087
 31
0.0
  0
LINE
  5
B0
330
1E
100
AcDbEntity
  8
0
100
AcDbLine
 10
139.0
 20
75.0
 30
0.0
 11
140.0
 21
75.0
 31
0.0
  0
LINE
  5
B1
330
1E
100
AcDbEntity
  8
0
100
AcDbLine
 10
139.0
 20
75.0
 30
0.0
 11
139.0
 21
87.0
 31
0.0
  0
LINE
  5
B2
330
1E
100
AcDbEntity
  8
0
100
AcDbLine
 10
139.0
 20
75.0
 30
0.0
 11
139.0
 21
72.0545
 31
0.0
  0
LINE
  5
B3
330
1E
100
AcDbEntity
  8
0
100
AcDbLine
 10
172.924
 20
0.0000000000000001
 30
0.0
 11
195.3699999999999
 21
0.0000000000000001
 31
0.0
  0
LINE
  5
B4
330
1E
100
AcDbEntity
  8
0
100
AcDbLine
 10
150.489
 20
0.0000000000000001
 30
0.0
 11
172.924
 21
0.0000000000000001
 31
0.0
  0
LINE
  5
B5
330
1E
100
AcDbEntity
  8
0
100
AcDbLine
 10
220.5119999999999
 20
0.0000000000000002
 30
0.0
 11
225.064
 21
0.0000000000000003
 31
0.0
  0
LINE
  5
B6
330
1E
100
AcDbEntity
  8
0
100
AcDbLine
 10
225.064
 20
0.0000000000000003
 30
0.0
 11
229.375
 21
0.0000000000000004
 31
0.0
  0
LINE
  5
B7
330
1E
100
AcDbEntity
  8
0
100
AcDbLine
 10
215.797
 20
0.0000000000000002
 30
0.0
 11
220.5119999999999
 21
0.0000000000000002
 31
0.0
  0
LINE
  5
B8
330
1E
100
AcDbEntity
  8
0
100
AcDbLine
 10
211.0
 20
0.0000000000000002
 30
0.0
 11
215.797
 21
0.0000000000000002
 31
0.0
  0
LINE
  5
B9
330
1E
100
AcDbEntity
  8
0
100
AcDbLine
 10
229.375
 20
0.0000000000000004
 30
0.0
 11
233.372
 21
0.0000000000000006
 31
0.0
  0
LINE
  5
BA
330
1E
100
AcDbEntity
  8
0
100
AcDbLine
 10
195.3699999999999
 20
0.0000000000000001
 30
0.0
 11
211.0
 21
0.0000000000000002
 31
0.0
  0
LINE
  5
BB
330
1E
100
AcDbEntity
  8
0
100
AcDbLine
 10
150.489
 20
0.000000000000021
 30
0.0
 11
172.924
 21
0.000000000000021
 31
0.0
  0
LINE
  5
BC
330
1E
100
AcDbEntity
  8
0
100
AcDbLine
 10
172.924
 20
0.000000000000021
 30
0.0
 11
195.3699999999999
 21
0.000000000000021
 31
0.0
  0
LINE
  5
BD
330
1E
100
AcDbEntity
  8
0
100
AcDbLine
 10
172.924
 20
0.276600000000021
 30
0.0
 11
195.3699999999999
 21
0.276600000000021
 31
0.0
  0
LINE
  5
BE
330
1E
100
AcDbEntity
  8
0
100
AcDbLine
 10
150.489
 20
0.276600000000021
 30
0.0
 11
172.924
 21
0.276600000000021
 31
0.0
  0
LINE
  5
BF
330
1E
100
AcDbEntity
  8
0
100
AcDbLine
 10
195.3699999999999
 20
0.000000000000021
 30
0.0
 11
211.0
 21
0.0000000000000209
 31
0.0
  0
LINE
  5
C0
330
1E
100
AcDbEntity
  8
0
100
AcDbLine
 10
220.3819999999999
 20
0.0000000000000209
 30
0.0
 11
224.872
 21
0.0000000000000208
 31
0.0
  0
LINE
  5
C1
330
1E
100
AcDbEntity
  8
0
100
AcDbLine
 10
224.872
 20
0.0000000000000208
 30
0.0
 11
229.125
 21
0.0000000000000207
 31
0.0
  0
LINE
  5
C2
330
1E
100
AcDbEntity
  8
0
100
AcDbLine
 10
215.7319999999999
 20
0.0000000000000209
 30
0.0
 11
220.3819999999999
 21
0.0000000000000209
 31
0.0
  0
LINE
  5
C3
330
1E
100
AcDbEntity
  8
0
100
AcDbLine
 10
211.0
 20
0.0000000000000209
 30
0.0
 11
215.7319999999999
 21
0.0000000000000209
 31
0.0
  0
LINE
  5
C4
330
1E
100
AcDbEntity
  8
0
100
AcDbLine
 10
229.125
 20
0.0000000000000207
 30
0.0
 11
233.068
 21
0.0000000000000205
 31
0.0
  0
LINE
  5
C5
330
1E
100
AcDbEntity
  8
0
100
AcDbLine
 10
220.6409999999999
 20
0.276600000000021
 30
0.0
 11
225.2549999999999
 21
0.276600000000021
 31
0.0
  0
LINE
  5
C6
330
1E
100
AcDbEntity
  8
0
100
AcDbLine
 10
225.2549999999999
 20
0.276600000000021
 30
0.0
 11
229.625
 21
0.276600000000021
 31
0.0
  0
LINE
  5
C7
330
1E
100
AcDbEntity
  8
0
100
AcDbLine
 10
215.8619999999999
 20
0.276600000000021
 30
0.0
 11
220.6409999999999
 21
0.276600000000021
 31
0.0
  0
LINE
  5
C8
330
1E
100
AcDbEntity
  8
0
100
AcDbLine
 10
211.0
 20
0.276600000000021
 30
0.0
 11
215.8619999999999
 21
0.276600000000021
 31
0.0
  0
LINE
  5
C9
330
1E
100
AcDbEntity
  8
0
100
AcDbLine
 10
229.625
 20
0.276600000000021
 30
0.0
 11
233.6759999999999
 21
0.276600000000021
 31
0.0
  0
LINE
  5
CA
330
1E
100
AcDbEntity
  8
0
100
AcDbLine
 10
195.3699999999999
 20
0.276600000000021
 30
0.0
 11
211.0
 21
0.276600000000021
 31
0.0
  0
LINE
  5
CB
330
1E
100
AcDbEntity
  8
0
100
AcDbLine
 10
233.068
 20
0.0000000000000205
 30
0.0
 11
236.633
 21
0.0000000000000204
 31
0.0
  0
LINE
  5
CC
330
1E
100
AcDbEntity
  8
0
100
AcDbLine
 10
236.633
 20
0.0000000000000204
 30
0.0
 11
239.759
 21
0.0000000000000202
 31
0.0
  0
LINE
  5
CD
330
1E
100
AcDbEntity
  8
0
100
AcDbLine
 10
233.6759999999999
 20
0.276600000000021
 30
0.0
 11
237.34
 21
0.276600000000021
 31
0.0
  0
LINE
  5
CE
330
1E
100
AcDbEntity
  8
0
100
AcDbLine
 10
172.924
 20
18.25529999999999
 30
0.0
 11
195.3699999999999
 21
18.25529999999999
 31
0.0
  0
LINE
  5
CF
330
1E
100
AcDbEntity
  8
0
100
AcDbLine
 10
150.489
 20
18.25529999999999
 30
0.0
 11
172.924
 21
18.25529999999999
 31
0.0
  0
LINE
  5
D0
330
1E
100
AcDbEntity
  8
0
100
AcDbLine
 10
215.27
 20
18.25529999999999
 30
0.0
 11
217.314
 21
18.25529999999999
 31
0.0
  0
LINE
  5
D1
330
1E
100
AcDbEntity
  8
0
100
AcDbLine
 10
217.314
 20
18.25529999999999
 30
0.0
 11
219.2499999999999
 21
18.25529999999999
 31
0.0
  0
LINE
  5
D2
330
1E
100
AcDbEntity
  8
0
100
AcDbLine
 10
213.154
 20
18.25529999999999
 30
0.0
 11
215.27
 21
18.25529999999999
 31
0.0
  0
LINE
  5
D3
330
1E
100
AcDbEntity
  8
0
100
AcDbLine
 10
211.0
 20
18.25529999999999
 30
0.0
 11
213.154
 21
18.25529999999999
 31
0.0
  0
LINE
  5
D4
330
1E
100
AcDbEntity
  8
0
100
AcDbLine
 10
219.2499999999999
 20
18.25529999999999
 30
0.0
 11
221.0449999999999
 21
18.25529999999999
 31
0.0
  0
LINE
  5
D5
330
1E
100
AcDbEntity
  8
0
100
AcDbLine
 10
195.3699999999999
 20
18.25529999999999
 30
0.0
 11
211.0
 21
18.25529999999999
 31
0.0
  0
LINE
  5
D6
330
1E
100
AcDbEntity
  8
0
100
AcDbLine
 10
226.244
 20
18.25529999999999
 30
0.0
 11
226.9379999999999
 21
18.25529999999999
 31
0.0
  0
LINE
  5
D7
330
1E
100
AcDbEntity
  8
0
100
AcDbLine
 10
225.289
 20
18.25529999999999
 30
0.0
 11
226.244
 21
18.25529999999999
 31
0.0
  0
LINE
  5
D8
330
1E
100
AcDbEntity
  8
0
100
AcDbLine
 10
222.6669999999999
 20
18.25529999999999
 30
0.0
 11
224.0899999999999
 21
18.25529999999999
 31
0.0
  0
LINE
  5
D9
330
1E
100
AcDbEntity
  8
0
100
AcDbLine
 10
224.0899999999999
 20
18.25529999999999
 30
0.0
 11
225.289
 21
18.25529999999999
 31
0.0
  0
LINE
  5
DA
330
1E
100
AcDbEntity
  8
0
100
AcDbLine
 10
229.2089999999999
 20
18.25529999999999
 30
0.0
 11
229.7509999999999
 21
18.25529999999999
 31
0.0
  0
LINE
  5
DB
330
1E
100
AcDbEntity
  8
0
100
AcDbLine
 10
229.7509999999999
 20
18.25529999999999
 30
0.0
 11
230.0
 21
18.25529999999999
 31
0.0
  0
LINE
  5
DC
330
1E
100
AcDbEntity
  8
0
100
AcDbLine
 10
227.4999999999999
 20
18.25529999999999
 30
0.0
 11
228.289
 21
18.25529999999999
 31
0.0
  0
LINE
  5
DD
330
1E
100
AcDbEntity
  8
0
100
AcDbLine
 10
228.289
 20
18.25529999999999
 30
0.0
 11
229.2089999999999
 21
18.25529999999999
 31
0.0
  0
LINE
  5
DE
330
1E
100
AcDbEntity
  8
0
100
AcDbLine
 10
226.9379999999999
 20
18.25529999999999
 30
0.0
 11
227.3589999999999
 21
18.25529999999999
 31
0.0
  0
LINE
  5
DF
330
1E
100
AcDbEntity
  8
0
100
AcDbLine
 10
227.3589999999999
 20
18.25529999999999
 30
0.0
 11
227.4999999999999
 21
18.25529999999999
 31
0.0
  0
LINE
  5
E0
330
1E
100
AcDbEntity
  8
0
100
AcDbLine
 10
221.0449999999999
 20
18.25529999999999
 30
0.0
 11
222.6669999999999
 21
18.25529999999999
 31
0.0
  0
LINE
  5
E1
330
1E
100
AcDbEntity
  8
0
100
AcDbLine
 10
235.6479999999999
 20
17.583
 30
0.0
 11
239.771
 21
16.2618
 31
0.0
  0
LINE
  5
E2
330
1E
100
AcDbEntity
  8
0
100
AcDbLine
 10
244.953
 20
0.0000000000000014
 30
0.0
 11
246.498
 21
0.0000000000000016
 31
0.0
  0
LINE
  5
E3
330
1E
100
AcDbEntity
  8
0
100
AcDbLine
 10
242.8259999999999
 20
0.0000000000000011
 30
0.0
 11
244.953
 21
0.0000000000000014
 31
0.0
  0
LINE
  5
E4
330
1E
100
AcDbEntity
  8
0
100
AcDbLine
 10
240.1559999999999
 20
0.0000000000000009
 30
0.0
 11
242.8259999999999
 21
0.0000000000000011
 31
0.0
  0
LINE
  5
E5
330
1E
100
AcDbEntity
  8
0
100
AcDbLine
 10
246.498
 20
0.0000000000000016
 30
0.0
 11
247.4359999999999
 21
0.0000000000000019
 31
0.0
  0
LINE
  5
E6
330
1E
100
AcDbEntity
  8
0
100
AcDbLine
 10
239.759
 20
0.0000000000000202
 30
0.0
 11
242.3929999999999
 21
0.00000000000002
 31
0.0
  0
LINE
  5
E7
330
1E
100
AcDbEntity
  8
0
100
AcDbLine
 10
237.34
 20
0.276600000000021
 30
0.0
 11
240.552
 21
0.27660000000002
 31
0.0
  0
LINE
  5
E8
330
1E
100
AcDbEntity
  8
0
100
AcDbLine
 10
244.4909999999999
 20
0.0000000000000197
 30
0.0
 11
246.015
 21
0.0000000000000195
 31
0.0
  0
LINE
  5
E9
330
1E
100
AcDbEntity
  8
0
100
AcDbLine
 10
245.4149999999999
 20
0.27660000000002
 30
0.0
 11
246.9809999999999
 21
0.27660000000002
 31
0.0
  0
LINE
  5
EA
330
1E
100
AcDbEntity
  8
0
100
AcDbLine
 10
242.3929999999999
 20
0.00000000000002
 30
0.0
 11
244.4909999999999
 21
0.0000000000000197
 31
0.0
  0
LINE
  5
EB
330
1E
100
AcDbEntity
  8
0
100
AcDbLine
 10
243.259
 20
0.27660000000002
 30
0.0
 11
245.4149999999999
 21
0.27660000000002
 31
0.0
  0
LINE
  5
EC
330
1E
100
AcDbEntity
  8
0
100
AcDbLine
 10
240.552
 20
0.27660000000002
 30
0.0
 11
243.259
 21
0.27660000000002
 31
0.0
  0
LINE
  5
ED
330
1E
100
AcDbEntity
  8
0
100
AcDbLine
 10
246.015
 20
0.0000000000000195
 30
0.0
 11
246.9399999999999
 21
0.0000000000000193
 31
0.0
  0
LINE
  5
EE
330
1E
100
AcDbEntity
  8
0
100
AcDbLine
 10
246.9809999999999
 20
0.27660000000002
 30
0.0
 11
247.9309999999999
 21
0.276600000000019
 31
0.0
  0
LINE
  5
EF
330
1E
100
AcDbEntity
  8
0
100
AcDbLine
 10
246.9399999999999
 20
0.0000000000000193
 30
0.0
 11
247.25
 21
0.000000000000019
 31
0.0
  0
LINE
  5
F0
330
1E
100
AcDbEntity
  8
0
100
AcDbLine
 10
247.25
 20
0.000000000000019
 30
0.0
 11
248.039
 21
0.0000000000000169
 31
0.0
  0
LINE
  5
F1
330
1E
100
AcDbEntity
  8
0
100
AcDbLine
 10
248.2499999999999
 20
0.276600000000019
 30
0.0
 11
249.039
 21
0.276600000000017
 31
0.0
  0
LINE
  5
F2
330
1E
100
AcDbEntity
  8
0
100
AcDbLine
 10
248.039
 20
0.0000000000000169
 30
0.0
 11
248.959
 21
0.0000000000000148
 31
0.0
  0
LINE
  5
F3
330
1E
100
AcDbEntity
  8
0
100
AcDbLine
 10
247.9309999999999
 20
0.276600000000019
 30
0.0
 11
248.2499999999999
 21
0.276600000000019
 31
0.0
  0
LINE
  5
F4
330
1E
100
AcDbEntity
  8
0
100
AcDbLine
 10
247.148
 20
11.0372
 30
0.0
 11
249.644
 21
7.193900000000009
 31
0.0
  0
LINE
  5
F5
330
1E
100
AcDbEntity
  8
0
100
AcDbLine
 10
243.839
 20
14.0399
 30
0.0
 11
247.148
 21
11.0372
 31
0.0
  0
LINE
  5
F6
330
1E
100
AcDbEntity
  8
0
100
AcDbLine
 10
239.771
 20
16.2618
 30
0.0
 11
243.839
 21
14.0399
 31
0.0
  0
LINE
  5
F7
330
1E
100
AcDbEntity
  8
0
100
AcDbLine
 10
247.75
 20
0.0000000000000021
 30
0.0
 11
248.539
 21
0.0000000000000042
 31
0.0
  0
LINE
  5
F8
330
1E
100
AcDbEntity
  8
0
100
AcDbLine
 10
249.459
 20
0.0000000000000064
 30
0.0
 11
250.0009999999999
 21
0.0000000000000085
 31
0.0
  0
LINE
  5
F9
330
1E
100
AcDbEntity
  8
0
100
AcDbLine
 10
250.2499999999999
 20
0.0000000000000106
 30
0.0
 11
250.7499999999999
 21
0.276600000000011
 31
0.0
  0
LINE
  5
FA
330
1E
100
AcDbEntity
  8
0
100
AcDbLine
 10
248.959
 20
0.0000000000000148
 30
0.0
 11
249.5009999999999
 21
0.0000000000000127
 31
0.0
  0
LINE
  5
FB
330
1E
100
AcDbEntity
  8
0
100
AcDbLine
 10
249.9589999999999
 20
0.276600000000015
 30
0.0
 11
250.5009999999999
 21
0.276600000000013
 31
0.0
  0
LINE
  5
FC
330
1E
100
AcDbEntity
  8
0
100
AcDbLine
 10
249.5009999999999
 20
0.0000000000000127
 30
0.0
 11
249.75
 21
0.0000000000000106
 31
0.0
  0
LINE
  5
FD
330
1E
100
AcDbEntity
  8
0
100
AcDbLine
 10
249.039
 20
0.276600000000017
 30
0.0
 11
249.9589999999999
 21
0.276600000000015
 31
0.0
  0
LINE
  5
FE
330
1E
100
AcDbEntity
  8
0
100
AcDbLine
 10
250.5009999999999
 20
0.276600000000013
 30
0.0
 11
250.7499999999999
 21
0.276600000000011
 31
0.0
  0
LINE
  5
FF
330
1E
100
AcDbEntity
  8
0
100
AcDbLine
 10
250.2499999999999
 20
0.0000000000000106
 30
0.0
 11
250.7499999999999
 21
0.276600000000011
 31
0.0
  0
LINE
  5
100
330
1E
100
AcDbEntity
  8
0
100
AcDbLine
 10
250.0009999999999
 20
0.0000000000000085
 30
0.0
 11
250.2499999999999
 21
0.0000000000000106
 31
0.0
  0
LINE
  5
101
330
1E
100
AcDbEntity
  8
0
100
AcDbLine
 10
250.7499999999999
 20
0.276600000000011
 30
0.0
 11
251.0
 21
0.829800000000011
 31
0.0
  0
LINE
  5
102
330
1E
100
AcDbEntity
  8
0
100
AcDbLine
 10
250.7499999999999
 20
0.276600000000011
 30
0.0
 11
251.0
 21
0.829800000000011
 31
0.0
  0
LINE
  5
103
330
1E
100
AcDbEntity
  8
0
100
AcDbLine
 10
250.919
 20
2.269600000000009
 30
0.0
 11
251.0
 21
0.829800000000011
 31
0.0
  0
LINE
  5
104
330
1E
100
AcDbEntity
  8
0
100
AcDbLine
 10
250.647
 20
4.281300000000009
 30
0.0
 11
250.919
 21
2.269600000000009
 31
0.0
  0
LINE
  5
105
330
1E
100
AcDbEntity
  8
0
100
AcDbLine
 10
249.644
 20
7.193900000000009
 30
0.0
 11
250.647
 21
4.281300000000009
 31
0.0
  0
LINE
  5
106
330
1E
100
AcDbEntity
  8
0
100
AcDbLine
 10
248.539
 20
0.0000000000000042
 30
0.0
 11
249.459
 21
0.0000000000000064
 31
0.0
  0
LINE
  5
107
330
1E
100
AcDbEntity
  8
0
100
AcDbLine
 10
247.4359999999999
 20
0.0000000000000019
 30
0.0
 11
247.75
 21
0.0000000000000021
 31
0.0
  0
LINE
  5
108
330
1E
100
AcDbEntity
  8
0
100
AcDbLine
 10
236.986
 20
0.0000000000000007
 30
0.0
 11
240.1559999999999
 21
0.0000000000000009
 31
0.0
  0
LINE
  5
109
330
1E
100
AcDbEntity
  8
0
100
AcDbLine
 10
233.372
 20
0.0000000000000006
 30
0.0
 11
236.986
 21
0.0000000000000007
 31
0.0
  0
LINE
  5
10A
330
1E
100
AcDbEntity
  8
0
100
AcDbLine
 10
140.0
 20
75.3
 30
0.0
 11
140.5
 21
75.5
 31
0.0
  0
LINE
  5
10B
330
1E
100
AcDbEntity
  8
0
100
AcDbLine
 10
140.5
 20
75.5
 30
0.0
 11
140.6999999999999
 21
76.0
 31
0.0
  0
LINE
  5
10D
330
1E
100
AcDbEntity
  8
0
100
AcDbLine
 10
139.0
 20
75.3
 30
0.0
 11
140.0
 21
75.3
 31
0.0
  0
LINE
  5
10E
330
1E
100
AcDbEntity
  8
0
100
AcDbLine
 10
112.0
 20
75.3
 30
0.0
 11
113.0
 21
75.3
 31
0.0
  0
LINE
  5
10F
330
1E
100
AcDbEntity
  8
0
100
AcDbLine
 10
139.0
 20
87.0
 30
0.0
 11
139.0
 21
75.0
 31
0.0
  0
LINE
  5
110
330
1E
100
AcDbEntity
  8
0
100
AcDbLine
 10
138.532
 20
90.32799999999999
 30
0.0
 11
139.0
 21
87.0
 31
0.0
  0
LINE
  5
111
330
1E
100
AcDbEntity
  8
0
100
AcDbLine
 10
114.716
 20
93.44799999999999
 30
0.0
 11
116.796
 21
96.204
 31
0.0
  0
LINE
  5
112
330
1E
100
AcDbEntity
  8
0
100
AcDbLine
 10
132.4479999999999
 20
98.284
 30
0.0
 11
135.204
 21
96.204
 31
0.0
  0
LINE
  5
113
330
1E
100
AcDbEntity
  8
0
100
AcDbLine
 10
135.204
 20
96.204
 30
0.0
 11
137.2839999999999
 21
93.44799999999999
 31
0.0
  0
LINE
  5
114
330
1E
100
AcDbEntity
  8
0
100
AcDbLine
 10
137.2839999999999
 20
93.44799999999999
 30
0.0
 11
138.532
 21
90.32799999999999
 31
0.0
  0
LINE
  5
115
330
1E
100
AcDbEntity
  8
0
100
AcDbLine
 10
129.3279999999999
 20
99.53200000000002
 30
0.0
 11
132.4479999999999
 21
98.284
 31
0.0
  0
LINE
  5
116
330
1E
100
AcDbEntity
  8
0
100
AcDbLine
 10
126.0
 20
100.0
 30
0.0
 11
129.3279999999999
 21
99.53200000000002
 31
0.0
  0
LINE
  5
117
330
1E
100
AcDbEntity
  8
0
100
AcDbLine
 10
122.672
 20
99.53200000000002
 30
0.0
 11
126.0
 21
100.0
 31
0.0
  0
LINE
  5
118
330
1E
100
AcDbEntity
  8
0
100
AcDbLine
 10
119.552
 20
98.284
 30
0.0
 11
122.672
 21
99.53200000000002
 31
0.0
  0
LINE
  5
119
330
1E
100
AcDbEntity
  8
0
100
AcDbLine
 10
116.796
 20
96.204
 30
0.0
 11
119.552
 21
98.284
 31
0.0
  0
LINE
  5
11A
330
1E
100
AcDbEntity
  8
0
100
AcDbLine
 10
113.4679999999999
 20
90.32799999999999
 30
0.0
 11
114.716
 21
93.44799999999999
 31
0.0
  0
LINE
  5
11B
330
1E
100
AcDbEntity
  8
0
100
AcDbLine
 10
113.0
 20
87.0
 30
0.0
 11
113.4679999999999
 21
90.32799999999999
 31
0.0
  0
LINE
  5
11C
330
1E
100
AcDbEntity
  8
0
100
AcDbLine
 10
113.0
 20
87.0
 30
0.0
 11
113.0
 21
75.0
 31
0.0
  0
LINE
  5
11D
330
1E
100
AcDbEntity
  8
0
100
AcDbLine
 10
140.6999999999999
 20
119.0
 30
0.0
 11
140.6999999999999
 21
76.0
 31
0.0
  0
LINE
  5
11E
330
1E
100
AcDbEntity
  8
0
100
AcDbLine
 10
111.4999999999999
 20
119.5
 30
0.0
 11
112.0
 21
119.7
 31
0.0
  0
LINE
  5
11F
330
1E
100
AcDbEntity
  8
0
100
AcDbLine
 10
112.0
 20
120.0
 30
0.0
 11
140.0
 21
120.0
 31
0.0
  0
LINE
  5
120
330
1E
100
AcDbEntity
  8
0
100
AcDbLine
 10
140.0
 20
120.0
 30
0.0
 11
140.6999999999999
 21
119.7
 31
0.0
  0
LINE
  5
121
330
1E
100
AcDbEntity
  8
0
100
AcDbLine
 10
112.0
 20
119.7
 30
0.0
 11
140.0
 21
119.7
 31
0.0
  0
LINE
  5
122
330
1E
100
AcDbEntity
  8
0
100
AcDbLine
 10
140.6999999999999
 20
119.7
 30
0.0
 11
141.0
 21
119.0
 31
0.0
  0
LINE
  5
123
330
1E
100
AcDbEntity
  8
0
100
AcDbLine
 10
140.0
 20
119.7
 30
0.0
 11
140.5
 21
119.5
 31
0.0
  0
LINE
  5
124
330
1E
100
AcDbEntity
  8
0
100
AcDbLine
 10
140.5
 20
119.5
 30
0.0
 11
140.6999999999999
 21
119.0
 31
0.0
  0
LINE
  5
126
330
1E
100
AcDbEntity
  8
0
100
AcDbLine
 10
141.0
 20
119.0
 30
0.0
 11
141.0
 21
76.0
 31
0.0
  0
LINE
  5
127
330
1E
100
AcDbEntity
  8
0
100
AcDbLine
 10
141.0
 20
76.0
 30
0.0
 11
141.0
 21
119.0
 31
0.0
  0
LINE
  5
128
330
1E
100
AcDbEntity
  8
0
100
AcDbLine
 10
140.6999999999999
 20
76.0
 30
0.0
 11
140.6999999999999
 21
119.0
 31
0.0
  0
LINE
  5
129
330
1E
100
AcDbEntity
  8
0
100
AcDbLine
 10
111.4999999999999
 20
75.5
 30
0.0
 11
112.0
 21
75.3
 31
0.0
  0
LINE
  5
12A
330
1E
100
AcDbEntity
  8
0
100
AcDbLine
 10
111.2999999999999
 20
76.0
 30
0.0
 11
111.4999999999999
 21
75.5
 31
0.0
  0
LINE
  5
12B
330
1E
100
AcDbEntity
  8
0
100
AcDbLine
 10
111.2999999999999
 20
76.0
 30
0.0
 11
111.2999999999999
 21
119.0
 31
0.0
  0
LINE
  5
130
330
1E
100
AcDbEntity
  8
0
  6
Continuous
100
AcDbLine
 10
21.0
 20
18.25529999999999
 30
0.0
 11
15.3518
 21
17.583
 31
0.0
  0
LINE
  5
131
330
1E
100
AcDbEntity
  8
0
  6
Continuous
100
AcDbLine
 10
230.0
 20
18.25529999999999
 30
0.0
 11
235.6479999999999
 21
17.583
 31
0.0
  0
LINE
  5
132
330
1E
100
AcDbEntity
  8
0
  6
Continuous
100
AcDbLine
 10
140.0
 20
75.0
 30
0.0
 11
140.6999999999999
 21
75.3
 31
0.0
  0
LINE
  5
133
330
1E
100
AcDbEntity
  8
0
  6
Continuous
100
AcDbLine
 10
140.6999999999999
 20
75.3
 30
0.0
 11
141.0
 21
76.0
 31
0.0
  0
ENDSEC
  0
SECTION
  2
OBJECTS
  0
DICTIONARY
  5
C
330
0
100
AcDbDictionary
281
     1
  3
ACAD_GROUP
350
D
  3
ACAD_LAYOUT
350
19
  3
ACAD_MLINESTYLE
350
16
  3
ACAD_PLOTSETTINGS
350
18
  3
ACAD_PLOTSTYLENAME
350
E
  3
AcDbVariableDictionary
350
135
  0
DICTIONARY
  5
D
102
{ACAD_REACTORS
330
C
102
}
330
C
100
AcDbDictionary
281
     1
  0
DICTIONARY
  5
19
102
{ACAD_REACTORS
330
C
102
}
330
C
100
AcDbDictionary
281
     1
  3
Layout1
350
1D
  3
Model
350
21
  0
DICTIONARY
  5
16
102
{ACAD_REACTORS
330
C
102
}
330
C
100
AcDbDictionary
281
     1
  3
Standard
350
17
  0
DICTIONARY
  5
18
102
{ACAD_REACTORS
330
C
102
}
330
C
100
AcDbDictionary
281
     1
  0
ACDBDICTIONARYWDFLT
  5
E
102
{ACAD_REACTORS
330
C
102
}
330
C
100
AcDbDictionary
281
     1
  3
Normal
350
F
100
AcDbDictionaryWithDefault
340
F
  0
DICTIONARY
  5
135
102
{ACAD_REACTORS
330
C
102
}
330
C
100
AcDbDictionary
281
     1
  3
DIMASSOC
350
136
  0
LAYOUT
  5
1D
102
{ACAD_REACTORS
330
19
102
}
330
19
100
AcDbPlotSettings
  1

  2
C:\Programme\AutoCAD LT 2002 Deu\plotters\DWF ePlot (optimized for plotting).pc3
  4

  6

 40
0.0
 41
0.0
 42
0.0
 43
0.0
 44
0.0
 45
0.0
 46
0.0
 47
0.0
 48
0.0
 49
0.0
140
0.0
141
0.0
142
1.0
143
1.0
 70
   688
 72
     0
 73
     0
 74
     5
  7

 75
    16
147
1.0
148
0.0
149
0.0
100
AcDbLayout
  1
Layout1
 70
     1
 71
     1
 10
0.0
 20
0.0
 11
12.0
 21
9.0
 12
0.0
 22
0.0
 32
0.0
 14
1.000000000000000E+20
 24
1.000000000000000E+20
 34
1.000000000000000E+20
 15
-1.000000000000000E+20
 25
-1.000000000000000E+20
 35
-1.000000000000000E+20
146
0.0
 13
0.0
 23
0.0
 33
0.0
 16
1.0
 26
0.0
 36
0.0
 17
0.0
 27
1.0
 37
0.0
 76
     0
330
1A
  0
LAYOUT
  5
21
102
{ACAD_REACTORS
330
19
102
}
330
19
100
AcDbPlotSettings
  1

  2
C:\Programme\AutoCAD LT 2002 Deu\plotters\DWF ePlot (optimized for plotting).pc3
  4

  6

 40
0.0
 41
0.0
 42
0.0
 43
0.0
 44
0.0
 45
0.0
 46
0.0
 47
0.0
 48
0.0
 49
0.0
140
0.0
141
0.0
142
1.0
143
1.0
 70
  1712
 72
     0
 73
     0
 74
     0
  7

 75
     0
147
1.0
148
0.0
149
0.0
100
AcDbLayout
  1
Model
 70
     1
 71
     0
 10
0.0
 20
0.0
 11
12.0
 21
9.0
 12
0.0
 22
0.0
 32
0.0
 14
0.0
 24
0.0
 34
0.0
 15
0.0
 25
0.0
 35
0.0
146
0.0
 13
0.0
 23
0.0
 33
0.0
 16
1.0
 26
0.0
 36
0.0
 17
0.0
 27
1.0
 37
0.0
 76
     0
330
1E
  0
MLINESTYLE
  5
17
102
{ACAD_REACTORS
330
16
102
}
330
16
100
AcDbMlineStyle
  2
STANDARD
 70
     0
  3

 62
   256
 51
90.0
 52
90.0
 71
     2
 49
0.5
 62
   256
  6
BYLAYER
 49
-0.5
 62
   256
  6
BYLAYER
  0
ACDBPLACEHOLDER
  5
F
102
{ACAD_REACTORS
330
E
102
}
330
E
  0
DICTIONARYVAR
  5
136
102
{ACAD_REACTORS
330
135
102
}
330
135
100
DictionaryVariables
280
     0
  1
1
  0
ENDSEC
  0
EOF
