  0
SECTION
  2
HEADER
  9
$ACADVER
  1
AC1015
  9
$ACADMAINTVER
 70
    13
  9
$DWGCODEPAGE
  3
ANSI_1252
  9
$INSBASE
 10
0.0
 20
0.0
 30
0.0
  9
$EXTMIN
 10
0.0
 20
-0.0000000000000208
 30
0.0
  9
$EXTMAX
 10
502.0
 20
47.0
 30
0.0
  9
$LIMMIN
 10
0.0
 20
0.0
  9
$LIMMAX
 10
12.0
 20
9.0
  9
$ORTHOMODE
 70
     0
  9
$REGENMODE
 70
     1
  9
$FILLMODE
 70
     1
  9
$QTEXTMODE
 70
     0
  9
$MIRRTEXT
 70
     1
  9
$LTSCALE
 40
1.0
  9
$ATTMODE
 70
     1
  9
$TEXTSIZE
 40
0.2
  9
$TRACEWID
 40
0.05
  9
$TEXTSTYLE
  7
Standard
  9
$CLAYER
  8
0
  9
$CELTYPE
  6
Continuous
  9
$CECOLOR
 62
   256
  9
$CELTSCALE
 40
1.0
  9
$DISPSILH
 70
     0
  9
$DIMSCALE
 40
1.0
  9
$DIMASZ
 40
0.18
  9
$DIMEXO
 40
0.0625
  9
$DIMDLI
 40
0.38
  9
$DIMRND
 40
0.0
  9
$DIMDLE
 40
0.0
  9
$DIMEXE
 40
0.18
  9
$DIMTP
 40
0.0
  9
$DIMTM
 40
0.0
  9
$DIMTXT
 40
0.18
  9
$DIMCEN
 40
0.09
  9
$DIMTSZ
 40
0.0
  9
$DIMTOL
 70
     0
  9
$DIMLIM
 70
     0
  9
$DIMTIH
 70
     1
  9
$DIMTOH
 70
     1
  9
$DIMSE1
 70
     0
  9
$DIMSE2
 70
     0
  9
$DIMTAD
 70
     0
  9
$DIMZIN
 70
     0
  9
$DIMBLK
  1

  9
$DIMASO
 70
     1
  9
$DIMSHO
 70
     1
  9
$DIMPOST
  1

  9
$DIMAPOST
  1

  9
$DIMALT
 70
     0
  9
$DIMALTD
 70
     2
  9
$DIMALTF
 40
25.4
  9
$DIMLFAC
 40
1.0
  9
$DIMTOFL
 70
     0
  9
$DIMTVP
 40
0.0
  9
$DIMTIX
 70
     0
  9
$DIMSOXD
 70
     0
  9
$DIMSAH
 70
     0
  9
$DIMBLK1
  1

  9
$DIMBLK2
  1

  9
$DIMSTYLE
  2
Standard
  9
$DIMCLRD
 70
     0
  9
$DIMCLRE
 70
     0
  9
$DIMCLRT
 70
     0
  9
$DIMTFAC
 40
1.0
  9
$DIMGAP
 40
0.09
  9
$DIMJUST
 70
     0
  9
$DIMSD1
 70
     0
  9
$DIMSD2
 70
     0
  9
$DIMTOLJ
 70
     1
  9
$DIMTZIN
 70
     0
  9
$DIMALTZ
 70
     0
  9
$DIMALTTZ
 70
     0
  9
$DIMUPT
 70
     0
  9
$DIMDEC
 70
     4
  9
$DIMTDEC
 70
     4
  9
$DIMALTU
 70
     2
  9
$DIMALTTD
 70
     2
  9
$DIMTXSTY
  7
Standard
  9
$DIMAUNIT
 70
     0
  9
$DIMADEC
 70
     0
  9
$DIMALTRND
 40
0.0
  9
$DIMAZIN
 70
     0
  9
$DIMDSEP
 70
    46
  9
$DIMATFIT
 70
     3
  9
$DIMFRAC
 70
     0
  9
$DIMLDRBLK
  1

  9
$DIMLUNIT
 70
     2
  9
$DIMLWD
 70
    -2
  9
$DIMLWE
 70
    -2
  9
$DIMTMOVE
 70
     0
  9
$LUNITS
 70
     2
  9
$LUPREC
 70
     4
  9
$SKETCHINC
 40
0.1
  9
$FILLETRAD
 40
0.0
  9
$AUNITS
 70
     0
  9
$AUPREC
 70
     0
  9
$MENU
  1
.
  9
$ELEVATION
 40
0.0
  9
$PELEVATION
 40
0.0
  9
$THICKNESS
 40
0.0
  9
$LIMCHECK
 70
     0
  9
$CHAMFERA
 40
0.0
  9
$CHAMFERB
 40
0.0
  9
$CHAMFERC
 40
0.0
  9
$CHAMFERD
 40
0.0
  9
$SKPOLY
 70
     0
  9
$TDCREATE
 40
2455508.889604120
  9
$TDUCREATE
 40
2455508.847937453
  9
$TDUPDATE
 40
2455508.893484872
  9
$TDUUPDATE
 40
2455508.851818206
  9
$TDINDWG
 40
0.0038809375
  9
$TDUSRTIMER
 40
0.0038809375
  9
$USRTIMER
 70
     1
  9
$ANGBASE
 50
0.0
  9
$ANGDIR
 70
     0
  9
$PDMODE
 70
     0
  9
$PDSIZE
 40
0.0
  9
$PLINEWID
 40
0.0
  9
$SPLFRAME
 70
     0
  9
$SPLINETYPE
 70
     6
  9
$SPLINESEGS
 70
     8
  9
$HANDSEED
  5
123
  9
$SURFTAB1
 70
     6
  9
$SURFTAB2
 70
     6
  9
$SURFTYPE
 70
     6
  9
$SURFU
 70
     6
  9
$SURFV
 70
     6
  9
$UCSBASE
  2

  9
$UCSNAME
  2

  9
$UCSORG
 10
0.0
 20
0.0
 30
0.0
  9
$UCSXDIR
 10
1.0
 20
0.0
 30
0.0
  9
$UCSYDIR
 10
0.0
 20
1.0
 30
0.0
  9
$UCSORTHOREF
  2

  9
$UCSORTHOVIEW
 70
     1
  9
$UCSORGTOP
 10
0.0
 20
0.0
 30
0.0
  9
$UCSORGBOTTOM
 10
0.0
 20
0.0
 30
0.0
  9
$UCSORGLEFT
 10
0.0
 20
0.0
 30
0.0
  9
$UCSORGRIGHT
 10
0.0
 20
0.0
 30
0.0
  9
$UCSORGFRONT
 10
0.0
 20
0.0
 30
0.0
  9
$UCSORGBACK
 10
0.0
 20
0.0
 30
0.0
  9
$PUCSBASE
  2

  9
$PUCSNAME
  2

  9
$PUCSORG
 10
0.0
 20
0.0
 30
0.0
  9
$PUCSXDIR
 10
1.0
 20
0.0
 30
0.0
  9
$PUCSYDIR
 10
0.0
 20
1.0
 30
0.0
  9
$PUCSORTHOREF
  2

  9
$PUCSORTHOVIEW
 70
     0
  9
$PUCSORGTOP
 10
0.0
 20
0.0
 30
0.0
  9
$PUCSORGBOTTOM
 10
0.0
 20
0.0
 30
0.0
  9
$PUCSORGLEFT
 10
0.0
 20
0.0
 30
0.0
  9
$PUCSORGRIGHT
 10
0.0
 20
0.0
 30
0.0
  9
$PUCSORGFRONT
 10
0.0
 20
0.0
 30
0.0
  9
$PUCSORGBACK
 10
0.0
 20
0.0
 30
0.0
  9
$USERI1
 70
     0
  9
$USERI2
 70
     0
  9
$USERI3
 70
     0
  9
$USERI4
 70
     0
  9
$USERI5
 70
     0
  9
$USERR1
 40
0.0
  9
$USERR2
 40
0.0
  9
$USERR3
 40
0.0
  9
$USERR4
 40
0.0
  9
$USERR5
 40
0.0
  9
$WORLDVIEW
 70
     1
  9
$SHADEDGE
 70
     3
  9
$SHADEDIF
 70
    70
  9
$TILEMODE
 70
     1
  9
$MAXACTVP
 70
    64
  9
$PINSBASE
 10
0.0
 20
0.0
 30
0.0
  9
$PLIMCHECK
 70
     0
  9
$PEXTMIN
 10
1.000000000000000E+20
 20
1.000000000000000E+20
 30
1.000000000000000E+20
  9
$PEXTMAX
 10
-1.000000000000000E+20
 20
-1.000000000000000E+20
 30
-1.000000000000000E+20
  9
$PLIMMIN
 10
0.0
 20
0.0
  9
$PLIMMAX
 10
12.0
 20
9.0
  9
$UNITMODE
 70
     0
  9
$VISRETAIN
 70
     1
  9
$PLINEGEN
 70
     0
  9
$PSLTSCALE
 70
     1
  9
$TREEDEPTH
 70
  3020
  9
$CMLSTYLE
  2
Standard
  9
$CMLJUST
 70
     0
  9
$CMLSCALE
 40
1.0
  9
$PROXYGRAPHICS
 70
     1
  9
$MEASUREMENT
 70
     0
  9
$CELWEIGHT
370
    -1
  9
$ENDCAPS
280
     0
  9
$JOINSTYLE
280
     0
  9
$LWDISPLAY
290
     0
  9
$INSUNITS
 70
     0
  9
$HYPERLINKBASE
  1

  9
$STYLESHEET
  1

  9
$XEDIT
290
     1
  9
$CEPSNTYPE
380
     0
  9
$PSTYLEMODE
290
     1
  9
$FINGERPRINTGUID
  2
{C3A9119F-8F66-47C4-86D3-AF5D874528FE}
  9
$VERSIONGUID
  2
{BD00C66A-B761-4FE3-9F84-34C754FF042C}
  9
$EXTNAMES
290
     1
  9
$PSVPSCALE
 40
0.0
  9
$OLESTARTUP
290
     0
  0
ENDSEC
  0
SECTION
  2
CLASSES
  0
CLASS
  1
ACDBDICTIONARYWDFLT
  2
AcDbDictionaryWithDefault
  3
AutoCAD 2000
 90
        0
280
     0
281
     0
  0
CLASS
  1
ACDBPLACEHOLDER
  2
AcDbPlaceHolder
  3
AutoCAD 2000
 90
        0
280
     0
281
     0
  0
CLASS
  1
LAYOUT
  2
AcDbLayout
  3
AutoCAD 2000
 90
        0
280
     0
281
     0
  0
CLASS
  1
DICTIONARYVAR
  2
AcDbDictionaryVar
  3
AutoCAD 2000
 90
        0
280
     0
281
     0
  0
ENDSEC
  0
SECTION
  2
TABLES
  0
TABLE
  2
VPORT
  5
8
330
0
100
AcDbSymbolTable
 70
     4
  0
VPORT
  5
122
330
8
100
AcDbSymbolTableRecord
100
AcDbViewportTableRecord
  2
*Active
 70
     0
 10
0.0
 20
0.0
 11
1.0
 21
1.0
 12
251.0
 22
23.49999999999999
 13
0.0
 23
0.0
 14
1.0
 24
1.0
 15
0.0
 25
0.0
 16
0.0
 26
0.0
 36
1.0
 17
0.0
 27
0.0
 37
0.0
 40
242.9090482601914
 41
2.073363431151241
 42
50.0
 43
0.0
 44
0.0
 50
0.0
 51
0.0
 71
     0
 72
   100
 73
     1
 74
     3
 75
     0
 76
     0
 77
     0
 78
     0
281
     0
 65
     1
110
0.0
120
0.0
130
0.0
111
1.0
121
0.0
131
0.0
112
0.0
122
1.0
132
0.0
 79
     1
146
0.0
  0
ENDTAB
  0
TABLE
  2
LTYPE
  5
5
330
0
100
AcDbSymbolTable
 70
     1
  0
LTYPE
  5
13
330
5
100
AcDbSymbolTableRecord
100
AcDbLinetypeTableRecord
  2
ByBlock
 70
     0
  3

 72
    65
 73
     0
 40
0.0
  0
LTYPE
  5
14
330
5
100
AcDbSymbolTableRecord
100
AcDbLinetypeTableRecord
  2
ByLayer
 70
     0
  3

 72
    65
 73
     0
 40
0.0
  0
LTYPE
  5
15
330
5
100
AcDbSymbolTableRecord
100
AcDbLinetypeTableRecord
  2
Continuous
 70
     0
  3
Solid line
 72
    65
 73
     0
 40
0.0
  0
ENDTAB
  0
TABLE
  2
LAYER
  5
2
330
0
100
AcDbSymbolTable
 70
     1
  0
LAYER
  5
10
330
2
100
AcDbSymbolTableRecord
100
AcDbLayerTableRecord
  2
0
 70
     0
 62
     7
  6
Continuous
370
    -3
390
F
  0
ENDTAB
  0
TABLE
  2
STYLE
  5
3
330
0
100
AcDbSymbolTable
 70
     1
  0
STYLE
  5
11
330
3
100
AcDbSymbolTableRecord
100
AcDbTextStyleTableRecord
  2
Standard
 70
     0
 40
0.0
 41
1.0
 50
0.0
 71
     0
 42
0.2
  3
txt
  4

  0
ENDTAB
  0
TABLE
  2
VIEW
  5
6
330
0
100
AcDbSymbolTable
 70
     0
  0
ENDTAB
  0
TABLE
  2
UCS
  5
7
330
0
100
AcDbSymbolTable
 70
     0
  0
ENDTAB
  0
TABLE
  2
APPID
  5
9
330
0
100
AcDbSymbolTable
 70
     1
  0
APPID
  5
12
330
9
100
AcDbSymbolTableRecord
100
AcDbRegAppTableRecord
  2
ACAD
 70
     0
  0
ENDTAB
  0
TABLE
  2
DIMSTYLE
  5
A
330
0
100
AcDbSymbolTable
 70
     1
100
AcDbDimStyleTable
 71
     0
  0
DIMSTYLE
105
118
330
A
100
AcDbSymbolTableRecord
100
AcDbDimStyleTableRecord
  2
Standard
 70
     0
340
11
  0
ENDTAB
  0
TABLE
  2
BLOCK_RECORD
  5
1
330
0
100
AcDbSymbolTable
 70
     0
  0
BLOCK_RECORD
  5
1E
330
1
100
AcDbSymbolTableRecord
100
AcDbBlockTableRecord
  2
*Model_Space
340
21
  0
BLOCK_RECORD
  5
1A
330
1
100
AcDbSymbolTableRecord
100
AcDbBlockTableRecord
  2
*Paper_Space
340
1D
  0
ENDTAB
  0
ENDSEC
  0
SECTION
  2
BLOCKS
  0
BLOCK
  5
1F
330
1E
100
AcDbEntity
  8
0
100
AcDbBlockBegin
  2
*Model_Space
 70
     0
 10
0.0
 20
0.0
 30
0.0
  3
*Model_Space
  1

  0
ENDBLK
  5
20
330
1E
100
AcDbEntity
  8
0
100
AcDbBlockEnd
  0
BLOCK
  5
1B
330
1A
100
AcDbEntity
 67
     1
  8
0
100
AcDbBlockBegin
  2
*Paper_Space
 70
     0
 10
0.0
 20
0.0
 30
0.0
  3
*Paper_Space
  1

  0
ENDBLK
  5
1C
330
1A
100
AcDbEntity
 67
     1
  8
0
100
AcDbBlockEnd
  0
ENDSEC
  0
SECTION
  2
ENTITIES
  0
LINE
  5
22
330
1E
100
AcDbEntity
  8
0
100
AcDbLine
 10
4.92263
 20
-0.000000000000011
 30
0.0
 11
6.5
 21
-0.000000000000016
 31
0.0
  0
LINE
  5
23
330
1E
100
AcDbEntity
  8
0
100
AcDbLine
 10
0.0
 20
1.5
 30
0.0
 11
0.163
 21
4.102699999999999
 31
0.0
  0
LINE
  5
24
330
1E
100
AcDbEntity
  8
0
100
AcDbLine
 10
0.0
 20
1.5
 30
0.0
 11
0.5
 21
0.500000000000004
 31
0.0
  0
LINE
  5
25
330
1E
100
AcDbEntity
  8
0
100
AcDbLine
 10
2.5
 20
0.0000000000000037
 30
0.0
 11
2.998229999999999
 21
0.0000000000000086
 31
0.0
  0
LINE
  5
26
330
1E
100
AcDbEntity
  8
0
100
AcDbLine
 10
1.998229999999999
 20
-0.0000000000000012
 30
0.0
 11
3.081339999999999
 21
-0.0000000000000061
 31
0.0
  0
LINE
  5
27
330
1E
100
AcDbEntity
  8
0
100
AcDbLine
 10
0.998231
 20
0.500000000000009
 30
0.0
 11
2.081339999999999
 21
0.500000000000013
 31
0.0
  0
LINE
  5
28
330
1E
100
AcDbEntity
  8
0
100
AcDbLine
 10
2.081339999999999
 20
0.500000000000013
 30
0.0
 11
3.92263
 21
0.500000000000018
 31
0.0
  0
LINE
  5
29
330
1E
100
AcDbEntity
  8
0
100
AcDbLine
 10
0.5
 20
0.500000000000004
 30
0.0
 11
1.5
 21
0.0000000000000037
 31
0.0
  0
LINE
  5
2A
330
1E
100
AcDbEntity
  8
0
100
AcDbLine
 10
0.5
 20
0.500000000000004
 30
0.0
 11
0.998231
 21
0.500000000000009
 31
0.0
  0
LINE
  5
2B
330
1E
100
AcDbEntity
  8
0
100
AcDbLine
 10
0.5
 20
0.500000000000004
 30
0.0
 11
1.5
 21
0.0000000000000037
 31
0.0
  0
LINE
  5
2C
330
1E
100
AcDbEntity
  8
0
100
AcDbLine
 10
1.5
 20
0.0000000000000037
 30
0.0
 11
1.998229999999999
 21
-0.0000000000000012
 31
0.0
  0
LINE
  5
2D
330
1E
100
AcDbEntity
  8
0
100
AcDbLine
 10
0.163
 20
4.102699999999999
 30
0.0
 11
0.7055
 21
7.739300000000009
 31
0.0
  0
LINE
  5
2E
330
1E
100
AcDbEntity
  8
0
100
AcDbLine
 10
0.7055
 20
7.739300000000009
 30
0.0
 11
2.7126
 21
13.0043
 31
0.0
  0
LINE
  5
2F
330
1E
100
AcDbEntity
  8
0
100
AcDbLine
 10
2.998229999999999
 20
0.0000000000000086
 30
0.0
 11
4.081339999999999
 21
0.0000000000000135
 31
0.0
  0
LINE
  5
30
330
1E
100
AcDbEntity
  8
0
100
AcDbLine
 10
3.92263
 20
0.500000000000018
 30
0.0
 11
5.5
 21
0.500000000000023
 31
0.0
  0
LINE
  5
31
330
1E
100
AcDbEntity
  8
0
100
AcDbLine
 10
5.92263
 20
0.0000000000000184
 30
0.0
 11
7.5
 21
0.0000000000000233
 31
0.0
  0
LINE
  5
32
330
1E
100
AcDbEntity
  8
0
100
AcDbLine
 10
4.081339999999999
 20
0.0000000000000135
 30
0.0
 11
5.92263
 21
0.0000000000000184
 31
0.0
  0
LINE
  5
33
330
1E
100
AcDbEntity
  8
0
100
AcDbLine
 10
2.7126
 20
13.0043
 30
0.0
 11
7.703199999999999
 21
19.9519
 31
0.0
  0
LINE
  5
34
330
1E
100
AcDbEntity
  8
0
100
AcDbLine
 10
6.13736
 20
0.500000000000024
 30
0.0
 11
8.038529999999999
 21
0.500000000000025
 31
0.0
  0
LINE
  5
35
330
1E
100
AcDbEntity
  8
0
100
AcDbLine
 10
5.5
 20
0.500000000000023
 30
0.0
 11
6.13736
 21
0.500000000000024
 31
0.0
  0
LINE
  5
36
330
1E
100
AcDbEntity
  8
0
100
AcDbLine
 10
2.7126
 20
13.0043
 30
0.0
 11
7.703199999999999
 21
19.9519
 31
0.0
  0
LINE
  5
37
330
1E
100
AcDbEntity
  8
0
100
AcDbLine
 10
3.081339999999999
 20
-0.0000000000000061
 30
0.0
 11
4.92263
 21
-0.000000000000011
 31
0.0
  0
LINE
  5
38
330
1E
100
AcDbEntity
  8
0
100
AcDbLine
 10
9.00445
 20
-0.0000000000000171
 30
0.0
 11
12.0949
 21
-0.0000000000000177
 31
0.0
  0
LINE
  5
39
330
1E
100
AcDbEntity
  8
0
100
AcDbLine
 10
12.0949
 20
-0.0000000000000177
 30
0.0
 11
16.3471
 21
-0.0000000000000182
 31
0.0
  0
LINE
  5
3A
330
1E
100
AcDbEntity
  8
0
100
AcDbLine
 10
16.3471
 20
-0.0000000000000182
 30
0.0
 11
21.6885
 21
-0.0000000000000187
 31
0.0
  0
LINE
  5
3B
330
1E
100
AcDbEntity
  8
0
100
AcDbLine
 10
7.5
 20
0.0000000000000233
 30
0.0
 11
8.12025
 21
0.0000000000000239
 31
0.0
  0
LINE
  5
3C
330
1E
100
AcDbEntity
  8
0
100
AcDbLine
 10
8.038529999999999
 20
0.500000000000025
 30
0.0
 11
11.17099999999999
 21
0.500000000000025
 31
0.0
  0
LINE
  5
3D
330
1E
100
AcDbEntity
  8
0
100
AcDbLine
 10
9.97038
 20
0.0000000000000245
 30
0.0
 11
13.0187
 21
0.000000000000025
 31
0.0
  0
LINE
  5
3E
330
1E
100
AcDbEntity
  8
0
100
AcDbLine
 10
13.0187
 20
0.000000000000025
 30
0.0
 11
17.2132
 21
0.0000000000000256
 31
0.0
  0
LINE
  5
3F
330
1E
100
AcDbEntity
  8
0
100
AcDbLine
 10
11.17099999999999
 20
0.500000000000025
 30
0.0
 11
15.4811
 21
0.500000000000026
 31
0.0
  0
LINE
  5
40
330
1E
100
AcDbEntity
  8
0
100
AcDbLine
 10
17.2132
 20
0.0000000000000256
 30
0.0
 11
22.4819
 21
0.000000000000026
 31
0.0
  0
LINE
  5
41
330
1E
100
AcDbEntity
  8
0
100
AcDbLine
 10
15.4811
 20
0.500000000000026
 30
0.0
 11
20.89519999999999
 21
0.500000000000026
 31
0.0
  0
LINE
  5
42
330
1E
100
AcDbEntity
  8
0
100
AcDbLine
 10
8.12025
 20
0.0000000000000239
 30
0.0
 11
9.97038
 21
0.0000000000000245
 31
0.0
  0
LINE
  5
43
330
1E
100
AcDbEntity
  8
0
100
AcDbLine
 10
20.89519999999999
 20
0.500000000000026
 30
0.0
 11
27.3205
 21
0.5000000000000271
 31
0.0
  0
LINE
  5
44
330
1E
100
AcDbEntity
  8
0
100
AcDbLine
 10
7.703199999999999
 20
19.9519
 30
0.0
 11
14.3212
 21
25.3798
 31
0.0
  0
LINE
  5
45
330
1E
100
AcDbEntity
  8
0
100
AcDbLine
 10
14.3212
 20
25.3798
 30
0.0
 11
22.4581
 21
29.3964
 31
0.0
  0
LINE
  5
46
330
1E
100
AcDbEntity
  8
0
100
AcDbLine
 10
22.4819
 20
0.000000000000026
 30
0.0
 11
28.7348
 21
0.0000000000000265
 31
0.0
  0
LINE
  5
47
330
1E
100
AcDbEntity
  8
0
100
AcDbLine
 10
27.3205
 20
0.5000000000000271
 30
0.0
 11
34.6473
 21
0.5000000000000271
 31
0.0
  0
LINE
  5
48
330
1E
100
AcDbEntity
  8
0
100
AcDbLine
 10
22.4581
 20
29.3964
 30
0.0
 11
30.70349999999999
 21
31.7846
 31
0.0
  0
LINE
  5
49
330
1E
100
AcDbEntity
  8
0
100
AcDbLine
 10
7.1288
 20
-0.0000000000000166
 30
0.0
 11
9.00445
 21
-0.0000000000000171
 31
0.0
  0
LINE
  5
4A
330
1E
100
AcDbEntity
  8
0
100
AcDbLine
 10
6.5
 20
-0.000000000000016
 30
0.0
 11
7.1288
 21
-0.0000000000000166
 31
0.0
  0
LINE
  5
4B
330
1E
100
AcDbEntity
  8
0
100
AcDbLine
 10
21.6885
 20
-0.0000000000000187
 30
0.0
 11
28.0277
 21
-0.0000000000000192
 31
0.0
  0
LINE
  5
4C
330
1E
100
AcDbEntity
  8
0
100
AcDbLine
 10
51.8728
 20
-0.0000000000000201
 30
0.0
 11
60.9768
 21
-0.0000000000000203
 31
0.0
  0
LINE
  5
4D
330
1E
100
AcDbEntity
  8
0
100
AcDbLine
 10
43.25
 20
-0.0000000000000199
 30
0.0
 11
51.8728
 21
-0.0000000000000201
 31
0.0
  0
LINE
  5
4E
330
1E
100
AcDbEntity
  8
0
100
AcDbLine
 10
60.9768
 20
-0.0000000000000203
 30
0.0
 11
70.4063
 21
-0.0000000000000204
 31
0.0
  0
LINE
  5
4F
330
1E
100
AcDbEntity
  8
0
100
AcDbLine
 10
52.2555
 20
0.0000000000000274
 30
0.0
 11
61.2356
 21
0.0000000000000276
 31
0.0
  0
LINE
  5
50
330
1E
100
AcDbEntity
  8
0
100
AcDbLine
 10
43.75
 20
0.0000000000000272
 30
0.0
 11
52.2555
 21
0.0000000000000274
 31
0.0
  0
LINE
  5
51
330
1E
100
AcDbEntity
  8
0
100
AcDbLine
 10
35.8648
 20
0.0000000000000269
 30
0.0
 11
43.75
 21
0.0000000000000272
 31
0.0
  0
LINE
  5
52
330
1E
100
AcDbEntity
  8
0
100
AcDbLine
 10
42.49819999999999
 20
33.0
 30
0.0
 11
43.5813
 21
33.0
 31
0.0
  0
LINE
  5
53
330
1E
100
AcDbEntity
  8
0
100
AcDbLine
 10
42.0
 20
33.0
 30
0.0
 11
42.49819999999999
 21
33.0
 31
0.0
  0
LINE
  5
54
330
1E
100
AcDbEntity
  8
0
100
AcDbLine
 10
45.4226
 20
33.0
 30
0.0
 11
47.0
 21
33.0
 31
0.0
  0
LINE
  5
55
330
1E
100
AcDbEntity
  8
0
100
AcDbLine
 10
43.5813
 20
33.0
 30
0.0
 11
45.4226
 21
33.0
 31
0.0
  0
LINE
  5
56
330
1E
100
AcDbEntity
  8
0
100
AcDbLine
 10
48.1244
 20
33.0
 30
0.0
 11
49.512
 21
33.0
 31
0.0
  0
LINE
  5
57
330
1E
100
AcDbEntity
  8
0
100
AcDbLine
 10
49.512
 20
33.0
 30
0.0
 11
51.4212
 21
33.0
 31
0.0
  0
LINE
  5
58
330
1E
100
AcDbEntity
  8
0
100
AcDbLine
 10
53.8193
 20
33.0
 30
0.0
 11
56.6655
 21
33.0
 31
0.0
  0
LINE
  5
59
330
1E
100
AcDbEntity
  8
0
100
AcDbLine
 10
51.4212
 20
33.0
 30
0.0
 11
53.8193
 21
33.0
 31
0.0
  0
LINE
  5
5A
330
1E
100
AcDbEntity
  8
0
100
AcDbLine
 10
47.28229999999999
 20
33.0
 30
0.0
 11
48.1244
 21
33.0
 31
0.0
  0
LINE
  5
5B
330
1E
100
AcDbEntity
  8
0
100
AcDbLine
 10
47.0
 20
33.0
 30
0.0
 11
47.28229999999999
 21
33.0
 31
0.0
  0
LINE
  5
5C
330
1E
100
AcDbEntity
  8
0
100
AcDbLine
 10
51.4901
 20
0.500000000000028
 30
0.0
 11
60.718
 21
0.500000000000028
 31
0.0
  0
LINE
  5
5D
330
1E
100
AcDbEntity
  8
0
100
AcDbLine
 10
42.75
 20
0.5000000000000271
 30
0.0
 11
51.4901
 21
0.500000000000028
 31
0.0
  0
LINE
  5
5E
330
1E
100
AcDbEntity
  8
0
100
AcDbLine
 10
34.6473
 20
0.5000000000000271
 30
0.0
 11
42.75
 21
0.5000000000000271
 31
0.0
  0
LINE
  5
5F
330
1E
100
AcDbEntity
  8
0
100
AcDbLine
 10
61.2356
 20
0.0000000000000276
 30
0.0
 11
70.53679999999999
 21
0.0000000000000277
 31
0.0
  0
LINE
  5
60
330
1E
100
AcDbEntity
  8
0
100
AcDbLine
 10
60.718
 20
0.500000000000028
 30
0.0
 11
70.2758
 21
0.500000000000028
 31
0.0
  0
LINE
  5
61
330
1E
100
AcDbEntity
  8
0
100
AcDbLine
 10
59.91089999999999
 20
33.0
 30
0.0
 11
63.5
 21
33.0
 31
0.0
  0
LINE
  5
62
330
1E
100
AcDbEntity
  8
0
100
AcDbLine
 10
56.6655
 20
33.0
 30
0.0
 11
59.91089999999999
 21
33.0
 31
0.0
  0
LINE
  5
63
330
1E
100
AcDbEntity
  8
0
100
AcDbLine
 10
28.7348
 20
0.0000000000000265
 30
0.0
 11
35.8648
 21
0.0000000000000269
 31
0.0
  0
LINE
  5
64
330
1E
100
AcDbEntity
  8
0
100
AcDbLine
 10
35.256
 20
-0.0000000000000195
 30
0.0
 11
43.25
 21
-0.0000000000000199
 31
0.0
  0
LINE
  5
65
330
1E
100
AcDbEntity
  8
0
100
AcDbLine
 10
28.0277
 20
-0.0000000000000192
 30
0.0
 11
35.256
 21
-0.0000000000000195
 31
0.0
  0
LINE
  5
66
330
1E
100
AcDbEntity
  8
0
100
AcDbLine
 10
62.0
 20
47.0
 30
0.0
 11
62.1789
 21
47.0
 31
0.0
  0
LINE
  5
67
330
1E
100
AcDbEntity
  8
0
100
AcDbLine
 10
62.0
 20
47.0
 30
0.0
 11
62.0
 21
33.0
 31
0.0
  0
LINE
  5
68
330
1E
100
AcDbEntity
  8
0
100
AcDbLine
 10
62.0
 20
47.0
 30
0.0
 11
62.0
 21
33.0
 31
0.0
  0
LINE
  5
69
330
1E
100
AcDbEntity
  8
0
100
AcDbLine
 10
63.5
 20
33.0
 30
0.0
 11
67.3714
 21
33.0
 31
0.0
  0
LINE
  5
6A
330
1E
100
AcDbEntity
  8
0
100
AcDbLine
 10
70.53679999999999
 20
0.0000000000000277
 30
0.0
 11
80.0
 21
0.0000000000000278
 31
0.0
  0
LINE
  5
6B
330
1E
100
AcDbEntity
  8
0
100
AcDbLine
 10
70.2758
 20
0.500000000000028
 30
0.0
 11
80.0
 21
0.500000000000028
 31
0.0
  0
LINE
  5
6C
330
1E
100
AcDbEntity
  8
0
100
AcDbLine
 10
80.0
 20
0.0000000000000278
 30
0.0
 11
111.26
 21
0.0000000000000279
 31
0.0
  0
LINE
  5
6D
330
1E
100
AcDbEntity
  8
0
100
AcDbLine
 10
67.3714
 20
33.0
 30
0.0
 11
71.45900000000001
 21
33.0
 31
0.0
  0
LINE
  5
6E
330
1E
100
AcDbEntity
  8
0
100
AcDbLine
 10
71.45900000000001
 20
33.0
 30
0.0
 11
75.69259999999999
 21
33.0
 31
0.0
  0
LINE
  5
6F
330
1E
100
AcDbEntity
  8
0
100
AcDbLine
 10
75.69259999999999
 20
33.0
 30
0.0
 11
80.0
 21
33.0
 31
0.0
  0
LINE
  5
70
330
1E
100
AcDbEntity
  8
0
100
AcDbLine
 10
80.0
 20
0.500000000000028
 30
0.0
 11
111.26
 21
0.500000000000028
 31
0.0
  0
LINE
  5
71
330
1E
100
AcDbEntity
  8
0
100
AcDbLine
 10
80.0
 20
33.0
 30
0.0
 11
111.26
 21
33.0
 31
0.0
  0
LINE
  5
72
330
1E
100
AcDbEntity
  8
0
100
AcDbLine
 10
70.4063
 20
-0.0000000000000204
 30
0.0
 11
80.0
 21
-0.0000000000000205
 31
0.0
  0
LINE
  5
73
330
1E
100
AcDbEntity
  8
0
100
AcDbLine
 10
80.0
 20
-0.0000000000000205
 30
0.0
 11
111.26
 21
-0.0000000000000206
 31
0.0
  0
LINE
  5
76
330
1E
100
AcDbEntity
  8
0
100
AcDbLine
 10
300.978
 20
-0.0000000000000207
 30
0.0
 11
345.848
 21
-0.0000000000000207
 31
0.0
  0
LINE
  5
77
330
1E
100
AcDbEntity
  8
0
100
AcDbLine
 10
251.0
 20
-0.0000000000000208
 30
0.0
 11
300.978
 21
-0.0000000000000207
 31
0.0
  0
LINE
  5
78
330
1E
100
AcDbEntity
  8
0
100
AcDbLine
 10
111.26
 20
0.0000000000000279
 30
0.0
 11
156.152
 21
0.000000000000028
 31
0.0
  0
LINE
  5
79
330
1E
100
AcDbEntity
  8
0
100
AcDbLine
 10
111.26
 20
0.500000000000028
 30
0.0
 11
156.152
 21
0.500000000000028
 31
0.0
  0
LINE
  5
7A
330
1E
100
AcDbEntity
  8
0
100
AcDbLine
 10
156.152
 20
0.000000000000028
 30
0.0
 11
201.022
 21
0.0000000000000281
 31
0.0
  0
LINE
  5
7B
330
1E
100
AcDbEntity
  8
0
100
AcDbLine
 10
111.26
 20
33.0
 30
0.0
 11
156.152
 21
33.0
 31
0.0
  0
LINE
  5
7C
330
1E
100
AcDbEntity
  8
0
100
AcDbLine
 10
156.152
 20
0.500000000000028
 30
0.0
 11
201.022
 21
0.500000000000028
 31
0.0
  0
LINE
  5
7D
330
1E
100
AcDbEntity
  8
0
100
AcDbLine
 10
156.152
 20
33.0
 30
0.0
 11
201.022
 21
33.0
 31
0.0
  0
LINE
  5
7E
330
1E
100
AcDbEntity
  8
0
100
AcDbLine
 10
111.26
 20
-0.0000000000000206
 30
0.0
 11
156.152
 21
-0.0000000000000207
 31
0.0
  0
LINE
  5
7F
330
1E
100
AcDbEntity
  8
0
100
AcDbLine
 10
345.848
 20
-0.0000000000000207
 30
0.0
 11
390.7399999999999
 21
-0.0000000000000206
 31
0.0
  0
LINE
  5
80
330
1E
100
AcDbEntity
  8
0
100
AcDbLine
 10
201.022
 20
33.0
 30
0.0
 11
251.0
 21
33.0
 31
0.0
  0
LINE
  5
81
330
1E
100
AcDbEntity
  8
0
100
AcDbLine
 10
201.022
 20
0.0000000000000281
 30
0.0
 11
251.0
 21
0.0000000000000281
 31
0.0
  0
LINE
  5
82
330
1E
100
AcDbEntity
  8
0
100
AcDbLine
 10
251.0
 20
33.0
 30
0.0
 11
300.978
 21
33.0
 31
0.0
  0
LINE
  5
83
330
1E
100
AcDbEntity
  8
0
100
AcDbLine
 10
251.0
 20
0.0000000000000281
 30
0.0
 11
300.978
 21
0.0000000000000281
 31
0.0
  0
LINE
  5
84
330
1E
100
AcDbEntity
  8
0
100
AcDbLine
 10
300.978
 20
0.0000000000000281
 30
0.0
 11
345.848
 21
0.000000000000028
 31
0.0
  0
LINE
  5
85
330
1E
100
AcDbEntity
  8
0
100
AcDbLine
 10
345.848
 20
0.000000000000028
 30
0.0
 11
390.7399999999999
 21
0.0000000000000279
 31
0.0
  0
LINE
  5
86
330
1E
100
AcDbEntity
  8
0
100
AcDbLine
 10
345.848
 20
0.500000000000028
 30
0.0
 11
390.7399999999999
 21
0.500000000000028
 31
0.0
  0
LINE
  5
87
330
1E
100
AcDbEntity
  8
0
100
AcDbLine
 10
345.848
 20
33.0
 30
0.0
 11
390.7399999999999
 21
33.0
 31
0.0
  0
LINE
  5
88
330
1E
100
AcDbEntity
  8
0
100
AcDbLine
 10
300.978
 20
0.500000000000028
 30
0.0
 11
345.848
 21
0.500000000000028
 31
0.0
  0
LINE
  5
89
330
1E
100
AcDbEntity
  8
0
100
AcDbLine
 10
300.978
 20
33.0
 30
0.0
 11
345.848
 21
33.0
 31
0.0
  0
LINE
  5
8A
330
1E
100
AcDbEntity
  8
0
100
AcDbLine
 10
251.0
 20
0.500000000000028
 30
0.0
 11
300.978
 21
0.500000000000028
 31
0.0
  0
LINE
  5
8B
330
1E
100
AcDbEntity
  8
0
100
AcDbLine
 10
390.7399999999999
 20
0.0000000000000279
 30
0.0
 11
422.0
 21
0.0000000000000278
 31
0.0
  0
LINE
  5
8C
330
1E
100
AcDbEntity
  8
0
100
AcDbLine
 10
390.7399999999999
 20
0.500000000000028
 30
0.0
 11
422.0
 21
0.500000000000028
 31
0.0
  0
LINE
  5
8D
330
1E
100
AcDbEntity
  8
0
100
AcDbLine
 10
390.7399999999999
 20
33.0
 30
0.0
 11
422.0
 21
33.0
 31
0.0
  0
LINE
  5
8E
330
1E
100
AcDbEntity
  8
0
100
AcDbLine
 10
201.022
 20
0.500000000000028
 30
0.0
 11
251.0
 21
0.500000000000028
 31
0.0
  0
LINE
  5
8F
330
1E
100
AcDbEntity
  8
0
100
AcDbLine
 10
390.7399999999999
 20
-0.0000000000000206
 30
0.0
 11
422.0
 21
-0.0000000000000205
 31
0.0
  0
LINE
  5
90
330
1E
100
AcDbEntity
  8
0
100
AcDbLine
 10
156.152
 20
-0.0000000000000207
 30
0.0
 11
201.022
 21
-0.0000000000000207
 31
0.0
  0
LINE
  5
91
330
1E
100
AcDbEntity
  8
0
100
AcDbLine
 10
201.022
 20
-0.0000000000000207
 30
0.0
 11
251.0
 21
-0.0000000000000208
 31
0.0
  0
LINE
  5
92
330
1E
100
AcDbEntity
  8
0
100
AcDbLine
 10
422.0
 20
0.0000000000000278
 30
0.0
 11
431.463
 21
0.0000000000000277
 31
0.0
  0
LINE
  5
93
330
1E
100
AcDbEntity
  8
0
100
AcDbLine
 10
422.0
 20
0.500000000000028
 30
0.0
 11
431.7239999999999
 21
0.500000000000028
 31
0.0
  0
LINE
  5
94
330
1E
100
AcDbEntity
  8
0
100
AcDbLine
 10
422.0
 20
33.0
 30
0.0
 11
426.3069999999999
 21
33.0
 31
0.0
  0
LINE
  5
95
330
1E
100
AcDbEntity
  8
0
100
AcDbLine
 10
422.0
 20
-0.0000000000000205
 30
0.0
 11
431.594
 21
-0.0000000000000204
 31
0.0
  0
LINE
  5
97
330
1E
100
AcDbEntity
  8
0
100
AcDbLine
 10
426.3069999999999
 20
33.0
 30
0.0
 11
430.541
 21
33.0
 31
0.0
  0
LINE
  5
98
330
1E
100
AcDbEntity
  8
0
100
AcDbLine
 10
430.541
 20
33.0
 30
0.0
 11
434.629
 21
33.0
 31
0.0
  0
LINE
  5
99
330
1E
100
AcDbEntity
  8
0
100
AcDbLine
 10
431.463
 20
0.0000000000000277
 30
0.0
 11
440.7639999999999
 21
0.0000000000000276
 31
0.0
  0
LINE
  5
9A
330
1E
100
AcDbEntity
  8
0
100
AcDbLine
 10
434.629
 20
33.0
 30
0.0
 11
438.4999999999999
 21
33.0
 31
0.0
  0
LINE
  5
9B
330
1E
100
AcDbEntity
  8
0
100
AcDbLine
 10
431.7239999999999
 20
0.500000000000028
 30
0.0
 11
441.2819999999999
 21
0.500000000000028
 31
0.0
  0
LINE
  5
9C
330
1E
100
AcDbEntity
  8
0
100
AcDbLine
 10
431.594
 20
-0.0000000000000204
 30
0.0
 11
441.023
 21
-0.0000000000000203
 31
0.0
  0
LINE
  5
9E
330
1E
100
AcDbEntity
  8
0
100
AcDbLine
 10
438.4999999999999
 20
33.0
 30
0.0
 11
442.0889999999999
 21
33.0
 31
0.0
  0
LINE
  5
9F
330
1E
100
AcDbEntity
  8
0
100
AcDbLine
 10
441.023
 20
-0.0000000000000203
 30
0.0
 11
450.1269999999999
 21
-0.0000000000000201
 31
0.0
  0
LINE
  5
A0
330
1E
100
AcDbEntity
  8
0
100
AcDbLine
 10
450.1269999999999
 20
-0.0000000000000201
 30
0.0
 11
458.75
 21
-0.0000000000000199
 31
0.0
  0
LINE
  5
A1
330
1E
100
AcDbEntity
  8
0
100
AcDbLine
 10
440.7639999999999
 20
0.0000000000000276
 30
0.0
 11
449.7449999999999
 21
0.0000000000000274
 31
0.0
  0
LINE
  5
A2
330
1E
100
AcDbEntity
  8
0
100
AcDbLine
 10
445.3349999999999
 20
33.0
 30
0.0
 11
448.181
 21
33.0
 31
0.0
  0
LINE
  5
A3
330
1E
100
AcDbEntity
  8
0
100
AcDbLine
 10
448.181
 20
33.0
 30
0.0
 11
450.579
 21
33.0
 31
0.0
  0
LINE
  5
A4
330
1E
100
AcDbEntity
  8
0
100
AcDbLine
 10
441.2819999999999
 20
0.500000000000028
 30
0.0
 11
450.5099999999999
 21
0.500000000000028
 31
0.0
  0
LINE
  5
A5
330
1E
100
AcDbEntity
  8
0
100
AcDbLine
 10
449.7449999999999
 20
0.0000000000000274
 30
0.0
 11
458.25
 21
0.0000000000000272
 31
0.0
  0
LINE
  5
A6
330
1E
100
AcDbEntity
  8
0
100
AcDbLine
 10
452.488
 20
33.0
 30
0.0
 11
453.8759999999999
 21
33.0
 31
0.0
  0
LINE
  5
A7
330
1E
100
AcDbEntity
  8
0
100
AcDbLine
 10
450.579
 20
33.0
 30
0.0
 11
452.488
 21
33.0
 31
0.0
  0
LINE
  5
A8
330
1E
100
AcDbEntity
  8
0
100
AcDbLine
 10
458.419
 20
33.0
 30
0.0
 11
459.5019999999999
 21
33.0
 31
0.0
  0
LINE
  5
A9
330
1E
100
AcDbEntity
  8
0
100
AcDbLine
 10
455.0
 20
33.0
 30
0.0
 11
456.5769999999999
 21
33.0
 31
0.0
  0
LINE
  5
AA
330
1E
100
AcDbEntity
  8
0
100
AcDbLine
 10
456.5769999999999
 20
33.0
 30
0.0
 11
458.419
 21
33.0
 31
0.0
  0
LINE
  5
AB
330
1E
100
AcDbEntity
  8
0
100
AcDbLine
 10
453.8759999999999
 20
33.0
 30
0.0
 11
454.7179999999999
 21
33.0
 31
0.0
  0
LINE
  5
AC
330
1E
100
AcDbEntity
  8
0
100
AcDbLine
 10
454.7179999999999
 20
33.0
 30
0.0
 11
455.0
 21
33.0
 31
0.0
  0
LINE
  5
AD
330
1E
100
AcDbEntity
  8
0
100
AcDbLine
 10
450.5099999999999
 20
0.500000000000028
 30
0.0
 11
459.25
 21
0.5000000000000271
 31
0.0
  0
LINE
  5
AE
330
1E
100
AcDbEntity
  8
0
100
AcDbLine
 10
458.25
 20
0.0000000000000272
 30
0.0
 11
466.1349999999999
 21
0.0000000000000269
 31
0.0
  0
LINE
  5
AF
330
1E
100
AcDbEntity
  8
0
100
AcDbLine
 10
459.5019999999999
 20
33.0
 30
0.0
 11
460.0
 21
33.0
 31
0.0
  0
LINE
  5
B0
330
1E
100
AcDbEntity
  8
0
100
AcDbLine
 10
459.25
 20
0.5000000000000271
 30
0.0
 11
467.353
 21
0.5000000000000271
 31
0.0
  0
LINE
  5
B1
330
1E
100
AcDbEntity
  8
0
100
AcDbLine
 10
442.0889999999999
 20
33.0
 30
0.0
 11
445.3349999999999
 21
33.0
 31
0.0
  0
LINE
  5
B2
330
1E
100
AcDbEntity
  8
0
100
AcDbLine
 10
466.1349999999999
 20
0.0000000000000269
 30
0.0
 11
473.2649999999999
 21
0.0000000000000265
 31
0.0
  0
LINE
  5
B3
330
1E
100
AcDbEntity
  8
0
100
AcDbLine
 10
458.75
 20
-0.0000000000000199
 30
0.0
 11
466.744
 21
-0.0000000000000195
 31
0.0
  0
LINE
  5
B4
330
1E
100
AcDbEntity
  8
0
100
AcDbLine
 10
489.9049999999999
 20
-0.0000000000000177
 30
0.0
 11
492.996
 21
-0.0000000000000171
 31
0.0
  0
LINE
  5
B5
330
1E
100
AcDbEntity
  8
0
100
AcDbLine
 10
485.653
 20
-0.0000000000000182
 30
0.0
 11
489.9049999999999
 21
-0.0000000000000177
 31
0.0
  0
LINE
  5
B6
330
1E
100
AcDbEntity
  8
0
100
AcDbLine
 10
480.311
 20
-0.0000000000000187
 30
0.0
 11
485.653
 21
-0.0000000000000182
 31
0.0
  0
LINE
  5
B7
330
1E
100
AcDbEntity
  8
0
100
AcDbLine
 10
467.353
 20
0.5000000000000271
 30
0.0
 11
474.68
 21
0.5000000000000271
 31
0.0
  0
LINE
  5
B8
330
1E
100
AcDbEntity
  8
0
100
AcDbLine
 10
484.7869999999999
 20
0.0000000000000256
 30
0.0
 11
488.9809999999999
 21
0.000000000000025
 31
0.0
  0
LINE
  5
B9
330
1E
100
AcDbEntity
  8
0
100
AcDbLine
 10
486.519
 20
0.500000000000026
 30
0.0
 11
490.829
 21
0.500000000000025
 31
0.0
  0
LINE
  5
BA
330
1E
100
AcDbEntity
  8
0
100
AcDbLine
 10
479.518
 20
0.000000000000026
 30
0.0
 11
484.7869999999999
 21
0.0000000000000256
 31
0.0
  0
LINE
  5
BB
330
1E
100
AcDbEntity
  8
0
100
AcDbLine
 10
481.105
 20
0.500000000000026
 30
0.0
 11
486.519
 21
0.500000000000026
 31
0.0
  0
LINE
  5
BC
330
1E
100
AcDbEntity
  8
0
100
AcDbLine
 10
473.2649999999999
 20
0.0000000000000265
 30
0.0
 11
479.518
 21
0.000000000000026
 31
0.0
  0
LINE
  5
BD
330
1E
100
AcDbEntity
  8
0
100
AcDbLine
 10
474.68
 20
0.5000000000000271
 30
0.0
 11
481.105
 21
0.500000000000026
 31
0.0
  0
LINE
  5
BE
330
1E
100
AcDbEntity
  8
0
100
AcDbLine
 10
488.9809999999999
 20
0.000000000000025
 30
0.0
 11
492.03
 21
0.0000000000000245
 31
0.0
  0
LINE
  5
BF
330
1E
100
AcDbEntity
  8
0
100
AcDbLine
 10
490.829
 20
0.500000000000025
 30
0.0
 11
493.961
 21
0.500000000000025
 31
0.0
  0
LINE
  5
C0
330
1E
100
AcDbEntity
  8
0
100
AcDbLine
 10
492.03
 20
0.0000000000000245
 30
0.0
 11
493.8799999999999
 21
0.0000000000000239
 31
0.0
  0
LINE
  5
C1
330
1E
100
AcDbEntity
  8
0
100
AcDbLine
 10
494.5
 20
0.0000000000000233
 30
0.0
 11
496.077
 21
0.0000000000000184
 31
0.0
  0
LINE
  5
C2
330
1E
100
AcDbEntity
  8
0
100
AcDbLine
 10
493.961
 20
0.500000000000025
 30
0.0
 11
495.863
 21
0.500000000000024
 31
0.0
  0
LINE
  5
C3
330
1E
100
AcDbEntity
  8
0
100
AcDbLine
 10
493.8799999999999
 20
0.0000000000000239
 30
0.0
 11
494.5
 21
0.0000000000000233
 31
0.0
  0
LINE
  5
C4
330
1E
100
AcDbEntity
  8
0
100
AcDbLine
 10
494.2969999999999
 20
19.9519
 30
0.0
 11
499.2869999999999
 21
13.0043
 31
0.0
  0
LINE
  5
C5
330
1E
100
AcDbEntity
  8
0
100
AcDbLine
 10
487.679
 20
25.3798
 30
0.0
 11
494.2969999999999
 21
19.9519
 31
0.0
  0
LINE
  5
C6
330
1E
100
AcDbEntity
  8
0
100
AcDbLine
 10
479.542
 20
29.3964
 30
0.0
 11
487.679
 21
25.3798
 31
0.0
  0
LINE
  5
C7
330
1E
100
AcDbEntity
  8
0
100
AcDbLine
 10
471.2969999999999
 20
31.7846
 30
0.0
 11
479.542
 21
29.3964
 31
0.0
  0
LINE
  5
C8
330
1E
100
AcDbEntity
  8
0
100
AcDbLine
 10
492.996
 20
-0.0000000000000171
 30
0.0
 11
494.871
 21
-0.0000000000000166
 31
0.0
  0
LINE
  5
C9
330
1E
100
AcDbEntity
  8
0
100
AcDbLine
 10
495.5
 20
-0.000000000000016
 30
0.0
 11
497.0769999999999
 21
-0.000000000000011
 31
0.0
  0
LINE
  5
CA
330
1E
100
AcDbEntity
  8
0
100
AcDbLine
 10
497.919
 20
0.0000000000000135
 30
0.0
 11
499.0019999999999
 21
0.0000000000000086
 31
0.0
  0
LINE
  5
CB
330
1E
100
AcDbEntity
  8
0
100
AcDbLine
 10
499.0019999999999
 20
0.0000000000000086
 30
0.0
 11
499.5
 21
0.0000000000000037
 31
0.0
  0
LINE
  5
CC
330
1E
100
AcDbEntity
  8
0
100
AcDbLine
 10
496.077
 20
0.0000000000000184
 30
0.0
 11
497.919
 21
0.0000000000000135
 31
0.0
  0
LINE
  5
CD
330
1E
100
AcDbEntity
  8
0
100
AcDbLine
 10
496.4999999999999
 20
0.500000000000023
 30
0.0
 11
498.0769999999999
 21
0.500000000000018
 31
0.0
  0
LINE
  5
CE
330
1E
100
AcDbEntity
  8
0
100
AcDbLine
 10
498.0769999999999
 20
0.500000000000018
 30
0.0
 11
499.919
 21
0.500000000000013
 31
0.0
  0
LINE
  5
CF
330
1E
100
AcDbEntity
  8
0
100
AcDbLine
 10
495.863
 20
0.500000000000024
 30
0.0
 11
496.4999999999999
 21
0.500000000000023
 31
0.0
  0
LINE
  5
D0
330
1E
100
AcDbEntity
  8
0
100
AcDbLine
 10
498.919
 20
-0.0000000000000061
 30
0.0
 11
500.0019999999999
 21
-0.0000000000000012
 31
0.0
  0
LINE
  5
D1
330
1E
100
AcDbEntity
  8
0
100
AcDbLine
 10
500.4999999999999
 20
0.0000000000000037
 30
0.0
 11
501.4999999999999
 21
0.500000000000004
 31
0.0
  0
LINE
  5
D2
330
1E
100
AcDbEntity
  8
0
100
AcDbLine
 10
500.4999999999999
 20
0.0000000000000037
 30
0.0
 11
501.4999999999999
 21
0.500000000000004
 31
0.0
  0
LINE
  5
D3
330
1E
100
AcDbEntity
  8
0
100
AcDbLine
 10
500.0019999999999
 20
-0.0000000000000012
 30
0.0
 11
500.4999999999999
 21
0.0000000000000037
 31
0.0
  0
LINE
  5
D4
330
1E
100
AcDbEntity
  8
0
100
AcDbLine
 10
499.919
 20
0.500000000000013
 30
0.0
 11
501.0019999999999
 21
0.500000000000009
 31
0.0
  0
LINE
  5
D5
330
1E
100
AcDbEntity
  8
0
100
AcDbLine
 10
501.0019999999999
 20
0.500000000000009
 30
0.0
 11
501.4999999999999
 21
0.500000000000004
 31
0.0
  0
LINE
  5
D6
330
1E
100
AcDbEntity
  8
0
100
AcDbLine
 10
501.4999999999999
 20
0.500000000000004
 30
0.0
 11
502.0
 21
1.5
 31
0.0
  0
LINE
  5
D7
330
1E
100
AcDbEntity
  8
0
100
AcDbLine
 10
501.8369999999999
 20
4.102699999999999
 30
0.0
 11
502.0
 21
1.5
 31
0.0
  0
LINE
  5
D8
330
1E
100
AcDbEntity
  8
0
100
AcDbLine
 10
501.294
 20
7.739300000000009
 30
0.0
 11
501.8369999999999
 21
4.102699999999999
 31
0.0
  0
LINE
  5
D9
330
1E
100
AcDbEntity
  8
0
100
AcDbLine
 10
499.2869999999999
 20
13.0043
 30
0.0
 11
501.294
 21
7.739300000000009
 31
0.0
  0
LINE
  5
DA
330
1E
100
AcDbEntity
  8
0
100
AcDbLine
 10
497.0769999999999
 20
-0.000000000000011
 30
0.0
 11
498.919
 21
-0.0000000000000061
 31
0.0
  0
LINE
  5
DB
330
1E
100
AcDbEntity
  8
0
100
AcDbLine
 10
494.871
 20
-0.0000000000000166
 30
0.0
 11
495.5
 21
-0.000000000000016
 31
0.0
  0
LINE
  5
DC
330
1E
100
AcDbEntity
  8
0
100
AcDbLine
 10
473.972
 20
-0.0000000000000192
 30
0.0
 11
480.311
 21
-0.0000000000000187
 31
0.0
  0
LINE
  5
DD
330
1E
100
AcDbEntity
  8
0
100
AcDbLine
 10
466.744
 20
-0.0000000000000195
 30
0.0
 11
473.972
 21
-0.0000000000000192
 31
0.0
  0
LINE
  5
DE
330
1E
100
AcDbEntity
  8
0
100
AcDbLine
 10
440.0
 20
33.0
 30
0.0
 11
440.0
 21
47.0
 31
0.0
  0
LINE
  5
DF
330
1E
100
AcDbEntity
  8
0
100
AcDbLine
 10
406.0
 20
47.0
 30
0.0
 11
406.0
 21
33.0
 31
0.0
  0
LINE
  5
E0
330
1E
100
AcDbEntity
  8
0
100
AcDbLine
 10
66.99259999999999
 20
47.0
 30
0.0
 11
68.65680000000001
 21
47.0
 31
0.0
  0
LINE
  5
E1
330
1E
100
AcDbEntity
  8
0
100
AcDbLine
 10
68.65680000000001
 20
47.0
 30
0.0
 11
70.5358
 21
47.0
 31
0.0
  0
LINE
  5
E2
330
1E
100
AcDbEntity
  8
0
100
AcDbLine
 10
70.5358
 20
47.0
 30
0.0
 11
72.5042
 21
47.0
 31
0.0
  0
LINE
  5
E3
330
1E
100
AcDbEntity
  8
0
100
AcDbLine
 10
72.5042
 20
47.0
 30
0.0
 11
74.61579999999999
 21
47.0
 31
0.0
  0
LINE
  5
E4
330
1E
100
AcDbEntity
  8
0
100
AcDbLine
 10
91.0074
 20
47.0
 30
0.0
 11
92.4568
 21
47.0
 31
0.0
  0
LINE
  5
E5
330
1E
100
AcDbEntity
  8
0
100
AcDbLine
 10
92.4568
 20
47.0
 30
0.0
 11
93.7274
 21
47.0
 31
0.0
  0
LINE
  5
E6
330
1E
100
AcDbEntity
  8
0
100
AcDbLine
 10
93.7274
 20
47.0
 30
0.0
 11
94.67579999999999
 21
47.0
 31
0.0
  0
LINE
  5
E7
330
1E
100
AcDbEntity
  8
0
100
AcDbLine
 10
94.67579999999999
 20
47.0
 30
0.0
 11
95.3916
 21
47.0
 31
0.0
  0
LINE
  5
E8
330
1E
100
AcDbEntity
  8
0
100
AcDbLine
 10
409.543
 20
47.0
 30
0.0
 11
410.993
 21
47.0
 31
0.0
  0
LINE
  5
E9
330
1E
100
AcDbEntity
  8
0
100
AcDbLine
 10
408.273
 20
47.0
 30
0.0
 11
409.543
 21
47.0
 31
0.0
  0
LINE
  5
EA
330
1E
100
AcDbEntity
  8
0
100
AcDbLine
 10
407.324
 20
47.0
 30
0.0
 11
408.273
 21
47.0
 31
0.0
  0
LINE
  5
EB
330
1E
100
AcDbEntity
  8
0
100
AcDbLine
 10
406.608
 20
47.0
 30
0.0
 11
407.324
 21
47.0
 31
0.0
  0
LINE
  5
EC
330
1E
100
AcDbEntity
  8
0
100
AcDbLine
 10
406.179
 20
47.0
 30
0.0
 11
406.608
 21
47.0
 31
0.0
  0
LINE
  5
ED
330
1E
100
AcDbEntity
  8
0
100
AcDbLine
 10
406.0
 20
47.0
 30
0.0
 11
406.179
 21
47.0
 31
0.0
  0
LINE
  5
EE
330
1E
100
AcDbEntity
  8
0
100
AcDbLine
 10
406.0
 20
47.0
 30
0.0
 11
406.0
 21
33.0
 31
0.0
  0
LINE
  5
EF
330
1E
100
AcDbEntity
  8
0
100
AcDbLine
 10
410.993
 20
47.0
 30
0.0
 11
412.657
 21
47.0
 31
0.0
  0
LINE
  5
F0
330
1E
100
AcDbEntity
  8
0
100
AcDbLine
 10
412.657
 20
47.0
 30
0.0
 11
414.536
 21
47.0
 31
0.0
  0
LINE
  5
F1
330
1E
100
AcDbEntity
  8
0
100
AcDbLine
 10
414.536
 20
47.0
 30
0.0
 11
416.504
 21
47.0
 31
0.0
  0
LINE
  5
F2
330
1E
100
AcDbEntity
  8
0
100
AcDbLine
 10
416.504
 20
47.0
 30
0.0
 11
418.616
 21
47.0
 31
0.0
  0
LINE
  5
F3
330
1E
100
AcDbEntity
  8
0
100
AcDbLine
 10
418.616
 20
47.0
 30
0.0
 11
420.781
 21
47.0
 31
0.0
  0
LINE
  5
F4
330
1E
100
AcDbEntity
  8
0
100
AcDbLine
 10
420.781
 20
47.0
 30
0.0
 11
423.0
 21
47.0
 31
0.0
  0
LINE
  5
F5
330
1E
100
AcDbEntity
  8
0
100
AcDbLine
 10
433.3429999999999
 20
47.0
 30
0.0
 11
435.0069999999999
 21
47.0
 31
0.0
  0
LINE
  5
F6
330
1E
100
AcDbEntity
  8
0
100
AcDbLine
 10
431.4639999999999
 20
47.0
 30
0.0
 11
433.3429999999999
 21
47.0
 31
0.0
  0
LINE
  5
F7
330
1E
100
AcDbEntity
  8
0
100
AcDbLine
 10
429.4959999999999
 20
47.0
 30
0.0
 11
431.4639999999999
 21
47.0
 31
0.0
  0
LINE
  5
F8
330
1E
100
AcDbEntity
  8
0
100
AcDbLine
 10
427.3839999999999
 20
47.0
 30
0.0
 11
429.4959999999999
 21
47.0
 31
0.0
  0
LINE
  5
F9
330
1E
100
AcDbEntity
  8
0
100
AcDbLine
 10
425.2189999999999
 20
47.0
 30
0.0
 11
427.3839999999999
 21
47.0
 31
0.0
  0
LINE
  5
FA
330
1E
100
AcDbEntity
  8
0
100
AcDbLine
 10
423.0
 20
47.0
 30
0.0
 11
425.2189999999999
 21
47.0
 31
0.0
  0
LINE
  5
FC
330
1E
100
AcDbEntity
  8
0
100
AcDbLine
 10
435.0069999999999
 20
47.0
 30
0.0
 11
436.4569999999999
 21
47.0
 31
0.0
  0
LINE
  5
FD
330
1E
100
AcDbEntity
  8
0
100
AcDbLine
 10
436.4569999999999
 20
47.0
 30
0.0
 11
437.727
 21
47.0
 31
0.0
  0
LINE
  5
FE
330
1E
100
AcDbEntity
  8
0
100
AcDbLine
 10
437.727
 20
47.0
 30
0.0
 11
438.6759999999999
 21
47.0
 31
0.0
  0
LINE
  5
FF
330
1E
100
AcDbEntity
  8
0
100
AcDbLine
 10
438.6759999999999
 20
47.0
 30
0.0
 11
439.392
 21
47.0
 31
0.0
  0
LINE
  5
100
330
1E
100
AcDbEntity
  8
0
100
AcDbLine
 10
439.392
 20
47.0
 30
0.0
 11
439.8209999999999
 21
47.0
 31
0.0
  0
LINE
  5
101
330
1E
100
AcDbEntity
  8
0
100
AcDbLine
 10
440.0
 20
47.0
 30
0.0
 11
440.0
 21
33.0
 31
0.0
  0
LINE
  5
102
330
1E
100
AcDbEntity
  8
0
100
AcDbLine
 10
439.8209999999999
 20
47.0
 30
0.0
 11
440.0
 21
47.0
 31
0.0
  0
LINE
  5
104
330
1E
100
AcDbEntity
  8
0
100
AcDbLine
 10
96.0
 20
47.0
 30
0.0
 11
96.0
 21
33.0
 31
0.0
  0
LINE
  5
105
330
1E
100
AcDbEntity
  8
0
100
AcDbLine
 10
95.3916
 20
47.0
 30
0.0
 11
95.8211
 21
47.0
 31
0.0
  0
LINE
  5
106
330
1E
100
AcDbEntity
  8
0
100
AcDbLine
 10
95.8211
 20
47.0
 30
0.0
 11
96.0
 21
47.0
 31
0.0
  0
LINE
  5
107
330
1E
100
AcDbEntity
  8
0
100
AcDbLine
 10
89.34319999999999
 20
47.0
 30
0.0
 11
91.0074
 21
47.0
 31
0.0
  0
LINE
  5
108
330
1E
100
AcDbEntity
  8
0
100
AcDbLine
 10
87.4642
 20
47.0
 30
0.0
 11
89.34319999999999
 21
47.0
 31
0.0
  0
LINE
  5
109
330
1E
100
AcDbEntity
  8
0
100
AcDbLine
 10
85.4958
 20
47.0
 30
0.0
 11
87.4642
 21
47.0
 31
0.0
  0
LINE
  5
10A
330
1E
100
AcDbEntity
  8
0
100
AcDbLine
 10
83.38420000000001
 20
47.0
 30
0.0
 11
85.4958
 21
47.0
 31
0.0
  0
LINE
  5
10B
330
1E
100
AcDbEntity
  8
0
100
AcDbLine
 10
81.2189
 20
47.0
 30
0.0
 11
83.38420000000001
 21
47.0
 31
0.0
  0
LINE
  5
10D
330
1E
100
AcDbEntity
  8
0
100
AcDbLine
 10
79.0
 20
47.0
 30
0.0
 11
81.2189
 21
47.0
 31
0.0
  0
LINE
  5
10E
330
1E
100
AcDbEntity
  8
0
100
AcDbLine
 10
74.61579999999999
 20
47.0
 30
0.0
 11
76.7811
 21
47.0
 31
0.0
  0
LINE
  5
10F
330
1E
100
AcDbEntity
  8
0
100
AcDbLine
 10
76.7811
 20
47.0
 30
0.0
 11
79.0
 21
47.0
 31
0.0
  0
LINE
  5
110
330
1E
100
AcDbEntity
  8
0
100
AcDbLine
 10
65.5432
 20
47.0
 30
0.0
 11
66.99259999999999
 21
47.0
 31
0.0
  0
LINE
  5
111
330
1E
100
AcDbEntity
  8
0
100
AcDbLine
 10
64.2726
 20
47.0
 30
0.0
 11
65.5432
 21
47.0
 31
0.0
  0
LINE
  5
112
330
1E
100
AcDbEntity
  8
0
100
AcDbLine
 10
63.32419999999999
 20
47.0
 30
0.0
 11
64.2726
 21
47.0
 31
0.0
  0
LINE
  5
113
330
1E
100
AcDbEntity
  8
0
100
AcDbLine
 10
62.6084
 20
47.0
 30
0.0
 11
63.32419999999999
 21
47.0
 31
0.0
  0
LINE
  5
114
330
1E
100
AcDbEntity
  8
0
100
AcDbLine
 10
62.1789
 20
47.0
 30
0.0
 11
62.6084
 21
47.0
 31
0.0
  0
LINE
  5
116
330
1E
100
AcDbEntity
  8
0
100
AcDbLine
 10
62.0
 20
33.0
 30
0.0
 11
62.0
 21
47.0
 31
0.0
  0
LINE
  5
117
330
1E
100
AcDbEntity
  8
0
100
AcDbLine
 10
62.0
 20
33.0
 30
0.0
 11
62.0
 21
47.0
 31
0.0
  0
LINE
  5
11C
330
1E
100
AcDbEntity
  8
0
  6
Continuous
100
AcDbLine
 10
30.70349999999999
 20
31.7846
 30
0.0
 11
42.0
 21
33.0
 31
0.0
  0
LINE
  5
11D
330
1E
100
AcDbEntity
  8
0
  6
Continuous
100
AcDbLine
 10
460.0
 20
33.0
 30
0.0
 11
471.2969999999999
 21
31.7846
 31
0.0
  0
ENDSEC
  0
SECTION
  2
OBJECTS
  0
DICTIONARY
  5
C
330
0
100
AcDbDictionary
281
     1
  3
ACAD_GROUP
350
D
  3
ACAD_LAYOUT
350
19
  3
ACAD_MLINESTYLE
350
16
  3
ACAD_PLOTSETTINGS
350
18
  3
ACAD_PLOTSTYLENAME
350
E
  3
AcDbVariableDictionary
350
11F
  0
DICTIONARY
  5
D
102
{ACAD_REACTORS
330
C
102
}
330
C
100
AcDbDictionary
281
     1
  0
DICTIONARY
  5
19
102
{ACAD_REACTORS
330
C
102
}
330
C
100
AcDbDictionary
281
     1
  3
Layout1
350
1D
  3
Model
350
21
  0
DICTIONARY
  5
16
102
{ACAD_REACTORS
330
C
102
}
330
C
100
AcDbDictionary
281
     1
  3
Standard
350
17
  0
DICTIONARY
  5
18
102
{ACAD_REACTORS
330
C
102
}
330
C
100
AcDbDictionary
281
     1
  0
ACDBDICTIONARYWDFLT
  5
E
102
{ACAD_REACTORS
330
C
102
}
330
C
100
AcDbDictionary
281
     1
  3
Normal
350
F
100
AcDbDictionaryWithDefault
340
F
  0
DICTIONARY
  5
11F
102
{ACAD_REACTORS
330
C
102
}
330
C
100
AcDbDictionary
281
     1
  3
DIMASSOC
350
120
  0
LAYOUT
  5
1D
102
{ACAD_REACTORS
330
19
102
}
330
19
100
AcDbPlotSettings
  1

  2
C:\Programme\AutoCAD LT 2002 Deu\plotters\DWF ePlot (optimized for plotting).pc3
  4

  6

 40
0.0
 41
0.0
 42
0.0
 43
0.0
 44
0.0
 45
0.0
 46
0.0
 47
0.0
 48
0.0
 49
0.0
140
0.0
141
0.0
142
1.0
143
1.0
 70
   688
 72
     0
 73
     0
 74
     5
  7

 75
    16
147
1.0
148
0.0
149
0.0
100
AcDbLayout
  1
Layout1
 70
     1
 71
     1
 10
0.0
 20
0.0
 11
12.0
 21
9.0
 12
0.0
 22
0.0
 32
0.0
 14
1.000000000000000E+20
 24
1.000000000000000E+20
 34
1.000000000000000E+20
 15
-1.000000000000000E+20
 25
-1.000000000000000E+20
 35
-1.000000000000000E+20
146
0.0
 13
0.0
 23
0.0
 33
0.0
 16
1.0
 26
0.0
 36
0.0
 17
0.0
 27
1.0
 37
0.0
 76
     0
330
1A
  0
LAYOUT
  5
21
102
{ACAD_REACTORS
330
19
102
}
330
19
100
AcDbPlotSettings
  1

  2
C:\Programme\AutoCAD LT 2002 Deu\plotters\DWF ePlot (optimized for plotting).pc3
  4

  6

 40
0.0
 41
0.0
 42
0.0
 43
0.0
 44
0.0
 45
0.0
 46
0.0
 47
0.0
 48
0.0
 49
0.0
140
0.0
141
0.0
142
1.0
143
1.0
 70
  1712
 72
     0
 73
     0
 74
     0
  7

 75
     0
147
1.0
148
0.0
149
0.0
100
AcDbLayout
  1
Model
 70
     1
 71
     0
 10
0.0
 20
0.0
 11
12.0
 21
9.0
 12
0.0
 22
0.0
 32
0.0
 14
0.0
 24
0.0
 34
0.0
 15
0.0
 25
0.0
 35
0.0
146
0.0
 13
0.0
 23
0.0
 33
0.0
 16
1.0
 26
0.0
 36
0.0
 17
0.0
 27
1.0
 37
0.0
 76
     0
330
1E
  0
MLINESTYLE
  5
17
102
{ACAD_REACTORS
330
16
102
}
330
16
100
AcDbMlineStyle
  2
STANDARD
 70
     0
  3

 62
   256
 51
90.0
 52
90.0
 71
     2
 49
0.5
 62
   256
  6
BYLAYER
 49
-0.5
 62
   256
  6
BYLAYER
  0
ACDBPLACEHOLDER
  5
F
102
{ACAD_REACTORS
330
E
102
}
330
E
  0
DICTIONARYVAR
  5
120
102
{ACAD_REACTORS
330
11F
102
}
330
11F
100
DictionaryVariables
280
     0
  1
1
  0
ENDSEC
  0
EOF
