  0
SECTION
  2
HEADER
  9
$ACADVER
  1
AC1015
  9
$ACADMAINTVER
 70
    13
  9
$DWGCODEPAGE
  3
ANSI_1252
  9
$INSBASE
 10
0.0
 20
0.0
 30
0.0
  9
$EXTMIN
 10
0.0492124999999996
 20
-0.023500000000008
 30
0.0
  9
$EXTMAX
 10
44.9507875
 20
202.3168051437954
 30
0.0
  9
$LIMMIN
 10
0.0
 20
0.0
  9
$LIMMAX
 10
12.0
 20
9.0
  9
$ORTHOMODE
 70
     0
  9
$REGENMODE
 70
     1
  9
$FILLMODE
 70
     1
  9
$QTEXTMODE
 70
     0
  9
$MIRRTEXT
 70
     1
  9
$LTSCALE
 40
1.0
  9
$ATTMODE
 70
     1
  9
$TEXTSIZE
 40
0.2
  9
$TRACEWID
 40
0.05
  9
$TEXTSTYLE
  7
Standard
  9
$CLAYER
  8
0
  9
$CELTYPE
  6
Continuous
  9
$CECOLOR
 62
   256
  9
$CELTSCALE
 40
1.0
  9
$DISPSILH
 70
     0
  9
$DIMSCALE
 40
1.0
  9
$DIMASZ
 40
0.18
  9
$DIMEXO
 40
0.0625
  9
$DIMDLI
 40
0.38
  9
$DIMRND
 40
0.0
  9
$DIMDLE
 40
0.0
  9
$DIMEXE
 40
0.18
  9
$DIMTP
 40
0.0
  9
$DIMTM
 40
0.0
  9
$DIMTXT
 40
0.18
  9
$DIMCEN
 40
0.09
  9
$DIMTSZ
 40
0.0
  9
$DIMTOL
 70
     0
  9
$DIMLIM
 70
     0
  9
$DIMTIH
 70
     1
  9
$DIMTOH
 70
     1
  9
$DIMSE1
 70
     0
  9
$DIMSE2
 70
     0
  9
$DIMTAD
 70
     0
  9
$DIMZIN
 70
     0
  9
$DIMBLK
  1

  9
$DIMASO
 70
     1
  9
$DIMSHO
 70
     1
  9
$DIMPOST
  1

  9
$DIMAPOST
  1

  9
$DIMALT
 70
     0
  9
$DIMALTD
 70
     2
  9
$DIMALTF
 40
25.4
  9
$DIMLFAC
 40
1.0
  9
$DIMTOFL
 70
     0
  9
$DIMTVP
 40
0.0
  9
$DIMTIX
 70
     0
  9
$DIMSOXD
 70
     0
  9
$DIMSAH
 70
     0
  9
$DIMBLK1
  1

  9
$DIMBLK2
  1

  9
$DIMSTYLE
  2
Standard
  9
$DIMCLRD
 70
     0
  9
$DIMCLRE
 70
     0
  9
$DIMCLRT
 70
     0
  9
$DIMTFAC
 40
1.0
  9
$DIMGAP
 40
0.09
  9
$DIMJUST
 70
     0
  9
$DIMSD1
 70
     0
  9
$DIMSD2
 70
     0
  9
$DIMTOLJ
 70
     1
  9
$DIMTZIN
 70
     0
  9
$DIMALTZ
 70
     0
  9
$DIMALTTZ
 70
     0
  9
$DIMUPT
 70
     0
  9
$DIMDEC
 70
     4
  9
$DIMTDEC
 70
     4
  9
$DIMALTU
 70
     2
  9
$DIMALTTD
 70
     2
  9
$DIMTXSTY
  7
Standard
  9
$DIMAUNIT
 70
     0
  9
$DIMADEC
 70
     0
  9
$DIMALTRND
 40
0.0
  9
$DIMAZIN
 70
     0
  9
$DIMDSEP
 70
    46
  9
$DIMATFIT
 70
     3
  9
$DIMFRAC
 70
     0
  9
$DIMLDRBLK
  1

  9
$DIMLUNIT
 70
     2
  9
$DIMLWD
 70
    -2
  9
$DIMLWE
 70
    -2
  9
$DIMTMOVE
 70
     0
  9
$LUNITS
 70
     2
  9
$LUPREC
 70
     4
  9
$SKETCHINC
 40
0.1
  9
$FILLETRAD
 40
0.0
  9
$AUNITS
 70
     0
  9
$AUPREC
 70
     0
  9
$MENU
  1
.
  9
$ELEVATION
 40
0.0
  9
$PELEVATION
 40
0.0
  9
$THICKNESS
 40
0.0
  9
$LIMCHECK
 70
     0
  9
$CHAMFERA
 40
0.0
  9
$CHAMFERB
 40
0.0
  9
$CHAMFERC
 40
0.0
  9
$CHAMFERD
 40
0.0
  9
$SKPOLY
 70
     0
  9
$TDCREATE
 40
2455508.876274409
  9
$TDUCREATE
 40
2455508.834607743
  9
$TDUPDATE
 40
2455508.882505601
  9
$TDUUPDATE
 40
2455508.840838935
  9
$TDINDWG
 40
0.0062311921
  9
$TDUSRTIMER
 40
0.0062311921
  9
$USRTIMER
 70
     1
  9
$ANGBASE
 50
0.0
  9
$ANGDIR
 70
     0
  9
$PDMODE
 70
     0
  9
$PDSIZE
 40
0.0
  9
$PLINEWID
 40
0.0
  9
$SPLFRAME
 70
     0
  9
$SPLINETYPE
 70
     6
  9
$SPLINESEGS
 70
     8
  9
$HANDSEED
  5
C9
  9
$SURFTAB1
 70
     6
  9
$SURFTAB2
 70
     6
  9
$SURFTYPE
 70
     6
  9
$SURFU
 70
     6
  9
$SURFV
 70
     6
  9
$UCSBASE
  2

  9
$UCSNAME
  2

  9
$UCSORG
 10
0.0
 20
0.0
 30
0.0
  9
$UCSXDIR
 10
1.0
 20
0.0
 30
0.0
  9
$UCSYDIR
 10
0.0
 20
1.0
 30
0.0
  9
$UCSORTHOREF
  2

  9
$UCSORTHOVIEW
 70
     1
  9
$UCSORGTOP
 10
0.0
 20
0.0
 30
0.0
  9
$UCSORGBOTTOM
 10
0.0
 20
0.0
 30
0.0
  9
$UCSORGLEFT
 10
0.0
 20
0.0
 30
0.0
  9
$UCSORGRIGHT
 10
0.0
 20
0.0
 30
0.0
  9
$UCSORGFRONT
 10
0.0
 20
0.0
 30
0.0
  9
$UCSORGBACK
 10
0.0
 20
0.0
 30
0.0
  9
$PUCSBASE
  2

  9
$PUCSNAME
  2

  9
$PUCSORG
 10
0.0
 20
0.0
 30
0.0
  9
$PUCSXDIR
 10
1.0
 20
0.0
 30
0.0
  9
$PUCSYDIR
 10
0.0
 20
1.0
 30
0.0
  9
$PUCSORTHOREF
  2

  9
$PUCSORTHOVIEW
 70
     0
  9
$PUCSORGTOP
 10
0.0
 20
0.0
 30
0.0
  9
$PUCSORGBOTTOM
 10
0.0
 20
0.0
 30
0.0
  9
$PUCSORGLEFT
 10
0.0
 20
0.0
 30
0.0
  9
$PUCSORGRIGHT
 10
0.0
 20
0.0
 30
0.0
  9
$PUCSORGFRONT
 10
0.0
 20
0.0
 30
0.0
  9
$PUCSORGBACK
 10
0.0
 20
0.0
 30
0.0
  9
$USERI1
 70
     0
  9
$USERI2
 70
     0
  9
$USERI3
 70
     0
  9
$USERI4
 70
     0
  9
$USERI5
 70
     0
  9
$USERR1
 40
0.0
  9
$USERR2
 40
0.0
  9
$USERR3
 40
0.0
  9
$USERR4
 40
0.0
  9
$USERR5
 40
0.0
  9
$WORLDVIEW
 70
     1
  9
$SHADEDGE
 70
     3
  9
$SHADEDIF
 70
    70
  9
$TILEMODE
 70
     1
  9
$MAXACTVP
 70
    64
  9
$PINSBASE
 10
0.0
 20
0.0
 30
0.0
  9
$PLIMCHECK
 70
     0
  9
$PEXTMIN
 10
1.000000000000000E+20
 20
1.000000000000000E+20
 30
1.000000000000000E+20
  9
$PEXTMAX
 10
-1.000000000000000E+20
 20
-1.000000000000000E+20
 30
-1.000000000000000E+20
  9
$PLIMMIN
 10
0.0
 20
0.0
  9
$PLIMMAX
 10
12.0
 20
9.0
  9
$UNITMODE
 70
     0
  9
$VISRETAIN
 70
     1
  9
$PLINEGEN
 70
     0
  9
$PSLTSCALE
 70
     1
  9
$TREEDEPTH
 70
  3020
  9
$CMLSTYLE
  2
Standard
  9
$CMLJUST
 70
     0
  9
$CMLSCALE
 40
1.0
  9
$PROXYGRAPHICS
 70
     1
  9
$MEASUREMENT
 70
     0
  9
$CELWEIGHT
370
    -1
  9
$ENDCAPS
280
     0
  9
$JOINSTYLE
280
     0
  9
$LWDISPLAY
290
     0
  9
$INSUNITS
 70
     0
  9
$HYPERLINKBASE
  1

  9
$STYLESHEET
  1

  9
$XEDIT
290
     1
  9
$CEPSNTYPE
380
     0
  9
$PSTYLEMODE
290
     1
  9
$FINGERPRINTGUID
  2
{A5E001C9-D2CD-4DC0-B37F-B79215308B8D}
  9
$VERSIONGUID
  2
{0B783E55-17D4-4330-AF1F-7700383D0ADF}
  9
$EXTNAMES
290
     1
  9
$PSVPSCALE
 40
0.0
  9
$OLESTARTUP
290
     0
  0
ENDSEC
  0
SECTION
  2
CLASSES
  0
CLASS
  1
ACDBDICTIONARYWDFLT
  2
AcDbDictionaryWithDefault
  3
AutoCAD 2000
 90
        0
280
     0
281
     0
  0
CLASS
  1
ACDBPLACEHOLDER
  2
AcDbPlaceHolder
  3
AutoCAD 2000
 90
        0
280
     0
281
     0
  0
CLASS
  1
LAYOUT
  2
AcDbLayout
  3
AutoCAD 2000
 90
        0
280
     0
281
     0
  0
CLASS
  1
DICTIONARYVAR
  2
AcDbDictionaryVar
  3
AutoCAD 2000
 90
        0
280
     0
281
     0
  0
ENDSEC
  0
SECTION
  2
TABLES
  0
TABLE
  2
VPORT
  5
8
330
0
100
AcDbSymbolTable
 70
     3
  0
VPORT
  5
C8
330
8
100
AcDbSymbolTableRecord
100
AcDbViewportTableRecord
  2
*Active
 70
     0
 10
0.0
 20
0.0
 11
1.0
 21
1.0
 12
22.49999999999999
 22
101.1466525718977
 13
0.0
 23
0.0
 14
1.0
 24
1.0
 15
0.0
 25
0.0
 16
0.0
 26
0.0
 36
1.0
 17
0.0
 27
0.0
 37
0.0
 40
203.709010702829
 41
2.073363431151241
 42
50.0
 43
0.0
 44
0.0
 50
0.0
 51
0.0
 71
     0
 72
   100
 73
     1
 74
     3
 75
     0
 76
     0
 77
     0
 78
     0
281
     0
 65
     1
110
0.0
120
0.0
130
0.0
111
1.0
121
0.0
131
0.0
112
0.0
122
1.0
132
0.0
 79
     1
146
0.0
  0
ENDTAB
  0
TABLE
  2
LTYPE
  5
5
330
0
100
AcDbSymbolTable
 70
     1
  0
LTYPE
  5
13
330
5
100
AcDbSymbolTableRecord
100
AcDbLinetypeTableRecord
  2
ByBlock
 70
     0
  3

 72
    65
 73
     0
 40
0.0
  0
LTYPE
  5
14
330
5
100
AcDbSymbolTableRecord
100
AcDbLinetypeTableRecord
  2
ByLayer
 70
     0
  3

 72
    65
 73
     0
 40
0.0
  0
LTYPE
  5
15
330
5
100
AcDbSymbolTableRecord
100
AcDbLinetypeTableRecord
  2
Continuous
 70
     0
  3
Solid line
 72
    65
 73
     0
 40
0.0
  0
ENDTAB
  0
TABLE
  2
LAYER
  5
2
330
0
100
AcDbSymbolTable
 70
     1
  0
LAYER
  5
10
330
2
100
AcDbSymbolTableRecord
100
AcDbLayerTableRecord
  2
0
 70
     0
 62
     7
  6
Continuous
370
    -3
390
F
  0
ENDTAB
  0
TABLE
  2
STYLE
  5
3
330
0
100
AcDbSymbolTable
 70
     1
  0
STYLE
  5
11
330
3
100
AcDbSymbolTableRecord
100
AcDbTextStyleTableRecord
  2
Standard
 70
     0
 40
0.0
 41
1.0
 50
0.0
 71
     0
 42
0.2
  3
txt
  4

  0
ENDTAB
  0
TABLE
  2
VIEW
  5
6
330
0
100
AcDbSymbolTable
 70
     0
  0
ENDTAB
  0
TABLE
  2
UCS
  5
7
330
0
100
AcDbSymbolTable
 70
     0
  0
ENDTAB
  0
TABLE
  2
APPID
  5
9
330
0
100
AcDbSymbolTable
 70
     1
  0
APPID
  5
12
330
9
100
AcDbSymbolTableRecord
100
AcDbRegAppTableRecord
  2
ACAD
 70
     0
  0
ENDTAB
  0
TABLE
  2
DIMSTYLE
  5
A
330
0
100
AcDbSymbolTable
 70
     1
100
AcDbDimStyleTable
 71
     0
  0
DIMSTYLE
105
B4
330
A
100
AcDbSymbolTableRecord
100
AcDbDimStyleTableRecord
  2
Standard
 70
     0
340
11
  0
ENDTAB
  0
TABLE
  2
BLOCK_RECORD
  5
1
330
0
100
AcDbSymbolTable
 70
     0
  0
BLOCK_RECORD
  5
1E
330
1
100
AcDbSymbolTableRecord
100
AcDbBlockTableRecord
  2
*Model_Space
340
21
  0
BLOCK_RECORD
  5
1A
330
1
100
AcDbSymbolTableRecord
100
AcDbBlockTableRecord
  2
*Paper_Space
340
1D
  0
ENDTAB
  0
ENDSEC
  0
SECTION
  2
BLOCKS
  0
BLOCK
  5
1F
330
1E
100
AcDbEntity
  8
0
100
AcDbBlockBegin
  2
*Model_Space
 70
     0
 10
0.0
 20
0.0
 30
0.0
  3
*Model_Space
  1

  0
ENDBLK
  5
20
330
1E
100
AcDbEntity
  8
0
100
AcDbBlockEnd
  0
BLOCK
  5
1B
330
1A
100
AcDbEntity
 67
     1
  8
0
100
AcDbBlockBegin
  2
*Paper_Space
 70
     0
 10
0.0
 20
0.0
 30
0.0
  3
*Paper_Space
  1

  0
ENDBLK
  5
1C
330
1A
100
AcDbEntity
 67
     1
  8
0
100
AcDbBlockEnd
  0
ENDSEC
  0
SECTION
  2
ENTITIES
  0
LINE
  5
22
330
1E
100
AcDbEntity
  8
0
100
AcDbLine
 10
37.9507875
 20
-0.023500000000008
 30
0.0
 11
39.74278749999999
 21
0.228499999999992
 31
0.0
  0
LINE
  5
23
330
1E
100
AcDbEntity
  8
0
100
AcDbLine
 10
37.9507875
 20
-0.0235000000000079
 30
0.0
 11
39.74278749999999
 21
0.228499999999992
 31
0.0
  0
LINE
  5
24
330
1E
100
AcDbEntity
  8
0
100
AcDbLine
 10
26.6507875
 20
-0.0235000000000073
 30
0.0
 11
37.9507875
 21
-0.023500000000008
 31
0.0
  0
LINE
  5
25
330
1E
100
AcDbEntity
  8
0
100
AcDbLine
 10
24.85878749999999
 20
0.228499999999993
 30
0.0
 11
26.6507875
 21
-0.0235000000000073
 31
0.0
  0
LINE
  5
26
330
1E
100
AcDbEntity
  8
0
100
AcDbLine
 10
24.85878749999999
 20
0.228499999999993
 30
0.0
 11
26.6507875
 21
-0.0235000000000072
 31
0.0
  0
LINE
  5
27
330
1E
100
AcDbEntity
  8
0
100
AcDbLine
 10
23.17878749999999
 20
0.9004999999999927
 30
0.0
 11
24.85878749999999
 21
0.228499999999993
 31
0.0
  0
LINE
  5
28
330
1E
100
AcDbEntity
  8
0
100
AcDbLine
 10
26.6507875
 20
2.97649999999999
 30
0.0
 11
37.9507875
 21
2.97649999999999
 31
0.0
  0
LINE
  5
29
330
1E
100
AcDbEntity
  8
0
100
AcDbLine
 10
21.6947875
 20
2.020499999999989
 30
0.0
 11
23.17878749999999
 21
0.9004999999999927
 31
0.0
  0
LINE
  5
2A
330
1E
100
AcDbEntity
  8
0
100
AcDbLine
 10
39.74278749999999
 20
0.228499999999992
 30
0.0
 11
41.4227875
 21
0.900499999999992
 31
0.0
  0
LINE
  5
2B
330
1E
100
AcDbEntity
  8
0
100
AcDbLine
 10
39.74278749999999
 20
0.228499999999992
 30
0.0
 11
41.4227875
 21
0.900499999999992
 31
0.0
  0
LINE
  5
2C
330
1E
100
AcDbEntity
  8
0
100
AcDbLine
 10
37.9507875
 20
2.97649999999999
 30
0.0
 11
38.97478749999999
 21
3.12049999999999
 31
0.0
  0
LINE
  5
2D
330
1E
100
AcDbEntity
  8
0
100
AcDbLine
 10
25.62678749999999
 20
3.12049999999999
 30
0.0
 11
26.6507875
 21
2.97649999999999
 31
0.0
  0
LINE
  5
2E
330
1E
100
AcDbEntity
  8
0
100
AcDbLine
 10
24.6667875
 20
3.50449999999999
 30
0.0
 11
25.62678749999999
 21
3.12049999999999
 31
0.0
  0
LINE
  5
2F
330
1E
100
AcDbEntity
  8
0
100
AcDbLine
 10
20.5747875
 20
3.50449999999999
 30
0.0
 11
21.6947875
 21
2.020499999999989
 31
0.0
  0
LINE
  5
30
330
1E
100
AcDbEntity
  8
0
100
AcDbLine
 10
38.97478749999999
 20
3.12049999999999
 30
0.0
 11
39.93478749999999
 21
3.50449999999999
 31
0.0
  0
LINE
  5
31
330
1E
100
AcDbEntity
  8
0
100
AcDbLine
 10
41.4227875
 20
0.900499999999992
 30
0.0
 11
42.9067875
 21
2.020499999999989
 31
0.0
  0
LINE
  5
32
330
1E
100
AcDbEntity
  8
0
100
AcDbLine
 10
39.93478749999999
 20
3.50449999999999
 30
0.0
 11
40.78278749999999
 21
4.14449999999999
 31
0.0
  0
LINE
  5
33
330
1E
100
AcDbEntity
  8
0
100
AcDbLine
 10
23.81878749999999
 20
4.14449999999999
 30
0.0
 11
24.6667875
 21
3.50449999999999
 31
0.0
  0
LINE
  5
34
330
1E
100
AcDbEntity
  8
0
100
AcDbLine
 10
23.17878749999999
 20
4.99249999999999
 30
0.0
 11
23.81878749999999
 21
4.14449999999999
 31
0.0
  0
LINE
  5
35
330
1E
100
AcDbEntity
  8
0
100
AcDbLine
 10
19.5499875
 20
5.58526999999999
 30
0.0
 11
20.5747875
 21
3.50449999999999
 31
0.0
  0
LINE
  5
36
330
1E
100
AcDbEntity
  8
0
100
AcDbLine
 10
40.78278749999999
 20
4.14449999999999
 30
0.0
 11
41.4227875
 21
4.99249999999999
 31
0.0
  0
LINE
  5
37
330
1E
100
AcDbEntity
  8
0
100
AcDbLine
 10
41.4227875
 20
4.99249999999999
 30
0.0
 11
41.8067875
 21
5.95249999999999
 31
0.0
  0
LINE
  5
38
330
1E
100
AcDbEntity
  8
0
100
AcDbLine
 10
18.8804875
 20
6.96766999999999
 30
0.0
 11
19.5499875
 21
5.58526999999999
 31
0.0
  0
LINE
  5
39
330
1E
100
AcDbEntity
  8
0
100
AcDbLine
 10
18.2527875
 20
8.26365999999999
 30
0.0
 11
18.8804875
 21
6.96766999999999
 31
0.0
  0
LINE
  5
3B
330
1E
100
AcDbEntity
  8
0
100
AcDbLine
 10
17.6982875
 20
9.40845999999999
 30
0.0
 11
18.2527875
 21
8.26365999999999
 31
0.0
  0
LINE
  5
3C
330
1E
100
AcDbEntity
  8
0
100
AcDbLine
 10
20.39828749999999
 20
10.7161
 30
0.0
 11
20.95278749999999
 21
9.57133999999999
 31
0.0
  0
LINE
  5
3D
330
1E
100
AcDbEntity
  8
0
100
AcDbLine
 10
17.2798875
 20
10.2725
 30
0.0
 11
17.6982875
 21
9.40845999999999
 31
0.0
  0
LINE
  5
3E
330
1E
100
AcDbEntity
  8
0
100
AcDbLine
 10
17.02878749999999
 20
10.7909
 30
0.0
 11
17.2798875
 21
10.2725
 31
0.0
  0
LINE
  5
40
330
1E
100
AcDbEntity
  8
0
100
AcDbLine
 10
10.9507875
 20
36.3172
 30
0.0
 11
10.9507875
 21
37.3162
 31
0.0
  0
LINE
  5
41
330
1E
100
AcDbEntity
  8
0
100
AcDbLine
 10
10.9507875
 20
37.3162
 30
0.0
 11
10.9507875
 21
38.9054
 31
0.0
  0
LINE
  5
42
330
1E
100
AcDbEntity
  8
0
100
AcDbLine
 10
10.9507875
 20
40.9765
 30
0.0
 11
10.9507875
 21
43.3883
 31
0.0
  0
LINE
  5
43
330
1E
100
AcDbEntity
  8
0
100
AcDbLine
 10
10.9507875
 20
38.9054
 30
0.0
 11
10.9507875
 21
40.9765
 31
0.0
  0
LINE
  5
44
330
1E
100
AcDbEntity
  8
0
100
AcDbLine
 10
10.9507875
 20
45.9765
 30
0.0
 11
11.0042875
 21
168.1645
 31
0.0
  0
LINE
  5
45
330
1E
100
AcDbEntity
  8
0
100
AcDbLine
 10
10.9507875
 20
43.3883
 30
0.0
 11
10.9507875
 21
45.9765
 31
0.0
  0
LINE
  5
50
330
1E
100
AcDbEntity
  8
0
100
AcDbLine
 10
18.9507875
 20
42.97649999999999
 30
0.0
 11
18.9507875
 21
41.7339
 31
0.0
  0
LINE
  5
51
330
1E
100
AcDbEntity
  8
0
100
AcDbLine
 10
18.9507875
 20
41.7339
 30
0.0
 11
18.9507875
 21
42.97649999999999
 31
0.0
  0
LINE
  5
53
330
1E
100
AcDbEntity
  8
0
100
AcDbLine
 10
18.9374881266424
 20
109.9765
 30
0.0
 11
41.95078749999999
 21
109.9765
 31
0.0
  0
LINE
  5
54
330
1E
100
AcDbEntity
  8
0
100
AcDbLine
 10
18.9374881266424
 20
109.9765
 30
0.0
 11
41.95078749999999
 21
109.9765
 31
0.0
  0
LINE
  5
55
330
1E
100
AcDbEntity
  8
0
100
AcDbLine
 10
18.9262667803719
 20
163.9764999999999
 30
0.0
 11
41.95078749999999
 21
163.9764999999999
 31
0.0
  0
LINE
  5
58
330
1E
100
AcDbEntity
  8
0
100
AcDbLine
 10
10.9507875
 20
35.9765
 30
0.0
 11
10.9507875
 21
36.3172
 31
0.0
  0
LINE
  5
5A
330
1E
100
AcDbEntity
  8
0
100
AcDbLine
 10
19.9798875
 20
11.58009999999999
 30
0.0
 11
20.39828749999999
 21
10.7161
 31
0.0
  0
LINE
  5
5B
330
1E
100
AcDbEntity
  8
0
100
AcDbLine
 10
19.72878749999999
 20
12.0985
 30
0.0
 11
19.9798875
 21
11.58009999999999
 31
0.0
  0
LINE
  5
5C
330
1E
100
AcDbEntity
  8
0
100
AcDbLine
 10
19.6345875
 20
12.29289999999999
 30
0.0
 11
19.72878749999999
 21
12.0985
 31
0.0
  0
LINE
  5
5D
330
1E
100
AcDbEntity
  8
0
100
AcDbLine
 10
16.9345875
 20
10.9853
 30
0.0
 11
17.02878749999999
 21
10.7909
 31
0.0
  0
LINE
  5
5E
330
1E
100
AcDbEntity
  8
0
100
AcDbLine
 10
16.9345875
 20
10.9853
 30
0.0
 11
19.6345875
 21
12.29289999999999
 31
0.0
  0
LINE
  5
5F
330
1E
100
AcDbEntity
  8
0
100
AcDbLine
 10
22.2499875
 20
6.89294999999999
 30
0.0
 11
23.17878749999999
 21
4.99249999999999
 31
0.0
  0
LINE
  5
60
330
1E
100
AcDbEntity
  8
0
100
AcDbLine
 10
41.95078749999999
 20
6.97649999999999
 30
0.0
 11
41.95078749999999
 21
153.9764999999999
 31
0.0
  0
LINE
  5
61
330
1E
100
AcDbEntity
  8
0
100
AcDbLine
 10
41.95078749999999
 20
119.9764999999999
 30
0.0
 11
41.95078749999999
 21
153.9764999999999
 31
0.0
  0
LINE
  5
62
330
1E
100
AcDbEntity
  8
0
100
AcDbLine
 10
41.95078749999999
 20
117.4165
 30
0.0
 11
41.95078749999999
 21
119.9764999999999
 31
0.0
  0
LINE
  5
63
330
1E
100
AcDbEntity
  8
0
100
AcDbLine
 10
41.95078749999999
 20
115.0164999999999
 30
0.0
 11
41.95078749999999
 21
117.4165
 31
0.0
  0
LINE
  5
64
330
1E
100
AcDbEntity
  8
0
100
AcDbLine
 10
41.95078749999999
 20
112.8964999999999
 30
0.0
 11
41.95078749999999
 21
115.0164999999999
 31
0.0
  0
LINE
  5
65
330
1E
100
AcDbEntity
  8
0
100
AcDbLine
 10
41.95078749999999
 20
111.2964999999999
 30
0.0
 11
41.95078749999999
 21
112.8964999999999
 31
0.0
  0
LINE
  5
66
330
1E
100
AcDbEntity
  8
0
100
AcDbLine
 10
41.95078749999999
 20
110.3364999999999
 30
0.0
 11
41.95078749999999
 21
111.2964999999999
 31
0.0
  0
LINE
  5
67
330
1E
100
AcDbEntity
  8
0
100
AcDbLine
 10
41.95078749999999
 20
156.5364999999999
 30
0.0
 11
41.95078749999999
 21
158.9364999999999
 31
0.0
  0
LINE
  5
68
330
1E
100
AcDbEntity
  8
0
100
AcDbLine
 10
41.95078749999999
 20
158.9364999999999
 30
0.0
 11
41.95078749999999
 21
161.0565
 31
0.0
  0
LINE
  5
69
330
1E
100
AcDbEntity
  8
0
100
AcDbLine
 10
41.95078749999999
 20
109.9765
 30
0.0
 11
41.95078749999999
 21
110.3364999999999
 31
0.0
  0
LINE
  5
6A
330
1E
100
AcDbEntity
  8
0
100
AcDbLine
 10
21.5804875
 20
8.27534999999999
 30
0.0
 11
22.2499875
 21
6.89294999999999
 31
0.0
  0
LINE
  5
6B
330
1E
100
AcDbEntity
  8
0
100
AcDbLine
 10
41.95078749999999
 20
153.9764999999999
 30
0.0
 11
41.95078749999999
 21
156.7924999999999
 31
0.0
  0
LINE
  5
6C
330
1E
100
AcDbEntity
  8
0
100
AcDbLine
 10
41.95078749999999
 20
153.9764999999999
 30
0.0
 11
41.95078749999999
 21
156.5364999999999
 31
0.0
  0
LINE
  5
6D
330
1E
100
AcDbEntity
  8
0
100
AcDbLine
 10
41.95078749999999
 20
161.0565
 30
0.0
 11
41.95078749999999
 21
162.6565
 31
0.0
  0
LINE
  5
6E
330
1E
100
AcDbEntity
  8
0
100
AcDbLine
 10
41.95078749999999
 20
162.6565
 30
0.0
 11
41.95078749999999
 21
163.6165
 31
0.0
  0
LINE
  5
6F
330
1E
100
AcDbEntity
  8
0
100
AcDbLine
 10
41.95078749999999
 20
163.6165
 30
0.0
 11
41.95078749999999
 21
163.9764999999999
 31
0.0
  0
LINE
  5
70
330
1E
100
AcDbEntity
  8
0
100
AcDbLine
 10
41.95078749999999
 20
163.5244999999999
 30
0.0
 11
41.95078749999999
 21
164.5805
 31
0.0
  0
LINE
  5
71
330
1E
100
AcDbEntity
  8
0
100
AcDbLine
 10
41.95078749999999
 20
163.5244999999999
 30
0.0
 11
41.95078749999999
 21
161.7644999999999
 31
0.0
  0
LINE
  5
72
330
1E
100
AcDbEntity
  8
0
100
AcDbLine
 10
41.95078749999999
 20
161.7644999999999
 30
0.0
 11
41.95078749999999
 21
163.5244999999999
 31
0.0
  0
LINE
  5
73
330
1E
100
AcDbEntity
  8
0
100
AcDbLine
 10
41.95078749999999
 20
161.7644999999999
 30
0.0
 11
41.95078749999999
 21
159.4324999999999
 31
0.0
  0
LINE
  5
74
330
1E
100
AcDbEntity
  8
0
100
AcDbLine
 10
41.95078749999999
 20
159.4324999999999
 30
0.0
 11
41.95078749999999
 21
161.7644999999999
 31
0.0
  0
LINE
  5
75
330
1E
100
AcDbEntity
  8
0
100
AcDbLine
 10
41.95078749999999
 20
159.4324999999999
 30
0.0
 11
41.95078749999999
 21
156.7924999999999
 31
0.0
  0
LINE
  5
76
330
1E
100
AcDbEntity
  8
0
100
AcDbLine
 10
41.95078749999999
 20
156.7924999999999
 30
0.0
 11
41.95078749999999
 21
153.9764999999999
 31
0.0
  0
LINE
  5
78
330
1E
100
AcDbEntity
  8
0
100
AcDbLine
 10
41.95078749999999
 20
156.7924999999999
 30
0.0
 11
41.95078749999999
 21
159.4324999999999
 31
0.0
  0
LINE
  5
79
330
1E
100
AcDbEntity
  8
0
100
AcDbLine
 10
41.95078749999999
 20
6.976499999999999
 30
0.0
 11
41.95078749999999
 21
153.9764999999999
 31
0.0
  0
LINE
  5
7A
330
1E
100
AcDbEntity
  8
0
100
AcDbLine
 10
20.95278749999999
 20
9.57133999999999
 30
0.0
 11
21.5804875
 21
8.27534999999999
 31
0.0
  0
LINE
  5
7B
330
1E
100
AcDbEntity
  8
0
100
AcDbLine
 10
41.8067875
 20
5.95249999999999
 30
0.0
 11
41.95078749999999
 21
6.97649999999999
 31
0.0
  0
LINE
  5
7C
330
1E
100
AcDbEntity
  8
0
100
AcDbLine
 10
41.95078749999999
 20
164.5805
 30
0.0
 11
41.95078749999999
 21
164.9764999999999
 31
0.0
  0
LINE
  5
7D
330
1E
100
AcDbEntity
  8
0
100
AcDbLine
 10
41.95078749999999
 20
164.5805
 30
0.0
 11
41.95078749999999
 21
163.9764999999999
 31
0.0
  0
LINE
  5
7E
330
1E
100
AcDbEntity
  8
0
100
AcDbLine
 10
41.95078749999999
 20
164.5805
 30
0.0
 11
41.95078749999999
 21
163.5244999999999
 31
0.0
  0
LINE
  5
7F
330
1E
100
AcDbEntity
  8
0
100
AcDbLine
 10
0.0492124999999996
 20
199.8145
 30
0.0
 11
0.0856804999999996
 21
200.5755
 31
0.0
  0
LINE
  5
80
330
1E
100
AcDbEntity
  8
0
100
AcDbLine
 10
0.0492124999999996
 20
199.8145
 30
0.0
 11
0.1682865
 21
199.4955
 31
0.0
  0
LINE
  5
81
330
1E
100
AcDbEntity
  8
0
100
AcDbLine
 10
0.1682865
 20
199.4955
 30
0.0
 11
0.5173925000000001
 21
198.5595
 31
0.0
  0
LINE
  5
83
330
1E
100
AcDbEntity
  8
0
100
AcDbLine
 10
0.5173925000000001
 20
198.5595
 30
0.0
 11
1.072737499999999
 21
197.0705
 31
0.0
  0
LINE
  5
84
330
1E
100
AcDbEntity
  8
0
100
AcDbLine
 10
0.0856804999999997
 20
200.5755
 30
0.0
 11
0.6367115
 21
201.1014999999999
 31
0.0
  0
LINE
  5
89
330
1E
100
AcDbEntity
  8
0
100
AcDbLine
 10
1.072737499999999
 20
197.0705
 30
0.0
 11
1.7964875
 21
195.1304999999999
 31
0.0
  0
LINE
  5
8A
330
1E
100
AcDbEntity
  8
0
100
AcDbLine
 10
1.7964875
 20
195.1304999999999
 30
0.0
 11
2.6392975
 21
192.8704999999999
 31
0.0
  0
LINE
  5
8C
330
1E
100
AcDbEntity
  8
0
100
AcDbLine
 10
0.0856804999999996
 20
200.5755
 30
0.0
 11
0.6367115
 21
201.1014999999999
 31
0.0
  0
LINE
  5
8E
330
1E
100
AcDbEntity
  8
0
100
AcDbLine
 10
0.6367115
 20
201.1014999999999
 30
0.0
 11
2.510617499999999
 21
201.8005
 31
0.0
  0
LINE
  5
91
330
1E
100
AcDbEntity
  8
0
100
AcDbLine
 10
2.6392975
 20
192.8704999999999
 30
0.0
 11
3.543757499999999
 21
190.4455
 31
0.0
  0
LINE
  5
94
330
1E
100
AcDbEntity
  8
0
100
AcDbLine
 10
9.9154575
 20
173.4354999999999
 30
0.0
 11
11.0042875
 21
168.1645
 31
0.0
  0
LINE
  5
95
330
1E
100
AcDbEntity
  8
0
100
AcDbLine
 10
17.66508749999999
 20
175.7934999999999
 30
0.0
 11
18.9250875
 21
169.6514999999999
 31
0.0
  0
LINE
  5
9B
330
1E
100
AcDbEntity
  8
0
100
AcDbLine
 10
9.223567499999999
 20
198.1095
 30
0.0
 11
11.03938749999999
 21
193.2404999999999
 31
0.0
  0
LINE
  5
9C
330
1E
100
AcDbEntity
  8
0
100
AcDbLine
 10
11.03938749999999
 20
193.2404999999999
 30
0.0
 11
17.66508749999999
 21
175.7934999999999
 31
0.0
  0
LINE
  5
9D
330
1E
100
AcDbEntity
  8
0
100
AcDbLine
 10
3.543757499999999
 20
190.4455
 30
0.0
 11
9.9154575
 21
173.4354999999999
 31
0.0
  0
LINE
  5
9E
330
1E
100
AcDbEntity
  8
0
100
AcDbLine
 10
8.089567500000001
 20
200.2674999999999
 30
0.0
 11
8.942657499999999
 21
198.8625
 31
0.0
  0
LINE
  5
9F
330
1E
100
AcDbEntity
  8
0
100
AcDbLine
 10
8.942657499999999
 20
198.8625
 30
0.0
 11
9.223567499999999
 21
198.1095
 31
0.0
  0
LINE
  5
A0
330
1E
100
AcDbEntity
  8
0
100
AcDbLine
 10
41.95078749999999
 20
164.9764999999999
 30
0.0
 11
44.9507875
 21
164.9764999999999
 31
0.0
  0
LINE
  5
A1
330
1E
100
AcDbEntity
  8
0
100
AcDbLine
 10
41.95078749999999
 20
164.9764999999999
 30
0.0
 11
41.95078749999999
 21
164.5805
 31
0.0
  0
LINE
  5
A2
330
1E
100
AcDbEntity
  8
0
100
AcDbLine
 10
42.9067875
 20
2.020499999999989
 30
0.0
 11
44.02678749999999
 21
3.50449999999999
 31
0.0
  0
LINE
  5
A3
330
1E
100
AcDbEntity
  8
0
100
AcDbLine
 10
44.02678749999999
 20
3.50449999999999
 30
0.0
 11
44.6987875
 21
5.18449999999999
 31
0.0
  0
LINE
  5
A4
330
1E
100
AcDbEntity
  8
0
100
AcDbLine
 10
44.6987875
 20
5.18449999999999
 30
0.0
 11
44.9507875
 21
6.97649999999999
 31
0.0
  0
LINE
  5
A5
330
1E
100
AcDbEntity
  8
0
100
AcDbLine
 10
44.9507875
 20
6.97649999999999
 30
0.0
 11
44.9507875
 21
153.9764999999999
 31
0.0
  0
LINE
  5
A6
330
1E
100
AcDbEntity
  8
0
100
AcDbLine
 10
44.9507875
 20
153.9764999999999
 30
0.0
 11
44.9507875
 21
156.7924999999999
 31
0.0
  0
LINE
  5
A7
330
1E
100
AcDbEntity
  8
0
100
AcDbLine
 10
44.9507875
 20
164.9764999999999
 30
0.0
 11
44.9507875
 21
164.5805
 31
0.0
  0
LINE
  5
A8
330
1E
100
AcDbEntity
  8
0
100
AcDbLine
 10
44.9507875
 20
164.5805
 30
0.0
 11
44.9507875
 21
164.9764999999999
 31
0.0
  0
LINE
  5
A9
330
1E
100
AcDbEntity
  8
0
100
AcDbLine
 10
44.9507875
 20
164.5805
 30
0.0
 11
44.9507875
 21
163.5244999999999
 31
0.0
  0
LINE
  5
AA
330
1E
100
AcDbEntity
  8
0
100
AcDbLine
 10
44.9507875
 20
163.5244999999999
 30
0.0
 11
44.9507875
 21
164.5805
 31
0.0
  0
LINE
  5
AB
330
1E
100
AcDbEntity
  8
0
100
AcDbLine
 10
44.9507875
 20
163.5244999999999
 30
0.0
 11
44.9507875
 21
161.7644999999999
 31
0.0
  0
LINE
  5
AC
330
1E
100
AcDbEntity
  8
0
100
AcDbLine
 10
44.9507875
 20
161.7644999999999
 30
0.0
 11
44.9507875
 21
163.5244999999999
 31
0.0
  0
LINE
  5
AD
330
1E
100
AcDbEntity
  8
0
100
AcDbLine
 10
44.9507875
 20
161.7644999999999
 30
0.0
 11
44.9507875
 21
159.4324999999999
 31
0.0
  0
LINE
  5
AE
330
1E
100
AcDbEntity
  8
0
100
AcDbLine
 10
44.9507875
 20
159.4324999999999
 30
0.0
 11
44.9507875
 21
161.7644999999999
 31
0.0
  0
LINE
  5
AF
330
1E
100
AcDbEntity
  8
0
100
AcDbLine
 10
44.9507875
 20
159.4324999999999
 30
0.0
 11
44.9507875
 21
156.7924999999999
 31
0.0
  0
LINE
  5
B0
330
1E
100
AcDbEntity
  8
0
100
AcDbLine
 10
44.9507875
 20
156.7924999999999
 30
0.0
 11
44.9507875
 21
153.9764999999999
 31
0.0
  0
LINE
  5
B1
330
1E
100
AcDbEntity
  8
0
100
AcDbLine
 10
44.9507875
 20
156.7924999999999
 30
0.0
 11
44.9507875
 21
159.4324999999999
 31
0.0
  0
LINE
  5
B2
330
1E
100
AcDbEntity
  8
0
100
AcDbLine
 10
44.9507875
 20
6.976499999999999
 30
0.0
 11
44.9507875
 21
153.9764999999999
 31
0.0
  0
LINE
  5
B3
330
1E
100
AcDbEntity
  8
0
100
AcDbLine
 10
41.95078749999999
 20
163.9764999999999
 30
0.0
 11
41.95078749999999
 21
164.5805
 31
0.0
  0
LINE
  5
B8
330
1E
100
AcDbEntity
  8
0
  6
Continuous
100
AcDbLine
 10
2.510617499999999
 20
201.8005
 30
0.0
 11
4.170869021607131
 21
202.2223968975233
 31
0.0
  0
LINE
  5
B9
330
1E
100
AcDbEntity
  8
0
  6
Continuous
100
AcDbLine
 10
4.170869021607131
 20
202.2223968975233
 30
0.0
 11
5.150097991992652
 21
202.3168051437954
 31
0.0
  0
LINE
  5
BA
330
1E
100
AcDbEntity
  8
0
  6
Continuous
100
AcDbLine
 10
5.150097991992652
 20
202.3168051437954
 30
0.0
 11
5.9343553292465
 21
202.1493920421343
 31
0.0
  0
LINE
  5
BB
330
1E
100
AcDbEntity
  8
0
  6
Continuous
100
AcDbLine
 10
5.9343553292465
 20
202.1493920421343
 30
0.0
 11
6.91658089039538
 21
201.7993456917918
 31
0.0
  0
LINE
  5
BC
330
1E
100
AcDbEntity
  8
0
  6
Continuous
100
AcDbLine
 10
6.91658089039538
 20
201.7993456917918
 30
0.0
 11
7.647539128172638
 21
201.1144721919533
 31
0.0
  0
LINE
  5
BD
330
1E
100
AcDbEntity
  8
0
  6
Continuous
100
AcDbLine
 10
7.647539128172638
 20
201.1144721919533
 30
0.0
 11
8.089567500000001
 21
200.2674999999999
 31
0.0
  0
LINE
  5
BE
330
1E
100
AcDbEntity
  8
0
  6
Continuous
100
AcDbLine
 10
18.9250875
 20
169.6514999999999
 30
0.0
 11
18.9262667803719
 21
163.9764999999999
 31
0.0
  0
LINE
  5
BF
330
1E
100
AcDbEntity
  8
0
  6
Continuous
100
AcDbLine
 10
18.9262667803719
 20
163.9764999999999
 30
0.0
 11
18.9374881266424
 21
109.9765
 31
0.0
  0
LINE
  5
C0
330
1E
100
AcDbEntity
  8
0
  6
Continuous
100
AcDbLine
 10
18.9374881266424
 20
109.9765
 30
0.0
 11
18.93748812664238
 21
43.89240193845523
 31
0.0
  0
LINE
  5
C1
330
1E
100
AcDbEntity
  8
0
  6
Continuous
100
AcDbLine
 10
18.93748812664238
 20
43.89240193845523
 30
0.0
 11
18.9507875
 21
42.97649999999999
 31
0.0
  0
LINE
  5
C2
330
1E
100
AcDbEntity
  8
0
  6
Continuous
100
AcDbLine
 10
18.9507875
 20
42.97649999999999
 30
0.0
 11
18.9507875
 21
35.23293874672162
 31
0.0
  0
LINE
  5
C3
330
1E
100
AcDbEntity
  8
0
  6
Continuous
100
AcDbLine
 10
18.9507875
 20
35.23293874672162
 30
0.0
 11
10.96532910967152
 21
35.23293874672162
 31
0.0
  0
LINE
  5
C4
330
1E
100
AcDbEntity
  8
0
  6
Continuous
100
AcDbLine
 10
10.96532910967152
 20
35.23293874672162
 30
0.0
 11
10.9507875
 21
35.9765
 31
0.0
  0
ENDSEC
  0
SECTION
  2
OBJECTS
  0
DICTIONARY
  5
C
330
0
100
AcDbDictionary
281
     1
  3
ACAD_GROUP
350
D
  3
ACAD_LAYOUT
350
19
  3
ACAD_MLINESTYLE
350
16
  3
ACAD_PLOTSETTINGS
350
18
  3
ACAD_PLOTSTYLENAME
350
E
  3
AcDbVariableDictionary
350
C6
  0
DICTIONARY
  5
D
102
{ACAD_REACTORS
330
C
102
}
330
C
100
AcDbDictionary
281
     1
  0
DICTIONARY
  5
19
102
{ACAD_REACTORS
330
C
102
}
330
C
100
AcDbDictionary
281
     1
  3
Layout1
350
1D
  3
Model
350
21
  0
DICTIONARY
  5
16
102
{ACAD_REACTORS
330
C
102
}
330
C
100
AcDbDictionary
281
     1
  3
Standard
350
17
  0
DICTIONARY
  5
18
102
{ACAD_REACTORS
330
C
102
}
330
C
100
AcDbDictionary
281
     1
  0
ACDBDICTIONARYWDFLT
  5
E
102
{ACAD_REACTORS
330
C
102
}
330
C
100
AcDbDictionary
281
     1
  3
Normal
350
F
100
AcDbDictionaryWithDefault
340
F
  0
DICTIONARY
  5
C6
102
{ACAD_REACTORS
330
C
102
}
330
C
100
AcDbDictionary
281
     1
  3
DIMASSOC
350
C7
  0
LAYOUT
  5
1D
102
{ACAD_REACTORS
330
19
102
}
330
19
100
AcDbPlotSettings
  1

  2
C:\Programme\AutoCAD LT 2002 Deu\plotters\DWF ePlot (optimized for plotting).pc3
  4

  6

 40
0.0
 41
0.0
 42
0.0
 43
0.0
 44
0.0
 45
0.0
 46
0.0
 47
0.0
 48
0.0
 49
0.0
140
0.0
141
0.0
142
1.0
143
1.0
 70
   688
 72
     0
 73
     0
 74
     5
  7

 75
    16
147
1.0
148
0.0
149
0.0
100
AcDbLayout
  1
Layout1
 70
     1
 71
     1
 10
0.0
 20
0.0
 11
12.0
 21
9.0
 12
0.0
 22
0.0
 32
0.0
 14
1.000000000000000E+20
 24
1.000000000000000E+20
 34
1.000000000000000E+20
 15
-1.000000000000000E+20
 25
-1.000000000000000E+20
 35
-1.000000000000000E+20
146
0.0
 13
0.0
 23
0.0
 33
0.0
 16
1.0
 26
0.0
 36
0.0
 17
0.0
 27
1.0
 37
0.0
 76
     0
330
1A
  0
LAYOUT
  5
21
102
{ACAD_REACTORS
330
19
102
}
330
19
100
AcDbPlotSettings
  1

  2
C:\Programme\AutoCAD LT 2002 Deu\plotters\DWF ePlot (optimized for plotting).pc3
  4

  6

 40
0.0
 41
0.0
 42
0.0
 43
0.0
 44
0.0
 45
0.0
 46
0.0
 47
0.0
 48
0.0
 49
0.0
140
0.0
141
0.0
142
1.0
143
1.0
 70
  1712
 72
     0
 73
     0
 74
     0
  7

 75
     0
147
1.0
148
0.0
149
0.0
100
AcDbLayout
  1
Model
 70
     1
 71
     0
 10
0.0
 20
0.0
 11
12.0
 21
9.0
 12
0.0
 22
0.0
 32
0.0
 14
0.0
 24
0.0
 34
0.0
 15
0.0
 25
0.0
 35
0.0
146
0.0
 13
0.0
 23
0.0
 33
0.0
 16
1.0
 26
0.0
 36
0.0
 17
0.0
 27
1.0
 37
0.0
 76
     0
330
1E
  0
MLINESTYLE
  5
17
102
{ACAD_REACTORS
330
16
102
}
330
16
100
AcDbMlineStyle
  2
STANDARD
 70
     0
  3

 62
   256
 51
90.0
 52
90.0
 71
     2
 49
0.5
 62
   256
  6
BYLAYER
 49
-0.5
 62
   256
  6
BYLAYER
  0
ACDBPLACEHOLDER
  5
F
102
{ACAD_REACTORS
330
E
102
}
330
E
  0
DICTIONARYVAR
  5
C7
102
{ACAD_REACTORS
330
C6
102
}
330
C6
100
DictionaryVariables
280
     0
  1
1
  0
ENDSEC
  0
EOF
