  0
SECTION
  2
HEADER
  9
$ACADVER
  1
AC1015
  9
$ACADMAINTVER
 70
    13
  9
$DWGCODEPAGE
  3
ANSI_1252
  9
$INSBASE
 10
0.0
 20
0.0
 30
0.0
  9
$EXTMIN
 10
0.0
 20
0.195899999999997
 30
0.0
  9
$EXTMAX
 10
100.0
 20
99.8041
 30
0.0
  9
$LIMMIN
 10
0.0
 20
0.0
  9
$LIMMAX
 10
12.0
 20
9.0
  9
$ORTHOMODE
 70
     0
  9
$REGENMODE
 70
     1
  9
$FILLMODE
 70
     1
  9
$QTEXTMODE
 70
     0
  9
$MIRRTEXT
 70
     1
  9
$LTSCALE
 40
1.0
  9
$ATTMODE
 70
     1
  9
$TEXTSIZE
 40
0.2
  9
$TRACEWID
 40
0.05
  9
$TEXTSTYLE
  7
Standard
  9
$CLAYER
  8
0
  9
$CELTYPE
  6
Continuous
  9
$CECOLOR
 62
   256
  9
$CELTSCALE
 40
1.0
  9
$DISPSILH
 70
     0
  9
$DIMSCALE
 40
1.0
  9
$DIMASZ
 40
0.18
  9
$DIMEXO
 40
0.0625
  9
$DIMDLI
 40
0.38
  9
$DIMRND
 40
0.0
  9
$DIMDLE
 40
0.0
  9
$DIMEXE
 40
0.18
  9
$DIMTP
 40
0.0
  9
$DIMTM
 40
0.0
  9
$DIMTXT
 40
0.18
  9
$DIMCEN
 40
0.09
  9
$DIMTSZ
 40
0.0
  9
$DIMTOL
 70
     0
  9
$DIMLIM
 70
     0
  9
$DIMTIH
 70
     1
  9
$DIMTOH
 70
     1
  9
$DIMSE1
 70
     0
  9
$DIMSE2
 70
     0
  9
$DIMTAD
 70
     0
  9
$DIMZIN
 70
     0
  9
$DIMBLK
  1

  9
$DIMASO
 70
     1
  9
$DIMSHO
 70
     1
  9
$DIMPOST
  1

  9
$DIMAPOST
  1

  9
$DIMALT
 70
     0
  9
$DIMALTD
 70
     2
  9
$DIMALTF
 40
25.4
  9
$DIMLFAC
 40
1.0
  9
$DIMTOFL
 70
     0
  9
$DIMTVP
 40
0.0
  9
$DIMTIX
 70
     0
  9
$DIMSOXD
 70
     0
  9
$DIMSAH
 70
     0
  9
$DIMBLK1
  1

  9
$DIMBLK2
  1

  9
$DIMSTYLE
  2
Standard
  9
$DIMCLRD
 70
     0
  9
$DIMCLRE
 70
     0
  9
$DIMCLRT
 70
     0
  9
$DIMTFAC
 40
1.0
  9
$DIMGAP
 40
0.09
  9
$DIMJUST
 70
     0
  9
$DIMSD1
 70
     0
  9
$DIMSD2
 70
     0
  9
$DIMTOLJ
 70
     1
  9
$DIMTZIN
 70
     0
  9
$DIMALTZ
 70
     0
  9
$DIMALTTZ
 70
     0
  9
$DIMUPT
 70
     0
  9
$DIMDEC
 70
     4
  9
$DIMTDEC
 70
     4
  9
$DIMALTU
 70
     2
  9
$DIMALTTD
 70
     2
  9
$DIMTXSTY
  7
Standard
  9
$DIMAUNIT
 70
     0
  9
$DIMADEC
 70
     0
  9
$DIMALTRND
 40
0.0
  9
$DIMAZIN
 70
     0
  9
$DIMDSEP
 70
    46
  9
$DIMATFIT
 70
     3
  9
$DIMFRAC
 70
     0
  9
$DIMLDRBLK
  1

  9
$DIMLUNIT
 70
     2
  9
$DIMLWD
 70
    -2
  9
$DIMLWE
 70
    -2
  9
$DIMTMOVE
 70
     0
  9
$LUNITS
 70
     2
  9
$LUPREC
 70
     4
  9
$SKETCHINC
 40
0.1
  9
$FILLETRAD
 40
0.0
  9
$AUNITS
 70
     0
  9
$AUPREC
 70
     0
  9
$MENU
  1
.
  9
$ELEVATION
 40
0.0
  9
$PELEVATION
 40
0.0
  9
$THICKNESS
 40
0.0
  9
$LIMCHECK
 70
     0
  9
$CHAMFERA
 40
0.0
  9
$CHAMFERB
 40
0.0
  9
$CHAMFERC
 40
0.0
  9
$CHAMFERD
 40
0.0
  9
$SKPOLY
 70
     0
  9
$TDCREATE
 40
2455509.505446505
  9
$TDUCREATE
 40
2455509.463779837
  9
$TDUPDATE
 40
2455509.540628970
  9
$TDUUPDATE
 40
2455509.498962303
  9
$TDINDWG
 40
0.0351828356
  9
$TDUSRTIMER
 40
0.0351828356
  9
$USRTIMER
 70
     1
  9
$ANGBASE
 50
0.0
  9
$ANGDIR
 70
     0
  9
$PDMODE
 70
     0
  9
$PDSIZE
 40
0.0
  9
$PLINEWID
 40
0.0
  9
$SPLFRAME
 70
     0
  9
$SPLINETYPE
 70
     6
  9
$SPLINESEGS
 70
     8
  9
$HANDSEED
  5
332
  9
$SURFTAB1
 70
     6
  9
$SURFTAB2
 70
     6
  9
$SURFTYPE
 70
     6
  9
$SURFU
 70
     6
  9
$SURFV
 70
     6
  9
$UCSBASE
  2

  9
$UCSNAME
  2

  9
$UCSORG
 10
0.0
 20
0.0
 30
0.0
  9
$UCSXDIR
 10
1.0
 20
0.0
 30
0.0
  9
$UCSYDIR
 10
0.0
 20
1.0
 30
0.0
  9
$UCSORTHOREF
  2

  9
$UCSORTHOVIEW
 70
     1
  9
$UCSORGTOP
 10
0.0
 20
0.0
 30
0.0
  9
$UCSORGBOTTOM
 10
0.0
 20
0.0
 30
0.0
  9
$UCSORGLEFT
 10
0.0
 20
0.0
 30
0.0
  9
$UCSORGRIGHT
 10
0.0
 20
0.0
 30
0.0
  9
$UCSORGFRONT
 10
0.0
 20
0.0
 30
0.0
  9
$UCSORGBACK
 10
0.0
 20
0.0
 30
0.0
  9
$PUCSBASE
  2

  9
$PUCSNAME
  2

  9
$PUCSORG
 10
0.0
 20
0.0
 30
0.0
  9
$PUCSXDIR
 10
1.0
 20
0.0
 30
0.0
  9
$PUCSYDIR
 10
0.0
 20
1.0
 30
0.0
  9
$PUCSORTHOREF
  2

  9
$PUCSORTHOVIEW
 70
     0
  9
$PUCSORGTOP
 10
0.0
 20
0.0
 30
0.0
  9
$PUCSORGBOTTOM
 10
0.0
 20
0.0
 30
0.0
  9
$PUCSORGLEFT
 10
0.0
 20
0.0
 30
0.0
  9
$PUCSORGRIGHT
 10
0.0
 20
0.0
 30
0.0
  9
$PUCSORGFRONT
 10
0.0
 20
0.0
 30
0.0
  9
$PUCSORGBACK
 10
0.0
 20
0.0
 30
0.0
  9
$USERI1
 70
     0
  9
$USERI2
 70
     0
  9
$USERI3
 70
     0
  9
$USERI4
 70
     0
  9
$USERI5
 70
     0
  9
$USERR1
 40
0.0
  9
$USERR2
 40
0.0
  9
$USERR3
 40
0.0
  9
$USERR4
 40
0.0
  9
$USERR5
 40
0.0
  9
$WORLDVIEW
 70
     1
  9
$SHADEDGE
 70
     3
  9
$SHADEDIF
 70
    70
  9
$TILEMODE
 70
     1
  9
$MAXACTVP
 70
    64
  9
$PINSBASE
 10
0.0
 20
0.0
 30
0.0
  9
$PLIMCHECK
 70
     0
  9
$PEXTMIN
 10
1.000000000000000E+20
 20
1.000000000000000E+20
 30
1.000000000000000E+20
  9
$PEXTMAX
 10
-1.000000000000000E+20
 20
-1.000000000000000E+20
 30
-1.000000000000000E+20
  9
$PLIMMIN
 10
0.0
 20
0.0
  9
$PLIMMAX
 10
12.0
 20
9.0
  9
$UNITMODE
 70
     0
  9
$VISRETAIN
 70
     1
  9
$PLINEGEN
 70
     0
  9
$PSLTSCALE
 70
     1
  9
$TREEDEPTH
 70
  3020
  9
$CMLSTYLE
  2
Standard
  9
$CMLJUST
 70
     0
  9
$CMLSCALE
 40
1.0
  9
$PROXYGRAPHICS
 70
     1
  9
$MEASUREMENT
 70
     0
  9
$CELWEIGHT
370
    -1
  9
$ENDCAPS
280
     0
  9
$JOINSTYLE
280
     0
  9
$LWDISPLAY
290
     0
  9
$INSUNITS
 70
     0
  9
$HYPERLINKBASE
  1

  9
$STYLESHEET
  1

  9
$XEDIT
290
     1
  9
$CEPSNTYPE
380
     0
  9
$PSTYLEMODE
290
     1
  9
$FINGERPRINTGUID
  2
{E41EE328-9A76-4149-9ED1-B046BB13D077}
  9
$VERSIONGUID
  2
{FE0573FF-6574-44DD-BDE5-64CDDC028ED2}
  9
$EXTNAMES
290
     1
  9
$PSVPSCALE
 40
0.0
  9
$OLESTARTUP
290
     0
  0
ENDSEC
  0
SECTION
  2
CLASSES
  0
CLASS
  1
ACDBDICTIONARYWDFLT
  2
AcDbDictionaryWithDefault
  3
AutoCAD 2000
 90
        0
280
     0
281
     0
  0
CLASS
  1
ACDBPLACEHOLDER
  2
AcDbPlaceHolder
  3
AutoCAD 2000
 90
        0
280
     0
281
     0
  0
CLASS
  1
LAYOUT
  2
AcDbLayout
  3
AutoCAD 2000
 90
        0
280
     0
281
     0
  0
CLASS
  1
DICTIONARYVAR
  2
AcDbDictionaryVar
  3
AutoCAD 2000
 90
        0
280
     0
281
     0
  0
ENDSEC
  0
SECTION
  2
TABLES
  0
TABLE
  2
VPORT
  5
8
330
0
100
AcDbSymbolTable
 70
     8
  0
VPORT
  5
331
330
8
100
AcDbSymbolTableRecord
100
AcDbViewportTableRecord
  2
*Active
 70
     0
 10
0.0
 20
0.0
 11
1.0
 21
1.0
 12
50.0
 22
50.0
 13
0.0
 23
0.0
 14
1.0
 24
1.0
 15
0.0
 25
0.0
 16
0.0
 26
0.0
 36
1.0
 17
0.0
 27
0.0
 37
0.0
 40
100.2819871476888
 41
2.073363431151241
 42
50.0
 43
0.0
 44
0.0
 50
0.0
 51
0.0
 71
     0
 72
   100
 73
     1
 74
     3
 75
     0
 76
     0
 77
     0
 78
     0
281
     0
 65
     1
110
0.0
120
0.0
130
0.0
111
1.0
121
0.0
131
0.0
112
0.0
122
1.0
132
0.0
 79
     1
146
0.0
  0
ENDTAB
  0
TABLE
  2
LTYPE
  5
5
330
0
100
AcDbSymbolTable
 70
     1
  0
LTYPE
  5
13
330
5
100
AcDbSymbolTableRecord
100
AcDbLinetypeTableRecord
  2
ByBlock
 70
     0
  3

 72
    65
 73
     0
 40
0.0
  0
LTYPE
  5
14
330
5
100
AcDbSymbolTableRecord
100
AcDbLinetypeTableRecord
  2
ByLayer
 70
     0
  3

 72
    65
 73
     0
 40
0.0
  0
LTYPE
  5
15
330
5
100
AcDbSymbolTableRecord
100
AcDbLinetypeTableRecord
  2
Continuous
 70
     0
  3
Solid line
 72
    65
 73
     0
 40
0.0
  0
ENDTAB
  0
TABLE
  2
LAYER
  5
2
330
0
100
AcDbSymbolTable
 70
     1
  0
LAYER
  5
10
330
2
100
AcDbSymbolTableRecord
100
AcDbLayerTableRecord
  2
0
 70
     0
 62
     7
  6
Continuous
370
    -3
390
F
  0
ENDTAB
  0
TABLE
  2
STYLE
  5
3
330
0
100
AcDbSymbolTable
 70
     1
  0
STYLE
  5
11
330
3
100
AcDbSymbolTableRecord
100
AcDbTextStyleTableRecord
  2
Standard
 70
     0
 40
0.0
 41
1.0
 50
0.0
 71
     0
 42
0.2
  3
txt
  4

  0
ENDTAB
  0
TABLE
  2
VIEW
  5
6
330
0
100
AcDbSymbolTable
 70
     0
  0
ENDTAB
  0
TABLE
  2
UCS
  5
7
330
0
100
AcDbSymbolTable
 70
     0
  0
ENDTAB
  0
TABLE
  2
APPID
  5
9
330
0
100
AcDbSymbolTable
 70
     1
  0
APPID
  5
12
330
9
100
AcDbSymbolTableRecord
100
AcDbRegAppTableRecord
  2
ACAD
 70
     0
  0
ENDTAB
  0
TABLE
  2
DIMSTYLE
  5
A
330
0
100
AcDbSymbolTable
 70
     1
100
AcDbDimStyleTable
 71
     0
  0
DIMSTYLE
105
282
330
A
100
AcDbSymbolTableRecord
100
AcDbDimStyleTableRecord
  2
Standard
 70
     0
340
11
  0
ENDTAB
  0
TABLE
  2
BLOCK_RECORD
  5
1
330
0
100
AcDbSymbolTable
 70
     0
  0
BLOCK_RECORD
  5
1E
330
1
100
AcDbSymbolTableRecord
100
AcDbBlockTableRecord
  2
*Model_Space
340
21
  0
BLOCK_RECORD
  5
1A
330
1
100
AcDbSymbolTableRecord
100
AcDbBlockTableRecord
  2
*Paper_Space
340
1D
  0
ENDTAB
  0
ENDSEC
  0
SECTION
  2
BLOCKS
  0
BLOCK
  5
1F
330
1E
100
AcDbEntity
  8
0
100
AcDbBlockBegin
  2
*Model_Space
 70
     0
 10
0.0
 20
0.0
 30
0.0
  3
*Model_Space
  1

  0
ENDBLK
  5
20
330
1E
100
AcDbEntity
  8
0
100
AcDbBlockEnd
  0
BLOCK
  5
1B
330
1A
100
AcDbEntity
 67
     1
  8
0
100
AcDbBlockBegin
  2
*Paper_Space
 70
     0
 10
0.0
 20
0.0
 30
0.0
  3
*Paper_Space
  1

  0
ENDBLK
  5
1C
330
1A
100
AcDbEntity
 67
     1
  8
0
100
AcDbBlockEnd
  0
ENDSEC
  0
SECTION
  2
ENTITIES
  0
LINE
  5
22
330
1E
100
AcDbEntity
  8
0
100
AcDbLine
 10
30.6335
 20
0.6225579999999971
 30
0.0
 11
50.0
 21
0.195899999999997
 31
0.0
  0
LINE
  5
26
330
1E
100
AcDbEntity
  8
0
100
AcDbLine
 10
9.225619999999999
 20
4.0841
 30
0.0
 11
11.99939999999999
 21
2.665109999999999
 31
0.0
  0
LINE
  5
27
330
1E
100
AcDbEntity
  8
0
100
AcDbLine
 10
6.720619999999999
 20
5.93878
 30
0.0
 11
9.225619999999999
 21
4.0841
 31
0.0
  0
LINE
  5
28
330
1E
100
AcDbEntity
  8
0
100
AcDbLine
 10
4.55236
 20
8.177189999999999
 30
0.0
 11
6.720619999999999
 21
5.93878
 31
0.0
  0
LINE
  5
29
330
1E
100
AcDbEntity
  8
0
100
AcDbLine
 10
2.78277
 20
10.7414
 30
0.0
 11
4.55236
 21
8.177189999999999
 31
0.0
  0
LINE
  5
2A
330
1E
100
AcDbEntity
  8
0
100
AcDbLine
 10
18.0546
 20
1.27709
 30
0.0
 11
30.6335
 21
0.6225579999999971
 31
0.0
  0
LINE
  5
2E
330
1E
100
AcDbEntity
  8
0
100
AcDbLine
 10
14.97
 20
1.721779999999999
 30
0.0
 11
18.0546
 21
1.27709
 31
0.0
  0
LINE
  5
2F
330
1E
100
AcDbEntity
  8
0
100
AcDbLine
 10
11.99939999999999
 20
2.665109999999999
 30
0.0
 11
14.97
 21
1.721779999999999
 31
0.0
  0
LINE
  5
30
330
1E
100
AcDbEntity
  8
0
100
AcDbLine
 10
0.608513
 20
16.5622
 30
0.0
 11
1.455829999999999
 21
13.5614
 31
0.0
  0
LINE
  5
33
330
1E
100
AcDbEntity
  8
0
100
AcDbLine
 10
1.455829999999999
 20
13.5614
 30
0.0
 11
2.78277
 21
10.7414
 31
0.0
  0
LINE
  5
34
330
1E
100
AcDbEntity
  8
0
100
AcDbLine
 10
13.12219999999999
 20
23.3036
 30
0.0
 11
13.8517
 21
22.9873
 31
0.0
  0
LINE
  5
35
330
1E
100
AcDbEntity
  8
0
100
AcDbLine
 10
13.8517
 20
22.9873
 30
0.0
 11
14.6072
 21
22.74109999999999
 31
0.0
  0
LINE
  5
36
330
1E
100
AcDbEntity
  8
0
100
AcDbLine
 10
10.5974
 20
25.2114
 30
0.0
 11
11.15779999999999
 21
24.6459
 31
0.0
  0
LINE
  5
37
330
1E
100
AcDbEntity
  8
0
100
AcDbLine
 10
12.4267
 20
23.688
 30
0.0
 11
13.12219999999999
 21
23.3036
 31
0.0
  0
LINE
  5
38
330
1E
100
AcDbEntity
  8
0
100
AcDbLine
 10
11.15779999999999
 20
24.6459
 30
0.0
 11
11.76919999999999
 21
24.1364
 31
0.0
  0
LINE
  5
39
330
1E
100
AcDbEntity
  8
0
100
AcDbLine
 10
11.76919999999999
 20
24.1364
 30
0.0
 11
12.4267
 21
23.688
 31
0.0
  0
LINE
  5
3C
330
1E
100
AcDbEntity
  8
0
100
AcDbLine
 10
16.9619
 20
22.44879999999999
 30
0.0
 11
17.75339999999999
 21
22.50189999999999
 31
0.0
  0
LINE
  5
3D
330
1E
100
AcDbEntity
  8
0
100
AcDbLine
 10
17.75339999999999
 20
22.50189999999999
 30
0.0
 11
18.535
 21
22.62999999999999
 31
0.0
  0
LINE
  5
3E
330
1E
100
AcDbEntity
  8
0
100
AcDbLine
 10
16.16929999999999
 20
22.47079999999999
 30
0.0
 11
16.9619
 21
22.44879999999999
 31
0.0
  0
LINE
  5
3F
330
1E
100
AcDbEntity
  8
0
100
AcDbLine
 10
15.3818
 20
22.56889999999999
 30
0.0
 11
16.16929999999999
 21
22.47079999999999
 31
0.0
  0
LINE
  5
40
330
1E
100
AcDbEntity
  8
0
100
AcDbLine
 10
14.6072
 20
22.74109999999999
 30
0.0
 11
15.3818
 21
22.56889999999999
 31
0.0
  0
LINE
  5
43
330
1E
100
AcDbEntity
  8
0
100
AcDbLine
 10
18.535
 20
22.62999999999999
 30
0.0
 11
19.3015
 21
22.8322
 31
0.0
  0
LINE
  5
44
330
1E
100
AcDbEntity
  8
0
100
AcDbLine
 10
19.3015
 20
22.8322
 30
0.0
 11
20.04399999999999
 21
23.1074
 31
0.0
  0
LINE
  5
45
330
1E
100
AcDbEntity
  8
0
100
AcDbLine
 10
20.04399999999999
 20
23.1074
 30
0.0
 11
20.7575
 21
23.4508
 31
0.0
  0
LINE
  5
46
330
1E
100
AcDbEntity
  8
0
100
AcDbLine
 10
20.7575
 20
23.4508
 30
0.0
 11
21.43499999999999
 21
23.8622
 31
0.0
  0
LINE
  5
47
330
1E
100
AcDbEntity
  8
0
100
AcDbLine
 10
21.43499999999999
 20
23.8622
 30
0.0
 11
22.0694
 21
24.33559999999999
 31
0.0
  0
LINE
  5
48
330
1E
100
AcDbEntity
  8
0
100
AcDbLine
 10
22.0694
 20
24.33559999999999
 30
0.0
 11
22.65589999999999
 21
24.8681
 31
0.0
  0
LINE
  5
49
330
1E
100
AcDbEntity
  8
0
100
AcDbLine
 10
22.65589999999999
 20
24.8681
 30
0.0
 11
23.18919999999999
 21
25.45469999999999
 31
0.0
  0
LINE
  5
4A
330
1E
100
AcDbEntity
  8
0
100
AcDbLine
 10
23.18919999999999
 20
25.45469999999999
 30
0.0
 11
23.6646
 21
26.0893
 31
0.0
  0
LINE
  5
4E
330
1E
100
AcDbEntity
  8
0
100
AcDbLine
 10
10.0921
 20
25.82699999999999
 30
0.0
 11
10.5974
 21
25.2114
 31
0.0
  0
LINE
  5
4F
330
1E
100
AcDbEntity
  8
0
100
AcDbLine
 10
23.6646
 20
26.0893
 30
0.0
 11
24.0769
 21
26.7659
 31
0.0
  0
LINE
  5
53
330
1E
100
AcDbEntity
  8
0
100
AcDbLine
 10
0.608513
 20
16.5622
 30
0.0
 11
1.455829999999999
 21
13.5614
 31
0.0
  0
LINE
  5
54
330
1E
100
AcDbEntity
  8
0
100
AcDbLine
 10
0.264788
 20
19.659
 30
0.0
 11
0.608513
 21
16.5622
 31
0.0
  0
LINE
  5
56
330
1E
100
AcDbEntity
  8
0
100
AcDbLine
 10
9.64775
 20
26.4877
 30
0.0
 11
10.0921
 21
25.82699999999999
 31
0.0
  0
LINE
  5
57
330
1E
100
AcDbEntity
  8
0
100
AcDbLine
 10
9.267489999999998
 20
27.1873
 30
0.0
 11
9.64775
 21
26.4877
 31
0.0
  0
LINE
  5
58
330
1E
100
AcDbEntity
  8
0
100
AcDbLine
 10
24.4231
 20
27.4796
 30
0.0
 11
24.70029999999999
 21
28.2243
 31
0.0
  0
LINE
  5
59
330
1E
100
AcDbEntity
  8
0
100
AcDbLine
 10
24.0769
 20
26.7659
 30
0.0
 11
24.4231
 21
27.4796
 31
0.0
  0
LINE
  5
5C
330
1E
100
AcDbEntity
  8
0
100
AcDbLine
 10
8.95527
 20
27.92
 30
0.0
 11
9.267489999999998
 21
27.1873
 31
0.0
  0
LINE
  5
5D
330
1E
100
AcDbEntity
  8
0
100
AcDbLine
 10
8.7131
 20
28.67869999999999
 30
0.0
 11
8.95527
 21
27.92
 31
0.0
  0
LINE
  5
5E
330
1E
100
AcDbEntity
  8
0
100
AcDbLine
 10
24.70029999999999
 20
28.2243
 30
0.0
 11
24.9054
 21
28.992
 31
0.0
  0
LINE
  5
5F
330
1E
100
AcDbEntity
  8
0
100
AcDbLine
 10
24.9054
 20
28.992
 30
0.0
 11
25.0375
 21
29.77479999999999
 31
0.0
  0
LINE
  5
60
330
1E
100
AcDbEntity
  8
0
100
AcDbLine
 10
8.44991
 20
30.2472
 30
0.0
 11
8.54498
 21
29.4565
 31
0.0
  0
LINE
  5
61
330
1E
100
AcDbEntity
  8
0
100
AcDbLine
 10
8.430899999999999
 20
31.042
 30
0.0
 11
8.44991
 21
30.2472
 31
0.0
  0
LINE
  5
62
330
1E
100
AcDbEntity
  8
0
100
AcDbLine
 10
8.430899999999999
 20
31.042
 30
0.0
 11
8.48794
 21
31.8357
 31
0.0
  0
LINE
  5
65
330
1E
100
AcDbEntity
  8
0
100
AcDbLine
 10
8.54498
 20
29.4565
 30
0.0
 11
8.7131
 21
28.67869999999999
 31
0.0
  0
LINE
  5
66
330
1E
100
AcDbEntity
  8
0
100
AcDbLine
 10
25.0375
 20
29.77479999999999
 30
0.0
 11
25.0936
 21
30.5685
 31
0.0
  0
LINE
  5
67
330
1E
100
AcDbEntity
  8
0
100
AcDbLine
 10
8.48794
 20
31.8357
 30
0.0
 11
8.61903
 21
32.6195
 31
0.0
  0
LINE
  5
68
330
1E
100
AcDbEntity
  8
0
100
AcDbLine
 10
25.0746
 20
31.3633
 30
0.0
 11
25.0936
 21
30.5685
 31
0.0
  0
LINE
  5
6B
330
1E
100
AcDbEntity
  8
0
100
AcDbLine
 10
36.228
 20
30.3814
 30
0.0
 11
38.5112
 21
28.9634
 31
0.0
  0
LINE
  5
6C
330
1E
100
AcDbEntity
  8
0
100
AcDbLine
 10
8.61903
 20
32.6195
 30
0.0
 11
8.82418
 21
33.3862
 31
0.0
  0
LINE
  5
6D
330
1E
100
AcDbEntity
  8
0
100
AcDbLine
 10
8.82418
 20
33.3862
 30
0.0
 11
9.101369999999999
 21
34.13089999999999
 31
0.0
  0
LINE
  5
6E
330
1E
100
AcDbEntity
  8
0
100
AcDbLine
 10
9.101369999999999
 20
34.13089999999999
 30
0.0
 11
9.44761
 21
34.8446
 31
0.0
  0
LINE
  5
6F
330
1E
100
AcDbEntity
  8
0
100
AcDbLine
 10
9.859899999999999
 20
35.5222
 30
0.0
 11
10.33519999999999
 21
36.15679999999999
 31
0.0
  0
LINE
  5
70
330
1E
100
AcDbEntity
  8
0
100
AcDbLine
 10
9.44761
 20
34.8446
 30
0.0
 11
9.859899999999999
 21
35.5222
 31
0.0
  0
LINE
  5
71
330
1E
100
AcDbEntity
  8
0
100
AcDbLine
 10
23.87669999999999
 20
35.1229
 30
0.0
 11
24.25699999999999
 21
34.4232
 31
0.0
  0
LINE
  5
72
330
1E
100
AcDbEntity
  8
0
100
AcDbLine
 10
24.25699999999999
 20
34.4232
 30
0.0
 11
24.57019999999999
 21
33.6905
 31
0.0
  0
LINE
  5
73
330
1E
100
AcDbEntity
  8
0
100
AcDbLine
 10
24.9795
 20
32.154
 30
0.0
 11
25.0746
 21
31.3633
 31
0.0
  0
LINE
  5
74
330
1E
100
AcDbEntity
  8
0
100
AcDbLine
 10
24.57019999999999
 20
33.6905
 30
0.0
 11
24.81139999999999
 21
32.9318
 31
0.0
  0
LINE
  5
75
330
1E
100
AcDbEntity
  8
0
100
AcDbLine
 10
24.81139999999999
 20
32.9318
 30
0.0
 11
24.9795
 21
32.154
 31
0.0
  0
LINE
  5
78
330
1E
100
AcDbEntity
  8
0
100
AcDbLine
 10
23.4324
 20
35.78349999999999
 30
0.0
 11
23.87669999999999
 21
35.1229
 31
0.0
  0
LINE
  5
7C
330
1E
100
AcDbEntity
  8
0
100
AcDbLine
 10
0.0
 20
35.236
 30
0.0
 11
0.077658
 21
50.0
 31
0.0
  0
LINE
  5
7D
330
1E
100
AcDbEntity
  8
0
100
AcDbLine
 10
0.0
 20
35.236
 30
0.0
 11
0.264788
 21
19.659
 31
0.0
  0
LINE
  5
7F
330
1E
100
AcDbEntity
  8
0
100
AcDbLine
 10
10.33519999999999
 20
36.15679999999999
 30
0.0
 11
10.8686
 21
36.7424
 31
0.0
  0
LINE
  5
80
330
1E
100
AcDbEntity
  8
0
100
AcDbLine
 10
22.92699999999999
 20
36.4001
 30
0.0
 11
23.4324
 21
35.78349999999999
 31
0.0
  0
LINE
  5
82
330
1E
100
AcDbEntity
  8
0
100
AcDbLine
 10
30.52459999999999
 20
36.0304
 30
0.0
 11
32.2102
 21
33.9379
 31
0.0
  0
LINE
  5
83
330
1E
100
AcDbEntity
  8
0
100
AcDbLine
 10
32.2102
 20
33.9379
 30
0.0
 11
34.1197
 21
32.0472
 31
0.0
  0
LINE
  5
84
330
1E
100
AcDbEntity
  8
0
100
AcDbLine
 10
34.1197
 20
32.0472
 30
0.0
 11
36.228
 21
30.3814
 31
0.0
  0
LINE
  5
85
330
1E
100
AcDbEntity
  8
0
100
AcDbLine
 10
38.5112
 20
28.9634
 30
0.0
 11
40.9372
 21
27.80829999999999
 31
0.0
  0
LINE
  5
86
330
1E
100
AcDbEntity
  8
0
100
AcDbLine
 10
40.9372
 20
27.80829999999999
 30
0.0
 11
43.4792
 21
26.9329
 31
0.0
  0
LINE
  5
89
330
1E
100
AcDbEntity
  8
0
100
AcDbLine
 10
43.4792
 20
26.9329
 30
0.0
 11
46.1021
 21
26.3473
 31
0.0
  0
LINE
  5
8A
330
1E
100
AcDbEntity
  8
0
100
AcDbLine
 10
46.1021
 20
26.3473
 30
0.0
 11
48.77399999999999
 21
26.0605
 31
0.0
  0
LINE
  5
8B
330
1E
100
AcDbEntity
  8
0
100
AcDbLine
 10
48.77399999999999
 20
26.0605
 30
0.0
 11
50.0
 21
26.0664
 31
0.0
  0
LINE
  5
93
330
1E
100
AcDbEntity
  8
0
100
AcDbLine
 10
10.8686
 20
36.7424
 30
0.0
 11
11.45499999999999
 21
37.2749
 31
0.0
  0
LINE
  5
94
330
1E
100
AcDbEntity
  8
0
100
AcDbLine
 10
12.08949999999999
 20
37.7483
 30
0.0
 11
12.7669
 21
38.1597
 31
0.0
  0
LINE
  5
95
330
1E
100
AcDbEntity
  8
0
100
AcDbLine
 10
11.45499999999999
 20
37.2749
 30
0.0
 11
12.08949999999999
 21
37.7483
 31
0.0
  0
LINE
  5
96
330
1E
100
AcDbEntity
  8
0
100
AcDbLine
 10
12.7669
 20
38.1597
 30
0.0
 11
13.4804
 21
38.5041
 31
0.0
  0
LINE
  5
98
330
1E
100
AcDbEntity
  8
0
100
AcDbLine
 10
14.22299999999999
 20
38.7783
 30
0.0
 11
14.98949999999999
 21
38.98049999999999
 31
0.0
  0
LINE
  5
99
330
1E
100
AcDbEntity
  8
0
100
AcDbLine
 10
13.4804
 20
38.5041
 30
0.0
 11
14.22299999999999
 21
38.7783
 31
0.0
  0
LINE
  5
9A
330
1E
100
AcDbEntity
  8
0
100
AcDbLine
 10
19.67279999999999
 20
38.6232
 30
0.0
 11
20.4023
 21
38.3069
 31
0.0
  0
LINE
  5
9B
330
1E
100
AcDbEntity
  8
0
100
AcDbLine
 10
14.98949999999999
 20
38.98049999999999
 30
0.0
 11
15.77099999999999
 21
39.1086
 31
0.0
  0
LINE
  5
9C
330
1E
100
AcDbEntity
  8
0
100
AcDbLine
 10
18.9172
 20
38.8694
 30
0.0
 11
19.67279999999999
 21
38.6232
 31
0.0
  0
LINE
  5
9D
330
1E
100
AcDbEntity
  8
0
100
AcDbLine
 10
22.3667
 20
36.9646
 30
0.0
 11
22.92699999999999
 21
36.4001
 31
0.0
  0
LINE
  5
9E
330
1E
100
AcDbEntity
  8
0
100
AcDbLine
 10
20.4023
 20
38.3069
 30
0.0
 11
21.0978
 21
37.9225
 31
0.0
  0
LINE
  5
9F
330
1E
100
AcDbEntity
  8
0
100
AcDbLine
 10
21.7552
 20
37.4741
 30
0.0
 11
22.3667
 21
36.9646
 31
0.0
  0
LINE
  5
A0
330
1E
100
AcDbEntity
  8
0
100
AcDbLine
 10
21.0978
 20
37.9225
 30
0.0
 11
21.7552
 21
37.4741
 31
0.0
  0
LINE
  5
A3
330
1E
100
AcDbEntity
  8
0
100
AcDbLine
 10
15.77099999999999
 20
39.1086
 30
0.0
 11
16.5626
 21
39.1627
 31
0.0
  0
LINE
  5
A4
330
1E
100
AcDbEntity
  8
0
100
AcDbLine
 10
18.1427
 20
39.0416
 30
0.0
 11
18.9172
 21
38.8694
 31
0.0
  0
LINE
  5
A5
330
1E
100
AcDbEntity
  8
0
100
AcDbLine
 10
16.5626
 20
39.1627
 30
0.0
 11
17.3551
 21
39.13969999999999
 31
0.0
  0
LINE
  5
A6
330
1E
100
AcDbEntity
  8
0
100
AcDbLine
 10
17.3551
 20
39.13969999999999
 30
0.0
 11
18.1427
 21
39.0416
 31
0.0
  0
LINE
  5
AB
330
1E
100
AcDbEntity
  8
0
100
AcDbLine
 10
0.077658
 20
50.0
 30
0.0
 11
0.353342
 21
50.0
 31
0.0
  0
LINE
  5
B1
330
1E
100
AcDbEntity
  8
0
100
AcDbLine
 10
26.0801
 20
48.5345
 30
0.0
 11
26.3949
 21
45.8654
 31
0.0
  0
LINE
  5
B2
330
1E
100
AcDbEntity
  8
0
100
AcDbLine
 10
26.3949
 20
45.8654
 30
0.0
 11
27.0054
 21
43.2473
 31
0.0
  0
LINE
  5
B3
330
1E
100
AcDbEntity
  8
0
100
AcDbLine
 10
27.0054
 20
43.2473
 30
0.0
 11
27.9057
 21
40.71509999999999
 31
0.0
  0
LINE
  5
B4
330
1E
100
AcDbEntity
  8
0
100
AcDbLine
 10
27.9057
 20
40.71509999999999
 30
0.0
 11
29.08269999999999
 21
38.29979999999999
 31
0.0
  0
LINE
  5
CB
330
1E
100
AcDbEntity
  8
0
100
AcDbLine
 10
29.08269999999999
 20
38.29979999999999
 30
0.0
 11
30.52459999999999
 21
36.0304
 31
0.0
  0
LINE
  5
CC
330
1E
100
AcDbEntity
  8
0
100
AcDbLine
 10
26.0731
 20
50.0
 30
0.0
 11
26.0801
 21
51.4655
 31
0.0
  0
LINE
  5
CD
330
1E
100
AcDbEntity
  8
0
100
AcDbLine
 10
26.0731
 20
50.0
 30
0.0
 11
26.0801
 21
48.5345
 31
0.0
  0
LINE
  5
DC
330
1E
100
AcDbEntity
  8
0
100
AcDbLine
 10
26.3949
 20
54.1346
 30
0.0
 11
27.0054
 21
56.7527
 31
0.0
  0
LINE
  5
E1
330
1E
100
AcDbEntity
  8
0
100
AcDbLine
 10
27.0054
 20
56.7527
 30
0.0
 11
27.9057
 21
59.2849
 31
0.0
  0
LINE
  5
E4
330
1E
100
AcDbEntity
  8
0
100
AcDbLine
 10
27.9057
 20
59.2849
 30
0.0
 11
29.08269999999999
 21
61.7002
 31
0.0
  0
LINE
  5
EC
330
1E
100
AcDbEntity
  8
0
100
AcDbLine
 10
29.08269999999999
 20
61.7002
 30
0.0
 11
30.52459999999999
 21
63.96959999999999
 31
0.0
  0
LINE
  5
EE
330
1E
100
AcDbEntity
  8
0
100
AcDbLine
 10
26.0801
 20
51.4655
 30
0.0
 11
26.3949
 21
54.1346
 31
0.0
  0
LINE
  5
F1
330
1E
100
AcDbEntity
  8
0
100
AcDbLine
 10
0.0
 20
64.76399999999999
 30
0.0
 11
0.077658
 21
50.0
 31
0.0
  0
LINE
  5
F2
330
1E
100
AcDbEntity
  8
0
100
AcDbLine
 10
0.0
 20
64.76399999999999
 30
0.0
 11
0.264788
 21
80.341
 31
0.0
  0
LINE
  5
F4
330
1E
100
AcDbEntity
  8
0
100
AcDbLine
 10
30.52459999999999
 20
63.96959999999999
 30
0.0
 11
32.2102
 21
66.0621
 31
0.0
  0
LINE
  5
F6
330
1E
100
AcDbEntity
  8
0
100
AcDbLine
 10
32.2102
 20
66.0621
 30
0.0
 11
34.1197
 21
67.95279999999999
 31
0.0
  0
LINE
  5
F9
330
1E
100
AcDbEntity
  8
0
100
AcDbLine
 10
36.228
 20
69.6186
 30
0.0
 11
38.5112
 21
71.03660000000001
 31
0.0
  0
LINE
  5
FA
330
1E
100
AcDbEntity
  8
0
100
AcDbLine
 10
34.1197
 20
67.95279999999999
 30
0.0
 11
36.228
 21
69.6186
 31
0.0
  0
LINE
  5
FB
330
1E
100
AcDbEntity
  8
0
100
AcDbLine
 10
38.5112
 20
71.03660000000001
 30
0.0
 11
40.9372
 21
72.1917
 31
0.0
  0
LINE
  5
100
330
1E
100
AcDbEntity
  8
0
100
AcDbLine
 10
40.9372
 20
72.1917
 30
0.0
 11
43.4792
 21
73.06709999999999
 31
0.0
  0
LINE
  5
101
330
1E
100
AcDbEntity
  8
0
100
AcDbLine
 10
43.4792
 20
73.06709999999999
 30
0.0
 11
46.1021
 21
73.65269999999999
 31
0.0
  0
LINE
  5
105
330
1E
100
AcDbEntity
  8
0
100
AcDbLine
 10
46.1021
 20
73.65269999999999
 30
0.0
 11
48.77399999999999
 21
73.9395
 31
0.0
  0
LINE
  5
106
330
1E
100
AcDbEntity
  8
0
100
AcDbLine
 10
48.77399999999999
 20
73.9395
 30
0.0
 11
50.0
 21
73.9336
 31
0.0
  0
LINE
  5
10A
330
1E
100
AcDbEntity
  8
0
100
AcDbLine
 10
0.608513
 20
83.4378
 30
0.0
 11
1.455829999999999
 21
86.4386
 31
0.0
  0
LINE
  5
10B
330
1E
100
AcDbEntity
  8
0
100
AcDbLine
 10
9.225619999999999
 20
95.9159
 30
0.0
 11
11.99939999999999
 21
97.33490000000001
 31
0.0
  0
LINE
  5
10C
330
1E
100
AcDbEntity
  8
0
100
AcDbLine
 10
6.720619999999999
 20
94.06119999999999
 30
0.0
 11
9.225619999999999
 21
95.9159
 31
0.0
  0
LINE
  5
10D
330
1E
100
AcDbEntity
  8
0
100
AcDbLine
 10
4.55236
 20
91.8228
 30
0.0
 11
6.720619999999999
 21
94.06119999999999
 31
0.0
  0
LINE
  5
10E
330
1E
100
AcDbEntity
  8
0
100
AcDbLine
 10
2.78277
 20
89.2586
 30
0.0
 11
4.55236
 21
91.8228
 31
0.0
  0
LINE
  5
10F
330
1E
100
AcDbEntity
  8
0
100
AcDbLine
 10
1.455829999999999
 20
86.4386
 30
0.0
 11
2.78277
 21
89.2586
 31
0.0
  0
LINE
  5
110
330
1E
100
AcDbEntity
  8
0
100
AcDbLine
 10
0.608513
 20
83.4378
 30
0.0
 11
1.455829999999999
 21
86.4386
 31
0.0
  0
LINE
  5
111
330
1E
100
AcDbEntity
  8
0
100
AcDbLine
 10
0.264788
 20
80.341
 30
0.0
 11
0.608513
 21
83.4378
 31
0.0
  0
LINE
  5
114
330
1E
100
AcDbEntity
  8
0
100
AcDbLine
 10
49.4016
 20
80.0275
 30
0.0
 11
50.0
 21
80.014
 31
0.0
  0
LINE
  5
115
330
1E
100
AcDbEntity
  8
0
100
AcDbLine
 10
48.60800000000001
 20
80.12260000000001
 30
0.0
 11
49.4016
 21
80.0275
 31
0.0
  0
LINE
  5
116
330
1E
100
AcDbEntity
  8
0
100
AcDbLine
 10
45.6259
 20
81.2287
 30
0.0
 11
46.3284
 21
80.8463
 31
0.0
  0
LINE
  5
117
330
1E
100
AcDbEntity
  8
0
100
AcDbLine
 10
44.9635
 20
81.6741
 30
0.0
 11
45.6259
 21
81.2287
 31
0.0
  0
LINE
  5
119
330
1E
100
AcDbEntity
  8
0
100
AcDbLine
 10
46.3284
 20
80.8463
 30
0.0
 11
47.06389999999999
 21
80.533
 31
0.0
  0
LINE
  5
11A
330
1E
100
AcDbEntity
  8
0
100
AcDbLine
 10
47.8265
 20
80.2918
 30
0.0
 11
48.60800000000001
 21
80.12260000000001
 31
0.0
  0
LINE
  5
11B
330
1E
100
AcDbEntity
  8
0
100
AcDbLine
 10
47.06389999999999
 20
80.533
 30
0.0
 11
47.8265
 21
80.2918
 31
0.0
  0
LINE
  5
12C
330
1E
100
AcDbEntity
  8
0
100
AcDbLine
 10
44.347
 20
82.18059999999999
 30
0.0
 11
44.9635
 21
81.6741
 31
0.0
  0
LINE
  5
12D
330
1E
100
AcDbEntity
  8
0
100
AcDbLine
 10
43.7806
 20
82.74309999999999
 30
0.0
 11
44.347
 21
82.18059999999999
 31
0.0
  0
LINE
  5
12E
330
1E
100
AcDbEntity
  8
0
100
AcDbLine
 10
43.27129999999999
 20
83.3557
 30
0.0
 11
43.7806
 21
82.74309999999999
 31
0.0
  0
LINE
  5
130
330
1E
100
AcDbEntity
  8
0
100
AcDbLine
 10
41.8813
 20
86.2024
 30
0.0
 11
42.12449999999999
 21
85.4447
 31
0.0
  0
LINE
  5
131
330
1E
100
AcDbEntity
  8
0
100
AcDbLine
 10
41.7112
 20
86.9801
 30
0.0
 11
41.8813
 21
86.2024
 31
0.0
  0
LINE
  5
132
330
1E
100
AcDbEntity
  8
0
100
AcDbLine
 10
41.59609999999999
 20
88.56559999999999
 30
0.0
 11
41.6532
 21
89.3594
 31
0.0
  0
LINE
  5
133
330
1E
100
AcDbEntity
  8
0
100
AcDbLine
 10
41.59609999999999
 20
88.56559999999999
 30
0.0
 11
41.61509999999999
 21
87.77089999999999
 31
0.0
  0
LINE
  5
134
330
1E
100
AcDbEntity
  8
0
100
AcDbLine
 10
41.6532
 20
89.3594
 30
0.0
 11
41.7863
 21
90.14409999999999
 31
0.0
  0
LINE
  5
135
330
1E
100
AcDbEntity
  8
0
100
AcDbLine
 10
41.7863
 20
90.14509999999999
 30
0.0
 11
41.9924
 21
90.9139
 31
0.0
  0
LINE
  5
139
330
1E
100
AcDbEntity
  8
0
100
AcDbLine
 10
41.6532
 20
89.3604
 30
0.0
 11
41.7863
 21
90.14509999999999
 31
0.0
  0
LINE
  5
13A
330
1E
100
AcDbEntity
  8
0
100
AcDbLine
 10
41.59609999999999
 20
88.56659999999999
 30
0.0
 11
41.6532
 21
89.3604
 31
0.0
  0
LINE
  5
13B
330
1E
100
AcDbEntity
  8
0
100
AcDbLine
 10
41.61509999999999
 20
87.77089999999999
 30
0.0
 11
41.7112
 21
86.9801
 31
0.0
  0
LINE
  5
13C
330
1E
100
AcDbEntity
  8
0
100
AcDbLine
 10
41.9924
 20
90.9139
 30
0.0
 11
42.3076
 21
91.66459999999998
 31
0.0
  0
LINE
  5
13D
330
1E
100
AcDbEntity
  8
0
100
AcDbLine
 10
42.4397
 20
84.71299999999999
 30
0.0
 11
42.823
 21
84.01529999999999
 31
0.0
  0
LINE
  5
13E
330
1E
100
AcDbEntity
  8
0
100
AcDbLine
 10
42.12449999999999
 20
85.4447
 30
0.0
 11
42.4397
 21
84.71299999999999
 31
0.0
  0
LINE
  5
13F
330
1E
100
AcDbEntity
  8
0
100
AcDbLine
 10
42.823
 20
84.01529999999999
 30
0.0
 11
43.27129999999999
 21
83.3557
 31
0.0
  0
LINE
  5
140
330
1E
100
AcDbEntity
  8
0
100
AcDbLine
 10
42.65489999999999
 20
92.37720000000001
 30
0.0
 11
43.0691
 21
93.0539
 31
0.0
  0
LINE
  5
141
330
1E
100
AcDbEntity
  8
0
100
AcDbLine
 10
42.3076
 20
91.66459999999998
 30
0.0
 11
42.65489999999999
 21
92.37720000000001
 31
0.0
  0
LINE
  5
143
330
1E
100
AcDbEntity
  8
0
100
AcDbLine
 10
43.5465
 20
93.6875
 30
0.0
 11
44.0819
 21
94.2741
 31
0.0
  0
LINE
  5
144
330
1E
100
AcDbEntity
  8
0
100
AcDbLine
 10
43.0691
 20
93.0539
 30
0.0
 11
43.5465
 21
93.6875
 31
0.0
  0
LINE
  5
145
330
1E
100
AcDbEntity
  8
0
100
AcDbLine
 10
45.3087
 20
95.28200000000001
 30
0.0
 11
45.98819999999999
 21
95.6944
 31
0.0
  0
LINE
  5
146
330
1E
100
AcDbEntity
  8
0
100
AcDbLine
 10
44.6713
 20
94.8066
 30
0.0
 11
45.3087
 21
95.28200000000001
 31
0.0
  0
LINE
  5
147
330
1E
100
AcDbEntity
  8
0
100
AcDbLine
 10
44.0819
 20
94.2741
 30
0.0
 11
44.6713
 21
94.8066
 31
0.0
  0
LINE
  5
148
330
1E
100
AcDbEntity
  8
0
100
AcDbLine
 10
46.7047
 20
96.0407
 30
0.0
 11
47.4502
 21
96.318
 31
0.0
  0
LINE
  5
149
330
1E
100
AcDbEntity
  8
0
100
AcDbLine
 10
45.98819999999999
 20
95.6944
 30
0.0
 11
46.7047
 21
96.0407
 31
0.0
  0
LINE
  5
14E
330
1E
100
AcDbEntity
  8
0
100
AcDbLine
 10
48.21979999999999
 20
96.52219999999999
 30
0.0
 11
49.00529999999999
 21
96.6543
 31
0.0
  0
LINE
  5
14F
330
1E
100
AcDbEntity
  8
0
100
AcDbLine
 10
47.4502
 20
96.318
 30
0.0
 11
48.21979999999999
 21
96.52219999999999
 31
0.0
  0
LINE
  5
150
330
1E
100
AcDbEntity
  8
0
100
AcDbLine
 10
49.00529999999999
 20
96.6543
 30
0.0
 11
49.79890000000001
 21
96.71140000000001
 31
0.0
  0
LINE
  5
151
330
1E
100
AcDbEntity
  8
0
100
AcDbLine
 10
49.79890000000001
 20
96.71140000000001
 30
0.0
 11
50.0
 21
96.70659999999999
 31
0.0
  0
LINE
  5
163
330
1E
100
AcDbEntity
  8
0
100
AcDbLine
 10
18.0546
 20
98.72289999999999
 30
0.0
 11
30.6335
 21
99.37739999999999
 31
0.0
  0
LINE
  5
164
330
1E
100
AcDbEntity
  8
0
100
AcDbLine
 10
14.97
 20
98.2782
 30
0.0
 11
18.0546
 21
98.72289999999999
 31
0.0
  0
LINE
  5
165
330
1E
100
AcDbEntity
  8
0
100
AcDbLine
 10
11.99939999999999
 20
97.33490000000001
 30
0.0
 11
14.97
 21
98.2782
 31
0.0
  0
LINE
  5
168
330
1E
100
AcDbEntity
  8
0
100
AcDbLine
 10
50.0
 20
80.014
 30
0.0
 11
50.5984
 21
80.0275
 31
0.0
  0
LINE
  5
169
330
1E
100
AcDbEntity
  8
0
100
AcDbLine
 10
50.0
 20
96.70659999999999
 30
0.0
 11
50.20109999999999
 21
96.71140000000001
 31
0.0
  0
LINE
  5
17A
330
1E
100
AcDbEntity
  8
0
100
AcDbLine
 10
30.6335
 20
99.37739999999999
 30
0.0
 11
50.0
 21
99.8041
 31
0.0
  0
LINE
  5
286
330
1E
100
AcDbEntity
  8
0
100
AcDbLine
 10
50.0
 20
96.70659999999999
 30
0.0
 11
49.79890000000001
 21
96.71140000000001
 31
0.0
  0
LINE
  5
287
330
1E
100
AcDbEntity
  8
0
100
AcDbLine
 10
50.0
 20
80.014
 30
0.0
 11
49.4016
 21
80.0275
 31
0.0
  0
LINE
  5
288
330
1E
100
AcDbEntity
  8
0
100
AcDbLine
 10
73.9269
 20
50.0
 30
0.0
 11
73.91989999999999
 21
48.5345
 31
0.0
  0
LINE
  5
289
330
1E
100
AcDbEntity
  8
0
100
AcDbLine
 10
100.0
 20
35.236
 30
0.0
 11
99.922342
 21
50.0
 31
0.0
  0
LINE
  5
28A
330
1E
100
AcDbEntity
  8
0
100
AcDbLine
 10
81.46500000000001
 20
22.62999999999999
 30
0.0
 11
80.6985
 21
22.8322
 31
0.0
  0
LINE
  5
28B
330
1E
100
AcDbEntity
  8
0
100
AcDbLine
 10
81.94540000000001
 20
1.27709
 30
0.0
 11
69.3665
 21
0.6225579999999971
 31
0.0
  0
LINE
  5
28C
330
1E
100
AcDbEntity
  8
0
100
AcDbLine
 10
81.85729999999999
 20
39.0416
 30
0.0
 11
81.08279999999998
 21
38.8694
 31
0.0
  0
LINE
  5
28D
330
1E
100
AcDbEntity
  8
0
100
AcDbLine
 10
99.735212
 20
19.659
 30
0.0
 11
99.391487
 21
16.5622
 31
0.0
  0
LINE
  5
28E
330
1E
100
AcDbEntity
  8
0
100
AcDbLine
 10
97.21723
 20
10.7414
 30
0.0
 11
95.44764
 21
8.177189999999999
 31
0.0
  0
LINE
  5
28F
330
1E
100
AcDbEntity
  8
0
100
AcDbLine
 10
98.54416999999999
 20
13.5614
 30
0.0
 11
97.21723
 21
10.7414
 31
0.0
  0
LINE
  5
290
330
1E
100
AcDbEntity
  8
0
100
AcDbLine
 10
99.391487
 20
16.5622
 30
0.0
 11
98.54416999999999
 21
13.5614
 31
0.0
  0
LINE
  5
291
330
1E
100
AcDbEntity
  8
0
100
AcDbLine
 10
99.391487
 20
16.5622
 30
0.0
 11
98.54416999999999
 21
13.5614
 31
0.0
  0
LINE
  5
292
330
1E
100
AcDbEntity
  8
0
100
AcDbLine
 10
90.77438
 20
4.0841
 30
0.0
 11
88.0006
 21
2.665109999999999
 31
0.0
  0
LINE
  5
293
330
1E
100
AcDbEntity
  8
0
100
AcDbLine
 10
88.0006
 20
2.665109999999999
 30
0.0
 11
85.03
 21
1.721779999999999
 31
0.0
  0
LINE
  5
294
330
1E
100
AcDbEntity
  8
0
100
AcDbLine
 10
85.03
 20
1.721779999999999
 30
0.0
 11
81.94540000000001
 21
1.27709
 31
0.0
  0
LINE
  5
295
330
1E
100
AcDbEntity
  8
0
100
AcDbLine
 10
93.27938000000001
 20
5.93878
 30
0.0
 11
90.77438
 21
4.0841
 31
0.0
  0
LINE
  5
296
330
1E
100
AcDbEntity
  8
0
100
AcDbLine
 10
95.44764
 20
8.177189999999999
 30
0.0
 11
93.27938000000001
 21
5.93878
 31
0.0
  0
LINE
  5
297
330
1E
100
AcDbEntity
  8
0
100
AcDbLine
 10
100.0
 20
35.236
 30
0.0
 11
99.735212
 21
19.659
 31
0.0
  0
LINE
  5
298
330
1E
100
AcDbEntity
  8
0
100
AcDbLine
 10
90.89862999999999
 20
34.13089999999999
 30
0.0
 11
90.55239
 21
34.8446
 31
0.0
  0
LINE
  5
299
330
1E
100
AcDbEntity
  8
0
100
AcDbLine
 10
89.4026
 20
25.2114
 30
0.0
 11
88.8422
 21
24.6459
 31
0.0
  0
LINE
  5
29A
330
1E
100
AcDbEntity
  8
0
100
AcDbLine
 10
90.73251
 20
27.1873
 30
0.0
 11
90.35225
 21
26.4877
 31
0.0
  0
LINE
  5
29B
330
1E
100
AcDbEntity
  8
0
100
AcDbLine
 10
90.35225
 20
26.4877
 30
0.0
 11
89.9079
 21
25.82699999999999
 31
0.0
  0
LINE
  5
29C
330
1E
100
AcDbEntity
  8
0
100
AcDbLine
 10
89.9079
 20
25.82699999999999
 30
0.0
 11
89.4026
 21
25.2114
 31
0.0
  0
LINE
  5
29D
330
1E
100
AcDbEntity
  8
0
100
AcDbLine
 10
91.56910000000001
 20
31.042
 30
0.0
 11
91.55008999999999
 21
30.2472
 31
0.0
  0
LINE
  5
29E
330
1E
100
AcDbEntity
  8
0
100
AcDbLine
 10
91.04473
 20
27.92
 30
0.0
 11
90.73251
 21
27.1873
 31
0.0
  0
LINE
  5
29F
330
1E
100
AcDbEntity
  8
0
100
AcDbLine
 10
91.2869
 20
28.67869999999999
 30
0.0
 11
91.04473
 21
27.92
 31
0.0
  0
LINE
  5
2A0
330
1E
100
AcDbEntity
  8
0
100
AcDbLine
 10
91.45502
 20
29.4565
 30
0.0
 11
91.2869
 21
28.67869999999999
 31
0.0
  0
LINE
  5
2A1
330
1E
100
AcDbEntity
  8
0
100
AcDbLine
 10
91.55008999999999
 20
30.2472
 30
0.0
 11
91.45502
 21
29.4565
 31
0.0
  0
LINE
  5
2A2
330
1E
100
AcDbEntity
  8
0
100
AcDbLine
 10
91.17582
 20
33.3862
 30
0.0
 11
90.89862999999999
 21
34.13089999999999
 31
0.0
  0
LINE
  5
2A3
330
1E
100
AcDbEntity
  8
0
100
AcDbLine
 10
91.51206
 20
31.8357
 30
0.0
 11
91.38097
 21
32.6195
 31
0.0
  0
LINE
  5
2A4
330
1E
100
AcDbEntity
  8
0
100
AcDbLine
 10
91.56910000000001
 20
31.042
 30
0.0
 11
91.51206
 21
31.8357
 31
0.0
  0
LINE
  5
2A5
330
1E
100
AcDbEntity
  8
0
100
AcDbLine
 10
91.38097
 20
32.6195
 30
0.0
 11
91.17582
 21
33.3862
 31
0.0
  0
LINE
  5
2A6
330
1E
100
AcDbEntity
  8
0
100
AcDbLine
 10
85.39279999999999
 20
22.74109999999999
 30
0.0
 11
84.61820000000001
 21
22.56889999999999
 31
0.0
  0
LINE
  5
2A7
330
1E
100
AcDbEntity
  8
0
100
AcDbLine
 10
87.57330000000001
 20
23.688
 30
0.0
 11
86.87780000000001
 21
23.3036
 31
0.0
  0
LINE
  5
2A8
330
1E
100
AcDbEntity
  8
0
100
AcDbLine
 10
88.8422
 20
24.6459
 30
0.0
 11
88.2308
 21
24.1364
 31
0.0
  0
LINE
  5
2A9
330
1E
100
AcDbEntity
  8
0
100
AcDbLine
 10
88.2308
 20
24.1364
 30
0.0
 11
87.57330000000001
 21
23.688
 31
0.0
  0
LINE
  5
2AA
330
1E
100
AcDbEntity
  8
0
100
AcDbLine
 10
86.14830000000001
 20
22.9873
 30
0.0
 11
85.39279999999999
 21
22.74109999999999
 31
0.0
  0
LINE
  5
2AB
330
1E
100
AcDbEntity
  8
0
100
AcDbLine
 10
86.87780000000001
 20
23.3036
 30
0.0
 11
86.14830000000001
 21
22.9873
 31
0.0
  0
LINE
  5
2AC
330
1E
100
AcDbEntity
  8
0
100
AcDbLine
 10
82.2466
 20
22.50189999999999
 30
0.0
 11
81.46500000000001
 21
22.62999999999999
 31
0.0
  0
LINE
  5
2AD
330
1E
100
AcDbEntity
  8
0
100
AcDbLine
 10
83.83070000000001
 20
22.47079999999999
 30
0.0
 11
83.0381
 21
22.44879999999999
 31
0.0
  0
LINE
  5
2AE
330
1E
100
AcDbEntity
  8
0
100
AcDbLine
 10
84.61820000000001
 20
22.56889999999999
 30
0.0
 11
83.83070000000001
 21
22.47079999999999
 31
0.0
  0
LINE
  5
2AF
330
1E
100
AcDbEntity
  8
0
100
AcDbLine
 10
83.0381
 20
22.44879999999999
 30
0.0
 11
82.2466
 21
22.50189999999999
 31
0.0
  0
LINE
  5
2B0
330
1E
100
AcDbEntity
  8
0
100
AcDbLine
 10
89.1314
 20
36.7424
 30
0.0
 11
88.54499999999999
 21
37.2749
 31
0.0
  0
LINE
  5
2B1
330
1E
100
AcDbEntity
  8
0
100
AcDbLine
 10
89.6648
 20
36.15679999999999
 30
0.0
 11
89.1314
 21
36.7424
 31
0.0
  0
LINE
  5
2B2
330
1E
100
AcDbEntity
  8
0
100
AcDbLine
 10
90.1401
 20
35.5222
 30
0.0
 11
89.6648
 21
36.15679999999999
 31
0.0
  0
LINE
  5
2B3
330
1E
100
AcDbEntity
  8
0
100
AcDbLine
 10
90.55239
 20
34.8446
 30
0.0
 11
90.1401
 21
35.5222
 31
0.0
  0
LINE
  5
2B4
330
1E
100
AcDbEntity
  8
0
100
AcDbLine
 10
85.777
 20
38.7783
 30
0.0
 11
85.01050000000001
 21
38.98049999999999
 31
0.0
  0
LINE
  5
2B5
330
1E
100
AcDbEntity
  8
0
100
AcDbLine
 10
87.23310000000001
 20
38.1597
 30
0.0
 11
86.5196
 21
38.5041
 31
0.0
  0
LINE
  5
2B6
330
1E
100
AcDbEntity
  8
0
100
AcDbLine
 10
88.54499999999999
 20
37.2749
 30
0.0
 11
87.9105
 21
37.7483
 31
0.0
  0
LINE
  5
2B7
330
1E
100
AcDbEntity
  8
0
100
AcDbLine
 10
87.9105
 20
37.7483
 30
0.0
 11
87.23310000000001
 21
38.1597
 31
0.0
  0
LINE
  5
2B8
330
1E
100
AcDbEntity
  8
0
100
AcDbLine
 10
86.5196
 20
38.5041
 30
0.0
 11
85.777
 21
38.7783
 31
0.0
  0
LINE
  5
2B9
330
1E
100
AcDbEntity
  8
0
100
AcDbLine
 10
83.4374
 20
39.1627
 30
0.0
 11
82.6449
 21
39.13969999999999
 31
0.0
  0
LINE
  5
2BA
330
1E
100
AcDbEntity
  8
0
100
AcDbLine
 10
84.229
 20
39.1086
 30
0.0
 11
83.4374
 21
39.1627
 31
0.0
  0
LINE
  5
2BB
330
1E
100
AcDbEntity
  8
0
100
AcDbLine
 10
85.01050000000001
 20
38.98049999999999
 30
0.0
 11
84.229
 21
39.1086
 31
0.0
  0
LINE
  5
2BC
330
1E
100
AcDbEntity
  8
0
100
AcDbLine
 10
82.6449
 20
39.13969999999999
 30
0.0
 11
81.85729999999999
 21
39.0416
 31
0.0
  0
LINE
  5
2BD
330
1E
100
AcDbEntity
  8
0
100
AcDbLine
 10
69.3665
 20
0.6225579999999971
 30
0.0
 11
50.0
 21
0.195899999999997
 31
0.0
  0
LINE
  5
2BE
330
1E
100
AcDbEntity
  8
0
100
AcDbLine
 10
65.8803
 20
32.0472
 30
0.0
 11
63.772
 21
30.3814
 31
0.0
  0
LINE
  5
2BF
330
1E
100
AcDbEntity
  8
0
100
AcDbLine
 10
69.4754
 20
36.0304
 30
0.0
 11
67.7898
 21
33.9379
 31
0.0
  0
LINE
  5
2C0
330
1E
100
AcDbEntity
  8
0
100
AcDbLine
 10
75.743
 20
34.4232
 30
0.0
 11
75.4298
 21
33.6905
 31
0.0
  0
LINE
  5
2C1
330
1E
100
AcDbEntity
  8
0
100
AcDbLine
 10
76.33539999999999
 20
26.0893
 30
0.0
 11
75.92310000000001
 21
26.7659
 31
0.0
  0
LINE
  5
2C2
330
1E
100
AcDbEntity
  8
0
100
AcDbLine
 10
77.3441
 20
24.8681
 30
0.0
 11
76.8108
 21
25.45469999999999
 31
0.0
  0
LINE
  5
2C3
330
1E
100
AcDbEntity
  8
0
100
AcDbLine
 10
79.956
 20
23.1074
 30
0.0
 11
79.2425
 21
23.4508
 31
0.0
  0
LINE
  5
2C4
330
1E
100
AcDbEntity
  8
0
100
AcDbLine
 10
80.6985
 20
22.8322
 30
0.0
 11
79.956
 21
23.1074
 31
0.0
  0
LINE
  5
2C5
330
1E
100
AcDbEntity
  8
0
100
AcDbLine
 10
77.9306
 20
24.33559999999999
 30
0.0
 11
77.3441
 21
24.8681
 31
0.0
  0
LINE
  5
2C6
330
1E
100
AcDbEntity
  8
0
100
AcDbLine
 10
78.565
 20
23.8622
 30
0.0
 11
77.9306
 21
24.33559999999999
 31
0.0
  0
LINE
  5
2C7
330
1E
100
AcDbEntity
  8
0
100
AcDbLine
 10
79.2425
 20
23.4508
 30
0.0
 11
78.565
 21
23.8622
 31
0.0
  0
LINE
  5
2C8
330
1E
100
AcDbEntity
  8
0
100
AcDbLine
 10
76.8108
 20
25.45469999999999
 30
0.0
 11
76.33539999999999
 21
26.0893
 31
0.0
  0
LINE
  5
2C9
330
1E
100
AcDbEntity
  8
0
100
AcDbLine
 10
74.9625
 20
29.77479999999999
 30
0.0
 11
74.9064
 21
30.5685
 31
0.0
  0
LINE
  5
2CA
330
1E
100
AcDbEntity
  8
0
100
AcDbLine
 10
75.5769
 20
27.4796
 30
0.0
 11
75.2997
 21
28.2243
 31
0.0
  0
LINE
  5
2CB
330
1E
100
AcDbEntity
  8
0
100
AcDbLine
 10
75.92310000000001
 20
26.7659
 30
0.0
 11
75.5769
 21
27.4796
 31
0.0
  0
LINE
  5
2CC
330
1E
100
AcDbEntity
  8
0
100
AcDbLine
 10
75.2997
 20
28.2243
 30
0.0
 11
75.0946
 21
28.992
 31
0.0
  0
LINE
  5
2CD
330
1E
100
AcDbEntity
  8
0
100
AcDbLine
 10
75.0946
 20
28.992
 30
0.0
 11
74.9625
 21
29.77479999999999
 31
0.0
  0
LINE
  5
2CE
330
1E
100
AcDbEntity
  8
0
100
AcDbLine
 10
75.4298
 20
33.6905
 30
0.0
 11
75.1886
 21
32.9318
 31
0.0
  0
LINE
  5
2CF
330
1E
100
AcDbEntity
  8
0
100
AcDbLine
 10
75.1886
 20
32.9318
 30
0.0
 11
75.0205
 21
32.154
 31
0.0
  0
LINE
  5
2D0
330
1E
100
AcDbEntity
  8
0
100
AcDbLine
 10
75.0205
 20
32.154
 30
0.0
 11
74.92539999999999
 21
31.3633
 31
0.0
  0
LINE
  5
2D1
330
1E
100
AcDbEntity
  8
0
100
AcDbLine
 10
74.92539999999999
 20
31.3633
 30
0.0
 11
74.9064
 21
30.5685
 31
0.0
  0
LINE
  5
2D2
330
1E
100
AcDbEntity
  8
0
100
AcDbLine
 10
67.7898
 20
33.9379
 30
0.0
 11
65.8803
 21
32.0472
 31
0.0
  0
LINE
  5
2D3
330
1E
100
AcDbEntity
  8
0
100
AcDbLine
 10
73.60509999999999
 20
45.8654
 30
0.0
 11
72.99459999999999
 21
43.2473
 31
0.0
  0
LINE
  5
2D4
330
1E
100
AcDbEntity
  8
0
100
AcDbLine
 10
77.63329999999999
 20
36.9646
 30
0.0
 11
77.073
 21
36.4001
 31
0.0
  0
LINE
  5
2D5
330
1E
100
AcDbEntity
  8
0
100
AcDbLine
 10
79.5977
 20
38.3069
 30
0.0
 11
78.90219999999999
 21
37.9225
 31
0.0
  0
LINE
  5
2D6
330
1E
100
AcDbEntity
  8
0
100
AcDbLine
 10
78.90219999999999
 20
37.9225
 30
0.0
 11
78.2448
 21
37.4741
 31
0.0
  0
LINE
  5
2D7
330
1E
100
AcDbEntity
  8
0
100
AcDbLine
 10
78.2448
 20
37.4741
 30
0.0
 11
77.63329999999999
 21
36.9646
 31
0.0
  0
LINE
  5
2D8
330
1E
100
AcDbEntity
  8
0
100
AcDbLine
 10
80.32720000000001
 20
38.6232
 30
0.0
 11
79.5977
 21
38.3069
 31
0.0
  0
LINE
  5
2D9
330
1E
100
AcDbEntity
  8
0
100
AcDbLine
 10
81.08279999999998
 20
38.8694
 30
0.0
 11
80.32720000000001
 21
38.6232
 31
0.0
  0
LINE
  5
2DA
330
1E
100
AcDbEntity
  8
0
100
AcDbLine
 10
77.073
 20
36.4001
 30
0.0
 11
76.5676
 21
35.78349999999999
 31
0.0
  0
LINE
  5
2DB
330
1E
100
AcDbEntity
  8
0
100
AcDbLine
 10
76.5676
 20
35.78349999999999
 30
0.0
 11
76.1233
 21
35.1229
 31
0.0
  0
LINE
  5
2DC
330
1E
100
AcDbEntity
  8
0
100
AcDbLine
 10
76.1233
 20
35.1229
 30
0.0
 11
75.743
 21
34.4232
 31
0.0
  0
LINE
  5
2DD
330
1E
100
AcDbEntity
  8
0
100
AcDbLine
 10
73.91989999999999
 20
48.5345
 30
0.0
 11
73.60509999999999
 21
45.8654
 31
0.0
  0
LINE
  5
2DE
330
1E
100
AcDbEntity
  8
0
100
AcDbLine
 10
72.99459999999999
 20
43.2473
 30
0.0
 11
72.09430000000001
 21
40.71509999999999
 31
0.0
  0
LINE
  5
2DF
330
1E
100
AcDbEntity
  8
0
100
AcDbLine
 10
70.9173
 20
38.29979999999999
 30
0.0
 11
69.4754
 21
36.0304
 31
0.0
  0
LINE
  5
2E0
330
1E
100
AcDbEntity
  8
0
100
AcDbLine
 10
72.09430000000001
 20
40.71509999999999
 30
0.0
 11
70.9173
 21
38.29979999999999
 31
0.0
  0
LINE
  5
2E1
330
1E
100
AcDbEntity
  8
0
100
AcDbLine
 10
59.0628
 20
27.80829999999999
 30
0.0
 11
56.5208
 21
26.9329
 31
0.0
  0
LINE
  5
2E2
330
1E
100
AcDbEntity
  8
0
100
AcDbLine
 10
63.772
 20
30.3814
 30
0.0
 11
61.4888
 21
28.9634
 31
0.0
  0
LINE
  5
2E3
330
1E
100
AcDbEntity
  8
0
100
AcDbLine
 10
61.4888
 20
28.9634
 30
0.0
 11
59.0628
 21
27.80829999999999
 31
0.0
  0
LINE
  5
2E4
330
1E
100
AcDbEntity
  8
0
100
AcDbLine
 10
56.5208
 20
26.9329
 30
0.0
 11
53.8979
 21
26.3473
 31
0.0
  0
LINE
  5
2E5
330
1E
100
AcDbEntity
  8
0
100
AcDbLine
 10
53.8979
 20
26.3473
 30
0.0
 11
51.22600000000001
 21
26.0605
 31
0.0
  0
LINE
  5
2E6
330
1E
100
AcDbEntity
  8
0
100
AcDbLine
 10
51.22600000000001
 20
26.0605
 30
0.0
 11
50.0
 21
26.0664
 31
0.0
  0
LINE
  5
2E7
330
1E
100
AcDbEntity
  8
0
100
AcDbLine
 10
81.94540000000001
 20
98.72289999999999
 30
0.0
 11
69.3665
 21
99.37739999999999
 31
0.0
  0
LINE
  5
2E8
330
1E
100
AcDbEntity
  8
0
100
AcDbLine
 10
99.735212
 20
80.341
 30
0.0
 11
99.391487
 21
83.4378
 31
0.0
  0
LINE
  5
2E9
330
1E
100
AcDbEntity
  8
0
100
AcDbLine
 10
100.0
 20
64.76399999999999
 30
0.0
 11
99.735212
 21
80.341
 31
0.0
  0
LINE
  5
2EA
330
1E
100
AcDbEntity
  8
0
100
AcDbLine
 10
100.0
 20
64.76399999999999
 30
0.0
 11
99.922342
 21
50.0
 31
0.0
  0
LINE
  5
2EB
330
1E
100
AcDbEntity
  8
0
100
AcDbLine
 10
99.922342
 20
50.0
 30
0.0
 11
99.646658
 21
50.0
 31
0.0
  0
LINE
  5
2EC
330
1E
100
AcDbEntity
  8
0
100
AcDbLine
 10
97.21723
 20
89.2586
 30
0.0
 11
95.44764
 21
91.8228
 31
0.0
  0
LINE
  5
2ED
330
1E
100
AcDbEntity
  8
0
100
AcDbLine
 10
98.54416999999999
 20
86.4386
 30
0.0
 11
97.21723
 21
89.2586
 31
0.0
  0
LINE
  5
2EE
330
1E
100
AcDbEntity
  8
0
100
AcDbLine
 10
99.391487
 20
83.4378
 30
0.0
 11
98.54416999999999
 21
86.4386
 31
0.0
  0
LINE
  5
2EF
330
1E
100
AcDbEntity
  8
0
100
AcDbLine
 10
99.391487
 20
83.4378
 30
0.0
 11
98.54416999999999
 21
86.4386
 31
0.0
  0
LINE
  5
2F0
330
1E
100
AcDbEntity
  8
0
100
AcDbLine
 10
90.77438
 20
95.9159
 30
0.0
 11
88.0006
 21
97.33490000000001
 31
0.0
  0
LINE
  5
2F1
330
1E
100
AcDbEntity
  8
0
100
AcDbLine
 10
93.27938000000001
 20
94.06119999999999
 30
0.0
 11
90.77438
 21
95.9159
 31
0.0
  0
LINE
  5
2F2
330
1E
100
AcDbEntity
  8
0
100
AcDbLine
 10
95.44764
 20
91.8228
 30
0.0
 11
93.27938000000001
 21
94.06119999999999
 31
0.0
  0
LINE
  5
2F3
330
1E
100
AcDbEntity
  8
0
100
AcDbLine
 10
88.0006
 20
97.33490000000001
 30
0.0
 11
85.03
 21
98.2782
 31
0.0
  0
LINE
  5
2F4
330
1E
100
AcDbEntity
  8
0
100
AcDbLine
 10
85.03
 20
98.2782
 30
0.0
 11
81.94540000000001
 21
98.72289999999999
 31
0.0
  0
LINE
  5
2F5
330
1E
100
AcDbEntity
  8
0
100
AcDbLine
 10
54.37409999999999
 20
81.2287
 30
0.0
 11
53.6716
 21
80.8463
 31
0.0
  0
LINE
  5
2F6
330
1E
100
AcDbEntity
  8
0
100
AcDbLine
 10
65.8803
 20
67.95279999999999
 30
0.0
 11
63.772
 21
69.6186
 31
0.0
  0
LINE
  5
2F7
330
1E
100
AcDbEntity
  8
0
100
AcDbLine
 10
69.4754
 20
63.96959999999999
 30
0.0
 11
67.7898
 21
66.0621
 31
0.0
  0
LINE
  5
2F8
330
1E
100
AcDbEntity
  8
0
100
AcDbLine
 10
73.60509999999999
 20
54.1346
 30
0.0
 11
72.99459999999999
 21
56.7527
 31
0.0
  0
LINE
  5
2F9
330
1E
100
AcDbEntity
  8
0
100
AcDbLine
 10
73.91989999999999
 20
51.4655
 30
0.0
 11
73.60509999999999
 21
54.1346
 31
0.0
  0
LINE
  5
2FA
330
1E
100
AcDbEntity
  8
0
100
AcDbLine
 10
73.9269
 20
50.0
 30
0.0
 11
73.91989999999999
 21
51.4655
 31
0.0
  0
LINE
  5
2FB
330
1E
100
AcDbEntity
  8
0
100
AcDbLine
 10
72.99459999999999
 20
56.7527
 30
0.0
 11
72.09430000000001
 21
59.2849
 31
0.0
  0
LINE
  5
2FC
330
1E
100
AcDbEntity
  8
0
100
AcDbLine
 10
70.9173
 20
61.7002
 30
0.0
 11
69.4754
 21
63.96959999999999
 31
0.0
  0
LINE
  5
2FD
330
1E
100
AcDbEntity
  8
0
100
AcDbLine
 10
72.09430000000001
 20
59.2849
 30
0.0
 11
70.9173
 21
61.7002
 31
0.0
  0
LINE
  5
2FE
330
1E
100
AcDbEntity
  8
0
100
AcDbLine
 10
67.7898
 20
66.0621
 30
0.0
 11
65.8803
 21
67.95279999999999
 31
0.0
  0
LINE
  5
2FF
330
1E
100
AcDbEntity
  8
0
100
AcDbLine
 10
59.0628
 20
72.1917
 30
0.0
 11
56.5208
 21
73.06709999999999
 31
0.0
  0
LINE
  5
300
330
1E
100
AcDbEntity
  8
0
100
AcDbLine
 10
63.772
 20
69.6186
 30
0.0
 11
61.4888
 21
71.03660000000001
 31
0.0
  0
LINE
  5
301
330
1E
100
AcDbEntity
  8
0
100
AcDbLine
 10
61.4888
 20
71.03660000000001
 30
0.0
 11
59.0628
 21
72.1917
 31
0.0
  0
LINE
  5
302
330
1E
100
AcDbEntity
  8
0
100
AcDbLine
 10
56.5208
 20
73.06709999999999
 30
0.0
 11
53.8979
 21
73.65269999999999
 31
0.0
  0
LINE
  5
303
330
1E
100
AcDbEntity
  8
0
100
AcDbLine
 10
53.8979
 20
73.65269999999999
 30
0.0
 11
51.22600000000001
 21
73.9395
 31
0.0
  0
LINE
  5
304
330
1E
100
AcDbEntity
  8
0
100
AcDbLine
 10
51.22600000000001
 20
73.9395
 30
0.0
 11
50.0
 21
73.9336
 31
0.0
  0
LINE
  5
305
330
1E
100
AcDbEntity
  8
0
100
AcDbLine
 10
52.17349999999999
 20
80.2918
 30
0.0
 11
51.39199999999999
 21
80.12260000000001
 31
0.0
  0
LINE
  5
306
330
1E
100
AcDbEntity
  8
0
100
AcDbLine
 10
52.93610000000001
 20
80.533
 30
0.0
 11
52.17349999999999
 21
80.2918
 31
0.0
  0
LINE
  5
307
330
1E
100
AcDbEntity
  8
0
100
AcDbLine
 10
53.6716
 20
80.8463
 30
0.0
 11
52.93610000000001
 21
80.533
 31
0.0
  0
LINE
  5
308
330
1E
100
AcDbEntity
  8
0
100
AcDbLine
 10
51.39199999999999
 20
80.12260000000001
 30
0.0
 11
50.5984
 21
80.0275
 31
0.0
  0
LINE
  5
309
330
1E
100
AcDbEntity
  8
0
100
AcDbLine
 10
50.5984
 20
80.0275
 30
0.0
 11
50.0
 21
80.014
 31
0.0
  0
LINE
  5
30A
330
1E
100
AcDbEntity
  8
0
100
AcDbLine
 10
69.3665
 20
99.37739999999999
 30
0.0
 11
50.0
 21
99.8041
 31
0.0
  0
LINE
  5
30B
330
1E
100
AcDbEntity
  8
0
100
AcDbLine
 10
50.9947
 20
96.6543
 30
0.0
 11
50.20109999999999
 21
96.71140000000001
 31
0.0
  0
LINE
  5
30C
330
1E
100
AcDbEntity
  8
0
100
AcDbLine
 10
58.0076
 20
90.9139
 30
0.0
 11
57.69239999999999
 21
91.66459999999998
 31
0.0
  0
LINE
  5
30D
330
1E
100
AcDbEntity
  8
0
100
AcDbLine
 10
57.8755
 20
85.4447
 30
0.0
 11
57.56029999999999
 21
84.71299999999999
 31
0.0
  0
LINE
  5
30E
330
1E
100
AcDbEntity
  8
0
100
AcDbLine
 10
58.4039
 20
88.56659999999999
 30
0.0
 11
58.3468
 21
89.3604
 31
0.0
  0
LINE
  5
30F
330
1E
100
AcDbEntity
  8
0
100
AcDbLine
 10
58.4039
 20
88.56559999999999
 30
0.0
 11
58.3468
 21
89.3594
 31
0.0
  0
LINE
  5
310
330
1E
100
AcDbEntity
  8
0
100
AcDbLine
 10
58.2888
 20
86.9801
 30
0.0
 11
58.11869999999999
 21
86.2024
 31
0.0
  0
LINE
  5
311
330
1E
100
AcDbEntity
  8
0
100
AcDbLine
 10
58.11869999999999
 20
86.2024
 30
0.0
 11
57.8755
 21
85.4447
 31
0.0
  0
LINE
  5
312
330
1E
100
AcDbEntity
  8
0
100
AcDbLine
 10
58.3849
 20
87.77089999999999
 30
0.0
 11
58.2888
 21
86.9801
 31
0.0
  0
LINE
  5
313
330
1E
100
AcDbEntity
  8
0
100
AcDbLine
 10
58.4039
 20
88.56559999999999
 30
0.0
 11
58.3849
 21
87.77089999999999
 31
0.0
  0
LINE
  5
314
330
1E
100
AcDbEntity
  8
0
100
AcDbLine
 10
58.2137
 20
90.14509999999999
 30
0.0
 11
58.0076
 21
90.9139
 31
0.0
  0
LINE
  5
315
330
1E
100
AcDbEntity
  8
0
100
AcDbLine
 10
58.3468
 20
89.3604
 30
0.0
 11
58.2137
 21
90.14509999999999
 31
0.0
  0
LINE
  5
316
330
1E
100
AcDbEntity
  8
0
100
AcDbLine
 10
58.3468
 20
89.3594
 30
0.0
 11
58.2137
 21
90.14409999999999
 31
0.0
  0
LINE
  5
317
330
1E
100
AcDbEntity
  8
0
100
AcDbLine
 10
56.2194
 20
82.74309999999999
 30
0.0
 11
55.653
 21
82.18059999999999
 31
0.0
  0
LINE
  5
318
330
1E
100
AcDbEntity
  8
0
100
AcDbLine
 10
56.7287
 20
83.3557
 30
0.0
 11
56.2194
 21
82.74309999999999
 31
0.0
  0
LINE
  5
319
330
1E
100
AcDbEntity
  8
0
100
AcDbLine
 10
57.177
 20
84.01529999999999
 30
0.0
 11
56.7287
 21
83.3557
 31
0.0
  0
LINE
  5
31A
330
1E
100
AcDbEntity
  8
0
100
AcDbLine
 10
57.56029999999999
 20
84.71299999999999
 30
0.0
 11
57.177
 21
84.01529999999999
 31
0.0
  0
LINE
  5
31B
330
1E
100
AcDbEntity
  8
0
100
AcDbLine
 10
55.0365
 20
81.6741
 30
0.0
 11
54.37409999999999
 21
81.2287
 31
0.0
  0
LINE
  5
31C
330
1E
100
AcDbEntity
  8
0
100
AcDbLine
 10
55.653
 20
82.18059999999999
 30
0.0
 11
55.0365
 21
81.6741
 31
0.0
  0
LINE
  5
31D
330
1E
100
AcDbEntity
  8
0
100
AcDbLine
 10
54.0118
 20
95.6944
 30
0.0
 11
53.2953
 21
96.0407
 31
0.0
  0
LINE
  5
31E
330
1E
100
AcDbEntity
  8
0
100
AcDbLine
 10
57.3451
 20
92.37720000000001
 30
0.0
 11
56.9309
 21
93.0539
 31
0.0
  0
LINE
  5
31F
330
1E
100
AcDbEntity
  8
0
100
AcDbLine
 10
57.69239999999999
 20
91.66459999999998
 30
0.0
 11
57.3451
 21
92.37720000000001
 31
0.0
  0
LINE
  5
320
330
1E
100
AcDbEntity
  8
0
100
AcDbLine
 10
55.9181
 20
94.2741
 30
0.0
 11
55.32869999999999
 21
94.8066
 31
0.0
  0
LINE
  5
321
330
1E
100
AcDbEntity
  8
0
100
AcDbLine
 10
56.9309
 20
93.0539
 30
0.0
 11
56.4535
 21
93.6875
 31
0.0
  0
LINE
  5
322
330
1E
100
AcDbEntity
  8
0
100
AcDbLine
 10
56.4535
 20
93.6875
 30
0.0
 11
55.9181
 21
94.2741
 31
0.0
  0
LINE
  5
323
330
1E
100
AcDbEntity
  8
0
100
AcDbLine
 10
55.32869999999999
 20
94.8066
 30
0.0
 11
54.69129999999999
 21
95.28200000000001
 31
0.0
  0
LINE
  5
324
330
1E
100
AcDbEntity
  8
0
100
AcDbLine
 10
54.69129999999999
 20
95.28200000000001
 30
0.0
 11
54.0118
 21
95.6944
 31
0.0
  0
LINE
  5
325
330
1E
100
AcDbEntity
  8
0
100
AcDbLine
 10
52.54979999999999
 20
96.318
 30
0.0
 11
51.7802
 21
96.52219999999999
 31
0.0
  0
LINE
  5
326
330
1E
100
AcDbEntity
  8
0
100
AcDbLine
 10
53.2953
 20
96.0407
 30
0.0
 11
52.54979999999999
 21
96.318
 31
0.0
  0
LINE
  5
327
330
1E
100
AcDbEntity
  8
0
100
AcDbLine
 10
51.7802
 20
96.52219999999999
 30
0.0
 11
50.9947
 21
96.6543
 31
0.0
  0
LINE
  5
328
330
1E
100
AcDbEntity
  8
0
100
AcDbLine
 10
50.20109999999999
 20
96.71140000000001
 30
0.0
 11
50.0
 21
96.70659999999999
 31
0.0
  0
ENDSEC
  0
SECTION
  2
OBJECTS
  0
DICTIONARY
  5
C
330
0
100
AcDbDictionary
281
     1
  3
ACAD_GROUP
350
D
  3
ACAD_LAYOUT
350
19
  3
ACAD_MLINESTYLE
350
16
  3
ACAD_PLOTSETTINGS
350
18
  3
ACAD_PLOTSTYLENAME
350
E
  3
AcDbVariableDictionary
350
32A
  0
DICTIONARY
  5
D
102
{ACAD_REACTORS
330
C
102
}
330
C
100
AcDbDictionary
281
     1
  0
DICTIONARY
  5
19
102
{ACAD_REACTORS
330
C
102
}
330
C
100
AcDbDictionary
281
     1
  3
Layout1
350
1D
  3
Model
350
21
  0
DICTIONARY
  5
16
102
{ACAD_REACTORS
330
C
102
}
330
C
100
AcDbDictionary
281
     1
  3
Standard
350
17
  0
DICTIONARY
  5
18
102
{ACAD_REACTORS
330
C
102
}
330
C
100
AcDbDictionary
281
     1
  0
ACDBDICTIONARYWDFLT
  5
E
102
{ACAD_REACTORS
330
C
102
}
330
C
100
AcDbDictionary
281
     1
  3
Normal
350
F
100
AcDbDictionaryWithDefault
340
F
  0
DICTIONARY
  5
32A
102
{ACAD_REACTORS
330
C
102
}
330
C
100
AcDbDictionary
281
     1
  3
DIMASSOC
350
32B
  0
LAYOUT
  5
1D
102
{ACAD_REACTORS
330
19
102
}
330
19
100
AcDbPlotSettings
  1

  2
C:\Programme\AutoCAD LT 2002 Deu\plotters\DWF ePlot (optimized for plotting).pc3
  4

  6

 40
0.0
 41
0.0
 42
0.0
 43
0.0
 44
0.0
 45
0.0
 46
0.0
 47
0.0
 48
0.0
 49
0.0
140
0.0
141
0.0
142
1.0
143
1.0
 70
   688
 72
     0
 73
     0
 74
     5
  7

 75
    16
147
1.0
148
0.0
149
0.0
100
AcDbLayout
  1
Layout1
 70
     1
 71
     1
 10
0.0
 20
0.0
 11
12.0
 21
9.0
 12
0.0
 22
0.0
 32
0.0
 14
1.000000000000000E+20
 24
1.000000000000000E+20
 34
1.000000000000000E+20
 15
-1.000000000000000E+20
 25
-1.000000000000000E+20
 35
-1.000000000000000E+20
146
0.0
 13
0.0
 23
0.0
 33
0.0
 16
1.0
 26
0.0
 36
0.0
 17
0.0
 27
1.0
 37
0.0
 76
     0
330
1A
  0
LAYOUT
  5
21
102
{ACAD_REACTORS
330
19
102
}
330
19
100
AcDbPlotSettings
  1

  2
C:\Programme\AutoCAD LT 2002 Deu\plotters\DWF ePlot (optimized for plotting).pc3
  4

  6

 40
0.0
 41
0.0
 42
0.0
 43
0.0
 44
0.0
 45
0.0
 46
0.0
 47
0.0
 48
0.0
 49
0.0
140
0.0
141
0.0
142
1.0
143
1.0
 70
  1712
 72
     0
 73
     0
 74
     0
  7

 75
     0
147
1.0
148
0.0
149
0.0
100
AcDbLayout
  1
Model
 70
     1
 71
     0
 10
0.0
 20
0.0
 11
12.0
 21
9.0
 12
0.0
 22
0.0
 32
0.0
 14
0.0
 24
0.0
 34
0.0
 15
0.0
 25
0.0
 35
0.0
146
0.0
 13
0.0
 23
0.0
 33
0.0
 16
1.0
 26
0.0
 36
0.0
 17
0.0
 27
1.0
 37
0.0
 76
     0
330
1E
  0
MLINESTYLE
  5
17
102
{ACAD_REACTORS
330
16
102
}
330
16
100
AcDbMlineStyle
  2
STANDARD
 70
     0
  3

 62
   256
 51
90.0
 52
90.0
 71
     2
 49
0.5
 62
   256
  6
BYLAYER
 49
-0.5
 62
   256
  6
BYLAYER
  0
ACDBPLACEHOLDER
  5
F
102
{ACAD_REACTORS
330
E
102
}
330
E
  0
DICTIONARYVAR
  5
32B
102
{ACAD_REACTORS
330
32A
102
}
330
32A
100
DictionaryVariables
280
     0
  1
1
  0
ENDSEC
  0
EOF
