  0
SECTION
  2
HEADER
  9
$ACADVER
  1
AC1015
  9
$ACADMAINTVER
 70
    13
  9
$DWGCODEPAGE
  3
ANSI_1252
  9
$INSBASE
 10
0.0
 20
0.0
 30
0.0
  9
$EXTMIN
 10
0.0
 20
0.087215000000015
 30
0.0
  9
$EXTMAX
 10
170.0
 20
98.0178
 30
0.0
  9
$LIMMIN
 10
0.0
 20
0.0
  9
$LIMMAX
 10
12.0
 20
9.0
  9
$ORTHOMODE
 70
     0
  9
$REGENMODE
 70
     1
  9
$FILLMODE
 70
     1
  9
$QTEXTMODE
 70
     0
  9
$MIRRTEXT
 70
     1
  9
$LTSCALE
 40
1.0
  9
$ATTMODE
 70
     1
  9
$TEXTSIZE
 40
0.2
  9
$TRACEWID
 40
0.05
  9
$TEXTSTYLE
  7
Standard
  9
$CLAYER
  8
0
  9
$CELTYPE
  6
Continuous
  9
$CECOLOR
 62
   256
  9
$CELTSCALE
 40
1.0
  9
$DISPSILH
 70
     0
  9
$DIMSCALE
 40
1.0
  9
$DIMASZ
 40
0.18
  9
$DIMEXO
 40
0.0625
  9
$DIMDLI
 40
0.38
  9
$DIMRND
 40
0.0
  9
$DIMDLE
 40
0.0
  9
$DIMEXE
 40
0.18
  9
$DIMTP
 40
0.0
  9
$DIMTM
 40
0.0
  9
$DIMTXT
 40
0.18
  9
$DIMCEN
 40
0.09
  9
$DIMTSZ
 40
0.0
  9
$DIMTOL
 70
     0
  9
$DIMLIM
 70
     0
  9
$DIMTIH
 70
     1
  9
$DIMTOH
 70
     1
  9
$DIMSE1
 70
     0
  9
$DIMSE2
 70
     0
  9
$DIMTAD
 70
     0
  9
$DIMZIN
 70
     0
  9
$DIMBLK
  1

  9
$DIMASO
 70
     1
  9
$DIMSHO
 70
     1
  9
$DIMPOST
  1

  9
$DIMAPOST
  1

  9
$DIMALT
 70
     0
  9
$DIMALTD
 70
     2
  9
$DIMALTF
 40
25.4
  9
$DIMLFAC
 40
1.0
  9
$DIMTOFL
 70
     0
  9
$DIMTVP
 40
0.0
  9
$DIMTIX
 70
     0
  9
$DIMSOXD
 70
     0
  9
$DIMSAH
 70
     0
  9
$DIMBLK1
  1

  9
$DIMBLK2
  1

  9
$DIMSTYLE
  2
Standard
  9
$DIMCLRD
 70
     0
  9
$DIMCLRE
 70
     0
  9
$DIMCLRT
 70
     0
  9
$DIMTFAC
 40
1.0
  9
$DIMGAP
 40
0.09
  9
$DIMJUST
 70
     0
  9
$DIMSD1
 70
     0
  9
$DIMSD2
 70
     0
  9
$DIMTOLJ
 70
     1
  9
$DIMTZIN
 70
     0
  9
$DIMALTZ
 70
     0
  9
$DIMALTTZ
 70
     0
  9
$DIMUPT
 70
     0
  9
$DIMDEC
 70
     4
  9
$DIMTDEC
 70
     4
  9
$DIMALTU
 70
     2
  9
$DIMALTTD
 70
     2
  9
$DIMTXSTY
  7
Standard
  9
$DIMAUNIT
 70
     0
  9
$DIMADEC
 70
     0
  9
$DIMALTRND
 40
0.0
  9
$DIMAZIN
 70
     0
  9
$DIMDSEP
 70
    46
  9
$DIMATFIT
 70
     3
  9
$DIMFRAC
 70
     0
  9
$DIMLDRBLK
  1

  9
$DIMLUNIT
 70
     2
  9
$DIMLWD
 70
    -2
  9
$DIMLWE
 70
    -2
  9
$DIMTMOVE
 70
     0
  9
$LUNITS
 70
     2
  9
$LUPREC
 70
     4
  9
$SKETCHINC
 40
0.1
  9
$FILLETRAD
 40
0.0
  9
$AUNITS
 70
     0
  9
$AUPREC
 70
     0
  9
$MENU
  1
.
  9
$ELEVATION
 40
0.0
  9
$PELEVATION
 40
0.0
  9
$THICKNESS
 40
0.0
  9
$LIMCHECK
 70
     0
  9
$CHAMFERA
 40
0.0
  9
$CHAMFERB
 40
0.0
  9
$CHAMFERC
 40
0.0
  9
$CHAMFERD
 40
0.0
  9
$SKPOLY
 70
     0
  9
$TDCREATE
 40
2455509.552462384
  9
$TDUCREATE
 40
2455509.510795717
  9
$TDUPDATE
 40
2455509.558939699
  9
$TDUUPDATE
 40
2455509.517273032
  9
$TDINDWG
 40
0.0064773148
  9
$TDUSRTIMER
 40
0.0064773148
  9
$USRTIMER
 70
     1
  9
$ANGBASE
 50
0.0
  9
$ANGDIR
 70
     0
  9
$PDMODE
 70
     0
  9
$PDSIZE
 40
0.0
  9
$PLINEWID
 40
0.0
  9
$SPLFRAME
 70
     0
  9
$SPLINETYPE
 70
     6
  9
$SPLINESEGS
 70
     8
  9
$HANDSEED
  5
519
  9
$SURFTAB1
 70
     6
  9
$SURFTAB2
 70
     6
  9
$SURFTYPE
 70
     6
  9
$SURFU
 70
     6
  9
$SURFV
 70
     6
  9
$UCSBASE
  2

  9
$UCSNAME
  2

  9
$UCSORG
 10
0.0
 20
0.0
 30
0.0
  9
$UCSXDIR
 10
1.0
 20
0.0
 30
0.0
  9
$UCSYDIR
 10
0.0
 20
1.0
 30
0.0
  9
$UCSORTHOREF
  2

  9
$UCSORTHOVIEW
 70
     1
  9
$UCSORGTOP
 10
0.0
 20
0.0
 30
0.0
  9
$UCSORGBOTTOM
 10
0.0
 20
0.0
 30
0.0
  9
$UCSORGLEFT
 10
0.0
 20
0.0
 30
0.0
  9
$UCSORGRIGHT
 10
0.0
 20
0.0
 30
0.0
  9
$UCSORGFRONT
 10
0.0
 20
0.0
 30
0.0
  9
$UCSORGBACK
 10
0.0
 20
0.0
 30
0.0
  9
$PUCSBASE
  2

  9
$PUCSNAME
  2

  9
$PUCSORG
 10
0.0
 20
0.0
 30
0.0
  9
$PUCSXDIR
 10
1.0
 20
0.0
 30
0.0
  9
$PUCSYDIR
 10
0.0
 20
1.0
 30
0.0
  9
$PUCSORTHOREF
  2

  9
$PUCSORTHOVIEW
 70
     0
  9
$PUCSORGTOP
 10
0.0
 20
0.0
 30
0.0
  9
$PUCSORGBOTTOM
 10
0.0
 20
0.0
 30
0.0
  9
$PUCSORGLEFT
 10
0.0
 20
0.0
 30
0.0
  9
$PUCSORGRIGHT
 10
0.0
 20
0.0
 30
0.0
  9
$PUCSORGFRONT
 10
0.0
 20
0.0
 30
0.0
  9
$PUCSORGBACK
 10
0.0
 20
0.0
 30
0.0
  9
$USERI1
 70
     0
  9
$USERI2
 70
     0
  9
$USERI3
 70
     0
  9
$USERI4
 70
     0
  9
$USERI5
 70
     0
  9
$USERR1
 40
0.0
  9
$USERR2
 40
0.0
  9
$USERR3
 40
0.0
  9
$USERR4
 40
0.0
  9
$USERR5
 40
0.0
  9
$WORLDVIEW
 70
     1
  9
$SHADEDGE
 70
     3
  9
$SHADEDIF
 70
    70
  9
$TILEMODE
 70
     1
  9
$MAXACTVP
 70
    64
  9
$PINSBASE
 10
0.0
 20
0.0
 30
0.0
  9
$PLIMCHECK
 70
     0
  9
$PEXTMIN
 10
1.000000000000000E+20
 20
1.000000000000000E+20
 30
1.000000000000000E+20
  9
$PEXTMAX
 10
-1.000000000000000E+20
 20
-1.000000000000000E+20
 30
-1.000000000000000E+20
  9
$PLIMMIN
 10
0.0
 20
0.0
  9
$PLIMMAX
 10
12.0
 20
9.0
  9
$UNITMODE
 70
     0
  9
$VISRETAIN
 70
     1
  9
$PLINEGEN
 70
     0
  9
$PSLTSCALE
 70
     1
  9
$TREEDEPTH
 70
  3020
  9
$CMLSTYLE
  2
Standard
  9
$CMLJUST
 70
     0
  9
$CMLSCALE
 40
1.0
  9
$PROXYGRAPHICS
 70
     1
  9
$MEASUREMENT
 70
     0
  9
$CELWEIGHT
370
    -1
  9
$ENDCAPS
280
     0
  9
$JOINSTYLE
280
     0
  9
$LWDISPLAY
290
     0
  9
$INSUNITS
 70
     0
  9
$HYPERLINKBASE
  1

  9
$STYLESHEET
  1

  9
$XEDIT
290
     1
  9
$CEPSNTYPE
380
     0
  9
$PSTYLEMODE
290
     1
  9
$FINGERPRINTGUID
  2
{76821473-3982-43B9-B6CC-06D783F4A5CA}
  9
$VERSIONGUID
  2
{951887D0-5FB2-4E61-9FBD-7A93A0B691C6}
  9
$EXTNAMES
290
     1
  9
$PSVPSCALE
 40
0.0
  9
$OLESTARTUP
290
     0
  0
ENDSEC
  0
SECTION
  2
CLASSES
  0
CLASS
  1
ACDBDICTIONARYWDFLT
  2
AcDbDictionaryWithDefault
  3
AutoCAD 2000
 90
        0
280
     0
281
     0
  0
CLASS
  1
ACDBPLACEHOLDER
  2
AcDbPlaceHolder
  3
AutoCAD 2000
 90
        0
280
     0
281
     0
  0
CLASS
  1
LAYOUT
  2
AcDbLayout
  3
AutoCAD 2000
 90
        0
280
     0
281
     0
  0
CLASS
  1
DICTIONARYVAR
  2
AcDbDictionaryVar
  3
AutoCAD 2000
 90
        0
280
     0
281
     0
  0
ENDSEC
  0
SECTION
  2
TABLES
  0
TABLE
  2
VPORT
  5
8
330
0
100
AcDbSymbolTable
 70
     7
  0
VPORT
  5
518
330
8
100
AcDbSymbolTableRecord
100
AcDbViewportTableRecord
  2
*Active
 70
     0
 10
0.0
 20
0.0
 11
1.0
 21
1.0
 12
85.0
 22
49.0525075
 13
0.0
 23
0.0
 14
1.0
 24
1.0
 15
0.0
 25
0.0
 16
0.0
 26
0.0
 36
1.0
 17
0.0
 27
0.0
 37
0.0
 40
98.59302413190528
 41
2.073363431151241
 42
50.0
 43
0.0
 44
0.0
 50
0.0
 51
0.0
 71
     0
 72
   100
 73
     1
 74
     3
 75
     0
 76
     0
 77
     0
 78
     0
281
     0
 65
     1
110
0.0
120
0.0
130
0.0
111
1.0
121
0.0
131
0.0
112
0.0
122
1.0
132
0.0
 79
     1
146
0.0
  0
ENDTAB
  0
TABLE
  2
LTYPE
  5
5
330
0
100
AcDbSymbolTable
 70
     1
  0
LTYPE
  5
13
330
5
100
AcDbSymbolTableRecord
100
AcDbLinetypeTableRecord
  2
ByBlock
 70
     0
  3

 72
    65
 73
     0
 40
0.0
  0
LTYPE
  5
14
330
5
100
AcDbSymbolTableRecord
100
AcDbLinetypeTableRecord
  2
ByLayer
 70
     0
  3

 72
    65
 73
     0
 40
0.0
  0
LTYPE
  5
15
330
5
100
AcDbSymbolTableRecord
100
AcDbLinetypeTableRecord
  2
Continuous
 70
     0
  3
Solid line
 72
    65
 73
     0
 40
0.0
  0
ENDTAB
  0
TABLE
  2
LAYER
  5
2
330
0
100
AcDbSymbolTable
 70
     1
  0
LAYER
  5
10
330
2
100
AcDbSymbolTableRecord
100
AcDbLayerTableRecord
  2
0
 70
     0
 62
     7
  6
Continuous
370
    -3
390
F
  0
ENDTAB
  0
TABLE
  2
STYLE
  5
3
330
0
100
AcDbSymbolTable
 70
     1
  0
STYLE
  5
11
330
3
100
AcDbSymbolTableRecord
100
AcDbTextStyleTableRecord
  2
Standard
 70
     0
 40
0.0
 41
1.0
 50
0.0
 71
     0
 42
0.2
  3
txt
  4

  0
ENDTAB
  0
TABLE
  2
VIEW
  5
6
330
0
100
AcDbSymbolTable
 70
     0
  0
ENDTAB
  0
TABLE
  2
UCS
  5
7
330
0
100
AcDbSymbolTable
 70
     0
  0
ENDTAB
  0
TABLE
  2
APPID
  5
9
330
0
100
AcDbSymbolTable
 70
     1
  0
APPID
  5
12
330
9
100
AcDbSymbolTableRecord
100
AcDbRegAppTableRecord
  2
ACAD
 70
     0
  0
ENDTAB
  0
TABLE
  2
DIMSTYLE
  5
A
330
0
100
AcDbSymbolTable
 70
     1
100
AcDbDimStyleTable
 71
     0
  0
DIMSTYLE
105
459
330
A
100
AcDbSymbolTableRecord
100
AcDbDimStyleTableRecord
  2
Standard
 70
     0
340
11
  0
ENDTAB
  0
TABLE
  2
BLOCK_RECORD
  5
1
330
0
100
AcDbSymbolTable
 70
     0
  0
BLOCK_RECORD
  5
1E
330
1
100
AcDbSymbolTableRecord
100
AcDbBlockTableRecord
  2
*Model_Space
340
21
  0
BLOCK_RECORD
  5
1A
330
1
100
AcDbSymbolTableRecord
100
AcDbBlockTableRecord
  2
*Paper_Space
340
1D
  0
ENDTAB
  0
ENDSEC
  0
SECTION
  2
BLOCKS
  0
BLOCK
  5
1F
330
1E
100
AcDbEntity
  8
0
100
AcDbBlockBegin
  2
*Model_Space
 70
     0
 10
0.0
 20
0.0
 30
0.0
  3
*Model_Space
  1

  0
ENDBLK
  5
20
330
1E
100
AcDbEntity
  8
0
100
AcDbBlockEnd
  0
BLOCK
  5
1B
330
1A
100
AcDbEntity
 67
     1
  8
0
100
AcDbBlockBegin
  2
*Paper_Space
 70
     0
 10
0.0
 20
0.0
 30
0.0
  3
*Paper_Space
  1

  0
ENDBLK
  5
1C
330
1A
100
AcDbEntity
 67
     1
  8
0
100
AcDbBlockEnd
  0
ENDSEC
  0
SECTION
  2
ENTITIES
  0
LINE
  5
22
330
1E
100
AcDbEntity
  8
0
100
AcDbLine
 10
58.3566
 20
78.1962
 30
0.0
 11
58.5287
 21
78.1962
 31
0.0
  0
LINE
  5
23
330
1E
100
AcDbEntity
  8
0
100
AcDbLine
 10
58.5287
 20
78.1962
 30
0.0
 11
59.0351
 21
78.1962
 31
0.0
  0
LINE
  5
24
330
1E
100
AcDbEntity
  8
0
100
AcDbLine
 10
59.0351
 20
78.1962
 30
0.0
 11
60.288
 21
78.1962
 31
0.0
  0
LINE
  5
25
330
1E
100
AcDbEntity
  8
0
100
AcDbLine
 10
60.288
 20
78.1962
 30
0.0
 11
60.7383
 21
78.1962
 31
0.0
  0
LINE
  5
26
330
1E
100
AcDbEntity
  8
0
100
AcDbLine
 10
1.453059999999999
 20
86.01980000000001
 30
0.0
 11
27.5001
 21
84.50940000000001
 31
0.0
  0
LINE
  5
27
330
1E
100
AcDbEntity
  8
0
100
AcDbLine
 10
1.453059999999999
 20
86.01980000000001
 30
0.0
 11
27.5001
 21
84.50940000000001
 31
0.0
  0
LINE
  5
28
330
1E
100
AcDbEntity
  8
0
100
AcDbLine
 10
0.996727
 20
86.1655
 30
0.0
 11
1.453059999999999
 21
86.01980000000001
 31
0.0
  0
LINE
  5
29
330
1E
100
AcDbEntity
  8
0
100
AcDbLine
 10
0.5223810000000002
 20
86.9574
 30
0.0
 11
0.661482
 21
86.50350000000001
 31
0.0
  0
LINE
  5
2A
330
1E
100
AcDbEntity
  8
0
100
AcDbLine
 10
0.495361
 20
98.0178
 30
0.0
 11
1.488089999999999
 21
98.0178
 31
0.0
  0
LINE
  5
2B
330
1E
100
AcDbEntity
  8
0
100
AcDbLine
 10
0.0
 20
98.0178
 30
0.0
 11
0.5223810000000002
 21
86.9574
 31
0.0
  0
LINE
  5
2C
330
1E
100
AcDbEntity
  8
0
100
AcDbLine
 10
0.0
 20
98.0178
 30
0.0
 11
0.495361
 21
98.0178
 31
0.0
  0
LINE
  5
2F
330
1E
100
AcDbEntity
  8
0
100
AcDbLine
 10
1.488089999999999
 20
98.0178
 30
0.0
 11
2.10353
 21
98.0178
 31
0.0
  0
LINE
  5
34
330
1E
100
AcDbEntity
  8
0
100
AcDbLine
 10
2.10353
 20
98.0178
 30
0.0
 11
3.43751
 21
98.0178
 31
0.0
  0
LINE
  5
36
330
1E
100
AcDbEntity
  8
0
100
AcDbLine
 10
3.43751
 20
98.0178
 30
0.0
 11
5.45698
 21
98.0178
 31
0.0
  0
LINE
  5
3A
330
1E
100
AcDbEntity
  8
0
100
AcDbLine
 10
8.11092
 20
98.0178
 30
0.0
 11
11.3263
 21
98.0178
 31
0.0
  0
LINE
  5
3B
330
1E
100
AcDbEntity
  8
0
100
AcDbLine
 10
11.3263
 20
98.0178
 30
0.0
 11
15.019
 21
98.0178
 31
0.0
  0
LINE
  5
4B
330
1E
100
AcDbEntity
  8
0
100
AcDbLine
 10
5.45698
 20
98.0178
 30
0.0
 11
8.11092
 21
98.0178
 31
0.0
  0
LINE
  5
54
330
1E
100
AcDbEntity
  8
0
100
AcDbLine
 10
53.5751
 20
83.558
 30
0.0
 11
66.11119999999999
 21
83.3102
 31
0.0
  0
LINE
  5
55
330
1E
100
AcDbEntity
  8
0
100
AcDbLine
 10
27.5001
 20
84.50940000000001
 30
0.0
 11
53.5751
 21
83.558
 31
0.0
  0
LINE
  5
5B
330
1E
100
AcDbEntity
  8
0
100
AcDbLine
 10
52.9949688668832
 20
83.57967256175721
 30
0.0
 11
53.1768
 21
83.5471
 31
0.0
  0
LINE
  5
5C
330
1E
100
AcDbEntity
  8
0
100
AcDbLine
 10
53.03459561357279
 20
83.57257397180921
 30
0.0
 11
55.0642
 21
82.4965
 31
0.0
  0
LINE
  5
5D
330
1E
100
AcDbEntity
  8
0
100
AcDbLine
 10
55.0642
 20
82.4965
 30
0.0
 11
56.7834
 21
80.7384
 31
0.0
  0
LINE
  5
5E
330
1E
100
AcDbEntity
  8
0
100
AcDbLine
 10
56.7834
 20
80.7384
 30
0.0
 11
57.87819999999999
 21
78.5441
 31
0.0
  0
LINE
  5
69
330
1E
100
AcDbEntity
  8
0
100
AcDbLine
 10
27.9454
 20
98.0178
 30
0.0
 11
50.757
 21
98.0178
 31
0.0
  0
LINE
  5
6A
330
1E
100
AcDbEntity
  8
0
100
AcDbLine
 10
50.757
 20
98.0178
 30
0.0
 11
73.5847
 21
98.0178
 31
0.0
  0
LINE
  5
6B
330
1E
100
AcDbEntity
  8
0
100
AcDbLine
 10
23.4391
 20
98.0178
 30
0.0
 11
27.9454
 21
98.0178
 31
0.0
  0
LINE
  5
126
330
1E
100
AcDbEntity
  8
0
100
AcDbLine
 10
19.0929
 20
98.0178
 30
0.0
 11
23.4391
 21
98.0178
 31
0.0
  0
LINE
  5
127
330
1E
100
AcDbEntity
  8
0
100
AcDbLine
 10
15.019
 20
98.0178
 30
0.0
 11
19.0929
 21
98.0178
 31
0.0
  0
LINE
  5
128
330
1E
100
AcDbEntity
  8
0
100
AcDbLine
 10
57.87819999999999
 20
78.5441
 30
0.0
 11
58.0593
 21
78.2924
 31
0.0
  0
LINE
  5
136
330
1E
100
AcDbEntity
  8
0
100
AcDbLine
 10
58.0593
 20
78.2924
 30
0.0
 11
58.3566
 21
78.1962
 31
0.0
  0
LINE
  5
137
330
1E
100
AcDbEntity
  8
0
100
AcDbLine
 10
60.7383
 20
78.1962
 30
0.0
 11
60.7383
 21
38.05749999999999
 31
0.0
  0
LINE
  5
138
330
1E
100
AcDbEntity
  8
0
100
AcDbLine
 10
61.0415
 20
36.14869999999999
 30
0.0
 11
61.0986
 21
36.4073
 31
0.0
  0
LINE
  5
139
330
1E
100
AcDbEntity
  8
0
100
AcDbLine
 10
63.2361
 20
1.80278000000001
 30
0.0
 11
63.7365
 21
1.29336000000001
 31
0.0
  0
LINE
  5
13A
330
1E
100
AcDbEntity
  8
0
100
AcDbLine
 10
62.9029
 20
2.432110000000009
 30
0.0
 11
63.2361
 21
1.80278000000001
 31
0.0
  0
LINE
  5
13B
330
1E
100
AcDbEntity
  8
0
100
AcDbLine
 10
62.76279999999999
 20
3.128840000000009
 30
0.0
 11
62.9029
 21
2.432110000000009
 31
0.0
  0
LINE
  5
13C
330
1E
100
AcDbEntity
  8
0
100
AcDbLine
 10
61.0986
 20
36.4073
 30
0.0
 11
61.2827
 21
36.5996
 31
0.0
  0
LINE
  5
13D
330
1E
100
AcDbEntity
  8
0
100
AcDbLine
 10
61.2337
 20
37.5619
 30
0.0
 11
61.3407
 21
37.5619
 31
0.0
  0
LINE
  5
13E
330
1E
100
AcDbEntity
  8
0
100
AcDbLine
 10
60.9885
 20
37.6283
 30
0.0
 11
61.2337
 21
37.5619
 31
0.0
  0
LINE
  5
13F
330
1E
100
AcDbEntity
  8
0
100
AcDbLine
 10
61.3407
 20
37.5619
 30
0.0
 11
61.726
 21
37.5619
 31
0.0
  0
LINE
  5
140
330
1E
100
AcDbEntity
  8
0
100
AcDbLine
 10
63.2531
 20
36.67
 30
0.0
 11
64.38500000000001
 21
36.67
 31
0.0
  0
LINE
  5
141
330
1E
100
AcDbEntity
  8
0
100
AcDbLine
 10
62.3955
 20
36.67
 30
0.0
 11
63.2531
 21
36.67
 31
0.0
  0
LINE
  5
142
330
1E
100
AcDbEntity
  8
0
100
AcDbLine
 10
61.726
 20
37.5619
 30
0.0
 11
62.3835
 21
37.5619
 31
0.0
  0
LINE
  5
143
330
1E
100
AcDbEntity
  8
0
100
AcDbLine
 10
62.3835
 20
37.5619
 30
0.0
 11
63.30519999999999
 21
37.5619
 31
0.0
  0
LINE
  5
144
330
1E
100
AcDbEntity
  8
0
100
AcDbLine
 10
63.30519999999999
 20
37.5619
 30
0.0
 11
63.5884
 21
37.5619
 31
0.0
  0
LINE
  5
145
330
1E
100
AcDbEntity
  8
0
100
AcDbLine
 10
61.8221
 20
36.67
 30
0.0
 11
62.3955
 21
36.67
 31
0.0
  0
LINE
  5
146
330
1E
100
AcDbEntity
  8
0
100
AcDbLine
 10
61.5399
 20
36.67
 30
0.0
 11
61.8221
 21
36.67
 31
0.0
  0
LINE
  5
147
330
1E
100
AcDbEntity
  8
0
100
AcDbLine
 10
61.2827
 20
36.5996
 30
0.0
 11
61.5399
 21
36.67
 31
0.0
  0
LINE
  5
148
330
1E
100
AcDbEntity
  8
0
100
AcDbLine
 10
64.3619
 20
0.9464820000000139
 30
0.0
 11
65.05849999999999
 21
0.7889000000000151
 31
0.0
  0
LINE
  5
149
330
1E
100
AcDbEntity
  8
0
100
AcDbLine
 10
63.7365
 20
1.29336000000001
 30
0.0
 11
64.3619
 21
0.9464820000000139
 31
0.0
  0
LINE
  5
14A
330
1E
100
AcDbEntity
  8
0
100
AcDbLine
 10
65.05849999999999
 20
0.7889000000000151
 30
0.0
 11
71.69629999999999
 21
0.350842000000015
 31
0.0
  0
LINE
  5
14C
330
1E
100
AcDbEntity
  8
0
100
AcDbLine
 10
80.14749999999999
 20
19.8702
 30
0.0
 11
80.83800000000001
 21
19.81569999999999
 31
0.0
  0
LINE
  5
14D
330
1E
100
AcDbEntity
  8
0
100
AcDbLine
 10
73.89190000000001
 20
24.1625
 30
0.0
 11
74.07300000000001
 21
23.57979999999999
 31
0.0
  0
LINE
  5
14E
330
1E
100
AcDbEntity
  8
0
100
AcDbLine
 10
74.13009999999999
 20
23.42519999999999
 30
0.0
 11
74.1811
 21
23.3142
 31
0.0
  0
LINE
  5
14F
330
1E
100
AcDbEntity
  8
0
100
AcDbLine
 10
74.1811
 20
23.3142
 30
0.0
 11
74.3292
 21
23.0337
 31
0.0
  0
LINE
  5
150
330
1E
100
AcDbEntity
  8
0
100
AcDbLine
 10
74.3292
 20
23.0337
 30
0.0
 11
74.3943
 21
22.9376
 31
0.0
  0
LINE
  5
151
330
1E
100
AcDbEntity
  8
0
100
AcDbLine
 10
74.07300000000001
 20
23.57979999999999
 30
0.0
 11
74.13009999999999
 21
23.42519999999999
 31
0.0
  0
LINE
  5
152
330
1E
100
AcDbEntity
  8
0
100
AcDbLine
 10
74.3943
 20
22.9376
 30
0.0
 11
74.58339999999999
 21
22.66699999999999
 31
0.0
  0
LINE
  5
153
330
1E
100
AcDbEntity
  8
0
100
AcDbLine
 10
74.8126
 20
22.3687
 30
0.0
 11
75.0357
 21
22.09509999999999
 31
0.0
  0
LINE
  5
154
330
1E
100
AcDbEntity
  8
0
100
AcDbLine
 10
74.58339999999999
 20
22.66699999999999
 30
0.0
 11
74.8126
 21
22.3687
 31
0.0
  0
LINE
  5
155
330
1E
100
AcDbEntity
  8
0
100
AcDbLine
 10
75.0357
 20
22.09509999999999
 30
0.0
 11
75.2869
 21
21.81859999999999
 31
0.0
  0
LINE
  5
15E
330
1E
100
AcDbEntity
  8
0
100
AcDbLine
 10
75.2869
 20
21.81859999999999
 30
0.0
 11
75.6592
 21
21.4341
 31
0.0
  0
LINE
  5
15F
330
1E
100
AcDbEntity
  8
0
100
AcDbLine
 10
75.6592
 20
21.4341
 30
0.0
 11
75.95740000000001
 21
21.18329999999999
 31
0.0
  0
LINE
  5
160
330
1E
100
AcDbEntity
  8
0
100
AcDbLine
 10
76.9521
 20
20.58079999999999
 30
0.0
 11
77.1323
 21
20.51239999999999
 31
0.0
  0
LINE
  5
161
330
1E
100
AcDbEntity
  8
0
100
AcDbLine
 10
76.60989999999999
 20
20.7532
 30
0.0
 11
76.9521
 21
20.58079999999999
 31
0.0
  0
LINE
  5
162
330
1E
100
AcDbEntity
  8
0
100
AcDbLine
 10
77.8318
 20
20.2616
 30
0.0
 11
78.55029999999999
 21
20.0932
 31
0.0
  0
LINE
  5
163
330
1E
100
AcDbEntity
  8
0
100
AcDbLine
 10
77.1323
 20
20.51239999999999
 30
0.0
 11
77.8318
 21
20.2616
 31
0.0
  0
LINE
  5
164
330
1E
100
AcDbEntity
  8
0
100
AcDbLine
 10
76.2866
 20
20.9613
 30
0.0
 11
76.60989999999999
 21
20.7532
 31
0.0
  0
LINE
  5
165
330
1E
100
AcDbEntity
  8
0
100
AcDbLine
 10
75.95740000000001
 20
21.18329999999999
 30
0.0
 11
76.2866
 21
20.9613
 31
0.0
  0
LINE
  5
168
330
1E
100
AcDbEntity
  8
0
100
AcDbLine
 10
72.51090000000001
 20
32.8147
 30
0.0
 11
72.62399999999999
 21
31.91969999999999
 31
0.0
  0
LINE
  5
169
330
1E
100
AcDbEntity
  8
0
100
AcDbLine
 10
72.62399999999999
 20
31.91969999999999
 30
0.0
 11
72.7381
 21
31.0466
 31
0.0
  0
LINE
  5
16A
330
1E
100
AcDbEntity
  8
0
100
AcDbLine
 10
72.7381
 20
31.0466
 30
0.0
 11
72.8541
 21
30.2042
 31
0.0
  0
LINE
  5
16B
330
1E
100
AcDbEntity
  8
0
100
AcDbLine
 10
73.25639999999999
 20
27.5401
 30
0.0
 11
73.3125
 21
27.1596
 31
0.0
  0
LINE
  5
16C
330
1E
100
AcDbEntity
  8
0
100
AcDbLine
 10
73.3125
 20
27.1596
 30
0.0
 11
73.36750000000001
 21
26.7939
 31
0.0
  0
LINE
  5
16D
330
1E
100
AcDbEntity
  8
0
100
AcDbLine
 10
73.21017118718859
 20
27.8665909904801
 30
0.0
 11
73.25639999999999
 21
27.5401
 31
0.0
  0
LINE
  5
16E
330
1E
100
AcDbEntity
  8
0
100
AcDbLine
 10
72.97119999999999
 20
29.3974
 30
0.0
 11
73.21017118718859
 21
27.8665909904801
 31
0.0
  0
LINE
  5
16F
330
1E
100
AcDbEntity
  8
0
100
AcDbLine
 10
73.21017118718859
 20
27.8665909904801
 30
0.0
 11
73.25639999999999
 21
27.5401
 31
0.0
  0
LINE
  5
170
330
1E
100
AcDbEntity
  8
0
100
AcDbLine
 10
72.8541
 20
30.2042
 30
0.0
 11
72.97119999999999
 21
29.3974
 31
0.0
  0
LINE
  5
171
330
1E
100
AcDbEntity
  8
0
100
AcDbLine
 10
73.36750000000001
 20
26.7939
 30
0.0
 11
73.42159999999999
 21
26.446
 31
0.0
  0
LINE
  5
172
330
1E
100
AcDbEntity
  8
0
100
AcDbLine
 10
73.47459999999999
 20
26.116
 30
0.0
 11
73.5266
 21
25.8067
 31
0.0
  0
LINE
  5
173
330
1E
100
AcDbEntity
  8
0
100
AcDbLine
 10
73.42159999999999
 20
26.446
 30
0.0
 11
73.47459999999999
 21
26.116
 31
0.0
  0
LINE
  5
174
330
1E
100
AcDbEntity
  8
0
100
AcDbLine
 10
73.5266
 20
25.8067
 30
0.0
 11
73.58369999999999
 21
25.4827
 31
0.0
  0
LINE
  5
175
330
1E
100
AcDbEntity
  8
0
100
AcDbLine
 10
73.69379999999999
 20
24.9257
 30
0.0
 11
73.7448
 21
24.6967
 31
0.0
  0
LINE
  5
176
330
1E
100
AcDbEntity
  8
0
100
AcDbLine
 10
73.7448
 20
24.6967
 30
0.0
 11
73.7678
 21
24.6056
 31
0.0
  0
LINE
  5
177
330
1E
100
AcDbEntity
  8
0
100
AcDbLine
 10
73.7678
 20
24.6056
 30
0.0
 11
73.8319
 21
24.3627
 31
0.0
  0
LINE
  5
178
330
1E
100
AcDbEntity
  8
0
100
AcDbLine
 10
73.63970000000001
 20
25.1893
 30
0.0
 11
73.69379999999999
 21
24.9257
 31
0.0
  0
LINE
  5
179
330
1E
100
AcDbEntity
  8
0
100
AcDbLine
 10
73.58369999999999
 20
25.4827
 30
0.0
 11
73.63970000000001
 21
25.1893
 31
0.0
  0
LINE
  5
17A
330
1E
100
AcDbEntity
  8
0
100
AcDbLine
 10
73.8319
 20
24.3627
 30
0.0
 11
73.89190000000001
 21
24.1625
 31
0.0
  0
LINE
  5
17B
330
1E
100
AcDbEntity
  8
0
100
AcDbLine
 10
78.55029999999999
 20
20.0932
 30
0.0
 11
79.458
 21
19.95039999999999
 31
0.0
  0
LINE
  5
17C
330
1E
100
AcDbEntity
  8
0
100
AcDbLine
 10
79.458
 20
19.95039999999999
 30
0.0
 11
80.14749999999999
 21
19.8702
 31
0.0
  0
LINE
  5
17F
330
1E
100
AcDbEntity
  8
0
100
AcDbLine
 10
80.83800000000001
 20
19.81569999999999
 30
0.0
 11
82.22399999999998
 21
19.75519999999999
 31
0.0
  0
LINE
  5
180
330
1E
100
AcDbEntity
  8
0
100
AcDbLine
 10
82.22399999999998
 20
19.75519999999999
 30
0.0
 11
83.14660000000001
 21
19.7374
 31
0.0
  0
LINE
  5
181
330
1E
100
AcDbEntity
  8
0
100
AcDbLine
 10
84.6517
 20
0.087215000000015
 30
0.0
 11
84.88089999999999
 21
0.087215000000015
 31
0.0
  0
LINE
  5
190
330
1E
100
AcDbEntity
  8
0
100
AcDbLine
 10
84.88089999999999
 20
0.087215000000015
 30
0.0
 11
85.0
 21
0.087215000000015
 31
0.0
  0
LINE
  5
197
330
1E
100
AcDbEntity
  8
0
100
AcDbLine
 10
83.14660000000001
 20
19.7374
 30
0.0
 11
84.99399999999999
 21
19.77009999999999
 31
0.0
  0
LINE
  5
20C
330
1E
100
AcDbEntity
  8
0
100
AcDbLine
 10
71.313
 20
36.67
 30
0.0
 11
72.0280127172867
 21
36.67
 31
0.0
  0
LINE
  5
20D
330
1E
100
AcDbEntity
  8
0
100
AcDbLine
 10
69.26149999999999
 20
36.67
 30
0.0
 11
71.313
 21
36.67
 31
0.0
  0
LINE
  5
20E
330
1E
100
AcDbEntity
  8
0
100
AcDbLine
 10
67.40819999999999
 20
36.67
 30
0.0
 11
69.26149999999999
 21
36.67
 31
0.0
  0
LINE
  5
211
330
1E
100
AcDbEntity
  8
0
100
AcDbLine
 10
65.77600000000001
 20
36.67
 30
0.0
 11
67.40819999999999
 21
36.67
 31
0.0
  0
LINE
  5
212
330
1E
100
AcDbEntity
  8
0
100
AcDbLine
 10
64.38500000000001
 20
36.67
 30
0.0
 11
65.77600000000001
 21
36.67
 31
0.0
  0
LINE
  5
21B
330
1E
100
AcDbEntity
  8
0
100
AcDbLine
 10
63.7385
 20
37.5223
 30
0.0
 11
63.84859999999999
 21
37.4133
 31
0.0
  0
LINE
  5
21C
330
1E
100
AcDbEntity
  8
0
100
AcDbLine
 10
63.5884
 20
37.5619
 30
0.0
 11
63.7385
 21
37.5223
 31
0.0
  0
LINE
  5
21D
330
1E
100
AcDbEntity
  8
0
100
AcDbLine
 10
66.7037
 20
83.2319
 30
0.0
 11
67.3601
 21
82.4192
 31
0.0
  0
LINE
  5
23B
330
1E
100
AcDbEntity
  8
0
100
AcDbLine
 10
70.55849999999999
 20
48.4034
 30
0.0
 11
70.5745
 21
48.6016
 31
0.0
  0
LINE
  5
23C
330
1E
100
AcDbEntity
  8
0
100
AcDbLine
 10
70.55849999999999
 20
48.4034
 30
0.0
 11
72.51090000000001
 21
32.8147
 31
0.0
  0
LINE
  5
23D
330
1E
100
AcDbEntity
  8
0
100
AcDbLine
 10
70.07192272780319
 20
82.1606
 30
0.0
 11
70.4334
 21
50.1376
 31
0.0
  0
LINE
  5
23E
330
1E
100
AcDbEntity
  8
0
100
AcDbLine
 10
70.50239999999999
 20
49.89180000000001
 30
0.0
 11
70.68559999999999
 21
49.7124
 31
0.0
  0
LINE
  5
23F
330
1E
100
AcDbEntity
  8
0
100
AcDbLine
 10
70.4334
 20
50.1376
 30
0.0
 11
70.50239999999999
 21
49.89180000000001
 31
0.0
  0
LINE
  5
240
330
1E
100
AcDbEntity
  8
0
100
AcDbLine
 10
70.5745
 20
48.6016
 30
0.0
 11
70.6806
 21
48.79290000000001
 31
0.0
  0
LINE
  5
247
330
1E
100
AcDbEntity
  8
0
100
AcDbLine
 10
70.96479999999999
 20
49.646
 30
0.0
 11
71.20090000000001
 21
49.646
 31
0.0
  0
LINE
  5
248
330
1E
100
AcDbEntity
  8
0
100
AcDbLine
 10
70.68559999999999
 20
49.7124
 30
0.0
 11
70.9337
 21
49.646
 31
0.0
  0
LINE
  5
249
330
1E
100
AcDbEntity
  8
0
100
AcDbLine
 10
71.06279999999999
 20
48.9594
 30
0.0
 11
71.11889999999999
 21
48.9594
 31
0.0
  0
LINE
  5
24A
330
1E
100
AcDbEntity
  8
0
100
AcDbLine
 10
71.51819999999999
 20
48.9594
 30
0.0
 11
71.7774
 21
48.9594
 31
0.0
  0
LINE
  5
24B
330
1E
100
AcDbEntity
  8
0
100
AcDbLine
 10
71.7774
 20
48.9594
 30
0.0
 11
72.09459999999999
 21
48.9594
 31
0.0
  0
LINE
  5
24C
330
1E
100
AcDbEntity
  8
0
100
AcDbLine
 10
71.319
 20
48.9594
 30
0.0
 11
71.51819999999999
 21
48.9594
 31
0.0
  0
LINE
  5
24D
330
1E
100
AcDbEntity
  8
0
100
AcDbLine
 10
72.09459999999999
 20
48.9594
 30
0.0
 11
72.70199999999999
 21
48.9594
 31
0.0
  0
LINE
  5
24E
330
1E
100
AcDbEntity
  8
0
100
AcDbLine
 10
73.0143
 20
48.9594
 30
0.0
 11
73.0143
 21
49.646
 31
0.0
  0
LINE
  5
24F
330
1E
100
AcDbEntity
  8
0
100
AcDbLine
 10
72.70199999999999
 20
48.9594
 30
0.0
 11
73.40949999999999
 21
48.9594
 31
0.0
  0
LINE
  5
250
330
1E
100
AcDbEntity
  8
0
100
AcDbLine
 10
73.40949999999999
 20
48.9594
 30
0.0
 11
74.22709999999999
 21
48.9594
 31
0.0
  0
LINE
  5
265
330
1E
100
AcDbEntity
  8
0
100
AcDbLine
 10
83.68299999999999
 20
48.9594
 30
0.0
 11
85.0
 21
48.9594
 31
0.0
  0
LINE
  5
266
330
1E
100
AcDbEntity
  8
0
100
AcDbLine
 10
80.9941
 20
48.9594
 30
0.0
 11
82.323
 21
48.9594
 31
0.0
  0
LINE
  5
267
330
1E
100
AcDbEntity
  8
0
100
AcDbLine
 10
79.7021
 20
48.9594
 30
0.0
 11
80.9941
 21
48.9594
 31
0.0
  0
LINE
  5
268
330
1E
100
AcDbEntity
  8
0
100
AcDbLine
 10
78.4542
 20
48.9594
 30
0.0
 11
79.7021
 21
48.9594
 31
0.0
  0
LINE
  5
269
330
1E
100
AcDbEntity
  8
0
100
AcDbLine
 10
77.27540000000001
 20
48.9594
 30
0.0
 11
78.4542
 21
48.9594
 31
0.0
  0
LINE
  5
26A
330
1E
100
AcDbEntity
  8
0
100
AcDbLine
 10
82.323
 20
48.9594
 30
0.0
 11
83.68299999999999
 21
48.9594
 31
0.0
  0
LINE
  5
26B
330
1E
100
AcDbEntity
  8
0
100
AcDbLine
 10
76.1726
 20
48.9594
 30
0.0
 11
77.27540000000001
 21
48.9594
 31
0.0
  0
LINE
  5
26C
330
1E
100
AcDbEntity
  8
0
100
AcDbLine
 10
75.15080000000001
 20
48.9594
 30
0.0
 11
76.1726
 21
48.9594
 31
0.0
  0
LINE
  5
26D
330
1E
100
AcDbEntity
  8
0
100
AcDbLine
 10
74.22709999999999
 20
48.9594
 30
0.0
 11
75.15080000000001
 21
48.9594
 31
0.0
  0
LINE
  5
26E
330
1E
100
AcDbEntity
  8
0
100
AcDbLine
 10
72.5139
 20
49.646
 30
0.0
 11
72.72199999999999
 21
49.646
 31
0.0
  0
LINE
  5
26F
330
1E
100
AcDbEntity
  8
0
100
AcDbLine
 10
72.51990000000001
 20
49.646
 30
0.0
 11
72.73909999999999
 21
49.646
 31
0.0
  0
LINE
  5
270
330
1E
100
AcDbEntity
  8
0
100
AcDbLine
 10
72.72199999999999
 20
49.646
 30
0.0
 11
73.1404
 21
49.646
 31
0.0
  0
LINE
  5
271
330
1E
100
AcDbEntity
  8
0
100
AcDbLine
 10
72.73909999999999
 20
49.646
 30
0.0
 11
73.0143
 21
49.646
 31
0.0
  0
LINE
  5
287
330
1E
100
AcDbEntity
  8
0
100
AcDbLine
 10
84.1374
 20
49.646
 30
0.0
 11
85.0
 21
49.646
 31
0.0
  0
LINE
  5
288
330
1E
100
AcDbEntity
  8
0
100
AcDbLine
 10
82.5162
 20
49.646
 30
0.0
 11
84.1374
 21
49.646
 31
0.0
  0
LINE
  5
289
330
1E
100
AcDbEntity
  8
0
100
AcDbLine
 10
80.937
 20
49.646
 30
0.0
 11
82.5162
 21
49.646
 31
0.0
  0
LINE
  5
28A
330
1E
100
AcDbEntity
  8
0
100
AcDbLine
 10
79.42789999999999
 20
49.646
 30
0.0
 11
80.937
 21
49.646
 31
0.0
  0
LINE
  5
28B
330
1E
100
AcDbEntity
  8
0
100
AcDbLine
 10
78.01390000000001
 20
49.646
 30
0.0
 11
79.42789999999999
 21
49.646
 31
0.0
  0
LINE
  5
28C
330
1E
100
AcDbEntity
  8
0
100
AcDbLine
 10
76.71899999999999
 20
49.646
 30
0.0
 11
78.01390000000001
 21
49.646
 31
0.0
  0
LINE
  5
28D
330
1E
100
AcDbEntity
  8
0
100
AcDbLine
 10
75.5661
 20
49.646
 30
0.0
 11
76.71899999999999
 21
49.646
 31
0.0
  0
LINE
  5
28E
330
1E
100
AcDbEntity
  8
0
100
AcDbLine
 10
74.5744
 20
49.646
 30
0.0
 11
75.5661
 21
49.646
 31
0.0
  0
LINE
  5
28F
330
1E
100
AcDbEntity
  8
0
100
AcDbLine
 10
73.7608
 20
49.646
 30
0.0
 11
74.5744
 21
49.646
 31
0.0
  0
LINE
  5
290
330
1E
100
AcDbEntity
  8
0
100
AcDbLine
 10
73.1404
 20
49.646
 30
0.0
 11
73.7608
 21
49.646
 31
0.0
  0
LINE
  5
291
330
1E
100
AcDbEntity
  8
0
100
AcDbLine
 10
73.0143
 20
49.646
 30
0.0
 11
73.0143
 21
48.9594
 31
0.0
  0
LINE
  5
292
330
1E
100
AcDbEntity
  8
0
100
AcDbLine
 10
83.8882
 20
49.646
 30
0.0
 11
85.0
 21
49.646
 31
0.0
  0
LINE
  5
293
330
1E
100
AcDbEntity
  8
0
100
AcDbLine
 10
72.2717
 20
49.646
 30
0.0
 11
73.0143
 21
49.646
 31
0.0
  0
LINE
  5
2AF
330
1E
100
AcDbEntity
  8
0
100
AcDbLine
 10
71.6393
 20
49.646
 30
0.0
 11
72.2717
 21
49.646
 31
0.0
  0
LINE
  5
2B0
330
1E
100
AcDbEntity
  8
0
100
AcDbLine
 10
71.20090000000001
 20
49.646
 30
0.0
 11
71.6393
 21
49.646
 31
0.0
  0
LINE
  5
2B1
330
1E
100
AcDbEntity
  8
0
100
AcDbLine
 10
71.11889999999999
 20
48.9594
 30
0.0
 11
71.319
 21
48.9594
 31
0.0
  0
LINE
  5
2B2
330
1E
100
AcDbEntity
  8
0
100
AcDbLine
 10
71.0548
 20
48.9594
 30
0.0
 11
71.11889999999999
 21
48.9594
 31
0.0
  0
LINE
  5
2B3
330
1E
100
AcDbEntity
  8
0
100
AcDbLine
 10
70.85869999999999
 20
48.9197
 30
0.0
 11
71.0548
 21
48.9594
 31
0.0
  0
LINE
  5
2B4
330
1E
100
AcDbEntity
  8
0
100
AcDbLine
 10
70.6806
 20
48.79290000000001
 30
0.0
 11
70.85869999999999
 21
48.9197
 31
0.0
  0
LINE
  5
2B5
330
1E
100
AcDbEntity
  8
0
100
AcDbLine
 10
69.45969999999999
 20
82.1606
 30
0.0
 11
70.07192272780319
 21
82.1606
 31
0.0
  0
LINE
  5
2B6
330
1E
100
AcDbEntity
  8
0
100
AcDbLine
 10
68.53699999999999
 20
82.1606
 30
0.0
 11
69.45969999999999
 21
82.1606
 31
0.0
  0
LINE
  5
2B8
330
1E
100
AcDbEntity
  8
0
100
AcDbLine
 10
67.9796
 20
82.1606
 30
0.0
 11
68.53699999999999
 21
82.1606
 31
0.0
  0
LINE
  5
2B9
330
1E
100
AcDbEntity
  8
0
100
AcDbLine
 10
67.8005
 20
82.1606
 30
0.0
 11
67.9796
 21
82.1606
 31
0.0
  0
LINE
  5
2F6
330
1E
100
AcDbEntity
  8
0
100
AcDbLine
 10
73.5847
 20
98.0178
 30
0.0
 11
85.0
 21
98.0178
 31
0.0
  0
LINE
  5
454
330
1E
100
AcDbEntity
  8
0
100
AcDbLine
 10
67.54430000000001
 20
82.2309
 30
0.0
 11
67.8005
 21
82.1606
 31
0.0
  0
LINE
  5
455
330
1E
100
AcDbEntity
  8
0
100
AcDbLine
 10
67.3601
 20
82.4192
 30
0.0
 11
67.54430000000001
 21
82.2309
 31
0.0
  0
LINE
  5
456
330
1E
100
AcDbEntity
  8
0
100
AcDbLine
 10
60.8054
 20
37.80969999999999
 30
0.0
 11
60.9885
 21
37.6283
 31
0.0
  0
LINE
  5
457
330
1E
100
AcDbEntity
  8
0
100
AcDbLine
 10
60.7383
 20
38.05749999999999
 30
0.0
 11
60.8054
 21
37.80969999999999
 31
0.0
  0
LINE
  5
458
330
1E
100
AcDbEntity
  8
0
100
AcDbLine
 10
60.7383
 20
38.05749999999999
 30
0.0
 11
60.7383
 21
78.1962
 31
0.0
  0
LINE
  5
45D
330
1E
100
AcDbEntity
  8
0
  6
Continuous
100
AcDbLine
 10
0.996727
 20
86.1655
 30
0.0
 11
0.661482
 21
86.50350000000001
 31
0.0
  0
LINE
  5
45E
330
1E
100
AcDbEntity
  8
0
  6
Continuous
100
AcDbLine
 10
61.0415
 20
36.14869999999999
 30
0.0
 11
62.76279999999999
 21
3.128840000000009
 31
0.0
  0
LINE
  5
45F
330
1E
100
AcDbEntity
  8
0
  6
Continuous
100
AcDbLine
 10
63.84859999999999
 20
37.4133
 30
0.0
 11
63.84859999999999
 21
36.67
 31
0.0
  0
LINE
  5
460
330
1E
100
AcDbEntity
  8
0
  6
Continuous
100
AcDbLine
 10
63.5884
 20
37.5619
 30
0.0
 11
71.91633898593211
 21
37.5619
 31
0.0
  0
LINE
  5
461
330
1E
100
AcDbEntity
  8
0
  6
Continuous
100
AcDbLine
 10
66.11119999999999
 20
83.3102
 30
0.0
 11
66.7037
 21
83.2319
 31
0.0
  0
LINE
  5
462
330
1E
100
AcDbEntity
  8
0
  6
Continuous
100
AcDbLine
 10
66.7037
 20
83.2319
 30
0.0
 11
85.0
 21
83.23
 31
0.0
  0
LINE
  5
463
330
1E
100
AcDbEntity
  8
0
  6
Continuous
100
AcDbLine
 10
60.7383
 20
78.1962
 30
0.0
 11
70.11667307904753
 21
78.1962
 31
0.0
  0
LINE
  5
464
330
1E
100
AcDbEntity
  8
0
  6
Continuous
100
AcDbLine
 10
71.69629999999999
 20
0.350842000000015
 30
0.0
 11
84.6517
 21
0.087215000000015
 31
0.0
  0
LINE
  5
465
330
1E
100
AcDbEntity
  8
0
  6
Continuous
100
AcDbLine
 10
84.6517
 20
0.087215000000015
 30
0.0
 11
85.0
 21
0.087215000000015
 31
0.0
  0
LINE
  5
468
330
1E
100
AcDbEntity
  8
0
100
AcDbLine
 10
142.0545999999999
 20
98.0178
 30
0.0
 11
119.2429999999999
 21
98.0178
 31
0.0
  0
LINE
  5
469
330
1E
100
AcDbEntity
  8
0
100
AcDbLine
 10
142.4998999999999
 20
84.50940000000001
 30
0.0
 11
116.4249
 21
83.558
 31
0.0
  0
LINE
  5
46A
330
1E
100
AcDbEntity
  8
0
100
AcDbLine
 10
166.56249
 20
98.0178
 30
0.0
 11
164.54302
 21
98.0178
 31
0.0
  0
LINE
  5
46B
330
1E
100
AcDbEntity
  8
0
100
AcDbLine
 10
168.54694
 20
86.01980000000001
 30
0.0
 11
142.4998999999999
 21
84.50940000000001
 31
0.0
  0
LINE
  5
46C
330
1E
100
AcDbEntity
  8
0
100
AcDbLine
 10
168.54694
 20
86.01980000000001
 30
0.0
 11
142.4998999999999
 21
84.50940000000001
 31
0.0
  0
LINE
  5
46D
330
1E
100
AcDbEntity
  8
0
100
AcDbLine
 10
169.4776189999999
 20
86.9574
 30
0.0
 11
169.3385179999999
 21
86.50350000000001
 31
0.0
  0
LINE
  5
46E
330
1E
100
AcDbEntity
  8
0
  6
Continuous
100
AcDbLine
 10
169.003273
 20
86.1655
 30
0.0
 11
169.3385179999999
 21
86.50350000000001
 31
0.0
  0
LINE
  5
46F
330
1E
100
AcDbEntity
  8
0
100
AcDbLine
 10
169.003273
 20
86.1655
 30
0.0
 11
168.54694
 21
86.01980000000001
 31
0.0
  0
LINE
  5
470
330
1E
100
AcDbEntity
  8
0
100
AcDbLine
 10
170.0
 20
98.0178
 30
0.0
 11
169.4776189999999
 21
86.9574
 31
0.0
  0
LINE
  5
471
330
1E
100
AcDbEntity
  8
0
100
AcDbLine
 10
168.51191
 20
98.0178
 30
0.0
 11
167.8964699999999
 21
98.0178
 31
0.0
  0
LINE
  5
472
330
1E
100
AcDbEntity
  8
0
100
AcDbLine
 10
170.0
 20
98.0178
 30
0.0
 11
169.5046389999999
 21
98.0178
 31
0.0
  0
LINE
  5
473
330
1E
100
AcDbEntity
  8
0
100
AcDbLine
 10
169.5046389999999
 20
98.0178
 30
0.0
 11
168.51191
 21
98.0178
 31
0.0
  0
LINE
  5
474
330
1E
100
AcDbEntity
  8
0
100
AcDbLine
 10
167.8964699999999
 20
98.0178
 30
0.0
 11
166.56249
 21
98.0178
 31
0.0
  0
LINE
  5
475
330
1E
100
AcDbEntity
  8
0
100
AcDbLine
 10
154.9809999999999
 20
98.0178
 30
0.0
 11
150.9071
 21
98.0178
 31
0.0
  0
LINE
  5
476
330
1E
100
AcDbEntity
  8
0
100
AcDbLine
 10
158.6737
 20
98.0178
 30
0.0
 11
154.9809999999999
 21
98.0178
 31
0.0
  0
LINE
  5
477
330
1E
100
AcDbEntity
  8
0
100
AcDbLine
 10
161.88908
 20
98.0178
 30
0.0
 11
158.6737
 21
98.0178
 31
0.0
  0
LINE
  5
478
330
1E
100
AcDbEntity
  8
0
100
AcDbLine
 10
164.54302
 20
98.0178
 30
0.0
 11
161.88908
 21
98.0178
 31
0.0
  0
LINE
  5
479
330
1E
100
AcDbEntity
  8
0
100
AcDbLine
 10
146.5609
 20
98.0178
 30
0.0
 11
142.0545999999999
 21
98.0178
 31
0.0
  0
LINE
  5
47A
330
1E
100
AcDbEntity
  8
0
100
AcDbLine
 10
150.9071
 20
98.0178
 30
0.0
 11
146.5609
 21
98.0178
 31
0.0
  0
LINE
  5
47B
330
1E
100
AcDbEntity
  8
0
100
AcDbLine
 10
99.4415
 20
48.4034
 30
0.0
 11
97.4891
 21
32.8147
 31
0.0
  0
LINE
  5
47C
330
1E
100
AcDbEntity
  8
0
100
AcDbLine
 10
109.2616999999999
 20
38.05749999999999
 30
0.0
 11
109.2616999999999
 21
78.1962
 31
0.0
  0
LINE
  5
47D
330
1E
100
AcDbEntity
  8
0
100
AcDbLine
 10
109.2616999999999
 20
78.1962
 30
0.0
 11
109.2616999999999
 21
38.05749999999999
 31
0.0
  0
LINE
  5
47E
330
1E
100
AcDbEntity
  8
0
  6
Continuous
100
AcDbLine
 10
108.9585
 20
36.14869999999999
 30
0.0
 11
107.2372
 21
3.128840000000009
 31
0.0
  0
LINE
  5
47F
330
1E
100
AcDbEntity
  8
0
  6
Continuous
100
AcDbLine
 10
98.30370000000002
 20
0.350842000000015
 30
0.0
 11
85.34829999999999
 21
0.087215000000015
 31
0.0
  0
LINE
  5
480
330
1E
100
AcDbEntity
  8
0
100
AcDbLine
 10
104.9414999999999
 20
0.7889000000000151
 30
0.0
 11
98.30370000000002
 21
0.350842000000015
 31
0.0
  0
LINE
  5
481
330
1E
100
AcDbEntity
  8
0
100
AcDbLine
 10
107.0970999999999
 20
2.432110000000009
 30
0.0
 11
106.7639
 21
1.80278000000001
 31
0.0
  0
LINE
  5
482
330
1E
100
AcDbEntity
  8
0
100
AcDbLine
 10
106.7639
 20
1.80278000000001
 30
0.0
 11
106.2634999999999
 21
1.29336000000001
 31
0.0
  0
LINE
  5
483
330
1E
100
AcDbEntity
  8
0
100
AcDbLine
 10
106.2634999999999
 20
1.29336000000001
 30
0.0
 11
105.6381
 21
0.9464820000000139
 31
0.0
  0
LINE
  5
484
330
1E
100
AcDbEntity
  8
0
100
AcDbLine
 10
105.6381
 20
0.9464820000000139
 30
0.0
 11
104.9414999999999
 21
0.7889000000000151
 31
0.0
  0
LINE
  5
485
330
1E
100
AcDbEntity
  8
0
100
AcDbLine
 10
107.2372
 20
3.128840000000009
 30
0.0
 11
107.0970999999999
 21
2.432110000000009
 31
0.0
  0
LINE
  5
486
330
1E
100
AcDbEntity
  8
0
  6
Continuous
100
AcDbLine
 10
85.34829999999999
 20
0.087215000000015
 30
0.0
 11
85.0
 21
0.087215000000015
 31
0.0
  0
LINE
  5
487
330
1E
100
AcDbEntity
  8
0
100
AcDbLine
 10
85.1191
 20
0.087215000000015
 30
0.0
 11
85.0
 21
0.087215000000015
 31
0.0
  0
LINE
  5
488
330
1E
100
AcDbEntity
  8
0
100
AcDbLine
 10
85.34829999999999
 20
0.087215000000015
 30
0.0
 11
85.1191
 21
0.087215000000015
 31
0.0
  0
LINE
  5
489
330
1E
100
AcDbEntity
  8
0
  6
Continuous
100
AcDbLine
 10
106.4115999999999
 20
37.5619
 30
0.0
 11
98.08366101406789
 21
37.5619
 31
0.0
  0
LINE
  5
48A
330
1E
100
AcDbEntity
  8
0
100
AcDbLine
 10
98.687
 20
36.67
 30
0.0
 11
97.97198728271331
 21
36.67
 31
0.0
  0
LINE
  5
48B
330
1E
100
AcDbEntity
  8
0
100
AcDbLine
 10
105.6149999999999
 20
36.67
 30
0.0
 11
104.2239999999999
 21
36.67
 31
0.0
  0
LINE
  5
48C
330
1E
100
AcDbEntity
  8
0
100
AcDbLine
 10
108.4600999999999
 20
36.67
 30
0.0
 11
108.1779
 21
36.67
 31
0.0
  0
LINE
  5
48D
330
1E
100
AcDbEntity
  8
0
100
AcDbLine
 10
108.274
 20
37.5619
 30
0.0
 11
107.6165
 21
37.5619
 31
0.0
  0
LINE
  5
48E
330
1E
100
AcDbEntity
  8
0
100
AcDbLine
 10
109.2616999999999
 20
38.05749999999999
 30
0.0
 11
109.1946
 21
37.80969999999999
 31
0.0
  0
LINE
  5
48F
330
1E
100
AcDbEntity
  8
0
100
AcDbLine
 10
109.1946
 20
37.80969999999999
 30
0.0
 11
109.0114999999999
 21
37.6283
 31
0.0
  0
LINE
  5
490
330
1E
100
AcDbEntity
  8
0
100
AcDbLine
 10
108.7172999999999
 20
36.5996
 30
0.0
 11
108.4600999999999
 21
36.67
 31
0.0
  0
LINE
  5
491
330
1E
100
AcDbEntity
  8
0
100
AcDbLine
 10
108.6593
 20
37.5619
 30
0.0
 11
108.274
 21
37.5619
 31
0.0
  0
LINE
  5
492
330
1E
100
AcDbEntity
  8
0
100
AcDbLine
 10
109.0114999999999
 20
37.6283
 30
0.0
 11
108.7663
 21
37.5619
 31
0.0
  0
LINE
  5
493
330
1E
100
AcDbEntity
  8
0
100
AcDbLine
 10
108.7663
 20
37.5619
 30
0.0
 11
108.6593
 21
37.5619
 31
0.0
  0
LINE
  5
494
330
1E
100
AcDbEntity
  8
0
100
AcDbLine
 10
108.9013999999999
 20
36.4073
 30
0.0
 11
108.7172999999999
 21
36.5996
 31
0.0
  0
LINE
  5
495
330
1E
100
AcDbEntity
  8
0
100
AcDbLine
 10
108.9585
 20
36.14869999999999
 30
0.0
 11
108.9013999999999
 21
36.4073
 31
0.0
  0
LINE
  5
496
330
1E
100
AcDbEntity
  8
0
100
AcDbLine
 10
106.6948
 20
37.5619
 30
0.0
 11
106.4115999999999
 21
37.5619
 31
0.0
  0
LINE
  5
497
330
1E
100
AcDbEntity
  8
0
100
AcDbLine
 10
106.7469
 20
36.67
 30
0.0
 11
105.6149999999999
 21
36.67
 31
0.0
  0
LINE
  5
498
330
1E
100
AcDbEntity
  8
0
100
AcDbLine
 10
108.1779
 20
36.67
 30
0.0
 11
107.6045
 21
36.67
 31
0.0
  0
LINE
  5
499
330
1E
100
AcDbEntity
  8
0
100
AcDbLine
 10
107.6165
 20
37.5619
 30
0.0
 11
106.6948
 21
37.5619
 31
0.0
  0
LINE
  5
49A
330
1E
100
AcDbEntity
  8
0
100
AcDbLine
 10
107.6045
 20
36.67
 30
0.0
 11
106.7469
 21
36.67
 31
0.0
  0
LINE
  5
49B
330
1E
100
AcDbEntity
  8
0
  6
Continuous
100
AcDbLine
 10
106.1514
 20
37.4133
 30
0.0
 11
106.1514
 21
36.67
 31
0.0
  0
LINE
  5
49C
330
1E
100
AcDbEntity
  8
0
100
AcDbLine
 10
106.4115999999999
 20
37.5619
 30
0.0
 11
106.2615
 21
37.5223
 31
0.0
  0
LINE
  5
49D
330
1E
100
AcDbEntity
  8
0
100
AcDbLine
 10
106.2615
 20
37.5223
 30
0.0
 11
106.1514
 21
37.4133
 31
0.0
  0
LINE
  5
49E
330
1E
100
AcDbEntity
  8
0
100
AcDbLine
 10
102.5918
 20
36.67
 30
0.0
 11
100.7384999999999
 21
36.67
 31
0.0
  0
LINE
  5
49F
330
1E
100
AcDbEntity
  8
0
100
AcDbLine
 10
104.2239999999999
 20
36.67
 30
0.0
 11
102.5918
 21
36.67
 31
0.0
  0
LINE
  5
4A0
330
1E
100
AcDbEntity
  8
0
100
AcDbLine
 10
100.7384999999999
 20
36.67
 30
0.0
 11
98.687
 21
36.67
 31
0.0
  0
LINE
  5
4A1
330
1E
100
AcDbEntity
  8
0
100
AcDbLine
 10
95.4166
 20
22.66699999999999
 30
0.0
 11
95.18739999999999
 21
22.3687
 31
0.0
  0
LINE
  5
4A2
330
1E
100
AcDbEntity
  8
0
100
AcDbLine
 10
92.1682
 20
20.2616
 30
0.0
 11
91.4497
 21
20.0932
 31
0.0
  0
LINE
  5
4A3
330
1E
100
AcDbEntity
  8
0
100
AcDbLine
 10
94.9643
 20
22.09509999999999
 30
0.0
 11
94.7131
 21
21.81859999999999
 31
0.0
  0
LINE
  5
4A4
330
1E
100
AcDbEntity
  8
0
100
AcDbLine
 10
95.18739999999999
 20
22.3687
 30
0.0
 11
94.9643
 21
22.09509999999999
 31
0.0
  0
LINE
  5
4A5
330
1E
100
AcDbEntity
  8
0
100
AcDbLine
 10
93.3901
 20
20.7532
 30
0.0
 11
93.0479
 21
20.58079999999999
 31
0.0
  0
LINE
  5
4A6
330
1E
100
AcDbEntity
  8
0
100
AcDbLine
 10
94.04259999999998
 20
21.18329999999999
 30
0.0
 11
93.7134
 21
20.9613
 31
0.0
  0
LINE
  5
4A7
330
1E
100
AcDbEntity
  8
0
100
AcDbLine
 10
93.7134
 20
20.9613
 30
0.0
 11
93.3901
 21
20.7532
 31
0.0
  0
LINE
  5
4A8
330
1E
100
AcDbEntity
  8
0
100
AcDbLine
 10
94.34079999999999
 20
21.4341
 30
0.0
 11
94.04259999999998
 21
21.18329999999999
 31
0.0
  0
LINE
  5
4A9
330
1E
100
AcDbEntity
  8
0
100
AcDbLine
 10
94.7131
 20
21.81859999999999
 30
0.0
 11
94.34079999999999
 21
21.4341
 31
0.0
  0
LINE
  5
4AA
330
1E
100
AcDbEntity
  8
0
100
AcDbLine
 10
92.8677
 20
20.51239999999999
 30
0.0
 11
92.1682
 21
20.2616
 31
0.0
  0
LINE
  5
4AB
330
1E
100
AcDbEntity
  8
0
100
AcDbLine
 10
93.0479
 20
20.58079999999999
 30
0.0
 11
92.8677
 21
20.51239999999999
 31
0.0
  0
LINE
  5
4AC
330
1E
100
AcDbEntity
  8
0
100
AcDbLine
 10
89.16199999999999
 20
19.81569999999999
 30
0.0
 11
87.77600000000001
 21
19.75519999999999
 31
0.0
  0
LINE
  5
4AD
330
1E
100
AcDbEntity
  8
0
100
AcDbLine
 10
90.54199999999999
 20
19.95039999999999
 30
0.0
 11
89.8525
 21
19.8702
 31
0.0
  0
LINE
  5
4AE
330
1E
100
AcDbEntity
  8
0
100
AcDbLine
 10
91.4497
 20
20.0932
 30
0.0
 11
90.54199999999999
 21
19.95039999999999
 31
0.0
  0
LINE
  5
4AF
330
1E
100
AcDbEntity
  8
0
100
AcDbLine
 10
89.8525
 20
19.8702
 30
0.0
 11
89.16199999999999
 21
19.81569999999999
 31
0.0
  0
LINE
  5
4B0
330
1E
100
AcDbEntity
  8
0
100
AcDbLine
 10
86.8534
 20
19.7374
 30
0.0
 11
85.006
 21
19.77009999999999
 31
0.0
  0
LINE
  5
4B1
330
1E
100
AcDbEntity
  8
0
100
AcDbLine
 10
87.77600000000001
 20
19.75519999999999
 30
0.0
 11
86.8534
 21
19.7374
 31
0.0
  0
LINE
  5
4B2
330
1E
100
AcDbEntity
  8
0
100
AcDbLine
 10
97.2619
 20
31.0466
 30
0.0
 11
97.14590000000001
 21
30.2042
 31
0.0
  0
LINE
  5
4B3
330
1E
100
AcDbEntity
  8
0
100
AcDbLine
 10
96.63249999999999
 20
26.7939
 30
0.0
 11
96.5784
 21
26.446
 31
0.0
  0
LINE
  5
4B4
330
1E
100
AcDbEntity
  8
0
100
AcDbLine
 10
96.1681
 20
24.3627
 30
0.0
 11
96.1081
 21
24.1625
 31
0.0
  0
LINE
  5
4B5
330
1E
100
AcDbEntity
  8
0
100
AcDbLine
 10
96.41630000000001
 20
25.4827
 30
0.0
 11
96.36029999999999
 21
25.1893
 31
0.0
  0
LINE
  5
4B6
330
1E
100
AcDbEntity
  8
0
100
AcDbLine
 10
96.36029999999999
 20
25.1893
 30
0.0
 11
96.3062
 21
24.9257
 31
0.0
  0
LINE
  5
4B7
330
1E
100
AcDbEntity
  8
0
100
AcDbLine
 10
96.23220000000001
 20
24.6056
 30
0.0
 11
96.1681
 21
24.3627
 31
0.0
  0
LINE
  5
4B8
330
1E
100
AcDbEntity
  8
0
100
AcDbLine
 10
96.25520000000001
 20
24.6967
 30
0.0
 11
96.23220000000001
 21
24.6056
 31
0.0
  0
LINE
  5
4B9
330
1E
100
AcDbEntity
  8
0
100
AcDbLine
 10
96.3062
 20
24.9257
 30
0.0
 11
96.25520000000001
 21
24.6967
 31
0.0
  0
LINE
  5
4BA
330
1E
100
AcDbEntity
  8
0
100
AcDbLine
 10
96.47339999999999
 20
25.8067
 30
0.0
 11
96.41630000000001
 21
25.4827
 31
0.0
  0
LINE
  5
4BB
330
1E
100
AcDbEntity
  8
0
100
AcDbLine
 10
96.5784
 20
26.446
 30
0.0
 11
96.52540000000001
 21
26.116
 31
0.0
  0
LINE
  5
4BC
330
1E
100
AcDbEntity
  8
0
100
AcDbLine
 10
96.52540000000001
 20
26.116
 30
0.0
 11
96.47339999999999
 21
25.8067
 31
0.0
  0
LINE
  5
4BD
330
1E
100
AcDbEntity
  8
0
100
AcDbLine
 10
95.6057
 20
22.9376
 30
0.0
 11
95.4166
 21
22.66699999999999
 31
0.0
  0
LINE
  5
4BE
330
1E
100
AcDbEntity
  8
0
100
AcDbLine
 10
95.92699999999998
 20
23.57979999999999
 30
0.0
 11
95.8699
 21
23.42519999999999
 31
0.0
  0
LINE
  5
4BF
330
1E
100
AcDbEntity
  8
0
100
AcDbLine
 10
95.6708
 20
23.0337
 30
0.0
 11
95.6057
 21
22.9376
 31
0.0
  0
LINE
  5
4C0
330
1E
100
AcDbEntity
  8
0
100
AcDbLine
 10
95.81889999999999
 20
23.3142
 30
0.0
 11
95.6708
 21
23.0337
 31
0.0
  0
LINE
  5
4C1
330
1E
100
AcDbEntity
  8
0
100
AcDbLine
 10
95.8699
 20
23.42519999999999
 30
0.0
 11
95.81889999999999
 21
23.3142
 31
0.0
  0
LINE
  5
4C2
330
1E
100
AcDbEntity
  8
0
100
AcDbLine
 10
96.1081
 20
24.1625
 30
0.0
 11
95.92699999999998
 21
23.57979999999999
 31
0.0
  0
LINE
  5
4C3
330
1E
100
AcDbEntity
  8
0
100
AcDbLine
 10
97.0288
 20
29.3974
 30
0.0
 11
96.78982881281141
 21
27.8665909904801
 31
0.0
  0
LINE
  5
4C4
330
1E
100
AcDbEntity
  8
0
100
AcDbLine
 10
97.14590000000001
 20
30.2042
 30
0.0
 11
97.0288
 21
29.3974
 31
0.0
  0
LINE
  5
4C5
330
1E
100
AcDbEntity
  8
0
100
AcDbLine
 10
96.78982881281141
 20
27.8665909904801
 30
0.0
 11
96.7436
 21
27.5401
 31
0.0
  0
LINE
  5
4C6
330
1E
100
AcDbEntity
  8
0
100
AcDbLine
 10
96.78982881281141
 20
27.8665909904801
 30
0.0
 11
96.7436
 21
27.5401
 31
0.0
  0
LINE
  5
4C7
330
1E
100
AcDbEntity
  8
0
100
AcDbLine
 10
96.68750000000001
 20
27.1596
 30
0.0
 11
96.63249999999999
 21
26.7939
 31
0.0
  0
LINE
  5
4C8
330
1E
100
AcDbEntity
  8
0
100
AcDbLine
 10
96.7436
 20
27.5401
 30
0.0
 11
96.68750000000001
 21
27.1596
 31
0.0
  0
LINE
  5
4C9
330
1E
100
AcDbEntity
  8
0
100
AcDbLine
 10
97.376
 20
31.91969999999999
 30
0.0
 11
97.2619
 21
31.0466
 31
0.0
  0
LINE
  5
4CA
330
1E
100
AcDbEntity
  8
0
100
AcDbLine
 10
97.4891
 20
32.8147
 30
0.0
 11
97.376
 21
31.91969999999999
 31
0.0
  0
LINE
  5
4CB
330
1E
100
AcDbEntity
  8
0
100
AcDbLine
 10
119.2429999999999
 20
98.0178
 30
0.0
 11
96.41530000000001
 21
98.0178
 31
0.0
  0
LINE
  5
4CC
330
1E
100
AcDbEntity
  8
0
100
AcDbLine
 10
116.4249
 20
83.558
 30
0.0
 11
103.8888
 21
83.3102
 31
0.0
  0
LINE
  5
4CD
330
1E
100
AcDbEntity
  8
0
100
AcDbLine
 10
111.6433999999999
 20
78.1962
 30
0.0
 11
111.4713
 21
78.1962
 31
0.0
  0
LINE
  5
4CE
330
1E
100
AcDbEntity
  8
0
100
AcDbLine
 10
113.2166
 20
80.7384
 30
0.0
 11
112.1218
 21
78.5441
 31
0.0
  0
LINE
  5
4CF
330
1E
100
AcDbEntity
  8
0
100
AcDbLine
 10
111.9407
 20
78.2924
 30
0.0
 11
111.6433999999999
 21
78.1962
 31
0.0
  0
LINE
  5
4D0
330
1E
100
AcDbEntity
  8
0
100
AcDbLine
 10
112.1218
 20
78.5441
 30
0.0
 11
111.9407
 21
78.2924
 31
0.0
  0
LINE
  5
4D1
330
1E
100
AcDbEntity
  8
0
100
AcDbLine
 10
114.9358
 20
82.4965
 30
0.0
 11
113.2166
 21
80.7384
 31
0.0
  0
LINE
  5
4D2
330
1E
100
AcDbEntity
  8
0
100
AcDbLine
 10
116.9654043864271
 20
83.57257397180921
 30
0.0
 11
114.9358
 21
82.4965
 31
0.0
  0
LINE
  5
4D3
330
1E
100
AcDbEntity
  8
0
100
AcDbLine
 10
117.0050311331167
 20
83.57967256175721
 30
0.0
 11
116.8231999999999
 21
83.5471
 31
0.0
  0
LINE
  5
4D4
330
1E
100
AcDbEntity
  8
0
100
AcDbLine
 10
99.9280772721968
 20
82.1606
 30
0.0
 11
99.56659999999999
 21
50.1376
 31
0.0
  0
LINE
  5
4D5
330
1E
100
AcDbEntity
  8
0
100
AcDbLine
 10
98.36069999999999
 20
49.646
 30
0.0
 11
97.7283
 21
49.646
 31
0.0
  0
LINE
  5
4D6
330
1E
100
AcDbEntity
  8
0
100
AcDbLine
 10
98.48180000000001
 20
48.9594
 30
0.0
 11
98.22259999999999
 21
48.9594
 31
0.0
  0
LINE
  5
4D7
330
1E
100
AcDbEntity
  8
0
100
AcDbLine
 10
99.3194
 20
48.79290000000001
 30
0.0
 11
99.1413
 21
48.9197
 31
0.0
  0
LINE
  5
4D8
330
1E
100
AcDbEntity
  8
0
100
AcDbLine
 10
99.1413
 20
48.9197
 30
0.0
 11
98.94519999999999
 21
48.9594
 31
0.0
  0
LINE
  5
4D9
330
1E
100
AcDbEntity
  8
0
100
AcDbLine
 10
98.94519999999999
 20
48.9594
 30
0.0
 11
98.88110000000001
 21
48.9594
 31
0.0
  0
LINE
  5
4DA
330
1E
100
AcDbEntity
  8
0
100
AcDbLine
 10
98.88110000000001
 20
48.9594
 30
0.0
 11
98.681
 21
48.9594
 31
0.0
  0
LINE
  5
4DB
330
1E
100
AcDbEntity
  8
0
100
AcDbLine
 10
98.7991
 20
49.646
 30
0.0
 11
98.36069999999999
 21
49.646
 31
0.0
  0
LINE
  5
4DC
330
1E
100
AcDbEntity
  8
0
100
AcDbLine
 10
98.681
 20
48.9594
 30
0.0
 11
98.48180000000001
 21
48.9594
 31
0.0
  0
LINE
  5
4DD
330
1E
100
AcDbEntity
  8
0
100
AcDbLine
 10
98.93720000000001
 20
48.9594
 30
0.0
 11
98.88110000000001
 21
48.9594
 31
0.0
  0
LINE
  5
4DE
330
1E
100
AcDbEntity
  8
0
100
AcDbLine
 10
99.31440000000002
 20
49.7124
 30
0.0
 11
99.06629999999999
 21
49.646
 31
0.0
  0
LINE
  5
4DF
330
1E
100
AcDbEntity
  8
0
100
AcDbLine
 10
99.0352
 20
49.646
 30
0.0
 11
98.7991
 21
49.646
 31
0.0
  0
LINE
  5
4E0
330
1E
100
AcDbEntity
  8
0
100
AcDbLine
 10
99.4255
 20
48.6016
 30
0.0
 11
99.3194
 21
48.79290000000001
 31
0.0
  0
LINE
  5
4E1
330
1E
100
AcDbEntity
  8
0
100
AcDbLine
 10
99.56659999999999
 20
50.1376
 30
0.0
 11
99.49760000000001
 21
49.89180000000001
 31
0.0
  0
LINE
  5
4E2
330
1E
100
AcDbEntity
  8
0
100
AcDbLine
 10
99.49760000000001
 20
49.89180000000001
 30
0.0
 11
99.31440000000002
 21
49.7124
 31
0.0
  0
LINE
  5
4E3
330
1E
100
AcDbEntity
  8
0
100
AcDbLine
 10
99.4415
 20
48.4034
 30
0.0
 11
99.4255
 21
48.6016
 31
0.0
  0
LINE
  5
4E4
330
1E
100
AcDbEntity
  8
0
100
AcDbLine
 10
91.9861
 20
49.646
 30
0.0
 11
90.57210000000001
 21
49.646
 31
0.0
  0
LINE
  5
4E5
330
1E
100
AcDbEntity
  8
0
100
AcDbLine
 10
92.7246
 20
48.9594
 30
0.0
 11
91.54580000000001
 21
48.9594
 31
0.0
  0
LINE
  5
4E6
330
1E
100
AcDbEntity
  8
0
100
AcDbLine
 10
95.42559999999999
 20
49.646
 30
0.0
 11
94.43389999999999
 21
49.646
 31
0.0
  0
LINE
  5
4E7
330
1E
100
AcDbEntity
  8
0
100
AcDbLine
 10
95.77290000000001
 20
48.9594
 30
0.0
 11
94.8492
 21
48.9594
 31
0.0
  0
LINE
  5
4E8
330
1E
100
AcDbEntity
  8
0
100
AcDbLine
 10
96.85960000000001
 20
49.646
 30
0.0
 11
96.2392
 21
49.646
 31
0.0
  0
LINE
  5
4E9
330
1E
100
AcDbEntity
  8
0
100
AcDbLine
 10
97.298
 20
48.9594
 30
0.0
 11
96.5905
 21
48.9594
 31
0.0
  0
LINE
  5
4EA
330
1E
100
AcDbEntity
  8
0
100
AcDbLine
 10
97.7283
 20
49.646
 30
0.0
 11
96.9857
 21
49.646
 31
0.0
  0
LINE
  5
4EB
330
1E
100
AcDbEntity
  8
0
100
AcDbLine
 10
96.9857
 20
49.646
 30
0.0
 11
96.9857
 21
48.9594
 31
0.0
  0
LINE
  5
4EC
330
1E
100
AcDbEntity
  8
0
100
AcDbLine
 10
97.26090000000001
 20
49.646
 30
0.0
 11
96.9857
 21
49.646
 31
0.0
  0
LINE
  5
4ED
330
1E
100
AcDbEntity
  8
0
100
AcDbLine
 10
97.27800000000002
 20
49.646
 30
0.0
 11
96.85960000000001
 21
49.646
 31
0.0
  0
LINE
  5
4EE
330
1E
100
AcDbEntity
  8
0
100
AcDbLine
 10
97.4801
 20
49.646
 30
0.0
 11
97.26090000000001
 21
49.646
 31
0.0
  0
LINE
  5
4EF
330
1E
100
AcDbEntity
  8
0
100
AcDbLine
 10
97.48609999999999
 20
49.646
 30
0.0
 11
97.27800000000002
 21
49.646
 31
0.0
  0
LINE
  5
4F0
330
1E
100
AcDbEntity
  8
0
100
AcDbLine
 10
96.9857
 20
48.9594
 30
0.0
 11
96.9857
 21
49.646
 31
0.0
  0
LINE
  5
4F1
330
1E
100
AcDbEntity
  8
0
100
AcDbLine
 10
97.9054
 20
48.9594
 30
0.0
 11
97.298
 21
48.9594
 31
0.0
  0
LINE
  5
4F2
330
1E
100
AcDbEntity
  8
0
100
AcDbLine
 10
98.22259999999999
 20
48.9594
 30
0.0
 11
97.9054
 21
48.9594
 31
0.0
  0
LINE
  5
4F3
330
1E
100
AcDbEntity
  8
0
100
AcDbLine
 10
96.2392
 20
49.646
 30
0.0
 11
95.42559999999999
 21
49.646
 31
0.0
  0
LINE
  5
4F4
330
1E
100
AcDbEntity
  8
0
100
AcDbLine
 10
96.5905
 20
48.9594
 30
0.0
 11
95.77290000000001
 21
48.9594
 31
0.0
  0
LINE
  5
4F5
330
1E
100
AcDbEntity
  8
0
100
AcDbLine
 10
94.43389999999999
 20
49.646
 30
0.0
 11
93.281
 21
49.646
 31
0.0
  0
LINE
  5
4F6
330
1E
100
AcDbEntity
  8
0
100
AcDbLine
 10
93.8274
 20
48.9594
 30
0.0
 11
92.7246
 21
48.9594
 31
0.0
  0
LINE
  5
4F7
330
1E
100
AcDbEntity
  8
0
100
AcDbLine
 10
94.8492
 20
48.9594
 30
0.0
 11
93.8274
 21
48.9594
 31
0.0
  0
LINE
  5
4F8
330
1E
100
AcDbEntity
  8
0
100
AcDbLine
 10
93.281
 20
49.646
 30
0.0
 11
91.9861
 21
49.646
 31
0.0
  0
LINE
  5
4F9
330
1E
100
AcDbEntity
  8
0
100
AcDbLine
 10
89.06299999999999
 20
49.646
 30
0.0
 11
87.4838
 21
49.646
 31
0.0
  0
LINE
  5
4FA
330
1E
100
AcDbEntity
  8
0
100
AcDbLine
 10
89.00589999999999
 20
48.9594
 30
0.0
 11
87.67700000000001
 21
48.9594
 31
0.0
  0
LINE
  5
4FB
330
1E
100
AcDbEntity
  8
0
100
AcDbLine
 10
90.57210000000001
 20
49.646
 30
0.0
 11
89.06299999999999
 21
49.646
 31
0.0
  0
LINE
  5
4FC
330
1E
100
AcDbEntity
  8
0
100
AcDbLine
 10
90.2979
 20
48.9594
 30
0.0
 11
89.00589999999999
 21
48.9594
 31
0.0
  0
LINE
  5
4FD
330
1E
100
AcDbEntity
  8
0
100
AcDbLine
 10
91.54580000000001
 20
48.9594
 30
0.0
 11
90.2979
 21
48.9594
 31
0.0
  0
LINE
  5
4FE
330
1E
100
AcDbEntity
  8
0
100
AcDbLine
 10
87.4838
 20
49.646
 30
0.0
 11
85.86260000000001
 21
49.646
 31
0.0
  0
LINE
  5
4FF
330
1E
100
AcDbEntity
  8
0
100
AcDbLine
 10
87.67700000000001
 20
48.9594
 30
0.0
 11
86.317
 21
48.9594
 31
0.0
  0
LINE
  5
500
330
1E
100
AcDbEntity
  8
0
100
AcDbLine
 10
86.1118
 20
49.646
 30
0.0
 11
85.0
 21
49.646
 31
0.0
  0
LINE
  5
501
330
1E
100
AcDbEntity
  8
0
100
AcDbLine
 10
85.86260000000001
 20
49.646
 30
0.0
 11
85.0
 21
49.646
 31
0.0
  0
LINE
  5
502
330
1E
100
AcDbEntity
  8
0
100
AcDbLine
 10
86.317
 20
48.9594
 30
0.0
 11
85.0
 21
48.9594
 31
0.0
  0
LINE
  5
503
330
1E
100
AcDbEntity
  8
0
  6
Continuous
100
AcDbLine
 10
103.2963
 20
83.2319
 30
0.0
 11
85.0
 21
83.23
 31
0.0
  0
LINE
  5
504
330
1E
100
AcDbEntity
  8
0
  6
Continuous
100
AcDbLine
 10
109.2616999999999
 20
78.1962
 30
0.0
 11
99.88332692095248
 21
78.1962
 31
0.0
  0
LINE
  5
505
330
1E
100
AcDbEntity
  8
0
100
AcDbLine
 10
110.9649
 20
78.1962
 30
0.0
 11
109.7119999999999
 21
78.1962
 31
0.0
  0
LINE
  5
506
330
1E
100
AcDbEntity
  8
0
100
AcDbLine
 10
111.4713
 20
78.1962
 30
0.0
 11
110.9649
 21
78.1962
 31
0.0
  0
LINE
  5
507
330
1E
100
AcDbEntity
  8
0
100
AcDbLine
 10
109.7119999999999
 20
78.1962
 30
0.0
 11
109.2616999999999
 21
78.1962
 31
0.0
  0
LINE
  5
508
330
1E
100
AcDbEntity
  8
0
100
AcDbLine
 10
102.0203999999999
 20
82.1606
 30
0.0
 11
101.463
 21
82.1606
 31
0.0
  0
LINE
  5
509
330
1E
100
AcDbEntity
  8
0
100
AcDbLine
 10
103.2963
 20
83.2319
 30
0.0
 11
102.6399
 21
82.4192
 31
0.0
  0
LINE
  5
50A
330
1E
100
AcDbEntity
  8
0
100
AcDbLine
 10
102.6399
 20
82.4192
 30
0.0
 11
102.4556999999999
 21
82.2309
 31
0.0
  0
LINE
  5
50B
330
1E
100
AcDbEntity
  8
0
100
AcDbLine
 10
102.4556999999999
 20
82.2309
 30
0.0
 11
102.1994999999999
 21
82.1606
 31
0.0
  0
LINE
  5
50C
330
1E
100
AcDbEntity
  8
0
100
AcDbLine
 10
102.1994999999999
 20
82.1606
 30
0.0
 11
102.0203999999999
 21
82.1606
 31
0.0
  0
LINE
  5
50D
330
1E
100
AcDbEntity
  8
0
  6
Continuous
100
AcDbLine
 10
103.8888
 20
83.3102
 30
0.0
 11
103.2963
 21
83.2319
 31
0.0
  0
LINE
  5
50E
330
1E
100
AcDbEntity
  8
0
100
AcDbLine
 10
100.5403
 20
82.1606
 30
0.0
 11
99.9280772721968
 21
82.1606
 31
0.0
  0
LINE
  5
50F
330
1E
100
AcDbEntity
  8
0
100
AcDbLine
 10
101.463
 20
82.1606
 30
0.0
 11
100.5403
 21
82.1606
 31
0.0
  0
LINE
  5
510
330
1E
100
AcDbEntity
  8
0
100
AcDbLine
 10
96.41530000000001
 20
98.0178
 30
0.0
 11
85.0
 21
98.0178
 31
0.0
  0
ENDSEC
  0
SECTION
  2
OBJECTS
  0
DICTIONARY
  5
C
330
0
100
AcDbDictionary
281
     1
  3
ACAD_GROUP
350
D
  3
ACAD_LAYOUT
350
19
  3
ACAD_MLINESTYLE
350
16
  3
ACAD_PLOTSETTINGS
350
18
  3
ACAD_PLOTSTYLENAME
350
E
  3
AcDbVariableDictionary
350
512
  0
DICTIONARY
  5
D
102
{ACAD_REACTORS
330
C
102
}
330
C
100
AcDbDictionary
281
     1
  0
DICTIONARY
  5
19
102
{ACAD_REACTORS
330
C
102
}
330
C
100
AcDbDictionary
281
     1
  3
Layout1
350
1D
  3
Model
350
21
  0
DICTIONARY
  5
16
102
{ACAD_REACTORS
330
C
102
}
330
C
100
AcDbDictionary
281
     1
  3
Standard
350
17
  0
DICTIONARY
  5
18
102
{ACAD_REACTORS
330
C
102
}
330
C
100
AcDbDictionary
281
     1
  0
ACDBDICTIONARYWDFLT
  5
E
102
{ACAD_REACTORS
330
C
102
}
330
C
100
AcDbDictionary
281
     1
  3
Normal
350
F
100
AcDbDictionaryWithDefault
340
F
  0
DICTIONARY
  5
512
102
{ACAD_REACTORS
330
C
102
}
330
C
100
AcDbDictionary
281
     1
  3
DIMASSOC
350
513
  0
LAYOUT
  5
1D
102
{ACAD_REACTORS
330
19
102
}
330
19
100
AcDbPlotSettings
  1

  2
C:\Programme\AutoCAD LT 2002 Deu\plotters\DWF ePlot (optimized for plotting).pc3
  4

  6

 40
0.0
 41
0.0
 42
0.0
 43
0.0
 44
0.0
 45
0.0
 46
0.0
 47
0.0
 48
0.0
 49
0.0
140
0.0
141
0.0
142
1.0
143
1.0
 70
   688
 72
     0
 73
     0
 74
     5
  7

 75
    16
147
1.0
148
0.0
149
0.0
100
AcDbLayout
  1
Layout1
 70
     1
 71
     1
 10
0.0
 20
0.0
 11
12.0
 21
9.0
 12
0.0
 22
0.0
 32
0.0
 14
1.000000000000000E+20
 24
1.000000000000000E+20
 34
1.000000000000000E+20
 15
-1.000000000000000E+20
 25
-1.000000000000000E+20
 35
-1.000000000000000E+20
146
0.0
 13
0.0
 23
0.0
 33
0.0
 16
1.0
 26
0.0
 36
0.0
 17
0.0
 27
1.0
 37
0.0
 76
     0
330
1A
  0
LAYOUT
  5
21
102
{ACAD_REACTORS
330
19
102
}
330
19
100
AcDbPlotSettings
  1

  2
C:\Programme\AutoCAD LT 2002 Deu\plotters\DWF ePlot (optimized for plotting).pc3
  4

  6

 40
0.0
 41
0.0
 42
0.0
 43
0.0
 44
0.0
 45
0.0
 46
0.0
 47
0.0
 48
0.0
 49
0.0
140
0.0
141
0.0
142
1.0
143
1.0
 70
  1712
 72
     0
 73
     0
 74
     0
  7

 75
     0
147
1.0
148
0.0
149
0.0
100
AcDbLayout
  1
Model
 70
     1
 71
     0
 10
0.0
 20
0.0
 11
12.0
 21
9.0
 12
0.0
 22
0.0
 32
0.0
 14
0.0
 24
0.0
 34
0.0
 15
0.0
 25
0.0
 35
0.0
146
0.0
 13
0.0
 23
0.0
 33
0.0
 16
1.0
 26
0.0
 36
0.0
 17
0.0
 27
1.0
 37
0.0
 76
     0
330
1E
  0
MLINESTYLE
  5
17
102
{ACAD_REACTORS
330
16
102
}
330
16
100
AcDbMlineStyle
  2
STANDARD
 70
     0
  3

 62
   256
 51
90.0
 52
90.0
 71
     2
 49
0.5
 62
   256
  6
BYLAYER
 49
-0.5
 62
   256
  6
BYLAYER
  0
ACDBPLACEHOLDER
  5
F
102
{ACAD_REACTORS
330
E
102
}
330
E
  0
DICTIONARYVAR
  5
513
102
{ACAD_REACTORS
330
512
102
}
330
512
100
DictionaryVariables
280
     0
  1
1
  0
ENDSEC
  0
EOF
