  0
SECTION
  2
HEADER
  9
$ACADVER
  1
AC1015
  9
$ACADMAINTVER
 70
    13
  9
$DWGCODEPAGE
  3
ANSI_1252
  9
$INSBASE
 10
0.0
 20
0.0
 30
0.0
  9
$EXTMIN
 10
0.0
 20
-0.000000000000006
 30
0.0
  9
$EXTMAX
 10
170.0
 20
170.0
 30
0.0
  9
$LIMMIN
 10
0.0
 20
0.0
  9
$LIMMAX
 10
12.0
 20
9.0
  9
$ORTHOMODE
 70
     0
  9
$REGENMODE
 70
     1
  9
$FILLMODE
 70
     1
  9
$QTEXTMODE
 70
     0
  9
$MIRRTEXT
 70
     1
  9
$LTSCALE
 40
1.0
  9
$ATTMODE
 70
     1
  9
$TEXTSIZE
 40
0.2
  9
$TRACEWID
 40
0.05
  9
$TEXTSTYLE
  7
Standard
  9
$CLAYER
  8
0
  9
$CELTYPE
  6
Continuous
  9
$CECOLOR
 62
   256
  9
$CELTSCALE
 40
1.0
  9
$DISPSILH
 70
     0
  9
$DIMSCALE
 40
1.0
  9
$DIMASZ
 40
0.18
  9
$DIMEXO
 40
0.0625
  9
$DIMDLI
 40
0.38
  9
$DIMRND
 40
0.0
  9
$DIMDLE
 40
0.0
  9
$DIMEXE
 40
0.18
  9
$DIMTP
 40
0.0
  9
$DIMTM
 40
0.0
  9
$DIMTXT
 40
0.18
  9
$DIMCEN
 40
0.09
  9
$DIMTSZ
 40
0.0
  9
$DIMTOL
 70
     0
  9
$DIMLIM
 70
     0
  9
$DIMTIH
 70
     1
  9
$DIMTOH
 70
     1
  9
$DIMSE1
 70
     0
  9
$DIMSE2
 70
     0
  9
$DIMTAD
 70
     0
  9
$DIMZIN
 70
     0
  9
$DIMBLK
  1

  9
$DIMASO
 70
     1
  9
$DIMSHO
 70
     1
  9
$DIMPOST
  1

  9
$DIMAPOST
  1

  9
$DIMALT
 70
     0
  9
$DIMALTD
 70
     2
  9
$DIMALTF
 40
25.4
  9
$DIMLFAC
 40
1.0
  9
$DIMTOFL
 70
     0
  9
$DIMTVP
 40
0.0
  9
$DIMTIX
 70
     0
  9
$DIMSOXD
 70
     0
  9
$DIMSAH
 70
     0
  9
$DIMBLK1
  1

  9
$DIMBLK2
  1

  9
$DIMSTYLE
  2
Standard
  9
$DIMCLRD
 70
     0
  9
$DIMCLRE
 70
     0
  9
$DIMCLRT
 70
     0
  9
$DIMTFAC
 40
1.0
  9
$DIMGAP
 40
0.09
  9
$DIMJUST
 70
     0
  9
$DIMSD1
 70
     0
  9
$DIMSD2
 70
     0
  9
$DIMTOLJ
 70
     1
  9
$DIMTZIN
 70
     0
  9
$DIMALTZ
 70
     0
  9
$DIMALTTZ
 70
     0
  9
$DIMUPT
 70
     0
  9
$DIMDEC
 70
     4
  9
$DIMTDEC
 70
     4
  9
$DIMALTU
 70
     2
  9
$DIMALTTD
 70
     2
  9
$DIMTXSTY
  7
Standard
  9
$DIMAUNIT
 70
     0
  9
$DIMADEC
 70
     0
  9
$DIMALTRND
 40
0.0
  9
$DIMAZIN
 70
     0
  9
$DIMDSEP
 70
    46
  9
$DIMATFIT
 70
     3
  9
$DIMFRAC
 70
     0
  9
$DIMLDRBLK
  1

  9
$DIMLUNIT
 70
     2
  9
$DIMLWD
 70
    -2
  9
$DIMLWE
 70
    -2
  9
$DIMTMOVE
 70
     0
  9
$LUNITS
 70
     2
  9
$LUPREC
 70
     4
  9
$SKETCHINC
 40
0.1
  9
$FILLETRAD
 40
0.0
  9
$AUNITS
 70
     0
  9
$AUPREC
 70
     0
  9
$MENU
  1
.
  9
$ELEVATION
 40
0.0
  9
$PELEVATION
 40
0.0
  9
$THICKNESS
 40
0.0
  9
$LIMCHECK
 70
     0
  9
$CHAMFERA
 40
0.0
  9
$CHAMFERB
 40
0.0
  9
$CHAMFERC
 40
0.0
  9
$CHAMFERD
 40
0.0
  9
$SKPOLY
 70
     0
  9
$TDCREATE
 40
2455509.552465278
  9
$TDUCREATE
 40
2455509.510798611
  9
$TDUPDATE
 40
2455509.556969756
  9
$TDUUPDATE
 40
2455509.515303090
  9
$TDINDWG
 40
0.0045044792
  9
$TDUSRTIMER
 40
0.0045044792
  9
$USRTIMER
 70
     1
  9
$ANGBASE
 50
0.0
  9
$ANGDIR
 70
     0
  9
$PDMODE
 70
     0
  9
$PDSIZE
 40
0.0
  9
$PLINEWID
 40
0.0
  9
$SPLFRAME
 70
     0
  9
$SPLINETYPE
 70
     6
  9
$SPLINESEGS
 70
     8
  9
$HANDSEED
  5
369
  9
$SURFTAB1
 70
     6
  9
$SURFTAB2
 70
     6
  9
$SURFTYPE
 70
     6
  9
$SURFU
 70
     6
  9
$SURFV
 70
     6
  9
$UCSBASE
  2

  9
$UCSNAME
  2

  9
$UCSORG
 10
0.0
 20
0.0
 30
0.0
  9
$UCSXDIR
 10
1.0
 20
0.0
 30
0.0
  9
$UCSYDIR
 10
0.0
 20
1.0
 30
0.0
  9
$UCSORTHOREF
  2

  9
$UCSORTHOVIEW
 70
     1
  9
$UCSORGTOP
 10
0.0
 20
0.0
 30
0.0
  9
$UCSORGBOTTOM
 10
0.0
 20
0.0
 30
0.0
  9
$UCSORGLEFT
 10
0.0
 20
0.0
 30
0.0
  9
$UCSORGRIGHT
 10
0.0
 20
0.0
 30
0.0
  9
$UCSORGFRONT
 10
0.0
 20
0.0
 30
0.0
  9
$UCSORGBACK
 10
0.0
 20
0.0
 30
0.0
  9
$PUCSBASE
  2

  9
$PUCSNAME
  2

  9
$PUCSORG
 10
0.0
 20
0.0
 30
0.0
  9
$PUCSXDIR
 10
1.0
 20
0.0
 30
0.0
  9
$PUCSYDIR
 10
0.0
 20
1.0
 30
0.0
  9
$PUCSORTHOREF
  2

  9
$PUCSORTHOVIEW
 70
     0
  9
$PUCSORGTOP
 10
0.0
 20
0.0
 30
0.0
  9
$PUCSORGBOTTOM
 10
0.0
 20
0.0
 30
0.0
  9
$PUCSORGLEFT
 10
0.0
 20
0.0
 30
0.0
  9
$PUCSORGRIGHT
 10
0.0
 20
0.0
 30
0.0
  9
$PUCSORGFRONT
 10
0.0
 20
0.0
 30
0.0
  9
$PUCSORGBACK
 10
0.0
 20
0.0
 30
0.0
  9
$USERI1
 70
     0
  9
$USERI2
 70
     0
  9
$USERI3
 70
     0
  9
$USERI4
 70
     0
  9
$USERI5
 70
     0
  9
$USERR1
 40
0.0
  9
$USERR2
 40
0.0
  9
$USERR3
 40
0.0
  9
$USERR4
 40
0.0
  9
$USERR5
 40
0.0
  9
$WORLDVIEW
 70
     1
  9
$SHADEDGE
 70
     3
  9
$SHADEDIF
 70
    70
  9
$TILEMODE
 70
     1
  9
$MAXACTVP
 70
    64
  9
$PINSBASE
 10
0.0
 20
0.0
 30
0.0
  9
$PLIMCHECK
 70
     0
  9
$PEXTMIN
 10
1.000000000000000E+20
 20
1.000000000000000E+20
 30
1.000000000000000E+20
  9
$PEXTMAX
 10
-1.000000000000000E+20
 20
-1.000000000000000E+20
 30
-1.000000000000000E+20
  9
$PLIMMIN
 10
0.0
 20
0.0
  9
$PLIMMAX
 10
12.0
 20
9.0
  9
$UNITMODE
 70
     0
  9
$VISRETAIN
 70
     1
  9
$PLINEGEN
 70
     0
  9
$PSLTSCALE
 70
     1
  9
$TREEDEPTH
 70
  3020
  9
$CMLSTYLE
  2
Standard
  9
$CMLJUST
 70
     0
  9
$CMLSCALE
 40
1.0
  9
$PROXYGRAPHICS
 70
     1
  9
$MEASUREMENT
 70
     0
  9
$CELWEIGHT
370
    -1
  9
$ENDCAPS
280
     0
  9
$JOINSTYLE
280
     0
  9
$LWDISPLAY
290
     0
  9
$INSUNITS
 70
     0
  9
$HYPERLINKBASE
  1

  9
$STYLESHEET
  1

  9
$XEDIT
290
     1
  9
$CEPSNTYPE
380
     0
  9
$PSTYLEMODE
290
     1
  9
$FINGERPRINTGUID
  2
{3EBDBBC5-1B58-4FDF-90C9-C08C3715FE1E}
  9
$VERSIONGUID
  2
{2B52833C-E85B-411A-B80F-B76E0FAF6110}
  9
$EXTNAMES
290
     1
  9
$PSVPSCALE
 40
0.0
  9
$OLESTARTUP
290
     0
  0
ENDSEC
  0
SECTION
  2
CLASSES
  0
CLASS
  1
ACDBDICTIONARYWDFLT
  2
AcDbDictionaryWithDefault
  3
AutoCAD 2000
 90
        0
280
     0
281
     0
  0
CLASS
  1
ACDBPLACEHOLDER
  2
AcDbPlaceHolder
  3
AutoCAD 2000
 90
        0
280
     0
281
     0
  0
CLASS
  1
LAYOUT
  2
AcDbLayout
  3
AutoCAD 2000
 90
        0
280
     0
281
     0
  0
CLASS
  1
DICTIONARYVAR
  2
AcDbDictionaryVar
  3
AutoCAD 2000
 90
        0
280
     0
281
     0
  0
ENDSEC
  0
SECTION
  2
TABLES
  0
TABLE
  2
VPORT
  5
8
330
0
100
AcDbSymbolTable
 70
     7
  0
VPORT
  5
368
330
8
100
AcDbSymbolTableRecord
100
AcDbViewportTableRecord
  2
*Active
 70
     0
 10
0.0
 20
0.0
 11
1.0
 21
1.0
 12
85.0
 22
85.0
 13
0.0
 23
0.0
 14
1.0
 24
1.0
 15
0.0
 25
0.0
 16
0.0
 26
0.0
 36
1.0
 17
0.0
 27
0.0
 37
0.0
 40
171.1499436302142
 41
2.073363431151241
 42
50.0
 43
0.0
 44
0.0
 50
0.0
 51
0.0
 71
     0
 72
   100
 73
     1
 74
     3
 75
     0
 76
     0
 77
     0
 78
     0
281
     0
 65
     1
110
0.0
120
0.0
130
0.0
111
1.0
121
0.0
131
0.0
112
0.0
122
1.0
132
0.0
 79
     1
146
0.0
  0
ENDTAB
  0
TABLE
  2
LTYPE
  5
5
330
0
100
AcDbSymbolTable
 70
     1
  0
LTYPE
  5
13
330
5
100
AcDbSymbolTableRecord
100
AcDbLinetypeTableRecord
  2
ByBlock
 70
     0
  3

 72
    65
 73
     0
 40
0.0
  0
LTYPE
  5
14
330
5
100
AcDbSymbolTableRecord
100
AcDbLinetypeTableRecord
  2
ByLayer
 70
     0
  3

 72
    65
 73
     0
 40
0.0
  0
LTYPE
  5
15
330
5
100
AcDbSymbolTableRecord
100
AcDbLinetypeTableRecord
  2
Continuous
 70
     0
  3
Solid line
 72
    65
 73
     0
 40
0.0
  0
ENDTAB
  0
TABLE
  2
LAYER
  5
2
330
0
100
AcDbSymbolTable
 70
     1
  0
LAYER
  5
10
330
2
100
AcDbSymbolTableRecord
100
AcDbLayerTableRecord
  2
0
 70
     0
 62
     7
  6
Continuous
370
    -3
390
F
  0
ENDTAB
  0
TABLE
  2
STYLE
  5
3
330
0
100
AcDbSymbolTable
 70
     1
  0
STYLE
  5
11
330
3
100
AcDbSymbolTableRecord
100
AcDbTextStyleTableRecord
  2
Standard
 70
     0
 40
0.0
 41
1.0
 50
0.0
 71
     0
 42
0.2
  3
txt
  4

  0
ENDTAB
  0
TABLE
  2
VIEW
  5
6
330
0
100
AcDbSymbolTable
 70
     0
  0
ENDTAB
  0
TABLE
  2
UCS
  5
7
330
0
100
AcDbSymbolTable
 70
     0
  0
ENDTAB
  0
TABLE
  2
APPID
  5
9
330
0
100
AcDbSymbolTable
 70
     1
  0
APPID
  5
12
330
9
100
AcDbSymbolTableRecord
100
AcDbRegAppTableRecord
  2
ACAD
 70
     0
  0
ENDTAB
  0
TABLE
  2
DIMSTYLE
  5
A
330
0
100
AcDbSymbolTable
 70
     1
100
AcDbDimStyleTable
 71
     0
  0
DIMSTYLE
105
2C8
330
A
100
AcDbSymbolTableRecord
100
AcDbDimStyleTableRecord
  2
Standard
 70
     0
340
11
  0
ENDTAB
  0
TABLE
  2
BLOCK_RECORD
  5
1
330
0
100
AcDbSymbolTable
 70
     0
  0
BLOCK_RECORD
  5
1E
330
1
100
AcDbSymbolTableRecord
100
AcDbBlockTableRecord
  2
*Model_Space
340
21
  0
BLOCK_RECORD
  5
1A
330
1
100
AcDbSymbolTableRecord
100
AcDbBlockTableRecord
  2
*Paper_Space
340
1D
  0
ENDTAB
  0
ENDSEC
  0
SECTION
  2
BLOCKS
  0
BLOCK
  5
1F
330
1E
100
AcDbEntity
  8
0
100
AcDbBlockBegin
  2
*Model_Space
 70
     0
 10
0.0
 20
0.0
 30
0.0
  3
*Model_Space
  1

  0
ENDBLK
  5
20
330
1E
100
AcDbEntity
  8
0
100
AcDbBlockEnd
  0
BLOCK
  5
1B
330
1A
100
AcDbEntity
 67
     1
  8
0
100
AcDbBlockBegin
  2
*Paper_Space
 70
     0
 10
0.0
 20
0.0
 30
0.0
  3
*Paper_Space
  1

  0
ENDBLK
  5
1C
330
1A
100
AcDbEntity
 67
     1
  8
0
100
AcDbBlockEnd
  0
ENDSEC
  0
SECTION
  2
ENTITIES
  0
LINE
  5
24
330
1E
100
AcDbEntity
  8
0
100
AcDbLine
 10
2.101529999999999
 20
23.4841
 30
0.0
 11
3.43751
 21
19.1382
 31
0.0
  0
LINE
  5
2A
330
1E
100
AcDbEntity
  8
0
100
AcDbLine
 10
54.0024
 20
0.446191999999994
 30
0.0
 11
85.0
 21
-0.000000000000006
 31
0.0
  0
LINE
  5
2B
330
1E
100
AcDbEntity
  8
0
100
AcDbLine
 10
54.0024
 20
0.446191999999994
 30
0.0
 11
85.0
 21
-0.000000000000006
 31
0.0
  0
LINE
  5
2C
330
1E
100
AcDbEntity
  8
0
100
AcDbLine
 10
27.9454
 20
1.538659999999989
 30
0.0
 11
54.0024
 21
0.446191999999994
 31
0.0
  0
LINE
  5
2F
330
1E
100
AcDbEntity
  8
0
100
AcDbLine
 10
23.4391
 20
2.152919999999989
 30
0.0
 11
27.9454
 21
1.538659999999989
 31
0.0
  0
LINE
  5
32
330
1E
100
AcDbEntity
  8
0
100
AcDbLine
 10
19.0939
 20
3.48649999999999
 30
0.0
 11
23.4391
 21
2.152919999999989
 31
0.0
  0
LINE
  5
33
330
1E
100
AcDbEntity
  8
0
100
AcDbLine
 10
15.019
 20
5.50736999999999
 30
0.0
 11
19.0939
 21
3.48649999999999
 31
0.0
  0
LINE
  5
34
330
1E
100
AcDbEntity
  8
0
100
AcDbLine
 10
5.45698
 20
15.0665
 30
0.0
 11
8.11092
 21
11.3749
 31
0.0
  0
LINE
  5
35
330
1E
100
AcDbEntity
  8
0
100
AcDbLine
 10
8.11092
 20
11.3749
 30
0.0
 11
11.3253
 21
8.158499999999991
 31
0.0
  0
LINE
  5
3D
330
1E
100
AcDbEntity
  8
0
100
AcDbLine
 10
11.3253
 20
8.158499999999991
 30
0.0
 11
15.019
 21
5.50736999999999
 31
0.0
  0
LINE
  5
3E
330
1E
100
AcDbEntity
  8
0
100
AcDbLine
 10
3.43751
 20
19.1382
 30
0.0
 11
5.45698
 21
15.0665
 31
0.0
  0
LINE
  5
45
330
1E
100
AcDbEntity
  8
0
100
AcDbLine
 10
81.09720000000001
 20
27.34669999999999
 30
0.0
 11
83.77209999999999
 21
27.0596
 31
0.0
  0
LINE
  5
48
330
1E
100
AcDbEntity
  8
0
100
AcDbLine
 10
1.488089999999999
 20
27.988
 30
0.0
 11
2.101529999999999
 21
23.4841
 31
0.0
  0
LINE
  5
4C
330
1E
100
AcDbEntity
  8
0
100
AcDbLine
 10
0.495361
 20
50.7928
 30
0.0
 11
1.488089999999999
 21
27.988
 31
0.0
  0
LINE
  5
4D
330
1E
100
AcDbEntity
  8
0
100
AcDbLine
 10
0.495361
 20
50.7928
 30
0.0
 11
1.488089999999999
 21
27.988
 31
0.0
  0
LINE
  5
4E
330
1E
100
AcDbEntity
  8
0
100
AcDbLine
 10
0.0
 20
73.61360000000001
 30
0.0
 11
0.495361
 21
50.7928
 31
0.0
  0
LINE
  5
4F
330
1E
100
AcDbEntity
  8
0
100
AcDbLine
 10
0.0
 20
73.61360000000001
 30
0.0
 11
0.0
 21
96.43740000000001
 31
0.0
  0
LINE
  5
55
330
1E
100
AcDbEntity
  8
0
100
AcDbLine
 10
65.50279999999999
 20
37.0369
 30
0.0
 11
67.19
 21
34.942
 31
0.0
  0
LINE
  5
56
330
1E
100
AcDbEntity
  8
0
100
AcDbLine
 10
67.19
 20
34.942
 30
0.0
 11
69.1014
 21
33.05019999999999
 31
0.0
  0
LINE
  5
5A
330
1E
100
AcDbEntity
  8
0
100
AcDbLine
 10
61.0415
 20
52.2374
 30
0.0
 11
61.0545
 21
49.5483
 31
0.0
  0
LINE
  5
5B
330
1E
100
AcDbEntity
  8
0
100
AcDbLine
 10
61.0415
 20
52.2374
 30
0.0
 11
61.3287
 21
54.9116
 31
0.0
  0
LINE
  5
5C
330
1E
100
AcDbEntity
  8
0
100
AcDbLine
 10
61.0545
 20
49.5483
 30
0.0
 11
61.3688
 21
46.8771
 31
0.0
  0
LINE
  5
5D
330
1E
100
AcDbEntity
  8
0
100
AcDbLine
 10
61.3688
 20
46.8771
 30
0.0
 11
61.9802
 21
44.25899999999999
 31
0.0
  0
LINE
  5
5E
330
1E
100
AcDbEntity
  8
0
100
AcDbLine
 10
61.9802
 20
44.25899999999999
 30
0.0
 11
62.8809
 21
41.7239
 31
0.0
  0
LINE
  5
5F
330
1E
100
AcDbEntity
  8
0
100
AcDbLine
 10
62.8809
 20
41.7239
 30
0.0
 11
64.06069999999999
 21
39.3069
 31
0.0
  0
LINE
  5
60
330
1E
100
AcDbEntity
  8
0
100
AcDbLine
 10
64.06069999999999
 20
39.3069
 30
0.0
 11
65.50279999999999
 21
37.0369
 31
0.0
  0
LINE
  5
61
330
1E
100
AcDbEntity
  8
0
100
AcDbLine
 10
78.4712
 20
27.933
 30
0.0
 11
81.09720000000001
 21
27.34669999999999
 31
0.0
  0
LINE
  5
62
330
1E
100
AcDbEntity
  8
0
100
AcDbLine
 10
69.1014
 20
33.05019999999999
 30
0.0
 11
71.21290000000001
 21
31.3835
 31
0.0
  0
LINE
  5
67
330
1E
100
AcDbEntity
  8
0
100
AcDbLine
 10
73.49859999999999
 20
29.96389999999999
 30
0.0
 11
75.9274
 21
28.8084
 31
0.0
  0
LINE
  5
68
330
1E
100
AcDbEntity
  8
0
100
AcDbLine
 10
75.9274
 20
28.8084
 30
0.0
 11
78.4712
 21
27.933
 31
0.0
  0
LINE
  5
69
330
1E
100
AcDbEntity
  8
0
100
AcDbLine
 10
71.21290000000001
 20
31.3835
 30
0.0
 11
73.49859999999999
 21
29.96389999999999
 31
0.0
  0
LINE
  5
6B
330
1E
100
AcDbEntity
  8
0
100
AcDbLine
 10
61.3287
 20
54.9116
 30
0.0
 11
61.9152
 21
57.5367
 31
0.0
  0
LINE
  5
6C
330
1E
100
AcDbEntity
  8
0
100
AcDbLine
 10
62.7908
 20
60.07979999999999
 30
0.0
 11
63.9466
 21
62.5088
 31
0.0
  0
LINE
  5
6D
330
1E
100
AcDbEntity
  8
0
100
AcDbLine
 10
61.9152
 20
57.5367
 30
0.0
 11
62.7908
 21
60.07979999999999
 31
0.0
  0
LINE
  5
6E
330
1E
100
AcDbEntity
  8
0
100
AcDbLine
 10
65.36669999999999
 20
64.7928
 30
0.0
 11
67.0339
 21
66.9037
 31
0.0
  0
LINE
  5
6F
330
1E
100
AcDbEntity
  8
0
100
AcDbLine
 10
63.9466
 20
62.5088
 30
0.0
 11
65.36669999999999
 21
64.7928
 31
0.0
  0
LINE
  5
70
330
1E
100
AcDbEntity
  8
0
100
AcDbLine
 10
67.0339
 20
66.9037
 30
0.0
 11
68.9263
 21
68.8146
 31
0.0
  0
LINE
  5
71
330
1E
100
AcDbEntity
  8
0
100
AcDbLine
 10
68.9263
 20
68.8146
 30
0.0
 11
71.0218
 21
70.5013
 31
0.0
  0
LINE
  5
79
330
1E
100
AcDbEntity
  8
0
100
AcDbLine
 10
71.0218
 20
70.5013
 30
0.0
 11
73.2925
 21
71.94289999999999
 31
0.0
  0
LINE
  5
7A
330
1E
100
AcDbEntity
  8
0
100
AcDbLine
 10
73.2925
 20
71.94289999999999
 30
0.0
 11
75.7102
 21
73.1224
 31
0.0
  0
LINE
  5
7E
330
1E
100
AcDbEntity
  8
0
100
AcDbLine
 10
80.06875019521791
 20
73.77151460349641
 30
0.0
 11
80.1284
 21
77.1871
 31
0.0
  0
LINE
  5
7F
330
1E
100
AcDbEntity
  8
0
100
AcDbLine
 10
80.04739999999999
 20
73.7687
 30
0.0
 11
80.5708
 21
73.8377
 31
0.0
  0
LINE
  5
80
330
1E
100
AcDbEntity
  8
0
100
AcDbLine
 10
80.5708
 20
73.8377
 30
0.0
 11
81.29229999999999
 21
73.92870000000001
 31
0.0
  0
LINE
  5
82
330
1E
100
AcDbEntity
  8
0
100
AcDbLine
 10
75.7102
 20
73.1224
 30
0.0
 11
78.2451
 21
74.02280000000001
 31
0.0
  0
LINE
  5
83
330
1E
100
AcDbEntity
  8
0
100
AcDbLine
 10
78.2451
 20
74.02280000000001
 30
0.0
 11
80.08061691079531
 21
74.45101021255699
 31
0.0
  0
LINE
  5
84
330
1E
100
AcDbEntity
  8
0
100
AcDbLine
 10
81.29229999999999
 20
73.92870000000001
 30
0.0
 11
82.229
 21
74.0268
 31
0.0
  0
LINE
  5
85
330
1E
100
AcDbEntity
  8
0
100
AcDbLine
 10
80.1284
 20
77.1871
 30
0.0
 11
80.14749999999999
 21
77.2882
 31
0.0
  0
LINE
  5
86
330
1E
100
AcDbEntity
  8
0
100
AcDbLine
 10
80.28060000000001
 20
77.44329999999999
 30
0.0
 11
80.3776
 21
77.4773
 31
0.0
  0
LINE
  5
87
330
1E
100
AcDbEntity
  8
0
100
AcDbLine
 10
80.20050000000001
 20
77.3772
 30
0.0
 11
80.28060000000001
 21
77.44329999999999
 31
0.0
  0
LINE
  5
88
330
1E
100
AcDbEntity
  8
0
100
AcDbLine
 10
80.14749999999999
 20
77.2882
 30
0.0
 11
80.20050000000001
 21
77.3772
 31
0.0
  0
LINE
  5
89
330
1E
100
AcDbEntity
  8
0
100
AcDbLine
 10
80.3776
 20
77.4773
 30
0.0
 11
80.829
 21
77.5513
 31
0.0
  0
LINE
  5
8A
330
1E
100
AcDbEntity
  8
0
100
AcDbLine
 10
81.2062
 20
77.60729999999999
 30
0.0
 11
81.51149999999999
 21
77.6483
 31
0.0
  0
LINE
  5
91
330
1E
100
AcDbEntity
  8
0
100
AcDbLine
 10
81.51149999999999
 20
77.6483
 30
0.0
 11
83.0926
 21
77.80540000000001
 31
0.0
  0
LINE
  5
92
330
1E
100
AcDbEntity
  8
0
100
AcDbLine
 10
80.944
 20
77.5693
 30
0.0
 11
81.2062
 21
77.60729999999999
 31
0.0
  0
LINE
  5
93
330
1E
100
AcDbEntity
  8
0
100
AcDbLine
 10
80.7299
 20
77.53530000000001
 30
0.0
 11
80.944
 21
77.5693
 31
0.0
  0
LINE
  5
95
330
1E
100
AcDbEntity
  8
0
100
AcDbLine
 10
82.229
 20
74.0268
 30
0.0
 11
83.0506
 21
74.0918
 31
0.0
  0
LINE
  5
A4
330
1E
100
AcDbEntity
  8
0
100
AcDbLine
 10
83.77209999999999
 20
27.0596
 30
0.0
 11
85.0
 21
27.0656
 31
0.0
  0
LINE
  5
A7
330
1E
100
AcDbEntity
  8
0
100
AcDbLine
 10
83.5449
 20
77.83339999999999
 30
0.0
 11
84.01329999999999
 21
77.8544
 31
0.0
  0
LINE
  5
A8
330
1E
100
AcDbEntity
  8
0
100
AcDbLine
 10
83.1667493155259
 20
77.80999027378891
 30
0.0
 11
83.2277
 21
77.8144
 31
0.0
  0
LINE
  5
A9
330
1E
100
AcDbEntity
  8
0
100
AcDbLine
 10
83.0926
 20
77.80540000000001
 30
0.0
 11
83.2277
 21
77.8144
 31
0.0
  0
LINE
  5
AA
330
1E
100
AcDbEntity
  8
0
100
AcDbLine
 10
83.0926
 20
77.80540000000001
 30
0.0
 11
83.5449
 21
77.83339999999999
 31
0.0
  0
LINE
  5
AB
330
1E
100
AcDbEntity
  8
0
100
AcDbLine
 10
83.0506
 20
74.0918
 30
0.0
 11
83.87719999999999
 21
74.1358
 31
0.0
  0
LINE
  5
B4
330
1E
100
AcDbEntity
  8
0
100
AcDbLine
 10
83.87719999999999
 20
74.1358
 30
0.0
 11
84.97200000000001
 21
74.1568
 31
0.0
  0
LINE
  5
B8
330
1E
100
AcDbEntity
  8
0
100
AcDbLine
 10
0.495361
 20
119.2579999999999
 30
0.0
 11
1.488089999999999
 21
142.062
 31
0.0
  0
LINE
  5
B9
330
1E
100
AcDbEntity
  8
0
100
AcDbLine
 10
0.0
 20
96.43740000000001
 30
0.0
 11
0.495361
 21
119.2579999999999
 31
0.0
  0
LINE
  5
BA
330
1E
100
AcDbEntity
  8
0
100
AcDbLine
 10
0.0
 20
96.43740000000001
 30
0.0
 11
0.0
 21
73.61360000000001
 31
0.0
  0
LINE
  5
BB
330
1E
100
AcDbEntity
  8
0
100
AcDbLine
 10
71.303
 20
120.4679999999999
 30
0.0
 11
71.6543
 21
119.523
 31
0.0
  0
LINE
  5
BC
330
1E
100
AcDbEntity
  8
0
100
AcDbLine
 10
71.6543
 20
119.523
 30
0.0
 11
72.21169999999999
 21
118.331
 31
0.0
  0
LINE
  5
BD
330
1E
100
AcDbEntity
  8
0
100
AcDbLine
 10
71.1789
 20
120.8609999999999
 30
0.0
 11
71.303
 21
120.4679999999999
 31
0.0
  0
LINE
  5
BE
330
1E
100
AcDbEntity
  8
0
100
AcDbLine
 10
70.83969999999999
 20
122.221
 30
0.0
 11
71.1789
 21
120.8609999999999
 31
0.0
  0
LINE
  5
BF
330
1E
100
AcDbEntity
  8
0
100
AcDbLine
 10
70.55849999999999
 20
125.039
 30
0.0
 11
70.5895
 21
124.1149999999999
 31
0.0
  0
LINE
  5
C0
330
1E
100
AcDbEntity
  8
0
100
AcDbLine
 10
70.55849999999999
 20
125.039
 30
0.0
 11
70.5745
 21
125.7779999999999
 31
0.0
  0
LINE
  5
C1
330
1E
100
AcDbEntity
  8
0
100
AcDbLine
 10
70.5895
 20
124.1149999999999
 30
0.0
 11
70.6465
 21
123.465
 31
0.0
  0
LINE
  5
C2
330
1E
100
AcDbEntity
  8
0
100
AcDbLine
 10
70.5745
 20
125.7779999999999
 30
0.0
 11
70.70759999999999
 21
127.161
 31
0.0
  0
LINE
  5
C3
330
1E
100
AcDbEntity
  8
0
100
AcDbLine
 10
70.70759999999999
 20
127.161
 30
0.0
 11
70.86969999999999
 21
128.0679999999999
 31
0.0
  0
LINE
  5
C4
330
1E
100
AcDbEntity
  8
0
100
AcDbLine
 10
70.86969999999999
 20
128.0679999999999
 30
0.0
 11
71.2209
 21
129.407
 31
0.0
  0
LINE
  5
C5
330
1E
100
AcDbEntity
  8
0
100
AcDbLine
 10
71.2209
 20
129.407
 30
0.0
 11
71.6523
 21
130.591
 31
0.0
  0
LINE
  5
C6
330
1E
100
AcDbEntity
  8
0
100
AcDbLine
 10
71.6523
 20
130.591
 30
0.0
 11
72.26269999999999
 21
131.8779999999999
 31
0.0
  0
LINE
  5
C7
330
1E
100
AcDbEntity
  8
0
100
AcDbLine
 10
70.6465
 20
123.465
 30
0.0
 11
70.83969999999999
 21
122.221
 31
0.0
  0
LINE
  5
C8
330
1E
100
AcDbEntity
  8
0
100
AcDbLine
 10
72.9952
 20
133.0929999999999
 30
0.0
 11
73.57269999999999
 21
133.8929999999999
 31
0.0
  0
LINE
  5
C9
330
1E
100
AcDbEntity
  8
0
100
AcDbLine
 10
72.56789999999999
 20
117.693
 30
0.0
 11
72.91419999999999
 21
117.1329999999999
 31
0.0
  0
LINE
  5
CA
330
1E
100
AcDbEntity
  8
0
100
AcDbLine
 10
72.91419999999999
 20
117.1329999999999
 30
0.0
 11
73.35049999999999
 21
116.5029999999999
 31
0.0
  0
LINE
  5
CB
330
1E
100
AcDbEntity
  8
0
100
AcDbLine
 10
72.26269999999999
 20
131.8779999999999
 30
0.0
 11
72.9952
 21
133.0929999999999
 31
0.0
  0
LINE
  5
CC
330
1E
100
AcDbEntity
  8
0
100
AcDbLine
 10
73.35049999999999
 20
116.5029999999999
 30
0.0
 11
73.82080000000001
 21
115.8949999999999
 31
0.0
  0
LINE
  5
CD
330
1E
100
AcDbEntity
  8
0
100
AcDbLine
 10
72.21169999999999
 20
118.331
 30
0.0
 11
72.56789999999999
 21
117.693
 31
0.0
  0
LINE
  5
D0
330
1E
100
AcDbEntity
  8
0
100
AcDbLine
 10
1.488089999999999
 20
142.062
 30
0.0
 11
2.10353
 21
146.5649999999999
 31
0.0
  0
LINE
  5
D5
330
1E
100
AcDbEntity
  8
0
100
AcDbLine
 10
2.10353
 20
146.5649999999999
 30
0.0
 11
3.43751
 21
150.912
 31
0.0
  0
LINE
  5
D9
330
1E
100
AcDbEntity
  8
0
100
AcDbLine
 10
3.43751
 20
150.912
 30
0.0
 11
5.45698
 21
154.9859999999999
 31
0.0
  0
LINE
  5
DC
330
1E
100
AcDbEntity
  8
0
100
AcDbLine
 10
8.11092
 20
158.677
 30
0.0
 11
11.3263
 21
161.8909999999999
 31
0.0
  0
LINE
  5
DE
330
1E
100
AcDbEntity
  8
0
100
AcDbLine
 10
11.3263
 20
161.8909999999999
 30
0.0
 11
15.019
 21
164.542
 31
0.0
  0
LINE
  5
E1
330
1E
100
AcDbEntity
  8
0
100
AcDbLine
 10
5.45698
 20
154.9859999999999
 30
0.0
 11
8.11092
 21
158.677
 31
0.0
  0
LINE
  5
E2
330
1E
100
AcDbEntity
  8
0
100
AcDbLine
 10
15.019
 20
164.542
 30
0.0
 11
19.0929
 21
166.5629999999999
 31
0.0
  0
LINE
  5
E8
330
1E
100
AcDbEntity
  8
0
100
AcDbLine
 10
27.9454
 20
168.513
 30
0.0
 11
50.757
 21
169.504
 31
0.0
  0
LINE
  5
EA
330
1E
100
AcDbEntity
  8
0
100
AcDbLine
 10
23.4391
 20
167.8979999999999
 30
0.0
 11
27.9454
 21
168.513
 31
0.0
  0
LINE
  5
EB
330
1E
100
AcDbEntity
  8
0
100
AcDbLine
 10
50.757
 20
169.504
 30
0.0
 11
73.5847
 21
170.0
 31
0.0
  0
LINE
  5
F5
330
1E
100
AcDbEntity
  8
0
100
AcDbLine
 10
19.0929
 20
166.5629999999999
 30
0.0
 11
23.4391
 21
167.8979999999999
 31
0.0
  0
LINE
  5
FA
330
1E
100
AcDbEntity
  8
0
100
AcDbLine
 10
83.3848
 20
110.694
 30
0.0
 11
84.28650000000001
 21
110.62
 31
0.0
  0
LINE
  5
FB
330
1E
100
AcDbEntity
  8
0
100
AcDbLine
 10
82.13790000000001
 20
110.8889999999999
 30
0.0
 11
83.3848
 21
110.694
 31
0.0
  0
LINE
  5
FC
330
1E
100
AcDbEntity
  8
0
100
AcDbLine
 10
77.2794
 20
112.8349999999999
 30
0.0
 11
78.143
 21
112.3299999999999
 31
0.0
  0
LINE
  5
FD
330
1E
100
AcDbEntity
  8
0
100
AcDbLine
 10
78.143
 20
112.3299999999999
 30
0.0
 11
79.45
 21
111.708
 31
0.0
  0
LINE
  5
FE
330
1E
100
AcDbEntity
  8
0
100
AcDbLine
 10
76.50879999999999
 20
113.358
 30
0.0
 11
77.2794
 21
112.8349999999999
 31
0.0
  0
LINE
  5
FF
330
1E
100
AcDbEntity
  8
0
100
AcDbLine
 10
75.7833
 20
113.9189999999999
 30
0.0
 11
76.50879999999999
 21
113.358
 31
0.0
  0
LINE
  5
104
330
1E
100
AcDbEntity
  8
0
100
AcDbLine
 10
73.58069999999999
 20
128.955
 30
0.0
 11
73.65569999999999
 21
129.4429999999999
 31
0.0
  0
LINE
  5
105
330
1E
100
AcDbEntity
  8
0
100
AcDbLine
 10
73.58069999999999
 20
128.955
 30
0.0
 11
73.67969999999999
 21
129.607
 31
0.0
  0
LINE
  5
10A
330
1E
100
AcDbEntity
  8
0
100
AcDbLine
 10
73.8168
 20
130.674
 30
0.0
 11
73.8313100000001
 21
130.806949919486
 31
0.0
  0
LINE
  5
10B
330
1E
100
AcDbEntity
  8
0
100
AcDbLine
 10
73.74979999999999
 20
130.127
 30
0.0
 11
73.8168
 21
130.674
 31
0.0
  0
LINE
  5
10C
330
1E
100
AcDbEntity
  8
0
100
AcDbLine
 10
73.67969999999999
 20
129.607
 30
0.0
 11
73.74979999999999
 21
130.127
 31
0.0
  0
LINE
  5
10F
330
1E
100
AcDbEntity
  8
0
100
AcDbLine
 10
73.5847
 20
170.0
 30
0.0
 11
85.0
 21
170.0
 31
0.0
  0
LINE
  5
111
330
1E
100
AcDbEntity
  8
0
100
AcDbLine
 10
73.57269999999999
 20
133.8929999999999
 30
0.0
 11
74.1057633401607
 21
134.5369448561149
 31
0.0
  0
LINE
  5
112
330
1E
100
AcDbEntity
  8
0
100
AcDbLine
 10
73.8349
 20
130.841
 30
0.0
 11
73.89190000000001
 21
131.4529999999999
 31
0.0
  0
LINE
  5
113
330
1E
100
AcDbEntity
  8
0
100
AcDbLine
 10
73.89190000000001
 20
131.4529999999999
 30
0.0
 11
73.95990000000001
 21
132.301
 31
0.0
  0
LINE
  5
114
330
1E
100
AcDbEntity
  8
0
100
AcDbLine
 10
73.95990000000001
 20
132.301
 30
0.0
 11
74.3983
 21
139.2239999999999
 31
0.0
  0
LINE
  5
119
330
1E
100
AcDbEntity
  8
0
100
AcDbLine
 10
74.84659999999999
 20
146.501
 30
0.0
 11
75.7432
 21
161.0579999999999
 31
0.0
  0
LINE
  5
11A
330
1E
100
AcDbEntity
  8
0
100
AcDbLine
 10
74.3983
 20
139.2239999999999
 30
0.0
 11
74.84659999999999
 21
146.501
 31
0.0
  0
LINE
  5
11B
330
1E
100
AcDbEntity
  8
0
100
AcDbLine
 10
75.7603
 20
161.284
 30
0.0
 11
75.87430000000001
 21
162.027
 31
0.0
  0
LINE
  5
11C
330
1E
100
AcDbEntity
  8
0
100
AcDbLine
 10
75.7432
 20
161.0579999999999
 30
0.0
 11
75.87430000000001
 21
162.027
 31
0.0
  0
LINE
  5
11D
330
1E
100
AcDbEntity
  8
0
100
AcDbLine
 10
75.7432
 20
161.0579999999999
 30
0.0
 11
75.7603
 21
161.284
 31
0.0
  0
LINE
  5
11E
330
1E
100
AcDbEntity
  8
0
100
AcDbLine
 10
75.8323
 20
161.8319999999999
 30
0.0
 11
75.8533
 21
161.942
 31
0.0
  0
LINE
  5
11F
330
1E
100
AcDbEntity
  8
0
100
AcDbLine
 10
75.79600444798429
 20
161.516705305722
 30
0.0
 11
75.8323
 21
161.8319999999999
 31
0.0
  0
LINE
  5
120
330
1E
100
AcDbEntity
  8
0
100
AcDbLine
 10
75.8533
 20
161.942
 30
0.0
 11
75.87265995634479
 21
162.016310943546
 31
0.0
  0
LINE
  5
121
330
1E
100
AcDbEntity
  8
0
100
AcDbLine
 10
76.06449999999999
 20
162.7259999999999
 30
0.0
 11
76.3677
 21
163.417
 31
0.0
  0
LINE
  5
122
330
1E
100
AcDbEntity
  8
0
100
AcDbLine
 10
76.03149999999999
 20
162.626
 30
0.0
 11
76.06449999999999
 21
162.7259999999999
 31
0.0
  0
LINE
  5
123
330
1E
100
AcDbEntity
  8
0
100
AcDbLine
 10
75.87306328800991
 20
162.0178590852899
 30
0.0
 11
76.03149999999999
 21
162.626
 31
0.0
  0
LINE
  5
124
330
1E
100
AcDbEntity
  8
0
100
AcDbLine
 10
77.2203
 20
164.543
 30
0.0
 11
77.89480000000001
 21
165.089
 31
0.0
  0
LINE
  5
125
330
1E
100
AcDbEntity
  8
0
100
AcDbLine
 10
78.66039999999999
 20
165.5279999999999
 30
0.0
 11
78.9876
 21
165.676
 31
0.0
  0
LINE
  5
126
330
1E
100
AcDbEntity
  8
0
100
AcDbLine
 10
77.89480000000001
 20
165.089
 30
0.0
 11
78.66039999999999
 21
165.5279999999999
 31
0.0
  0
LINE
  5
127
330
1E
100
AcDbEntity
  8
0
100
AcDbLine
 10
78.9876
 20
165.676
 30
0.0
 11
79.6741
 21
165.929
 31
0.0
  0
LINE
  5
128
330
1E
100
AcDbEntity
  8
0
100
AcDbLine
 10
76.756
 20
164.0209999999999
 30
0.0
 11
77.2203
 21
164.543
 31
0.0
  0
LINE
  5
129
330
1E
100
AcDbEntity
  8
0
100
AcDbLine
 10
76.3677
 20
163.417
 30
0.0
 11
76.756
 21
164.0209999999999
 31
0.0
  0
LINE
  5
12A
330
1E
100
AcDbEntity
  8
0
100
AcDbLine
 10
73.82080000000001
 20
115.8949999999999
 30
0.0
 11
74.7675
 21
114.846
 31
0.0
  0
LINE
  5
12B
330
1E
100
AcDbEntity
  8
0
100
AcDbLine
 10
74.7675
 20
114.846
 30
0.0
 11
75.7833
 21
113.9189999999999
 31
0.0
  0
LINE
  5
132
330
1E
100
AcDbEntity
  8
0
100
AcDbLine
 10
82.9485
 20
166.4909999999999
 30
0.0
 11
83.64
 21
166.529
 31
0.0
  0
LINE
  5
133
330
1E
100
AcDbEntity
  8
0
100
AcDbLine
 10
83.64
 20
166.529
 30
0.0
 11
85.0
 21
166.5529999999999
 31
0.0
  0
LINE
  5
134
330
1E
100
AcDbEntity
  8
0
100
AcDbLine
 10
81.9128
 20
166.3949999999999
 30
0.0
 11
82.9485
 21
166.4909999999999
 31
0.0
  0
LINE
  5
135
330
1E
100
AcDbEntity
  8
0
100
AcDbLine
 10
81.1402
 20
166.282
 30
0.0
 11
81.9128
 21
166.3949999999999
 31
0.0
  0
LINE
  5
136
330
1E
100
AcDbEntity
  8
0
100
AcDbLine
 10
80.39660000000001
 20
166.129
 30
0.0
 11
81.1402
 21
166.282
 31
0.0
  0
LINE
  5
137
330
1E
100
AcDbEntity
  8
0
100
AcDbLine
 10
79.6741
 20
165.929
 30
0.0
 11
80.39660000000001
 21
166.129
 31
0.0
  0
LINE
  5
13A
330
1E
100
AcDbEntity
  8
0
100
AcDbLine
 10
79.45
 20
111.708
 30
0.0
 11
80.7599
 21
111.237
 31
0.0
  0
LINE
  5
13B
330
1E
100
AcDbEntity
  8
0
100
AcDbLine
 10
80.7599
 20
111.237
 30
0.0
 11
82.13790000000001
 21
110.8889999999999
 31
0.0
  0
LINE
  5
13C
330
1E
100
AcDbEntity
  8
0
100
AcDbLine
 10
84.28650000000001
 20
110.62
 30
0.0
 11
85.0
 21
110.6049999999999
 31
0.0
  0
LINE
  5
13D
330
1E
100
AcDbEntity
  8
0
100
AcDbLine
 10
84.01329999999999
 20
77.8544
 30
0.0
 11
84.4926
 21
77.8674
 31
0.0
  0
LINE
  5
216
330
1E
100
AcDbEntity
  8
0
100
AcDbLine
 10
85.50740000000001
 20
77.8674
 30
0.0
 11
85.9867
 21
77.8544
 31
0.0
  0
LINE
  5
217
330
1E
100
AcDbEntity
  8
0
100
AcDbLine
 10
85.34629999999999
 20
77.8694
 30
0.0
 11
85.50740000000001
 21
77.8674
 31
0.0
  0
LINE
  5
22F
330
1E
100
AcDbEntity
  8
0
100
AcDbLine
 10
85.0
 20
110.6049999999999
 30
0.0
 11
85.7135
 21
110.62
 31
0.0
  0
LINE
  5
23E
330
1E
100
AcDbEntity
  8
0
100
AcDbLine
 10
85.022
 20
77.8724
 30
0.0
 11
85.50740000000001
 21
77.8674
 31
0.0
  0
LINE
  5
23F
330
1E
100
AcDbEntity
  8
0
100
AcDbLine
 10
85.2918830275489
 20
77.86961999353579
 30
0.0
 11
85.34629999999999
 21
77.8694
 31
0.0
  0
LINE
  5
2C5
330
1E
100
AcDbEntity
  8
0
100
AcDbLine
 10
84.6537
 20
77.8694
 30
0.0
 11
84.70811697245109
 21
77.86961999353579
 31
0.0
  0
LINE
  5
2C6
330
1E
100
AcDbEntity
  8
0
100
AcDbLine
 10
84.4926
 20
77.8674
 30
0.0
 11
84.97799999999999
 21
77.8724
 31
0.0
  0
LINE
  5
2C7
330
1E
100
AcDbEntity
  8
0
100
AcDbLine
 10
84.4926
 20
77.8674
 30
0.0
 11
84.6537
 21
77.8694
 31
0.0
  0
LINE
  5
2CC
330
1E
100
AcDbEntity
  8
0
100
AcDbLine
 10
85.0
 20
110.6049999999999
 30
0.0
 11
84.28650000000001
 21
110.62
 31
0.0
  0
LINE
  5
2CD
330
1E
100
AcDbEntity
  8
0
100
AcDbLine
 10
170.0
 20
96.43740000000001
 30
0.0
 11
170.0
 21
73.61360000000001
 31
0.0
  0
LINE
  5
2CE
330
1E
100
AcDbEntity
  8
0
100
AcDbLine
 10
170.0
 20
73.61360000000001
 30
0.0
 11
170.0
 21
96.43740000000001
 31
0.0
  0
LINE
  5
2CF
330
1E
100
AcDbEntity
  8
0
100
AcDbLine
 10
142.0545999999999
 20
1.538659999999989
 30
0.0
 11
115.9976
 21
0.446191999999994
 31
0.0
  0
LINE
  5
2D0
330
1E
100
AcDbEntity
  8
0
100
AcDbLine
 10
169.5046389999999
 20
50.7928
 30
0.0
 11
168.51191
 21
27.988
 31
0.0
  0
LINE
  5
2D1
330
1E
100
AcDbEntity
  8
0
100
AcDbLine
 10
169.5046389999999
 20
50.7928
 30
0.0
 11
168.51191
 21
27.988
 31
0.0
  0
LINE
  5
2D2
330
1E
100
AcDbEntity
  8
0
100
AcDbLine
 10
166.56249
 20
19.1382
 30
0.0
 11
164.54302
 21
15.0665
 31
0.0
  0
LINE
  5
2D3
330
1E
100
AcDbEntity
  8
0
100
AcDbLine
 10
168.51191
 20
27.988
 30
0.0
 11
167.8984699999999
 21
23.4841
 31
0.0
  0
LINE
  5
2D4
330
1E
100
AcDbEntity
  8
0
100
AcDbLine
 10
167.8984699999999
 20
23.4841
 30
0.0
 11
166.56249
 21
19.1382
 31
0.0
  0
LINE
  5
2D5
330
1E
100
AcDbEntity
  8
0
100
AcDbLine
 10
154.9809999999999
 20
5.50736999999999
 30
0.0
 11
150.9061
 21
3.48649999999999
 31
0.0
  0
LINE
  5
2D6
330
1E
100
AcDbEntity
  8
0
100
AcDbLine
 10
146.5609
 20
2.152919999999989
 30
0.0
 11
142.0545999999999
 21
1.538659999999989
 31
0.0
  0
LINE
  5
2D7
330
1E
100
AcDbEntity
  8
0
100
AcDbLine
 10
150.9061
 20
3.48649999999999
 30
0.0
 11
146.5609
 21
2.152919999999989
 31
0.0
  0
LINE
  5
2D8
330
1E
100
AcDbEntity
  8
0
100
AcDbLine
 10
158.6747
 20
8.158499999999991
 30
0.0
 11
154.9809999999999
 21
5.50736999999999
 31
0.0
  0
LINE
  5
2D9
330
1E
100
AcDbEntity
  8
0
100
AcDbLine
 10
164.54302
 20
15.0665
 30
0.0
 11
161.88908
 21
11.3749
 31
0.0
  0
LINE
  5
2DA
330
1E
100
AcDbEntity
  8
0
100
AcDbLine
 10
161.88908
 20
11.3749
 30
0.0
 11
158.6747
 21
8.158499999999991
 31
0.0
  0
LINE
  5
2DB
330
1E
100
AcDbEntity
  8
0
100
AcDbLine
 10
170.0
 20
73.61360000000001
 30
0.0
 11
169.5046389999999
 21
50.7928
 31
0.0
  0
LINE
  5
2DC
330
1E
100
AcDbEntity
  8
0
100
AcDbLine
 10
100.8985999999999
 20
33.05019999999999
 30
0.0
 11
98.78709999999999
 21
31.3835
 31
0.0
  0
LINE
  5
2DD
330
1E
100
AcDbEntity
  8
0
100
AcDbLine
 10
115.9976
 20
0.446191999999994
 30
0.0
 11
85.0
 21
-0.000000000000006
 31
0.0
  0
LINE
  5
2DE
330
1E
100
AcDbEntity
  8
0
100
AcDbLine
 10
115.9976
 20
0.446191999999994
 30
0.0
 11
85.0
 21
-0.000000000000006
 31
0.0
  0
LINE
  5
2DF
330
1E
100
AcDbEntity
  8
0
100
AcDbLine
 10
98.78709999999999
 20
31.3835
 30
0.0
 11
96.5014
 21
29.96389999999999
 31
0.0
  0
LINE
  5
2E0
330
1E
100
AcDbEntity
  8
0
100
AcDbLine
 10
94.07259999999999
 20
28.8084
 30
0.0
 11
91.52880000000001
 21
27.933
 31
0.0
  0
LINE
  5
2E1
330
1E
100
AcDbEntity
  8
0
100
AcDbLine
 10
96.5014
 20
29.96389999999999
 30
0.0
 11
94.07259999999999
 21
28.8084
 31
0.0
  0
LINE
  5
2E2
330
1E
100
AcDbEntity
  8
0
100
AcDbLine
 10
88.9028
 20
27.34669999999999
 30
0.0
 11
86.2279
 21
27.0596
 31
0.0
  0
LINE
  5
2E3
330
1E
100
AcDbEntity
  8
0
100
AcDbLine
 10
91.52880000000001
 20
27.933
 30
0.0
 11
88.9028
 21
27.34669999999999
 31
0.0
  0
LINE
  5
2E4
330
1E
100
AcDbEntity
  8
0
100
AcDbLine
 10
86.2279
 20
27.0596
 30
0.0
 11
85.0
 21
27.0656
 31
0.0
  0
LINE
  5
2E5
330
1E
100
AcDbEntity
  8
0
100
AcDbLine
 10
108.0848
 20
57.5367
 30
0.0
 11
107.2092
 21
60.07979999999999
 31
0.0
  0
LINE
  5
2E6
330
1E
100
AcDbEntity
  8
0
100
AcDbLine
 10
108.6312
 20
46.8771
 30
0.0
 11
108.0198
 21
44.25899999999999
 31
0.0
  0
LINE
  5
2E7
330
1E
100
AcDbEntity
  8
0
100
AcDbLine
 10
105.9393
 20
39.3069
 30
0.0
 11
104.4972
 21
37.0369
 31
0.0
  0
LINE
  5
2E8
330
1E
100
AcDbEntity
  8
0
100
AcDbLine
 10
108.0198
 20
44.25899999999999
 30
0.0
 11
107.1191
 21
41.7239
 31
0.0
  0
LINE
  5
2E9
330
1E
100
AcDbEntity
  8
0
100
AcDbLine
 10
107.1191
 20
41.7239
 30
0.0
 11
105.9393
 21
39.3069
 31
0.0
  0
LINE
  5
2EA
330
1E
100
AcDbEntity
  8
0
100
AcDbLine
 10
102.81
 20
34.942
 30
0.0
 11
100.8985999999999
 21
33.05019999999999
 31
0.0
  0
LINE
  5
2EB
330
1E
100
AcDbEntity
  8
0
100
AcDbLine
 10
104.4972
 20
37.0369
 30
0.0
 11
102.81
 21
34.942
 31
0.0
  0
LINE
  5
2EC
330
1E
100
AcDbEntity
  8
0
100
AcDbLine
 10
108.9585
 20
52.2374
 30
0.0
 11
108.9455
 21
49.5483
 31
0.0
  0
LINE
  5
2ED
330
1E
100
AcDbEntity
  8
0
100
AcDbLine
 10
108.9455
 20
49.5483
 30
0.0
 11
108.6312
 21
46.8771
 31
0.0
  0
LINE
  5
2EE
330
1E
100
AcDbEntity
  8
0
100
AcDbLine
 10
108.6713
 20
54.9116
 30
0.0
 11
108.0848
 21
57.5367
 31
0.0
  0
LINE
  5
2EF
330
1E
100
AcDbEntity
  8
0
100
AcDbLine
 10
108.9585
 20
52.2374
 30
0.0
 11
108.6713
 21
54.9116
 31
0.0
  0
LINE
  5
2F0
330
1E
100
AcDbEntity
  8
0
100
AcDbLine
 10
98.97820000000001
 20
70.5013
 30
0.0
 11
96.70749999999999
 21
71.94289999999999
 31
0.0
  0
LINE
  5
2F1
330
1E
100
AcDbEntity
  8
0
100
AcDbLine
 10
106.0534
 20
62.5088
 30
0.0
 11
104.6333
 21
64.7928
 31
0.0
  0
LINE
  5
2F2
330
1E
100
AcDbEntity
  8
0
100
AcDbLine
 10
107.2092
 20
60.07979999999999
 30
0.0
 11
106.0534
 21
62.5088
 31
0.0
  0
LINE
  5
2F3
330
1E
100
AcDbEntity
  8
0
100
AcDbLine
 10
104.6333
 20
64.7928
 30
0.0
 11
102.9660999999999
 21
66.9037
 31
0.0
  0
LINE
  5
2F4
330
1E
100
AcDbEntity
  8
0
100
AcDbLine
 10
102.9660999999999
 20
66.9037
 30
0.0
 11
101.0736999999999
 21
68.8146
 31
0.0
  0
LINE
  5
2F5
330
1E
100
AcDbEntity
  8
0
100
AcDbLine
 10
101.0736999999999
 20
68.8146
 30
0.0
 11
98.97820000000001
 21
70.5013
 31
0.0
  0
LINE
  5
2F6
330
1E
100
AcDbEntity
  8
0
100
AcDbLine
 10
91.75490000000001
 20
74.02280000000001
 30
0.0
 11
89.9193830892047
 21
74.45101021255699
 31
0.0
  0
LINE
  5
2F7
330
1E
100
AcDbEntity
  8
0
100
AcDbLine
 10
96.70749999999999
 20
71.94289999999999
 30
0.0
 11
94.28980000000001
 21
73.1224
 31
0.0
  0
LINE
  5
2F8
330
1E
100
AcDbEntity
  8
0
100
AcDbLine
 10
94.28980000000001
 20
73.1224
 30
0.0
 11
91.75490000000001
 21
74.02280000000001
 31
0.0
  0
LINE
  5
2F9
330
1E
100
AcDbEntity
  8
0
100
AcDbLine
 10
88.4885
 20
77.6483
 30
0.0
 11
86.90739999999999
 21
77.80540000000001
 31
0.0
  0
LINE
  5
2FA
330
1E
100
AcDbEntity
  8
0
100
AcDbLine
 10
88.7077
 20
73.92870000000001
 30
0.0
 11
87.771
 21
74.0268
 31
0.0
  0
LINE
  5
2FB
330
1E
100
AcDbEntity
  8
0
100
AcDbLine
 10
89.9312498047821
 20
73.77151460349641
 30
0.0
 11
89.87160000000001
 21
77.1871
 31
0.0
  0
LINE
  5
2FC
330
1E
100
AcDbEntity
  8
0
100
AcDbLine
 10
89.42919999999999
 20
73.8377
 30
0.0
 11
88.7077
 21
73.92870000000001
 31
0.0
  0
LINE
  5
2FD
330
1E
100
AcDbEntity
  8
0
100
AcDbLine
 10
89.9526
 20
73.7687
 30
0.0
 11
89.42919999999999
 21
73.8377
 31
0.0
  0
LINE
  5
2FE
330
1E
100
AcDbEntity
  8
0
100
AcDbLine
 10
89.62239999999999
 20
77.4773
 30
0.0
 11
89.17100000000001
 21
77.5513
 31
0.0
  0
LINE
  5
2FF
330
1E
100
AcDbEntity
  8
0
100
AcDbLine
 10
89.2701
 20
77.53530000000001
 30
0.0
 11
89.05599999999999
 21
77.5693
 31
0.0
  0
LINE
  5
300
330
1E
100
AcDbEntity
  8
0
100
AcDbLine
 10
89.05599999999999
 20
77.5693
 30
0.0
 11
88.79380000000001
 21
77.60729999999999
 31
0.0
  0
LINE
  5
301
330
1E
100
AcDbEntity
  8
0
100
AcDbLine
 10
88.79380000000001
 20
77.60729999999999
 30
0.0
 11
88.4885
 21
77.6483
 31
0.0
  0
LINE
  5
302
330
1E
100
AcDbEntity
  8
0
100
AcDbLine
 10
89.8525
 20
77.2882
 30
0.0
 11
89.7995
 21
77.3772
 31
0.0
  0
LINE
  5
303
330
1E
100
AcDbEntity
  8
0
100
AcDbLine
 10
89.7995
 20
77.3772
 30
0.0
 11
89.7194
 21
77.44329999999999
 31
0.0
  0
LINE
  5
304
330
1E
100
AcDbEntity
  8
0
100
AcDbLine
 10
89.7194
 20
77.44329999999999
 30
0.0
 11
89.62239999999999
 21
77.4773
 31
0.0
  0
LINE
  5
305
330
1E
100
AcDbEntity
  8
0
100
AcDbLine
 10
89.87160000000001
 20
77.1871
 30
0.0
 11
89.8525
 21
77.2882
 31
0.0
  0
LINE
  5
306
330
1E
100
AcDbEntity
  8
0
100
AcDbLine
 10
86.9494
 20
74.0918
 30
0.0
 11
86.1228
 21
74.1358
 31
0.0
  0
LINE
  5
307
330
1E
100
AcDbEntity
  8
0
100
AcDbLine
 10
87.771
 20
74.0268
 30
0.0
 11
86.9494
 21
74.0918
 31
0.0
  0
LINE
  5
308
330
1E
100
AcDbEntity
  8
0
100
AcDbLine
 10
86.1228
 20
74.1358
 30
0.0
 11
85.02799999999998
 21
74.1568
 31
0.0
  0
LINE
  5
309
330
1E
100
AcDbEntity
  8
0
100
AcDbLine
 10
86.90739999999999
 20
77.80540000000001
 30
0.0
 11
86.45509999999999
 21
77.83339999999999
 31
0.0
  0
LINE
  5
30A
330
1E
100
AcDbEntity
  8
0
100
AcDbLine
 10
86.90739999999999
 20
77.80540000000001
 30
0.0
 11
86.77229999999999
 21
77.8144
 31
0.0
  0
LINE
  5
30B
330
1E
100
AcDbEntity
  8
0
100
AcDbLine
 10
86.83325068447409
 20
77.80999027378891
 30
0.0
 11
86.77229999999999
 21
77.8144
 31
0.0
  0
LINE
  5
30C
330
1E
100
AcDbEntity
  8
0
100
AcDbLine
 10
85.50740000000001
 20
77.8674
 30
0.0
 11
85.34629999999999
 21
77.8694
 31
0.0
  0
LINE
  5
30D
330
1E
100
AcDbEntity
  8
0
100
AcDbLine
 10
85.50740000000001
 20
77.8674
 30
0.0
 11
85.022
 21
77.8724
 31
0.0
  0
LINE
  5
30E
330
1E
100
AcDbEntity
  8
0
100
AcDbLine
 10
85.34629999999999
 20
77.8694
 30
0.0
 11
85.2918830275489
 21
77.86961999353579
 31
0.0
  0
LINE
  5
30F
330
1E
100
AcDbEntity
  8
0
100
AcDbLine
 10
85.9867
 20
77.8544
 30
0.0
 11
85.50740000000001
 21
77.8674
 31
0.0
  0
LINE
  5
310
330
1E
100
AcDbEntity
  8
0
100
AcDbLine
 10
86.45509999999999
 20
77.83339999999999
 30
0.0
 11
85.9867
 21
77.8544
 31
0.0
  0
LINE
  5
311
330
1E
100
AcDbEntity
  8
0
100
AcDbLine
 10
142.0545999999999
 20
168.513
 30
0.0
 11
119.2429999999999
 21
169.504
 31
0.0
  0
LINE
  5
312
330
1E
100
AcDbEntity
  8
0
100
AcDbLine
 10
169.5046389999999
 20
119.2579999999999
 30
0.0
 11
168.51191
 21
142.062
 31
0.0
  0
LINE
  5
313
330
1E
100
AcDbEntity
  8
0
100
AcDbLine
 10
170.0
 20
96.43740000000001
 30
0.0
 11
169.5046389999999
 21
119.2579999999999
 31
0.0
  0
LINE
  5
314
330
1E
100
AcDbEntity
  8
0
100
AcDbLine
 10
166.56249
 20
150.912
 30
0.0
 11
164.54302
 21
154.9859999999999
 31
0.0
  0
LINE
  5
315
330
1E
100
AcDbEntity
  8
0
100
AcDbLine
 10
168.51191
 20
142.062
 30
0.0
 11
167.8964699999999
 21
146.5649999999999
 31
0.0
  0
LINE
  5
316
330
1E
100
AcDbEntity
  8
0
100
AcDbLine
 10
167.8964699999999
 20
146.5649999999999
 30
0.0
 11
166.56249
 21
150.912
 31
0.0
  0
LINE
  5
317
330
1E
100
AcDbEntity
  8
0
100
AcDbLine
 10
154.9809999999999
 20
164.542
 30
0.0
 11
150.9071
 21
166.5629999999999
 31
0.0
  0
LINE
  5
318
330
1E
100
AcDbEntity
  8
0
100
AcDbLine
 10
158.6737
 20
161.8909999999999
 30
0.0
 11
154.9809999999999
 21
164.542
 31
0.0
  0
LINE
  5
319
330
1E
100
AcDbEntity
  8
0
100
AcDbLine
 10
164.54302
 20
154.9859999999999
 30
0.0
 11
161.88908
 21
158.677
 31
0.0
  0
LINE
  5
31A
330
1E
100
AcDbEntity
  8
0
100
AcDbLine
 10
161.88908
 20
158.677
 30
0.0
 11
158.6737
 21
161.8909999999999
 31
0.0
  0
LINE
  5
31B
330
1E
100
AcDbEntity
  8
0
100
AcDbLine
 10
146.5609
 20
167.8979999999999
 30
0.0
 11
142.0545999999999
 21
168.513
 31
0.0
  0
LINE
  5
31C
330
1E
100
AcDbEntity
  8
0
100
AcDbLine
 10
150.9071
 20
166.5629999999999
 30
0.0
 11
146.5609
 21
167.8979999999999
 31
0.0
  0
LINE
  5
31D
330
1E
100
AcDbEntity
  8
0
100
AcDbLine
 10
96.0401
 20
132.301
 30
0.0
 11
95.60169999999999
 21
139.2239999999999
 31
0.0
  0
LINE
  5
31E
330
1E
100
AcDbEntity
  8
0
100
AcDbLine
 10
90.54999999999999
 20
111.708
 30
0.0
 11
89.2401
 21
111.237
 31
0.0
  0
LINE
  5
31F
330
1E
100
AcDbEntity
  8
0
100
AcDbLine
 10
89.2401
 20
111.237
 30
0.0
 11
87.8621
 21
110.8889999999999
 31
0.0
  0
LINE
  5
320
330
1E
100
AcDbEntity
  8
0
100
AcDbLine
 10
87.8621
 20
110.8889999999999
 30
0.0
 11
86.61520000000001
 21
110.694
 31
0.0
  0
LINE
  5
321
330
1E
100
AcDbEntity
  8
0
100
AcDbLine
 10
85.7135
 20
110.62
 30
0.0
 11
85.0
 21
110.6049999999999
 31
0.0
  0
LINE
  5
322
330
1E
100
AcDbEntity
  8
0
100
AcDbLine
 10
86.61520000000001
 20
110.694
 30
0.0
 11
85.7135
 21
110.62
 31
0.0
  0
LINE
  5
323
330
1E
100
AcDbEntity
  8
0
100
AcDbLine
 10
98.3477
 20
130.591
 30
0.0
 11
97.7373
 21
131.8779999999999
 31
0.0
  0
LINE
  5
324
330
1E
100
AcDbEntity
  8
0
100
AcDbLine
 10
98.34569999999999
 20
119.523
 30
0.0
 11
97.78830000000001
 21
118.331
 31
0.0
  0
LINE
  5
325
330
1E
100
AcDbEntity
  8
0
100
AcDbLine
 10
99.4415
 20
125.039
 30
0.0
 11
99.4105
 21
124.1149999999999
 31
0.0
  0
LINE
  5
326
330
1E
100
AcDbEntity
  8
0
100
AcDbLine
 10
99.16030000000001
 20
122.221
 30
0.0
 11
98.8211
 21
120.8609999999999
 31
0.0
  0
LINE
  5
327
330
1E
100
AcDbEntity
  8
0
100
AcDbLine
 10
98.8211
 20
120.8609999999999
 30
0.0
 11
98.69700000000001
 21
120.4679999999999
 31
0.0
  0
LINE
  5
328
330
1E
100
AcDbEntity
  8
0
100
AcDbLine
 10
98.69700000000001
 20
120.4679999999999
 30
0.0
 11
98.34569999999999
 21
119.523
 31
0.0
  0
LINE
  5
329
330
1E
100
AcDbEntity
  8
0
100
AcDbLine
 10
99.35349999999999
 20
123.465
 30
0.0
 11
99.16030000000001
 21
122.221
 31
0.0
  0
LINE
  5
32A
330
1E
100
AcDbEntity
  8
0
100
AcDbLine
 10
99.4105
 20
124.1149999999999
 30
0.0
 11
99.35349999999999
 21
123.465
 31
0.0
  0
LINE
  5
32B
330
1E
100
AcDbEntity
  8
0
100
AcDbLine
 10
99.1303
 20
128.0679999999999
 30
0.0
 11
98.77909999999999
 21
129.407
 31
0.0
  0
LINE
  5
32C
330
1E
100
AcDbEntity
  8
0
100
AcDbLine
 10
99.2924
 20
127.161
 30
0.0
 11
99.1303
 21
128.0679999999999
 31
0.0
  0
LINE
  5
32D
330
1E
100
AcDbEntity
  8
0
100
AcDbLine
 10
99.4255
 20
125.7779999999999
 30
0.0
 11
99.2924
 21
127.161
 31
0.0
  0
LINE
  5
32E
330
1E
100
AcDbEntity
  8
0
100
AcDbLine
 10
99.4415
 20
125.039
 30
0.0
 11
99.4255
 21
125.7779999999999
 31
0.0
  0
LINE
  5
32F
330
1E
100
AcDbEntity
  8
0
100
AcDbLine
 10
98.77909999999999
 20
129.407
 30
0.0
 11
98.3477
 21
130.591
 31
0.0
  0
LINE
  5
330
330
1E
100
AcDbEntity
  8
0
100
AcDbLine
 10
91.857
 20
112.3299999999999
 30
0.0
 11
90.54999999999999
 21
111.708
 31
0.0
  0
LINE
  5
331
330
1E
100
AcDbEntity
  8
0
100
AcDbLine
 10
97.78830000000001
 20
118.331
 30
0.0
 11
97.43210000000001
 21
117.693
 31
0.0
  0
LINE
  5
332
330
1E
100
AcDbEntity
  8
0
100
AcDbLine
 10
95.2325
 20
114.846
 30
0.0
 11
94.2167
 21
113.9189999999999
 31
0.0
  0
LINE
  5
333
330
1E
100
AcDbEntity
  8
0
100
AcDbLine
 10
96.17919999999999
 20
115.8949999999999
 30
0.0
 11
95.2325
 21
114.846
 31
0.0
  0
LINE
  5
334
330
1E
100
AcDbEntity
  8
0
100
AcDbLine
 10
96.64950000000001
 20
116.5029999999999
 30
0.0
 11
96.17919999999999
 21
115.8949999999999
 31
0.0
  0
LINE
  5
335
330
1E
100
AcDbEntity
  8
0
100
AcDbLine
 10
97.08580000000001
 20
117.1329999999999
 30
0.0
 11
96.64950000000001
 21
116.5029999999999
 31
0.0
  0
LINE
  5
336
330
1E
100
AcDbEntity
  8
0
100
AcDbLine
 10
97.43210000000001
 20
117.693
 30
0.0
 11
97.08580000000001
 21
117.1329999999999
 31
0.0
  0
LINE
  5
337
330
1E
100
AcDbEntity
  8
0
100
AcDbLine
 10
93.4912
 20
113.358
 30
0.0
 11
92.72060000000001
 21
112.8349999999999
 31
0.0
  0
LINE
  5
338
330
1E
100
AcDbEntity
  8
0
100
AcDbLine
 10
94.2167
 20
113.9189999999999
 30
0.0
 11
93.4912
 21
113.358
 31
0.0
  0
LINE
  5
339
330
1E
100
AcDbEntity
  8
0
100
AcDbLine
 10
92.72060000000001
 20
112.8349999999999
 30
0.0
 11
91.857
 21
112.3299999999999
 31
0.0
  0
LINE
  5
33A
330
1E
100
AcDbEntity
  8
0
100
AcDbLine
 10
96.1081
 20
131.4529999999999
 30
0.0
 11
96.0401
 21
132.301
 31
0.0
  0
LINE
  5
33B
330
1E
100
AcDbEntity
  8
0
100
AcDbLine
 10
96.16509999999999
 20
130.841
 30
0.0
 11
96.1081
 21
131.4529999999999
 31
0.0
  0
LINE
  5
33C
330
1E
100
AcDbEntity
  8
0
100
AcDbLine
 10
96.3203
 20
129.607
 30
0.0
 11
96.25020000000001
 21
130.127
 31
0.0
  0
LINE
  5
33D
330
1E
100
AcDbEntity
  8
0
100
AcDbLine
 10
96.25020000000001
 20
130.127
 30
0.0
 11
96.1832
 21
130.674
 31
0.0
  0
LINE
  5
33E
330
1E
100
AcDbEntity
  8
0
100
AcDbLine
 10
96.1832
 20
130.674
 30
0.0
 11
96.1686899999999
 21
130.806949919486
 31
0.0
  0
LINE
  5
33F
330
1E
100
AcDbEntity
  8
0
100
AcDbLine
 10
96.41930000000002
 20
128.955
 30
0.0
 11
96.3203
 21
129.607
 31
0.0
  0
LINE
  5
340
330
1E
100
AcDbEntity
  8
0
100
AcDbLine
 10
96.41930000000002
 20
128.955
 30
0.0
 11
96.34430000000001
 21
129.4429999999999
 31
0.0
  0
LINE
  5
341
330
1E
100
AcDbEntity
  8
0
100
AcDbLine
 10
97.0048
 20
133.0929999999999
 30
0.0
 11
96.4273
 21
133.8929999999999
 31
0.0
  0
LINE
  5
342
330
1E
100
AcDbEntity
  8
0
100
AcDbLine
 10
97.7373
 20
131.8779999999999
 30
0.0
 11
97.0048
 21
133.0929999999999
 31
0.0
  0
LINE
  5
343
330
1E
100
AcDbEntity
  8
0
100
AcDbLine
 10
96.4273
 20
133.8929999999999
 30
0.0
 11
95.89423665983929
 21
134.5369448561149
 31
0.0
  0
LINE
  5
344
330
1E
100
AcDbEntity
  8
0
100
AcDbLine
 10
119.2429999999999
 20
169.504
 30
0.0
 11
96.41530000000001
 21
170.0
 31
0.0
  0
LINE
  5
345
330
1E
100
AcDbEntity
  8
0
100
AcDbLine
 10
92.77970000000001
 20
164.543
 30
0.0
 11
92.1052
 21
165.089
 31
0.0
  0
LINE
  5
346
330
1E
100
AcDbEntity
  8
0
100
AcDbLine
 10
95.1534
 20
146.501
 30
0.0
 11
94.25679999999999
 21
161.0579999999999
 31
0.0
  0
LINE
  5
347
330
1E
100
AcDbEntity
  8
0
100
AcDbLine
 10
95.60169999999999
 20
139.2239999999999
 30
0.0
 11
95.1534
 21
146.501
 31
0.0
  0
LINE
  5
348
330
1E
100
AcDbEntity
  8
0
100
AcDbLine
 10
94.25679999999999
 20
161.0579999999999
 30
0.0
 11
94.1257
 21
162.027
 31
0.0
  0
LINE
  5
349
330
1E
100
AcDbEntity
  8
0
100
AcDbLine
 10
94.2397
 20
161.284
 30
0.0
 11
94.1257
 21
162.027
 31
0.0
  0
LINE
  5
34A
330
1E
100
AcDbEntity
  8
0
100
AcDbLine
 10
94.25679999999999
 20
161.0579999999999
 30
0.0
 11
94.2397
 21
161.284
 31
0.0
  0
LINE
  5
34B
330
1E
100
AcDbEntity
  8
0
100
AcDbLine
 10
93.63229999999999
 20
163.417
 30
0.0
 11
93.244
 21
164.0209999999999
 31
0.0
  0
LINE
  5
34C
330
1E
100
AcDbEntity
  8
0
100
AcDbLine
 10
94.12693671199008
 20
162.0178590852899
 30
0.0
 11
93.9685
 21
162.626
 31
0.0
  0
LINE
  5
34D
330
1E
100
AcDbEntity
  8
0
100
AcDbLine
 10
93.9685
 20
162.626
 30
0.0
 11
93.93550000000001
 21
162.7259999999999
 31
0.0
  0
LINE
  5
34E
330
1E
100
AcDbEntity
  8
0
100
AcDbLine
 10
93.93550000000001
 20
162.7259999999999
 30
0.0
 11
93.63229999999999
 21
163.417
 31
0.0
  0
LINE
  5
34F
330
1E
100
AcDbEntity
  8
0
100
AcDbLine
 10
94.14669999999999
 20
161.942
 30
0.0
 11
94.12734004365521
 21
162.016310943546
 31
0.0
  0
LINE
  5
350
330
1E
100
AcDbEntity
  8
0
100
AcDbLine
 10
94.20399555201571
 20
161.516705305722
 30
0.0
 11
94.16769999999999
 21
161.8319999999999
 31
0.0
  0
LINE
  5
351
330
1E
100
AcDbEntity
  8
0
100
AcDbLine
 10
94.16769999999999
 20
161.8319999999999
 30
0.0
 11
94.14669999999999
 21
161.942
 31
0.0
  0
LINE
  5
352
330
1E
100
AcDbEntity
  8
0
100
AcDbLine
 10
93.244
 20
164.0209999999999
 30
0.0
 11
92.77970000000001
 21
164.543
 31
0.0
  0
LINE
  5
353
330
1E
100
AcDbEntity
  8
0
100
AcDbLine
 10
92.1052
 20
165.089
 30
0.0
 11
91.3396
 21
165.5279999999999
 31
0.0
  0
LINE
  5
354
330
1E
100
AcDbEntity
  8
0
100
AcDbLine
 10
96.41530000000001
 20
170.0
 30
0.0
 11
85.0
 21
170.0
 31
0.0
  0
LINE
  5
355
330
1E
100
AcDbEntity
  8
0
100
AcDbLine
 10
88.85980000000001
 20
166.282
 30
0.0
 11
88.08719999999999
 21
166.3949999999999
 31
0.0
  0
LINE
  5
356
330
1E
100
AcDbEntity
  8
0
100
AcDbLine
 10
90.3259
 20
165.929
 30
0.0
 11
89.6034
 21
166.129
 31
0.0
  0
LINE
  5
357
330
1E
100
AcDbEntity
  8
0
100
AcDbLine
 10
91.0124
 20
165.676
 30
0.0
 11
90.3259
 21
165.929
 31
0.0
  0
LINE
  5
358
330
1E
100
AcDbEntity
  8
0
100
AcDbLine
 10
91.3396
 20
165.5279999999999
 30
0.0
 11
91.0124
 21
165.676
 31
0.0
  0
LINE
  5
359
330
1E
100
AcDbEntity
  8
0
100
AcDbLine
 10
89.6034
 20
166.129
 30
0.0
 11
88.85980000000001
 21
166.282
 31
0.0
  0
LINE
  5
35A
330
1E
100
AcDbEntity
  8
0
100
AcDbLine
 10
87.05150000000001
 20
166.4909999999999
 30
0.0
 11
86.36000000000001
 21
166.529
 31
0.0
  0
LINE
  5
35B
330
1E
100
AcDbEntity
  8
0
100
AcDbLine
 10
88.08719999999999
 20
166.3949999999999
 30
0.0
 11
87.05150000000001
 21
166.4909999999999
 31
0.0
  0
LINE
  5
35C
330
1E
100
AcDbEntity
  8
0
100
AcDbLine
 10
86.36000000000001
 20
166.529
 30
0.0
 11
85.0
 21
166.5529999999999
 31
0.0
  0
LINE
  5
35D
330
1E
100
AcDbEntity
  8
0
100
AcDbLine
 10
84.70811697245109
 20
77.86961999353579
 30
0.0
 11
84.6537
 21
77.8694
 31
0.0
  0
LINE
  5
35E
330
1E
100
AcDbEntity
  8
0
100
AcDbLine
 10
84.97799999999999
 20
77.8724
 30
0.0
 11
84.4926
 21
77.8674
 31
0.0
  0
LINE
  5
35F
330
1E
100
AcDbEntity
  8
0
100
AcDbLine
 10
84.6537
 20
77.8694
 30
0.0
 11
84.4926
 21
77.8674
 31
0.0
  0
LINE
  5
360
330
1E
100
AcDbEntity
  8
0
100
AcDbLine
 10
84.4926
 20
77.8674
 30
0.0
 11
84.01329999999999
 21
77.8544
 31
0.0
  0
ENDSEC
  0
SECTION
  2
OBJECTS
  0
DICTIONARY
  5
C
330
0
100
AcDbDictionary
281
     1
  3
ACAD_GROUP
350
D
  3
ACAD_LAYOUT
350
19
  3
ACAD_MLINESTYLE
350
16
  3
ACAD_PLOTSETTINGS
350
18
  3
ACAD_PLOTSTYLENAME
350
E
  3
AcDbVariableDictionary
350
362
  0
DICTIONARY
  5
D
102
{ACAD_REACTORS
330
C
102
}
330
C
100
AcDbDictionary
281
     1
  0
DICTIONARY
  5
19
102
{ACAD_REACTORS
330
C
102
}
330
C
100
AcDbDictionary
281
     1
  3
Layout1
350
1D
  3
Model
350
21
  0
DICTIONARY
  5
16
102
{ACAD_REACTORS
330
C
102
}
330
C
100
AcDbDictionary
281
     1
  3
Standard
350
17
  0
DICTIONARY
  5
18
102
{ACAD_REACTORS
330
C
102
}
330
C
100
AcDbDictionary
281
     1
  0
ACDBDICTIONARYWDFLT
  5
E
102
{ACAD_REACTORS
330
C
102
}
330
C
100
AcDbDictionary
281
     1
  3
Normal
350
F
100
AcDbDictionaryWithDefault
340
F
  0
DICTIONARY
  5
362
102
{ACAD_REACTORS
330
C
102
}
330
C
100
AcDbDictionary
281
     1
  3
DIMASSOC
350
363
  0
LAYOUT
  5
1D
102
{ACAD_REACTORS
330
19
102
}
330
19
100
AcDbPlotSettings
  1

  2
C:\Programme\AutoCAD LT 2002 Deu\plotters\DWF ePlot (optimized for plotting).pc3
  4

  6

 40
0.0
 41
0.0
 42
0.0
 43
0.0
 44
0.0
 45
0.0
 46
0.0
 47
0.0
 48
0.0
 49
0.0
140
0.0
141
0.0
142
1.0
143
1.0
 70
   688
 72
     0
 73
     0
 74
     5
  7

 75
    16
147
1.0
148
0.0
149
0.0
100
AcDbLayout
  1
Layout1
 70
     1
 71
     1
 10
0.0
 20
0.0
 11
12.0
 21
9.0
 12
0.0
 22
0.0
 32
0.0
 14
1.000000000000000E+20
 24
1.000000000000000E+20
 34
1.000000000000000E+20
 15
-1.000000000000000E+20
 25
-1.000000000000000E+20
 35
-1.000000000000000E+20
146
0.0
 13
0.0
 23
0.0
 33
0.0
 16
1.0
 26
0.0
 36
0.0
 17
0.0
 27
1.0
 37
0.0
 76
     0
330
1A
  0
LAYOUT
  5
21
102
{ACAD_REACTORS
330
19
102
}
330
19
100
AcDbPlotSettings
  1

  2
C:\Programme\AutoCAD LT 2002 Deu\plotters\DWF ePlot (optimized for plotting).pc3
  4

  6

 40
0.0
 41
0.0
 42
0.0
 43
0.0
 44
0.0
 45
0.0
 46
0.0
 47
0.0
 48
0.0
 49
0.0
140
0.0
141
0.0
142
1.0
143
1.0
 70
  1712
 72
     0
 73
     0
 74
     0
  7

 75
     0
147
1.0
148
0.0
149
0.0
100
AcDbLayout
  1
Model
 70
     1
 71
     0
 10
0.0
 20
0.0
 11
12.0
 21
9.0
 12
0.0
 22
0.0
 32
0.0
 14
0.0
 24
0.0
 34
0.0
 15
0.0
 25
0.0
 35
0.0
146
0.0
 13
0.0
 23
0.0
 33
0.0
 16
1.0
 26
0.0
 36
0.0
 17
0.0
 27
1.0
 37
0.0
 76
     0
330
1E
  0
MLINESTYLE
  5
17
102
{ACAD_REACTORS
330
16
102
}
330
16
100
AcDbMlineStyle
  2
STANDARD
 70
     0
  3

 62
   256
 51
90.0
 52
90.0
 71
     2
 49
0.5
 62
   256
  6
BYLAYER
 49
-0.5
 62
   256
  6
BYLAYER
  0
ACDBPLACEHOLDER
  5
F
102
{ACAD_REACTORS
330
E
102
}
330
E
  0
DICTIONARYVAR
  5
363
102
{ACAD_REACTORS
330
362
102
}
330
362
100
DictionaryVariables
280
     0
  1
1
  0
ENDSEC
  0
EOF
