  0
SECTION
  2
HEADER
  9
$ACADVER
  1
AC1015
  9
$ACADMAINTVER
 70
    13
  9
$DWGCODEPAGE
  3
ANSI_1252
  9
$INSBASE
 10
0.0
 20
0.0
 30
0.0
  9
$EXTMIN
 10
0.0
 20
-0.0000000000000044
 30
0.0
  9
$EXTMAX
 10
170.0
 20
170.0
 30
0.0
  9
$LIMMIN
 10
0.0
 20
0.0
  9
$LIMMAX
 10
12.0
 20
9.0
  9
$ORTHOMODE
 70
     0
  9
$REGENMODE
 70
     1
  9
$FILLMODE
 70
     1
  9
$QTEXTMODE
 70
     0
  9
$MIRRTEXT
 70
     1
  9
$LTSCALE
 40
1.0
  9
$ATTMODE
 70
     1
  9
$TEXTSIZE
 40
0.2
  9
$TRACEWID
 40
0.05
  9
$TEXTSTYLE
  7
Standard
  9
$CLAYER
  8
0
  9
$CELTYPE
  6
Continuous
  9
$CECOLOR
 62
   256
  9
$CELTSCALE
 40
1.0
  9
$DISPSILH
 70
     0
  9
$DIMSCALE
 40
1.0
  9
$DIMASZ
 40
0.18
  9
$DIMEXO
 40
0.0625
  9
$DIMDLI
 40
0.38
  9
$DIMRND
 40
0.0
  9
$DIMDLE
 40
0.0
  9
$DIMEXE
 40
0.18
  9
$DIMTP
 40
0.0
  9
$DIMTM
 40
0.0
  9
$DIMTXT
 40
0.18
  9
$DIMCEN
 40
0.09
  9
$DIMTSZ
 40
0.0
  9
$DIMTOL
 70
     0
  9
$DIMLIM
 70
     0
  9
$DIMTIH
 70
     1
  9
$DIMTOH
 70
     1
  9
$DIMSE1
 70
     0
  9
$DIMSE2
 70
     0
  9
$DIMTAD
 70
     0
  9
$DIMZIN
 70
     0
  9
$DIMBLK
  1

  9
$DIMASO
 70
     1
  9
$DIMSHO
 70
     1
  9
$DIMPOST
  1

  9
$DIMAPOST
  1

  9
$DIMALT
 70
     0
  9
$DIMALTD
 70
     2
  9
$DIMALTF
 40
25.4
  9
$DIMLFAC
 40
1.0
  9
$DIMTOFL
 70
     0
  9
$DIMTVP
 40
0.0
  9
$DIMTIX
 70
     0
  9
$DIMSOXD
 70
     0
  9
$DIMSAH
 70
     0
  9
$DIMBLK1
  1

  9
$DIMBLK2
  1

  9
$DIMSTYLE
  2
Standard
  9
$DIMCLRD
 70
     0
  9
$DIMCLRE
 70
     0
  9
$DIMCLRT
 70
     0
  9
$DIMTFAC
 40
1.0
  9
$DIMGAP
 40
0.09
  9
$DIMJUST
 70
     0
  9
$DIMSD1
 70
     0
  9
$DIMSD2
 70
     0
  9
$DIMTOLJ
 70
     1
  9
$DIMTZIN
 70
     0
  9
$DIMALTZ
 70
     0
  9
$DIMALTTZ
 70
     0
  9
$DIMUPT
 70
     0
  9
$DIMDEC
 70
     4
  9
$DIMTDEC
 70
     4
  9
$DIMALTU
 70
     2
  9
$DIMALTTD
 70
     2
  9
$DIMTXSTY
  7
Standard
  9
$DIMAUNIT
 70
     0
  9
$DIMADEC
 70
     0
  9
$DIMALTRND
 40
0.0
  9
$DIMAZIN
 70
     0
  9
$DIMDSEP
 70
    46
  9
$DIMATFIT
 70
     3
  9
$DIMFRAC
 70
     0
  9
$DIMLDRBLK
  1

  9
$DIMLUNIT
 70
     2
  9
$DIMLWD
 70
    -2
  9
$DIMLWE
 70
    -2
  9
$DIMTMOVE
 70
     0
  9
$LUNITS
 70
     2
  9
$LUPREC
 70
     4
  9
$SKETCHINC
 40
0.1
  9
$FILLETRAD
 40
0.0
  9
$AUNITS
 70
     0
  9
$AUPREC
 70
     0
  9
$MENU
  1
.
  9
$ELEVATION
 40
0.0
  9
$PELEVATION
 40
0.0
  9
$THICKNESS
 40
0.0
  9
$LIMCHECK
 70
     0
  9
$CHAMFERA
 40
0.0
  9
$CHAMFERB
 40
0.0
  9
$CHAMFERC
 40
0.0
  9
$CHAMFERD
 40
0.0
  9
$SKPOLY
 70
     0
  9
$TDCREATE
 40
2455509.991491968
  9
$TDUCREATE
 40
2455509.949825300
  9
$TDUPDATE
 40
2455509.994969248
  9
$TDUUPDATE
 40
2455509.953302581
  9
$TDINDWG
 40
0.0034772801
  9
$TDUSRTIMER
 40
0.0034772801
  9
$USRTIMER
 70
     1
  9
$ANGBASE
 50
0.0
  9
$ANGDIR
 70
     0
  9
$PDMODE
 70
     0
  9
$PDSIZE
 40
0.0
  9
$PLINEWID
 40
0.0
  9
$SPLFRAME
 70
     0
  9
$SPLINETYPE
 70
     6
  9
$SPLINESEGS
 70
     8
  9
$HANDSEED
  5
2A0
  9
$SURFTAB1
 70
     6
  9
$SURFTAB2
 70
     6
  9
$SURFTYPE
 70
     6
  9
$SURFU
 70
     6
  9
$SURFV
 70
     6
  9
$UCSBASE
  2

  9
$UCSNAME
  2

  9
$UCSORG
 10
0.0
 20
0.0
 30
0.0
  9
$UCSXDIR
 10
1.0
 20
0.0
 30
0.0
  9
$UCSYDIR
 10
0.0
 20
1.0
 30
0.0
  9
$UCSORTHOREF
  2

  9
$UCSORTHOVIEW
 70
     1
  9
$UCSORGTOP
 10
0.0
 20
0.0
 30
0.0
  9
$UCSORGBOTTOM
 10
0.0
 20
0.0
 30
0.0
  9
$UCSORGLEFT
 10
0.0
 20
0.0
 30
0.0
  9
$UCSORGRIGHT
 10
0.0
 20
0.0
 30
0.0
  9
$UCSORGFRONT
 10
0.0
 20
0.0
 30
0.0
  9
$UCSORGBACK
 10
0.0
 20
0.0
 30
0.0
  9
$PUCSBASE
  2

  9
$PUCSNAME
  2

  9
$PUCSORG
 10
0.0
 20
0.0
 30
0.0
  9
$PUCSXDIR
 10
1.0
 20
0.0
 30
0.0
  9
$PUCSYDIR
 10
0.0
 20
1.0
 30
0.0
  9
$PUCSORTHOREF
  2

  9
$PUCSORTHOVIEW
 70
     0
  9
$PUCSORGTOP
 10
0.0
 20
0.0
 30
0.0
  9
$PUCSORGBOTTOM
 10
0.0
 20
0.0
 30
0.0
  9
$PUCSORGLEFT
 10
0.0
 20
0.0
 30
0.0
  9
$PUCSORGRIGHT
 10
0.0
 20
0.0
 30
0.0
  9
$PUCSORGFRONT
 10
0.0
 20
0.0
 30
0.0
  9
$PUCSORGBACK
 10
0.0
 20
0.0
 30
0.0
  9
$USERI1
 70
     0
  9
$USERI2
 70
     0
  9
$USERI3
 70
     0
  9
$USERI4
 70
     0
  9
$USERI5
 70
     0
  9
$USERR1
 40
0.0
  9
$USERR2
 40
0.0
  9
$USERR3
 40
0.0
  9
$USERR4
 40
0.0
  9
$USERR5
 40
0.0
  9
$WORLDVIEW
 70
     1
  9
$SHADEDGE
 70
     3
  9
$SHADEDIF
 70
    70
  9
$TILEMODE
 70
     1
  9
$MAXACTVP
 70
    64
  9
$PINSBASE
 10
0.0
 20
0.0
 30
0.0
  9
$PLIMCHECK
 70
     0
  9
$PEXTMIN
 10
1.000000000000000E+20
 20
1.000000000000000E+20
 30
1.000000000000000E+20
  9
$PEXTMAX
 10
-1.000000000000000E+20
 20
-1.000000000000000E+20
 30
-1.000000000000000E+20
  9
$PLIMMIN
 10
0.0
 20
0.0
  9
$PLIMMAX
 10
12.0
 20
9.0
  9
$UNITMODE
 70
     0
  9
$VISRETAIN
 70
     1
  9
$PLINEGEN
 70
     0
  9
$PSLTSCALE
 70
     1
  9
$TREEDEPTH
 70
  3020
  9
$CMLSTYLE
  2
Standard
  9
$CMLJUST
 70
     0
  9
$CMLSCALE
 40
1.0
  9
$PROXYGRAPHICS
 70
     1
  9
$MEASUREMENT
 70
     0
  9
$CELWEIGHT
370
    -1
  9
$ENDCAPS
280
     0
  9
$JOINSTYLE
280
     0
  9
$LWDISPLAY
290
     0
  9
$INSUNITS
 70
     0
  9
$HYPERLINKBASE
  1

  9
$STYLESHEET
  1

  9
$XEDIT
290
     1
  9
$CEPSNTYPE
380
     0
  9
$PSTYLEMODE
290
     1
  9
$FINGERPRINTGUID
  2
{EBB4B415-F8D7-4EF3-929B-E60F5E7A81D8}
  9
$VERSIONGUID
  2
{D47A696A-DA2C-49DF-AA56-FA5DC307B273}
  9
$EXTNAMES
290
     1
  9
$PSVPSCALE
 40
0.0
  9
$OLESTARTUP
290
     0
  0
ENDSEC
  0
SECTION
  2
CLASSES
  0
CLASS
  1
ACDBDICTIONARYWDFLT
  2
AcDbDictionaryWithDefault
  3
AutoCAD 2000
 90
        0
280
     0
281
     0
  0
CLASS
  1
ACDBPLACEHOLDER
  2
AcDbPlaceHolder
  3
AutoCAD 2000
 90
        0
280
     0
281
     0
  0
CLASS
  1
LAYOUT
  2
AcDbLayout
  3
AutoCAD 2000
 90
        0
280
     0
281
     0
  0
CLASS
  1
DICTIONARYVAR
  2
AcDbDictionaryVar
  3
AutoCAD 2000
 90
        0
280
     0
281
     0
  0
ENDSEC
  0
SECTION
  2
TABLES
  0
TABLE
  2
VPORT
  5
8
330
0
100
AcDbSymbolTable
 70
     7
  0
VPORT
  5
29F
330
8
100
AcDbSymbolTableRecord
100
AcDbViewportTableRecord
  2
*Active
 70
     0
 10
0.0
 20
0.0
 11
1.0
 21
1.0
 12
85.0
 22
85.0
 13
0.0
 23
0.0
 14
1.0
 24
1.0
 15
0.0
 25
0.0
 16
0.0
 26
0.0
 36
1.0
 17
0.0
 27
0.0
 37
0.0
 40
171.1499436302142
 41
2.073363431151241
 42
50.0
 43
0.0
 44
0.0
 50
0.0
 51
0.0
 71
     0
 72
   100
 73
     1
 74
     3
 75
     0
 76
     0
 77
     0
 78
     0
281
     0
 65
     1
110
0.0
120
0.0
130
0.0
111
1.0
121
0.0
131
0.0
112
0.0
122
1.0
132
0.0
 79
     1
146
0.0
  0
ENDTAB
  0
TABLE
  2
LTYPE
  5
5
330
0
100
AcDbSymbolTable
 70
     1
  0
LTYPE
  5
13
330
5
100
AcDbSymbolTableRecord
100
AcDbLinetypeTableRecord
  2
ByBlock
 70
     0
  3

 72
    65
 73
     0
 40
0.0
  0
LTYPE
  5
14
330
5
100
AcDbSymbolTableRecord
100
AcDbLinetypeTableRecord
  2
ByLayer
 70
     0
  3

 72
    65
 73
     0
 40
0.0
  0
LTYPE
  5
15
330
5
100
AcDbSymbolTableRecord
100
AcDbLinetypeTableRecord
  2
Continuous
 70
     0
  3
Solid line
 72
    65
 73
     0
 40
0.0
  0
ENDTAB
  0
TABLE
  2
LAYER
  5
2
330
0
100
AcDbSymbolTable
 70
     1
  0
LAYER
  5
10
330
2
100
AcDbSymbolTableRecord
100
AcDbLayerTableRecord
  2
0
 70
     0
 62
     7
  6
Continuous
370
    -3
390
F
  0
ENDTAB
  0
TABLE
  2
STYLE
  5
3
330
0
100
AcDbSymbolTable
 70
     1
  0
STYLE
  5
11
330
3
100
AcDbSymbolTableRecord
100
AcDbTextStyleTableRecord
  2
Standard
 70
     0
 40
0.0
 41
1.0
 50
0.0
 71
     0
 42
0.2
  3
txt
  4

  0
ENDTAB
  0
TABLE
  2
VIEW
  5
6
330
0
100
AcDbSymbolTable
 70
     0
  0
ENDTAB
  0
TABLE
  2
UCS
  5
7
330
0
100
AcDbSymbolTable
 70
     0
  0
ENDTAB
  0
TABLE
  2
APPID
  5
9
330
0
100
AcDbSymbolTable
 70
     1
  0
APPID
  5
12
330
9
100
AcDbSymbolTableRecord
100
AcDbRegAppTableRecord
  2
ACAD
 70
     0
  0
ENDTAB
  0
TABLE
  2
DIMSTYLE
  5
A
330
0
100
AcDbSymbolTable
 70
     1
100
AcDbDimStyleTable
 71
     0
  0
DIMSTYLE
105
1D1
330
A
100
AcDbSymbolTableRecord
100
AcDbDimStyleTableRecord
  2
Standard
 70
     0
340
11
  0
ENDTAB
  0
TABLE
  2
BLOCK_RECORD
  5
1
330
0
100
AcDbSymbolTable
 70
     0
  0
BLOCK_RECORD
  5
1E
330
1
100
AcDbSymbolTableRecord
100
AcDbBlockTableRecord
  2
*Model_Space
340
21
  0
BLOCK_RECORD
  5
1A
330
1
100
AcDbSymbolTableRecord
100
AcDbBlockTableRecord
  2
*Paper_Space
340
1D
  0
ENDTAB
  0
ENDSEC
  0
SECTION
  2
BLOCKS
  0
BLOCK
  5
1F
330
1E
100
AcDbEntity
  8
0
100
AcDbBlockBegin
  2
*Model_Space
 70
     0
 10
0.0
 20
0.0
 30
0.0
  3
*Model_Space
  1

  0
ENDBLK
  5
20
330
1E
100
AcDbEntity
  8
0
100
AcDbBlockEnd
  0
BLOCK
  5
1B
330
1A
100
AcDbEntity
 67
     1
  8
0
100
AcDbBlockBegin
  2
*Paper_Space
 70
     0
 10
0.0
 20
0.0
 30
0.0
  3
*Paper_Space
  1

  0
ENDBLK
  5
1C
330
1A
100
AcDbEntity
 67
     1
  8
0
100
AcDbBlockEnd
  0
ENDSEC
  0
SECTION
  2
ENTITIES
  0
LINE
  5
22
330
1E
100
AcDbEntity
  8
0
100
AcDbLine
 10
5.632929999999999
 20
9.324769999999999
 30
0.0
 11
7.35786
 21
7.35786
 31
0.0
  0
LINE
  5
23
330
1E
100
AcDbEntity
  8
0
100
AcDbLine
 10
0.8354
 20
34.7
 30
0.0
 11
1.3
 21
22.2
 31
0.0
  0
LINE
  5
24
330
1E
100
AcDbEntity
  8
0
100
AcDbLine
 10
1.3
 20
22.2
 30
0.0
 11
1.6711
 21
18.8895
 31
0.0
  0
LINE
  5
28
330
1E
100
AcDbEntity
  8
0
100
AcDbLine
 10
1.6711
 20
18.8895
 30
0.0
 11
2.18148
 21
16.3236
 31
0.0
  0
LINE
  5
29
330
1E
100
AcDbEntity
  8
0
100
AcDbLine
 10
2.18148
 20
16.3236
 30
0.0
 11
3.022409999999999
 21
13.8463
 31
0.0
  0
LINE
  5
2C
330
1E
100
AcDbEntity
  8
0
100
AcDbLine
 10
3.022409999999999
 20
13.8463
 30
0.0
 11
4.17949
 21
11.5
 31
0.0
  0
LINE
  5
2D
330
1E
100
AcDbEntity
  8
0
100
AcDbLine
 10
4.17949
 20
11.5
 30
0.0
 11
5.632929999999999
 21
9.32476999999999
 31
0.0
  0
LINE
  5
2E
330
1E
100
AcDbEntity
  8
0
100
AcDbLine
 10
4.17949
 20
11.5
 30
0.0
 11
5.632929999999999
 21
9.324769999999999
 31
0.0
  0
LINE
  5
2F
330
1E
100
AcDbEntity
  8
0
100
AcDbLine
 10
34.7
 20
0.835399999999996
 30
0.0
 11
47.0
 21
0.4997999999999961
 31
0.0
  0
LINE
  5
30
330
1E
100
AcDbEntity
  8
0
100
AcDbLine
 10
47.0
 20
0.4997999999999961
 30
0.0
 11
59.29999999999999
 21
0.263599999999996
 31
0.0
  0
LINE
  5
31
330
1E
100
AcDbEntity
  8
0
100
AcDbLine
 10
34.7
 20
0.835399999999996
 30
0.0
 11
47.0
 21
0.4997999999999961
 31
0.0
  0
LINE
  5
32
330
1E
100
AcDbEntity
  8
0
100
AcDbLine
 10
18.8895
 20
1.6711
 30
0.0
 11
22.2
 21
1.3
 31
0.0
  0
LINE
  5
33
330
1E
100
AcDbEntity
  8
0
100
AcDbLine
 10
13.8463
 20
3.022409999999999
 30
0.0
 11
16.3236
 21
2.18148
 31
0.0
  0
LINE
  5
34
330
1E
100
AcDbEntity
  8
0
100
AcDbLine
 10
9.324769999999999
 20
5.632929999999999
 30
0.0
 11
11.5
 21
4.17949
 31
0.0
  0
LINE
  5
35
330
1E
100
AcDbEntity
  8
0
100
AcDbLine
 10
7.35786
 20
7.35786
 30
0.0
 11
9.324769999999999
 21
5.632929999999999
 31
0.0
  0
LINE
  5
3A
330
1E
100
AcDbEntity
  8
0
100
AcDbLine
 10
7.35786
 20
7.35786
 30
0.0
 11
9.324769999999999
 21
5.63292999999999
 31
0.0
  0
LINE
  5
3B
330
1E
100
AcDbEntity
  8
0
100
AcDbLine
 10
11.5
 20
4.17949
 30
0.0
 11
13.8463
 21
3.022409999999999
 31
0.0
  0
LINE
  5
3E
330
1E
100
AcDbEntity
  8
0
100
AcDbLine
 10
9.324769999999999
 20
5.63292999999999
 30
0.0
 11
11.5
 21
4.17949
 31
0.0
  0
LINE
  5
3F
330
1E
100
AcDbEntity
  8
0
100
AcDbLine
 10
11.5
 20
4.17949
 30
0.0
 11
13.8463
 21
3.02240999999999
 31
0.0
  0
LINE
  5
40
330
1E
100
AcDbEntity
  8
0
100
AcDbLine
 10
16.3236
 20
2.18148
 30
0.0
 11
18.8895
 21
1.6711
 31
0.0
  0
LINE
  5
43
330
1E
100
AcDbEntity
  8
0
100
AcDbLine
 10
13.8463
 20
3.02240999999999
 30
0.0
 11
16.3236
 21
2.18148
 31
0.0
  0
LINE
  5
44
330
1E
100
AcDbEntity
  8
0
100
AcDbLine
 10
16.3236
 20
2.18148
 30
0.0
 11
18.8895
 21
1.6711
 31
0.0
  0
LINE
  5
45
330
1E
100
AcDbEntity
  8
0
100
AcDbLine
 10
22.2
 20
1.3
 30
0.0
 11
34.7
 21
0.835399999999996
 31
0.0
  0
LINE
  5
4A
330
1E
100
AcDbEntity
  8
0
100
AcDbLine
 10
18.8895
 20
1.6711
 30
0.0
 11
22.2
 21
1.3
 31
0.0
  0
LINE
  5
4B
330
1E
100
AcDbEntity
  8
0
100
AcDbLine
 10
22.2
 20
1.3
 30
0.0
 11
34.7
 21
0.835399999999996
 31
0.0
  0
LINE
  5
4C
330
1E
100
AcDbEntity
  8
0
100
AcDbLine
 10
5.632929999999999
 20
9.32476999999999
 30
0.0
 11
7.35786
 21
7.35786
 31
0.0
  0
LINE
  5
4D
330
1E
100
AcDbEntity
  8
0
100
AcDbLine
 10
0.4998000000000001
 20
47.0
 30
0.0
 11
0.8354
 21
34.7
 31
0.0
  0
LINE
  5
51
330
1E
100
AcDbEntity
  8
0
100
AcDbLine
 10
72.4328
 20
0.0510999999999961
 30
0.0
 11
85.0
 21
-0.0000000000000039
 31
0.0
  0
LINE
  5
52
330
1E
100
AcDbEntity
  8
0
100
AcDbLine
 10
72.4328
 20
0.0510999999999961
 30
0.0
 11
85.0
 21
-0.0000000000000039
 31
0.0
  0
LINE
  5
53
330
1E
100
AcDbEntity
  8
0
100
AcDbLine
 10
72.4328
 20
0.0510999999999956
 30
0.0
 11
85.0
 21
-0.0000000000000044
 31
0.0
  0
LINE
  5
54
330
1E
100
AcDbEntity
  8
0
100
AcDbLine
 10
72.4328
 20
0.0510999999999956
 30
0.0
 11
85.0
 21
-0.0000000000000044
 31
0.0
  0
LINE
  5
55
330
1E
100
AcDbEntity
  8
0
100
AcDbLine
 10
59.29999999999999
 20
0.263599999999996
 30
0.0
 11
72.4328
 21
0.0510999999999961
 31
0.0
  0
LINE
  5
56
330
1E
100
AcDbEntity
  8
0
100
AcDbLine
 10
59.29999999999999
 20
0.263599999999996
 30
0.0
 11
72.4328
 21
0.0510999999999962
 31
0.0
  0
LINE
  5
5A
330
1E
100
AcDbEntity
  8
0
100
AcDbLine
 10
59.29999999999999
 20
0.263599999999996
 30
0.0
 11
72.4328
 21
0.0510999999999956
 31
0.0
  0
LINE
  5
5B
330
1E
100
AcDbEntity
  8
0
100
AcDbLine
 10
47.0
 20
0.4997999999999961
 30
0.0
 11
59.29999999999999
 21
0.263599999999996
 31
0.0
  0
LINE
  5
5D
330
1E
100
AcDbEntity
  8
0
100
AcDbLine
 10
0.2636
 20
59.29999999999999
 30
0.0
 11
0.4998000000000001
 21
47.0
 31
0.0
  0
LINE
  5
60
330
1E
100
AcDbEntity
  8
0
100
AcDbLine
 10
78.5879
 20
60.8545
 30
0.0
 11
81.6937
 21
60.25339999999999
 31
0.0
  0
LINE
  5
62
330
1E
100
AcDbEntity
  8
0
100
AcDbLine
 10
75.4821
 20
61.9566
 30
0.0
 11
78.5879
 21
60.8545
 31
0.0
  0
LINE
  5
65
330
1E
100
AcDbEntity
  8
0
100
AcDbLine
 10
81.6937
 20
60.25339999999999
 30
0.0
 11
85.0
 21
59.95280000000001
 31
0.0
  0
LINE
  5
67
330
1E
100
AcDbEntity
  8
0
100
AcDbLine
 10
72.5766
 20
63.25899999999999
 30
0.0
 11
75.4821
 21
61.9566
 31
0.0
  0
LINE
  5
6A
330
1E
100
AcDbEntity
  8
0
100
AcDbLine
 10
67.36679999999999
 20
67.36679999999999
 30
0.0
 11
69.77129999999999
 21
65.1627
 31
0.0
  0
LINE
  5
6C
330
1E
100
AcDbEntity
  8
0
100
AcDbLine
 10
69.77129999999999
 20
65.1627
 30
0.0
 11
72.5766
 21
63.25899999999999
 31
0.0
  0
LINE
  5
6E
330
1E
100
AcDbEntity
  8
0
100
AcDbLine
 10
0.0511
 20
72.4328
 30
0.0
 11
0.2636
 21
59.29999999999999
 31
0.0
  0
LINE
  5
6F
330
1E
100
AcDbEntity
  8
0
100
AcDbLine
 10
0.0511
 20
72.4328
 30
0.0
 11
0.2636
 21
59.29999999999999
 31
0.0
  0
LINE
  5
75
330
1E
100
AcDbEntity
  8
0
100
AcDbLine
 10
0.0
 20
85.0
 30
0.0
 11
0.0511
 21
72.4328
 31
0.0
  0
LINE
  5
78
330
1E
100
AcDbEntity
  8
0
100
AcDbLine
 10
60.25339999999999
 20
81.6937
 30
0.0
 11
60.8545
 21
78.5879
 31
0.0
  0
LINE
  5
79
330
1E
100
AcDbEntity
  8
0
100
AcDbLine
 10
59.95280000000001
 20
85.0
 30
0.0
 11
60.25339999999999
 21
81.6937
 31
0.0
  0
LINE
  5
85
330
1E
100
AcDbEntity
  8
0
100
AcDbLine
 10
61.9566
 20
75.4821
 30
0.0
 11
63.25899999999999
 21
72.5766
 31
0.0
  0
LINE
  5
86
330
1E
100
AcDbEntity
  8
0
100
AcDbLine
 10
60.8545
 20
78.5879
 30
0.0
 11
61.9566
 21
75.4821
 31
0.0
  0
LINE
  5
BE
330
1E
100
AcDbEntity
  8
0
100
AcDbLine
 10
63.25899999999999
 20
72.5766
 30
0.0
 11
65.1627
 21
69.77129999999999
 31
0.0
  0
LINE
  5
C0
330
1E
100
AcDbEntity
  8
0
100
AcDbLine
 10
65.1627
 20
69.77129999999999
 30
0.0
 11
67.36679999999999
 21
67.36679999999999
 31
0.0
  0
LINE
  5
C1
330
1E
100
AcDbEntity
  8
0
100
AcDbLine
 10
66.8105
 20
71.03950000000001
 30
0.0
 11
68.83169999999999
 21
68.83469999999999
 31
0.0
  0
LINE
  5
C2
330
1E
100
AcDbEntity
  8
0
100
AcDbLine
 10
65.0651
 20
73.6117
 30
0.0
 11
66.8105
 21
71.03950000000001
 31
0.0
  0
LINE
  5
C3
330
1E
100
AcDbEntity
  8
0
100
AcDbLine
 10
63.8708
 20
76.27589999999999
 30
0.0
 11
65.0651
 21
73.6117
 31
0.0
  0
LINE
  5
C4
330
1E
100
AcDbEntity
  8
0
100
AcDbLine
 10
62.8603
 20
79.1238
 30
0.0
 11
63.8708
 21
76.27589999999999
 31
0.0
  0
LINE
  5
D5
330
1E
100
AcDbEntity
  8
0
100
AcDbLine
 10
62.3091
 20
81.97169999999999
 30
0.0
 11
62.8603
 21
79.1238
 31
0.0
  0
LINE
  5
D6
330
1E
100
AcDbEntity
  8
0
100
AcDbLine
 10
62.0335
 20
85.00329999999999
 30
0.0
 11
62.3091
 21
81.97169999999999
 31
0.0
  0
LINE
  5
D8
330
1E
100
AcDbEntity
  8
0
100
AcDbLine
 10
68.83169999999999
 20
68.83469999999999
 30
0.0
 11
71.0365
 21
66.81359999999999
 31
0.0
  0
LINE
  5
E1
330
1E
100
AcDbEntity
  8
0
100
AcDbLine
 10
71.0365
 20
66.81359999999999
 30
0.0
 11
73.6087
 21
65.0681
 31
0.0
  0
LINE
  5
E2
330
1E
100
AcDbEntity
  8
0
100
AcDbLine
 10
73.6087
 20
65.0681
 30
0.0
 11
76.2728
 21
63.87389999999999
 31
0.0
  0
LINE
  5
EE
330
1E
100
AcDbEntity
  8
0
100
AcDbLine
 10
76.2728
 20
63.87389999999999
 30
0.0
 11
79.12069999999999
 21
62.8633
 31
0.0
  0
LINE
  5
EF
330
1E
100
AcDbEntity
  8
0
100
AcDbLine
 10
79.12069999999999
 20
62.8633
 30
0.0
 11
81.9687
 21
62.3122
 31
0.0
  0
LINE
  5
F6
330
1E
100
AcDbEntity
  8
0
100
AcDbLine
 10
85.0
 20
59.95280000000001
 30
0.0
 11
88.30629999999999
 21
60.25339999999999
 31
0.0
  0
LINE
  5
1CF
330
1E
100
AcDbEntity
  8
0
100
AcDbLine
 10
85.00020000000001
 20
62.0366
 30
0.0
 11
88.03180000000001
 21
62.3122
 31
0.0
  0
LINE
  5
1D0
330
1E
100
AcDbEntity
  8
0
100
AcDbLine
 10
81.9687
 20
62.3122
 30
0.0
 11
85.00020000000001
 21
62.0366
 31
0.0
  0
LINE
  5
1D5
330
1E
100
AcDbEntity
  8
0
100
AcDbLine
 10
81.9687
 20
107.6878
 30
0.0
 11
85.00020000000001
 21
107.9634
 31
0.0
  0
LINE
  5
1D6
330
1E
100
AcDbEntity
  8
0
100
AcDbLine
 10
85.0
 20
110.0472
 30
0.0
 11
88.30629999999999
 21
109.7466
 31
0.0
  0
LINE
  5
1D7
330
1E
100
AcDbEntity
  8
0
100
AcDbLine
 10
62.0335
 20
84.9967
 30
0.0
 11
62.3091
 21
88.0283
 31
0.0
  0
LINE
  5
1D8
330
1E
100
AcDbEntity
  8
0
100
AcDbLine
 10
22.2
 20
168.6999999999999
 30
0.0
 11
34.7
 21
169.1646
 31
0.0
  0
LINE
  5
1D9
330
1E
100
AcDbEntity
  8
0
100
AcDbLine
 10
22.2
 20
168.6999999999999
 30
0.0
 11
34.7
 21
169.1646
 31
0.0
  0
LINE
  5
1DA
330
1E
100
AcDbEntity
  8
0
100
AcDbLine
 10
0.8354
 20
135.3
 30
0.0
 11
1.3
 21
147.8
 31
0.0
  0
LINE
  5
1DB
330
1E
100
AcDbEntity
  8
0
100
AcDbLine
 10
4.17949
 20
158.4999999999999
 30
0.0
 11
5.632929999999999
 21
160.67523
 31
0.0
  0
LINE
  5
1DC
330
1E
100
AcDbEntity
  8
0
100
AcDbLine
 10
4.17949
 20
158.4999999999999
 30
0.0
 11
5.632929999999999
 21
160.67523
 31
0.0
  0
LINE
  5
1DD
330
1E
100
AcDbEntity
  8
0
100
AcDbLine
 10
1.6711
 20
151.1105
 30
0.0
 11
2.18148
 21
153.6763999999999
 31
0.0
  0
LINE
  5
1DE
330
1E
100
AcDbEntity
  8
0
100
AcDbLine
 10
3.022409999999999
 20
156.1537
 30
0.0
 11
4.17949
 21
158.4999999999999
 31
0.0
  0
LINE
  5
1DF
330
1E
100
AcDbEntity
  8
0
100
AcDbLine
 10
2.18148
 20
153.6763999999999
 30
0.0
 11
3.022409999999999
 21
156.1537
 31
0.0
  0
LINE
  5
1E0
330
1E
100
AcDbEntity
  8
0
100
AcDbLine
 10
1.3
 20
147.8
 30
0.0
 11
1.6711
 21
151.1105
 31
0.0
  0
LINE
  5
1E1
330
1E
100
AcDbEntity
  8
0
100
AcDbLine
 10
9.324769999999999
 20
164.36707
 30
0.0
 11
11.5
 21
165.82051
 31
0.0
  0
LINE
  5
1E2
330
1E
100
AcDbEntity
  8
0
100
AcDbLine
 10
9.324769999999999
 20
164.36707
 30
0.0
 11
11.5
 21
165.82051
 31
0.0
  0
LINE
  5
1E3
330
1E
100
AcDbEntity
  8
0
100
AcDbLine
 10
16.3236
 20
167.81852
 30
0.0
 11
18.8895
 21
168.3289
 31
0.0
  0
LINE
  5
1E4
330
1E
100
AcDbEntity
  8
0
100
AcDbLine
 10
16.3236
 20
167.81852
 30
0.0
 11
18.8895
 21
168.3289
 31
0.0
  0
LINE
  5
1E5
330
1E
100
AcDbEntity
  8
0
100
AcDbLine
 10
11.5
 20
165.82051
 30
0.0
 11
13.8463
 21
166.97759
 31
0.0
  0
LINE
  5
1E6
330
1E
100
AcDbEntity
  8
0
100
AcDbLine
 10
11.5
 20
165.82051
 30
0.0
 11
13.8463
 21
166.9775899999999
 31
0.0
  0
LINE
  5
1E7
330
1E
100
AcDbEntity
  8
0
100
AcDbLine
 10
13.8463
 20
166.97759
 30
0.0
 11
16.3236
 21
167.81852
 31
0.0
  0
LINE
  5
1E8
330
1E
100
AcDbEntity
  8
0
100
AcDbLine
 10
13.8463
 20
166.9775899999999
 30
0.0
 11
16.3236
 21
167.81852
 31
0.0
  0
LINE
  5
1E9
330
1E
100
AcDbEntity
  8
0
100
AcDbLine
 10
18.8895
 20
168.3289
 30
0.0
 11
22.2
 21
168.6999999999999
 31
0.0
  0
LINE
  5
1EA
330
1E
100
AcDbEntity
  8
0
100
AcDbLine
 10
18.8895
 20
168.3289
 30
0.0
 11
22.2
 21
168.6999999999999
 31
0.0
  0
LINE
  5
1EB
330
1E
100
AcDbEntity
  8
0
100
AcDbLine
 10
7.35786
 20
162.64214
 30
0.0
 11
9.324769999999999
 21
164.36707
 31
0.0
  0
LINE
  5
1EC
330
1E
100
AcDbEntity
  8
0
100
AcDbLine
 10
7.35786
 20
162.64214
 30
0.0
 11
9.324769999999999
 21
164.36707
 31
0.0
  0
LINE
  5
1ED
330
1E
100
AcDbEntity
  8
0
100
AcDbLine
 10
5.632929999999999
 20
160.67523
 30
0.0
 11
7.35786
 21
162.64214
 31
0.0
  0
LINE
  5
1EE
330
1E
100
AcDbEntity
  8
0
100
AcDbLine
 10
5.632929999999999
 20
160.67523
 30
0.0
 11
7.35786
 21
162.64214
 31
0.0
  0
LINE
  5
1EF
330
1E
100
AcDbEntity
  8
0
100
AcDbLine
 10
0.2636
 20
110.6999999999999
 30
0.0
 11
0.4998000000000001
 21
123.0
 31
0.0
  0
LINE
  5
1F0
330
1E
100
AcDbEntity
  8
0
100
AcDbLine
 10
0.4998000000000001
 20
123.0
 30
0.0
 11
0.8354
 21
135.3
 31
0.0
  0
LINE
  5
1F1
330
1E
100
AcDbEntity
  8
0
100
AcDbLine
 10
0.0511
 20
97.56720000000001
 30
0.0
 11
0.2636
 21
110.6999999999999
 31
0.0
  0
LINE
  5
1F2
330
1E
100
AcDbEntity
  8
0
100
AcDbLine
 10
0.0511
 20
97.56720000000001
 30
0.0
 11
0.2636
 21
110.6999999999999
 31
0.0
  0
LINE
  5
1F3
330
1E
100
AcDbEntity
  8
0
100
AcDbLine
 10
0.0
 20
85.0
 30
0.0
 11
0.0511
 21
97.56720000000001
 31
0.0
  0
LINE
  5
1F4
330
1E
100
AcDbEntity
  8
0
100
AcDbLine
 10
47.0
 20
169.5002
 30
0.0
 11
59.29999999999999
 21
169.7364
 31
0.0
  0
LINE
  5
1F5
330
1E
100
AcDbEntity
  8
0
100
AcDbLine
 10
47.0
 20
169.5002
 30
0.0
 11
59.29999999999999
 21
169.7364
 31
0.0
  0
LINE
  5
1F6
330
1E
100
AcDbEntity
  8
0
100
AcDbLine
 10
34.7
 20
169.1646
 30
0.0
 11
47.0
 21
169.5002
 31
0.0
  0
LINE
  5
1F7
330
1E
100
AcDbEntity
  8
0
100
AcDbLine
 10
34.7
 20
169.1646
 30
0.0
 11
47.0
 21
169.5002
 31
0.0
  0
LINE
  5
1F8
330
1E
100
AcDbEntity
  8
0
100
AcDbLine
 10
59.29999999999999
 20
169.7364
 30
0.0
 11
72.4328
 21
169.9488999999999
 31
0.0
  0
LINE
  5
1F9
330
1E
100
AcDbEntity
  8
0
100
AcDbLine
 10
59.29999999999999
 20
169.7364
 30
0.0
 11
72.4328
 21
169.9488999999999
 31
0.0
  0
LINE
  5
1FA
330
1E
100
AcDbEntity
  8
0
100
AcDbLine
 10
59.29999999999999
 20
169.7364
 30
0.0
 11
72.4328
 21
169.9488999999999
 31
0.0
  0
LINE
  5
1FB
330
1E
100
AcDbEntity
  8
0
100
AcDbLine
 10
72.4328
 20
169.9488999999999
 30
0.0
 11
85.0
 21
170.0
 31
0.0
  0
LINE
  5
1FC
330
1E
100
AcDbEntity
  8
0
100
AcDbLine
 10
72.4328
 20
169.9488999999999
 30
0.0
 11
85.0
 21
170.0
 31
0.0
  0
LINE
  5
1FD
330
1E
100
AcDbEntity
  8
0
100
AcDbLine
 10
72.4328
 20
169.9488999999999
 30
0.0
 11
85.0
 21
170.0
 31
0.0
  0
LINE
  5
1FE
330
1E
100
AcDbEntity
  8
0
100
AcDbLine
 10
72.4328
 20
169.9488999999999
 30
0.0
 11
85.0
 21
170.0
 31
0.0
  0
LINE
  5
1FF
330
1E
100
AcDbEntity
  8
0
100
AcDbLine
 10
71.0365
 20
103.1864
 30
0.0
 11
73.6087
 21
104.9319
 31
0.0
  0
LINE
  5
200
330
1E
100
AcDbEntity
  8
0
100
AcDbLine
 10
69.77129999999999
 20
104.8372999999999
 30
0.0
 11
72.5766
 21
106.741
 31
0.0
  0
LINE
  5
201
330
1E
100
AcDbEntity
  8
0
100
AcDbLine
 10
65.0651
 20
96.3883
 30
0.0
 11
66.8105
 21
98.9605
 31
0.0
  0
LINE
  5
202
330
1E
100
AcDbEntity
  8
0
100
AcDbLine
 10
63.25899999999999
 20
97.4234
 30
0.0
 11
65.1627
 21
100.2287
 31
0.0
  0
LINE
  5
203
330
1E
100
AcDbEntity
  8
0
100
AcDbLine
 10
66.8105
 20
98.9605
 30
0.0
 11
68.83169999999999
 21
101.1653
 31
0.0
  0
LINE
  5
204
330
1E
100
AcDbEntity
  8
0
100
AcDbLine
 10
67.36679999999999
 20
102.6332
 30
0.0
 11
69.77129999999999
 21
104.8372999999999
 31
0.0
  0
LINE
  5
205
330
1E
100
AcDbEntity
  8
0
100
AcDbLine
 10
65.1627
 20
100.2287
 30
0.0
 11
67.36679999999999
 21
102.6332
 31
0.0
  0
LINE
  5
206
330
1E
100
AcDbEntity
  8
0
100
AcDbLine
 10
68.83169999999999
 20
101.1653
 30
0.0
 11
71.0365
 21
103.1864
 31
0.0
  0
LINE
  5
207
330
1E
100
AcDbEntity
  8
0
100
AcDbLine
 10
62.8603
 20
90.87619999999999
 30
0.0
 11
63.8708
 21
93.7241
 31
0.0
  0
LINE
  5
208
330
1E
100
AcDbEntity
  8
0
100
AcDbLine
 10
60.8545
 20
91.41209999999999
 30
0.0
 11
61.9566
 21
94.5179
 31
0.0
  0
LINE
  5
209
330
1E
100
AcDbEntity
  8
0
100
AcDbLine
 10
63.8708
 20
93.7241
 30
0.0
 11
65.0651
 21
96.3883
 31
0.0
  0
LINE
  5
20A
330
1E
100
AcDbEntity
  8
0
100
AcDbLine
 10
61.9566
 20
94.5179
 30
0.0
 11
63.25899999999999
 21
97.4234
 31
0.0
  0
LINE
  5
20B
330
1E
100
AcDbEntity
  8
0
100
AcDbLine
 10
60.25339999999999
 20
88.30629999999999
 30
0.0
 11
60.8545
 21
91.41209999999999
 31
0.0
  0
LINE
  5
20C
330
1E
100
AcDbEntity
  8
0
100
AcDbLine
 10
59.95280000000001
 20
85.0
 30
0.0
 11
60.25339999999999
 21
88.30629999999999
 31
0.0
  0
LINE
  5
20D
330
1E
100
AcDbEntity
  8
0
100
AcDbLine
 10
62.3091
 20
88.0283
 30
0.0
 11
62.8603
 21
90.87619999999999
 31
0.0
  0
LINE
  5
20E
330
1E
100
AcDbEntity
  8
0
100
AcDbLine
 10
76.2728
 20
106.1261
 30
0.0
 11
79.12069999999999
 21
107.1366999999999
 31
0.0
  0
LINE
  5
20F
330
1E
100
AcDbEntity
  8
0
100
AcDbLine
 10
75.4821
 20
108.0433999999999
 30
0.0
 11
78.5879
 21
109.1455
 31
0.0
  0
LINE
  5
210
330
1E
100
AcDbEntity
  8
0
100
AcDbLine
 10
73.6087
 20
104.9319
 30
0.0
 11
76.2728
 21
106.1261
 31
0.0
  0
LINE
  5
211
330
1E
100
AcDbEntity
  8
0
100
AcDbLine
 10
72.5766
 20
106.741
 30
0.0
 11
75.4821
 21
108.0433999999999
 31
0.0
  0
LINE
  5
212
330
1E
100
AcDbEntity
  8
0
100
AcDbLine
 10
79.12069999999999
 20
107.1366999999999
 30
0.0
 11
81.9687
 21
107.6878
 31
0.0
  0
LINE
  5
213
330
1E
100
AcDbEntity
  8
0
100
AcDbLine
 10
78.5879
 20
109.1455
 30
0.0
 11
81.6937
 21
109.7466
 31
0.0
  0
LINE
  5
214
330
1E
100
AcDbEntity
  8
0
100
AcDbLine
 10
81.6937
 20
109.7466
 30
0.0
 11
85.0
 21
110.0472
 31
0.0
  0
LINE
  5
215
330
1E
100
AcDbEntity
  8
0
100
AcDbLine
 10
85.00020000000001
 20
107.9634
 30
0.0
 11
88.03180000000001
 21
107.6878
 31
0.0
  0
LINE
  5
216
330
1E
100
AcDbEntity
  8
0
100
AcDbLine
 10
85.0
 20
110.0472
 30
0.0
 11
81.6937
 21
109.7466
 31
0.0
  0
LINE
  5
217
330
1E
100
AcDbEntity
  8
0
100
AcDbLine
 10
88.03130000000001
 20
107.6878
 30
0.0
 11
84.99979999999998
 21
107.9634
 31
0.0
  0
LINE
  5
218
330
1E
100
AcDbEntity
  8
0
100
AcDbLine
 10
88.03130000000001
 20
62.3122
 30
0.0
 11
84.99979999999998
 21
62.0366
 31
0.0
  0
LINE
  5
219
330
1E
100
AcDbEntity
  8
0
100
AcDbLine
 10
85.0
 20
59.95280000000001
 30
0.0
 11
81.6937
 21
60.25339999999999
 31
0.0
  0
LINE
  5
21A
330
1E
100
AcDbEntity
  8
0
100
AcDbLine
 10
110.0472
 20
85.0
 30
0.0
 11
109.7466
 21
88.30629999999999
 31
0.0
  0
LINE
  5
21B
330
1E
100
AcDbEntity
  8
0
100
AcDbLine
 10
170.0
 20
85.0
 30
0.0
 11
169.9488999999999
 21
97.56720000000001
 31
0.0
  0
LINE
  5
21C
330
1E
100
AcDbEntity
  8
0
100
AcDbLine
 10
107.9665
 20
84.9967
 30
0.0
 11
107.6909
 21
88.0283
 31
0.0
  0
LINE
  5
21D
330
1E
100
AcDbEntity
  8
0
100
AcDbLine
 10
107.9665
 20
85.00329999999999
 30
0.0
 11
107.6909
 21
81.97169999999999
 31
0.0
  0
LINE
  5
21E
330
1E
100
AcDbEntity
  8
0
100
AcDbLine
 10
147.8
 20
1.3
 30
0.0
 11
135.3
 21
0.835399999999996
 31
0.0
  0
LINE
  5
21F
330
1E
100
AcDbEntity
  8
0
100
AcDbLine
 10
147.8
 20
1.3
 30
0.0
 11
135.3
 21
0.835399999999996
 31
0.0
  0
LINE
  5
220
330
1E
100
AcDbEntity
  8
0
100
AcDbLine
 10
169.1646
 20
34.7
 30
0.0
 11
168.6999999999999
 21
22.2
 31
0.0
  0
LINE
  5
221
330
1E
100
AcDbEntity
  8
0
100
AcDbLine
 10
165.82051
 20
11.5
 30
0.0
 11
164.36707
 21
9.324769999999999
 31
0.0
  0
LINE
  5
222
330
1E
100
AcDbEntity
  8
0
100
AcDbLine
 10
165.82051
 20
11.5
 30
0.0
 11
164.36707
 21
9.32476999999999
 31
0.0
  0
LINE
  5
223
330
1E
100
AcDbEntity
  8
0
100
AcDbLine
 10
168.3289
 20
18.8895
 30
0.0
 11
167.81852
 21
16.3236
 31
0.0
  0
LINE
  5
224
330
1E
100
AcDbEntity
  8
0
100
AcDbLine
 10
166.9775899999999
 20
13.8463
 30
0.0
 11
165.82051
 21
11.5
 31
0.0
  0
LINE
  5
225
330
1E
100
AcDbEntity
  8
0
100
AcDbLine
 10
167.81852
 20
16.3236
 30
0.0
 11
166.9775899999999
 21
13.8463
 31
0.0
  0
LINE
  5
226
330
1E
100
AcDbEntity
  8
0
100
AcDbLine
 10
168.6999999999999
 20
22.2
 30
0.0
 11
168.3289
 21
18.8895
 31
0.0
  0
LINE
  5
227
330
1E
100
AcDbEntity
  8
0
100
AcDbLine
 10
160.67523
 20
5.63292999999999
 30
0.0
 11
158.4999999999999
 21
4.17949
 31
0.0
  0
LINE
  5
228
330
1E
100
AcDbEntity
  8
0
100
AcDbLine
 10
160.67523
 20
5.632929999999999
 30
0.0
 11
158.4999999999999
 21
4.17949
 31
0.0
  0
LINE
  5
229
330
1E
100
AcDbEntity
  8
0
100
AcDbLine
 10
153.6763999999999
 20
2.18148
 30
0.0
 11
151.1105
 21
1.6711
 31
0.0
  0
LINE
  5
22A
330
1E
100
AcDbEntity
  8
0
100
AcDbLine
 10
153.6763999999999
 20
2.18148
 30
0.0
 11
151.1105
 21
1.6711
 31
0.0
  0
LINE
  5
22B
330
1E
100
AcDbEntity
  8
0
100
AcDbLine
 10
158.4999999999999
 20
4.17949
 30
0.0
 11
156.1537
 21
3.02240999999999
 31
0.0
  0
LINE
  5
22C
330
1E
100
AcDbEntity
  8
0
100
AcDbLine
 10
158.4999999999999
 20
4.17949
 30
0.0
 11
156.1537
 21
3.022409999999999
 31
0.0
  0
LINE
  5
22D
330
1E
100
AcDbEntity
  8
0
100
AcDbLine
 10
156.1537
 20
3.02240999999999
 30
0.0
 11
153.6763999999999
 21
2.18148
 31
0.0
  0
LINE
  5
22E
330
1E
100
AcDbEntity
  8
0
100
AcDbLine
 10
156.1537
 20
3.022409999999999
 30
0.0
 11
153.6763999999999
 21
2.18148
 31
0.0
  0
LINE
  5
22F
330
1E
100
AcDbEntity
  8
0
100
AcDbLine
 10
151.1105
 20
1.6711
 30
0.0
 11
147.8
 21
1.3
 31
0.0
  0
LINE
  5
230
330
1E
100
AcDbEntity
  8
0
100
AcDbLine
 10
151.1105
 20
1.6711
 30
0.0
 11
147.8
 21
1.3
 31
0.0
  0
LINE
  5
231
330
1E
100
AcDbEntity
  8
0
100
AcDbLine
 10
162.64214
 20
7.35786
 30
0.0
 11
160.67523
 21
5.63292999999999
 31
0.0
  0
LINE
  5
232
330
1E
100
AcDbEntity
  8
0
100
AcDbLine
 10
162.64214
 20
7.35786
 30
0.0
 11
160.67523
 21
5.632929999999999
 31
0.0
  0
LINE
  5
233
330
1E
100
AcDbEntity
  8
0
100
AcDbLine
 10
164.36707
 20
9.32476999999999
 30
0.0
 11
162.64214
 21
7.35786
 31
0.0
  0
LINE
  5
234
330
1E
100
AcDbEntity
  8
0
100
AcDbLine
 10
164.36707
 20
9.324769999999999
 30
0.0
 11
162.64214
 21
7.35786
 31
0.0
  0
LINE
  5
235
330
1E
100
AcDbEntity
  8
0
100
AcDbLine
 10
169.7364
 20
59.29999999999999
 30
0.0
 11
169.5002
 21
47.0
 31
0.0
  0
LINE
  5
236
330
1E
100
AcDbEntity
  8
0
100
AcDbLine
 10
169.5002
 20
47.0
 30
0.0
 11
169.1646
 21
34.7
 31
0.0
  0
LINE
  5
237
330
1E
100
AcDbEntity
  8
0
100
AcDbLine
 10
169.9488999999999
 20
72.4328
 30
0.0
 11
169.7364
 21
59.29999999999999
 31
0.0
  0
LINE
  5
238
330
1E
100
AcDbEntity
  8
0
100
AcDbLine
 10
169.9488999999999
 20
72.4328
 30
0.0
 11
169.7364
 21
59.29999999999999
 31
0.0
  0
LINE
  5
239
330
1E
100
AcDbEntity
  8
0
100
AcDbLine
 10
170.0
 20
85.0
 30
0.0
 11
169.9488999999999
 21
72.4328
 31
0.0
  0
LINE
  5
23A
330
1E
100
AcDbEntity
  8
0
100
AcDbLine
 10
123.0
 20
0.4997999999999961
 30
0.0
 11
110.6999999999999
 21
0.263599999999996
 31
0.0
  0
LINE
  5
23B
330
1E
100
AcDbEntity
  8
0
100
AcDbLine
 10
123.0
 20
0.4997999999999961
 30
0.0
 11
110.6999999999999
 21
0.263599999999996
 31
0.0
  0
LINE
  5
23C
330
1E
100
AcDbEntity
  8
0
100
AcDbLine
 10
135.3
 20
0.835399999999996
 30
0.0
 11
123.0
 21
0.4997999999999961
 31
0.0
  0
LINE
  5
23D
330
1E
100
AcDbEntity
  8
0
100
AcDbLine
 10
135.3
 20
0.835399999999996
 30
0.0
 11
123.0
 21
0.4997999999999961
 31
0.0
  0
LINE
  5
23E
330
1E
100
AcDbEntity
  8
0
100
AcDbLine
 10
110.6999999999999
 20
0.263599999999996
 30
0.0
 11
97.56720000000001
 21
0.0510999999999956
 31
0.0
  0
LINE
  5
23F
330
1E
100
AcDbEntity
  8
0
100
AcDbLine
 10
110.6999999999999
 20
0.263599999999996
 30
0.0
 11
97.56720000000001
 21
0.0510999999999962
 31
0.0
  0
LINE
  5
240
330
1E
100
AcDbEntity
  8
0
100
AcDbLine
 10
110.6999999999999
 20
0.263599999999996
 30
0.0
 11
97.56720000000001
 21
0.0510999999999961
 31
0.0
  0
LINE
  5
241
330
1E
100
AcDbEntity
  8
0
100
AcDbLine
 10
97.56720000000001
 20
0.0510999999999956
 30
0.0
 11
85.0
 21
-0.0000000000000044
 31
0.0
  0
LINE
  5
242
330
1E
100
AcDbEntity
  8
0
100
AcDbLine
 10
97.56720000000001
 20
0.0510999999999956
 30
0.0
 11
85.0
 21
-0.0000000000000044
 31
0.0
  0
LINE
  5
243
330
1E
100
AcDbEntity
  8
0
100
AcDbLine
 10
97.56720000000001
 20
0.0510999999999961
 30
0.0
 11
85.0
 21
-0.0000000000000039
 31
0.0
  0
LINE
  5
244
330
1E
100
AcDbEntity
  8
0
100
AcDbLine
 10
97.56720000000001
 20
0.0510999999999961
 30
0.0
 11
85.0
 21
-0.0000000000000039
 31
0.0
  0
LINE
  5
245
330
1E
100
AcDbEntity
  8
0
100
AcDbLine
 10
98.96349999999999
 20
66.81359999999999
 30
0.0
 11
96.39130000000001
 21
65.0681
 31
0.0
  0
LINE
  5
246
330
1E
100
AcDbEntity
  8
0
100
AcDbLine
 10
100.2287
 20
65.1627
 30
0.0
 11
97.4234
 21
63.25899999999999
 31
0.0
  0
LINE
  5
247
330
1E
100
AcDbEntity
  8
0
100
AcDbLine
 10
104.9349
 20
73.6117
 30
0.0
 11
103.1895
 21
71.03950000000001
 31
0.0
  0
LINE
  5
248
330
1E
100
AcDbEntity
  8
0
100
AcDbLine
 10
106.741
 20
72.5766
 30
0.0
 11
104.8372999999999
 21
69.77129999999999
 31
0.0
  0
LINE
  5
249
330
1E
100
AcDbEntity
  8
0
100
AcDbLine
 10
103.1895
 20
71.03950000000001
 30
0.0
 11
101.1683
 21
68.83469999999999
 31
0.0
  0
LINE
  5
24A
330
1E
100
AcDbEntity
  8
0
100
AcDbLine
 10
102.6332
 20
67.36679999999999
 30
0.0
 11
100.2287
 21
65.1627
 31
0.0
  0
LINE
  5
24B
330
1E
100
AcDbEntity
  8
0
100
AcDbLine
 10
104.8372999999999
 20
69.77129999999999
 30
0.0
 11
102.6332
 21
67.36679999999999
 31
0.0
  0
LINE
  5
24C
330
1E
100
AcDbEntity
  8
0
100
AcDbLine
 10
101.1683
 20
68.83469999999999
 30
0.0
 11
98.96349999999999
 21
66.81359999999999
 31
0.0
  0
LINE
  5
24D
330
1E
100
AcDbEntity
  8
0
100
AcDbLine
 10
107.1397
 20
79.1238
 30
0.0
 11
106.1291999999999
 21
76.27589999999999
 31
0.0
  0
LINE
  5
24E
330
1E
100
AcDbEntity
  8
0
100
AcDbLine
 10
109.1455
 20
78.5879
 30
0.0
 11
108.0433999999999
 21
75.4821
 31
0.0
  0
LINE
  5
24F
330
1E
100
AcDbEntity
  8
0
100
AcDbLine
 10
106.1291999999999
 20
76.27589999999999
 30
0.0
 11
104.9349
 21
73.6117
 31
0.0
  0
LINE
  5
250
330
1E
100
AcDbEntity
  8
0
100
AcDbLine
 10
108.0433999999999
 20
75.4821
 30
0.0
 11
106.741
 21
72.5766
 31
0.0
  0
LINE
  5
251
330
1E
100
AcDbEntity
  8
0
100
AcDbLine
 10
109.7466
 20
81.6937
 30
0.0
 11
109.1455
 21
78.5879
 31
0.0
  0
LINE
  5
252
330
1E
100
AcDbEntity
  8
0
100
AcDbLine
 10
110.0472
 20
85.0
 30
0.0
 11
109.7466
 21
81.6937
 31
0.0
  0
LINE
  5
253
330
1E
100
AcDbEntity
  8
0
100
AcDbLine
 10
107.6909
 20
81.97169999999999
 30
0.0
 11
107.1397
 21
79.1238
 31
0.0
  0
LINE
  5
254
330
1E
100
AcDbEntity
  8
0
100
AcDbLine
 10
93.72719999999999
 20
63.87389999999999
 30
0.0
 11
90.8793
 21
62.8633
 31
0.0
  0
LINE
  5
255
330
1E
100
AcDbEntity
  8
0
100
AcDbLine
 10
94.5179
 20
61.9566
 30
0.0
 11
91.41209999999999
 21
60.8545
 31
0.0
  0
LINE
  5
256
330
1E
100
AcDbEntity
  8
0
100
AcDbLine
 10
96.39130000000001
 20
65.0681
 30
0.0
 11
93.72719999999999
 21
63.87389999999999
 31
0.0
  0
LINE
  5
257
330
1E
100
AcDbEntity
  8
0
100
AcDbLine
 10
97.4234
 20
63.25899999999999
 30
0.0
 11
94.5179
 21
61.9566
 31
0.0
  0
LINE
  5
258
330
1E
100
AcDbEntity
  8
0
100
AcDbLine
 10
90.8793
 20
62.8633
 30
0.0
 11
88.03130000000001
 21
62.3122
 31
0.0
  0
LINE
  5
259
330
1E
100
AcDbEntity
  8
0
100
AcDbLine
 10
91.41209999999999
 20
60.8545
 30
0.0
 11
88.30629999999999
 21
60.25339999999999
 31
0.0
  0
LINE
  5
25A
330
1E
100
AcDbEntity
  8
0
100
AcDbLine
 10
88.30629999999999
 20
60.25339999999999
 30
0.0
 11
85.0
 21
59.95280000000001
 31
0.0
  0
LINE
  5
25B
330
1E
100
AcDbEntity
  8
0
100
AcDbLine
 10
147.8
 20
168.6999999999999
 30
0.0
 11
135.3
 21
169.1646
 31
0.0
  0
LINE
  5
25C
330
1E
100
AcDbEntity
  8
0
100
AcDbLine
 10
147.8
 20
168.6999999999999
 30
0.0
 11
135.3
 21
169.1646
 31
0.0
  0
LINE
  5
25D
330
1E
100
AcDbEntity
  8
0
100
AcDbLine
 10
169.1646
 20
135.3
 30
0.0
 11
168.6999999999999
 21
147.8
 31
0.0
  0
LINE
  5
25E
330
1E
100
AcDbEntity
  8
0
100
AcDbLine
 10
169.7364
 20
110.6999999999999
 30
0.0
 11
169.5002
 21
123.0
 31
0.0
  0
LINE
  5
25F
330
1E
100
AcDbEntity
  8
0
100
AcDbLine
 10
169.9488999999999
 20
97.56720000000001
 30
0.0
 11
169.7364
 21
110.6999999999999
 31
0.0
  0
LINE
  5
260
330
1E
100
AcDbEntity
  8
0
100
AcDbLine
 10
169.9488999999999
 20
97.56720000000001
 30
0.0
 11
169.7364
 21
110.6999999999999
 31
0.0
  0
LINE
  5
261
330
1E
100
AcDbEntity
  8
0
100
AcDbLine
 10
169.5002
 20
123.0
 30
0.0
 11
169.1646
 21
135.3
 31
0.0
  0
LINE
  5
262
330
1E
100
AcDbEntity
  8
0
100
AcDbLine
 10
165.82051
 20
158.4999999999999
 30
0.0
 11
164.36707
 21
160.67523
 31
0.0
  0
LINE
  5
263
330
1E
100
AcDbEntity
  8
0
100
AcDbLine
 10
165.82051
 20
158.4999999999999
 30
0.0
 11
164.36707
 21
160.67523
 31
0.0
  0
LINE
  5
264
330
1E
100
AcDbEntity
  8
0
100
AcDbLine
 10
168.3289
 20
151.1105
 30
0.0
 11
167.81852
 21
153.6763999999999
 31
0.0
  0
LINE
  5
265
330
1E
100
AcDbEntity
  8
0
100
AcDbLine
 10
168.6999999999999
 20
147.8
 30
0.0
 11
168.3289
 21
151.1105
 31
0.0
  0
LINE
  5
266
330
1E
100
AcDbEntity
  8
0
100
AcDbLine
 10
166.9775899999999
 20
156.1537
 30
0.0
 11
165.82051
 21
158.4999999999999
 31
0.0
  0
LINE
  5
267
330
1E
100
AcDbEntity
  8
0
100
AcDbLine
 10
167.81852
 20
153.6763999999999
 30
0.0
 11
166.9775899999999
 21
156.1537
 31
0.0
  0
LINE
  5
268
330
1E
100
AcDbEntity
  8
0
100
AcDbLine
 10
160.67523
 20
164.36707
 30
0.0
 11
158.4999999999999
 21
165.82051
 31
0.0
  0
LINE
  5
269
330
1E
100
AcDbEntity
  8
0
100
AcDbLine
 10
160.67523
 20
164.36707
 30
0.0
 11
158.4999999999999
 21
165.82051
 31
0.0
  0
LINE
  5
26A
330
1E
100
AcDbEntity
  8
0
100
AcDbLine
 10
162.64214
 20
162.64214
 30
0.0
 11
160.67523
 21
164.36707
 31
0.0
  0
LINE
  5
26B
330
1E
100
AcDbEntity
  8
0
100
AcDbLine
 10
162.64214
 20
162.64214
 30
0.0
 11
160.67523
 21
164.36707
 31
0.0
  0
LINE
  5
26C
330
1E
100
AcDbEntity
  8
0
100
AcDbLine
 10
164.36707
 20
160.67523
 30
0.0
 11
162.64214
 21
162.64214
 31
0.0
  0
LINE
  5
26D
330
1E
100
AcDbEntity
  8
0
100
AcDbLine
 10
164.36707
 20
160.67523
 30
0.0
 11
162.64214
 21
162.64214
 31
0.0
  0
LINE
  5
26E
330
1E
100
AcDbEntity
  8
0
100
AcDbLine
 10
153.6763999999999
 20
167.81852
 30
0.0
 11
151.1105
 21
168.3289
 31
0.0
  0
LINE
  5
26F
330
1E
100
AcDbEntity
  8
0
100
AcDbLine
 10
153.6763999999999
 20
167.81852
 30
0.0
 11
151.1105
 21
168.3289
 31
0.0
  0
LINE
  5
270
330
1E
100
AcDbEntity
  8
0
100
AcDbLine
 10
158.4999999999999
 20
165.82051
 30
0.0
 11
156.1537
 21
166.9775899999999
 31
0.0
  0
LINE
  5
271
330
1E
100
AcDbEntity
  8
0
100
AcDbLine
 10
158.4999999999999
 20
165.82051
 30
0.0
 11
156.1537
 21
166.97759
 31
0.0
  0
LINE
  5
272
330
1E
100
AcDbEntity
  8
0
100
AcDbLine
 10
156.1537
 20
166.9775899999999
 30
0.0
 11
153.6763999999999
 21
167.81852
 31
0.0
  0
LINE
  5
273
330
1E
100
AcDbEntity
  8
0
100
AcDbLine
 10
156.1537
 20
166.97759
 30
0.0
 11
153.6763999999999
 21
167.81852
 31
0.0
  0
LINE
  5
274
330
1E
100
AcDbEntity
  8
0
100
AcDbLine
 10
151.1105
 20
168.3289
 30
0.0
 11
147.8
 21
168.6999999999999
 31
0.0
  0
LINE
  5
275
330
1E
100
AcDbEntity
  8
0
100
AcDbLine
 10
151.1105
 20
168.3289
 30
0.0
 11
147.8
 21
168.6999999999999
 31
0.0
  0
LINE
  5
276
330
1E
100
AcDbEntity
  8
0
100
AcDbLine
 10
100.2287
 20
104.8372999999999
 30
0.0
 11
97.4234
 21
106.741
 31
0.0
  0
LINE
  5
277
330
1E
100
AcDbEntity
  8
0
100
AcDbLine
 10
98.96349999999999
 20
103.1864
 30
0.0
 11
96.39130000000001
 21
104.9319
 31
0.0
  0
LINE
  5
278
330
1E
100
AcDbEntity
  8
0
100
AcDbLine
 10
106.741
 20
97.4234
 30
0.0
 11
104.8372999999999
 21
100.2287
 31
0.0
  0
LINE
  5
279
330
1E
100
AcDbEntity
  8
0
100
AcDbLine
 10
104.9349
 20
96.3883
 30
0.0
 11
103.1895
 21
98.9605
 31
0.0
  0
LINE
  5
27A
330
1E
100
AcDbEntity
  8
0
100
AcDbLine
 10
109.1455
 20
91.41209999999999
 30
0.0
 11
108.0433999999999
 21
94.5179
 31
0.0
  0
LINE
  5
27B
330
1E
100
AcDbEntity
  8
0
100
AcDbLine
 10
107.1397
 20
90.87619999999999
 30
0.0
 11
106.1291999999999
 21
93.7241
 31
0.0
  0
LINE
  5
27C
330
1E
100
AcDbEntity
  8
0
100
AcDbLine
 10
109.7466
 20
88.30629999999999
 30
0.0
 11
109.1455
 21
91.41209999999999
 31
0.0
  0
LINE
  5
27D
330
1E
100
AcDbEntity
  8
0
100
AcDbLine
 10
107.6909
 20
88.0283
 30
0.0
 11
107.1397
 21
90.87619999999999
 31
0.0
  0
LINE
  5
27E
330
1E
100
AcDbEntity
  8
0
100
AcDbLine
 10
108.0433999999999
 20
94.5179
 30
0.0
 11
106.741
 21
97.4234
 31
0.0
  0
LINE
  5
27F
330
1E
100
AcDbEntity
  8
0
100
AcDbLine
 10
106.1291999999999
 20
93.7241
 30
0.0
 11
104.9349
 21
96.3883
 31
0.0
  0
LINE
  5
280
330
1E
100
AcDbEntity
  8
0
100
AcDbLine
 10
102.6332
 20
102.6332
 30
0.0
 11
100.2287
 21
104.8372999999999
 31
0.0
  0
LINE
  5
281
330
1E
100
AcDbEntity
  8
0
100
AcDbLine
 10
103.1895
 20
98.9605
 30
0.0
 11
101.1683
 21
101.1653
 31
0.0
  0
LINE
  5
282
330
1E
100
AcDbEntity
  8
0
100
AcDbLine
 10
104.8372999999999
 20
100.2287
 30
0.0
 11
102.6332
 21
102.6332
 31
0.0
  0
LINE
  5
283
330
1E
100
AcDbEntity
  8
0
100
AcDbLine
 10
101.1683
 20
101.1653
 30
0.0
 11
98.96349999999999
 21
103.1864
 31
0.0
  0
LINE
  5
284
330
1E
100
AcDbEntity
  8
0
100
AcDbLine
 10
94.5179
 20
108.0433999999999
 30
0.0
 11
91.41209999999999
 21
109.1455
 31
0.0
  0
LINE
  5
285
330
1E
100
AcDbEntity
  8
0
100
AcDbLine
 10
93.72719999999999
 20
106.1261
 30
0.0
 11
90.8793
 21
107.1366999999999
 31
0.0
  0
LINE
  5
286
330
1E
100
AcDbEntity
  8
0
100
AcDbLine
 10
97.4234
 20
106.741
 30
0.0
 11
94.5179
 21
108.0433999999999
 31
0.0
  0
LINE
  5
287
330
1E
100
AcDbEntity
  8
0
100
AcDbLine
 10
96.39130000000001
 20
104.9319
 30
0.0
 11
93.72719999999999
 21
106.1261
 31
0.0
  0
LINE
  5
288
330
1E
100
AcDbEntity
  8
0
100
AcDbLine
 10
91.41209999999999
 20
109.1455
 30
0.0
 11
88.30629999999999
 21
109.7466
 31
0.0
  0
LINE
  5
289
330
1E
100
AcDbEntity
  8
0
100
AcDbLine
 10
90.8793
 20
107.1366999999999
 30
0.0
 11
88.03130000000001
 21
107.6878
 31
0.0
  0
LINE
  5
28A
330
1E
100
AcDbEntity
  8
0
100
AcDbLine
 10
88.30629999999999
 20
109.7466
 30
0.0
 11
85.0
 21
110.0472
 31
0.0
  0
LINE
  5
28B
330
1E
100
AcDbEntity
  8
0
100
AcDbLine
 10
123.0
 20
169.5002
 30
0.0
 11
110.6999999999999
 21
169.7364
 31
0.0
  0
LINE
  5
28C
330
1E
100
AcDbEntity
  8
0
100
AcDbLine
 10
123.0
 20
169.5002
 30
0.0
 11
110.6999999999999
 21
169.7364
 31
0.0
  0
LINE
  5
28D
330
1E
100
AcDbEntity
  8
0
100
AcDbLine
 10
135.3
 20
169.1646
 30
0.0
 11
123.0
 21
169.5002
 31
0.0
  0
LINE
  5
28E
330
1E
100
AcDbEntity
  8
0
100
AcDbLine
 10
135.3
 20
169.1646
 30
0.0
 11
123.0
 21
169.5002
 31
0.0
  0
LINE
  5
28F
330
1E
100
AcDbEntity
  8
0
100
AcDbLine
 10
110.6999999999999
 20
169.7364
 30
0.0
 11
97.56720000000001
 21
169.9488999999999
 31
0.0
  0
LINE
  5
290
330
1E
100
AcDbEntity
  8
0
100
AcDbLine
 10
110.6999999999999
 20
169.7364
 30
0.0
 11
97.56720000000001
 21
169.9488999999999
 31
0.0
  0
LINE
  5
291
330
1E
100
AcDbEntity
  8
0
100
AcDbLine
 10
110.6999999999999
 20
169.7364
 30
0.0
 11
97.56720000000001
 21
169.9488999999999
 31
0.0
  0
LINE
  5
292
330
1E
100
AcDbEntity
  8
0
100
AcDbLine
 10
97.56720000000001
 20
169.9488999999999
 30
0.0
 11
85.0
 21
170.0
 31
0.0
  0
LINE
  5
293
330
1E
100
AcDbEntity
  8
0
100
AcDbLine
 10
97.56720000000001
 20
169.9488999999999
 30
0.0
 11
85.0
 21
170.0
 31
0.0
  0
LINE
  5
294
330
1E
100
AcDbEntity
  8
0
100
AcDbLine
 10
97.56720000000001
 20
169.9488999999999
 30
0.0
 11
85.0
 21
170.0
 31
0.0
  0
LINE
  5
295
330
1E
100
AcDbEntity
  8
0
100
AcDbLine
 10
97.56720000000001
 20
169.9488999999999
 30
0.0
 11
85.0
 21
170.0
 31
0.0
  0
LINE
  5
296
330
1E
100
AcDbEntity
  8
0
100
AcDbLine
 10
84.99979999999998
 20
62.0366
 30
0.0
 11
81.9682
 21
62.3122
 31
0.0
  0
LINE
  5
297
330
1E
100
AcDbEntity
  8
0
100
AcDbLine
 10
84.99979999999998
 20
107.9634
 30
0.0
 11
81.9682
 21
107.6878
 31
0.0
  0
ENDSEC
  0
SECTION
  2
OBJECTS
  0
DICTIONARY
  5
C
330
0
100
AcDbDictionary
281
     1
  3
ACAD_GROUP
350
D
  3
ACAD_LAYOUT
350
19
  3
ACAD_MLINESTYLE
350
16
  3
ACAD_PLOTSETTINGS
350
18
  3
ACAD_PLOTSTYLENAME
350
E
  3
AcDbVariableDictionary
350
299
  0
DICTIONARY
  5
D
102
{ACAD_REACTORS
330
C
102
}
330
C
100
AcDbDictionary
281
     1
  0
DICTIONARY
  5
19
102
{ACAD_REACTORS
330
C
102
}
330
C
100
AcDbDictionary
281
     1
  3
Layout1
350
1D
  3
Model
350
21
  0
DICTIONARY
  5
16
102
{ACAD_REACTORS
330
C
102
}
330
C
100
AcDbDictionary
281
     1
  3
Standard
350
17
  0
DICTIONARY
  5
18
102
{ACAD_REACTORS
330
C
102
}
330
C
100
AcDbDictionary
281
     1
  0
ACDBDICTIONARYWDFLT
  5
E
102
{ACAD_REACTORS
330
C
102
}
330
C
100
AcDbDictionary
281
     1
  3
Normal
350
F
100
AcDbDictionaryWithDefault
340
F
  0
DICTIONARY
  5
299
102
{ACAD_REACTORS
330
C
102
}
330
C
100
AcDbDictionary
281
     1
  3
DIMASSOC
350
29A
  0
LAYOUT
  5
1D
102
{ACAD_REACTORS
330
19
102
}
330
19
100
AcDbPlotSettings
  1

  2
C:\Programme\AutoCAD LT 2002 Deu\plotters\DWF ePlot (optimized for plotting).pc3
  4

  6

 40
0.0
 41
0.0
 42
0.0
 43
0.0
 44
0.0
 45
0.0
 46
0.0
 47
0.0
 48
0.0
 49
0.0
140
0.0
141
0.0
142
1.0
143
1.0
 70
   688
 72
     0
 73
     0
 74
     5
  7

 75
    16
147
1.0
148
0.0
149
0.0
100
AcDbLayout
  1
Layout1
 70
     1
 71
     1
 10
0.0
 20
0.0
 11
12.0
 21
9.0
 12
0.0
 22
0.0
 32
0.0
 14
1.000000000000000E+20
 24
1.000000000000000E+20
 34
1.000000000000000E+20
 15
-1.000000000000000E+20
 25
-1.000000000000000E+20
 35
-1.000000000000000E+20
146
0.0
 13
0.0
 23
0.0
 33
0.0
 16
1.0
 26
0.0
 36
0.0
 17
0.0
 27
1.0
 37
0.0
 76
     0
330
1A
  0
LAYOUT
  5
21
102
{ACAD_REACTORS
330
19
102
}
330
19
100
AcDbPlotSettings
  1

  2
C:\Programme\AutoCAD LT 2002 Deu\plotters\DWF ePlot (optimized for plotting).pc3
  4

  6

 40
0.0
 41
0.0
 42
0.0
 43
0.0
 44
0.0
 45
0.0
 46
0.0
 47
0.0
 48
0.0
 49
0.0
140
0.0
141
0.0
142
1.0
143
1.0
 70
  1712
 72
     0
 73
     0
 74
     0
  7

 75
     0
147
1.0
148
0.0
149
0.0
100
AcDbLayout
  1
Model
 70
     1
 71
     0
 10
0.0
 20
0.0
 11
12.0
 21
9.0
 12
0.0
 22
0.0
 32
0.0
 14
0.0
 24
0.0
 34
0.0
 15
0.0
 25
0.0
 35
0.0
146
0.0
 13
0.0
 23
0.0
 33
0.0
 16
1.0
 26
0.0
 36
0.0
 17
0.0
 27
1.0
 37
0.0
 76
     0
330
1E
  0
MLINESTYLE
  5
17
102
{ACAD_REACTORS
330
16
102
}
330
16
100
AcDbMlineStyle
  2
STANDARD
 70
     0
  3

 62
   256
 51
90.0
 52
90.0
 71
     2
 49
0.5
 62
   256
  6
BYLAYER
 49
-0.5
 62
   256
  6
BYLAYER
  0
ACDBPLACEHOLDER
  5
F
102
{ACAD_REACTORS
330
E
102
}
330
E
  0
DICTIONARYVAR
  5
29A
102
{ACAD_REACTORS
330
299
102
}
330
299
100
DictionaryVariables
280
     0
  1
1
  0
ENDSEC
  0
EOF
