  0
SECTION
  2
HEADER
  9
$ACADVER
  1
AC1015
  9
$ACADMAINTVER
 70
    13
  9
$DWGCODEPAGE
  3
ANSI_1252
  9
$INSBASE
 10
0.0
 20
0.0
 30
0.0
  9
$EXTMIN
 10
0.0
 20
0.0000000000000791
 30
0.0
  9
$EXTMAX
 10
1941.0
 20
895.0
 30
0.0
  9
$LIMMIN
 10
0.0
 20
0.0
  9
$LIMMAX
 10
12.0
 20
9.0
  9
$ORTHOMODE
 70
     0
  9
$REGENMODE
 70
     1
  9
$FILLMODE
 70
     1
  9
$QTEXTMODE
 70
     0
  9
$MIRRTEXT
 70
     1
  9
$LTSCALE
 40
1.0
  9
$ATTMODE
 70
     1
  9
$TEXTSIZE
 40
0.2
  9
$TRACEWID
 40
0.05
  9
$TEXTSTYLE
  7
Standard
  9
$CLAYER
  8
0
  9
$CELTYPE
  6
Continuous
  9
$CECOLOR
 62
   256
  9
$CELTSCALE
 40
1.0
  9
$DISPSILH
 70
     0
  9
$DIMSCALE
 40
1.0
  9
$DIMASZ
 40
0.18
  9
$DIMEXO
 40
0.0625
  9
$DIMDLI
 40
0.38
  9
$DIMRND
 40
0.0
  9
$DIMDLE
 40
0.0
  9
$DIMEXE
 40
0.18
  9
$DIMTP
 40
0.0
  9
$DIMTM
 40
0.0
  9
$DIMTXT
 40
0.18
  9
$DIMCEN
 40
0.09
  9
$DIMTSZ
 40
0.0
  9
$DIMTOL
 70
     0
  9
$DIMLIM
 70
     0
  9
$DIMTIH
 70
     1
  9
$DIMTOH
 70
     1
  9
$DIMSE1
 70
     0
  9
$DIMSE2
 70
     0
  9
$DIMTAD
 70
     0
  9
$DIMZIN
 70
     0
  9
$DIMBLK
  1

  9
$DIMASO
 70
     1
  9
$DIMSHO
 70
     1
  9
$DIMPOST
  1

  9
$DIMAPOST
  1

  9
$DIMALT
 70
     0
  9
$DIMALTD
 70
     2
  9
$DIMALTF
 40
25.4
  9
$DIMLFAC
 40
1.0
  9
$DIMTOFL
 70
     0
  9
$DIMTVP
 40
0.0
  9
$DIMTIX
 70
     0
  9
$DIMSOXD
 70
     0
  9
$DIMSAH
 70
     0
  9
$DIMBLK1
  1

  9
$DIMBLK2
  1

  9
$DIMSTYLE
  2
Standard
  9
$DIMCLRD
 70
     0
  9
$DIMCLRE
 70
     0
  9
$DIMCLRT
 70
     0
  9
$DIMTFAC
 40
1.0
  9
$DIMGAP
 40
0.09
  9
$DIMJUST
 70
     0
  9
$DIMSD1
 70
     0
  9
$DIMSD2
 70
     0
  9
$DIMTOLJ
 70
     1
  9
$DIMTZIN
 70
     0
  9
$DIMALTZ
 70
     0
  9
$DIMALTTZ
 70
     0
  9
$DIMUPT
 70
     0
  9
$DIMDEC
 70
     4
  9
$DIMTDEC
 70
     4
  9
$DIMALTU
 70
     2
  9
$DIMALTTD
 70
     2
  9
$DIMTXSTY
  7
Standard
  9
$DIMAUNIT
 70
     0
  9
$DIMADEC
 70
     0
  9
$DIMALTRND
 40
0.0
  9
$DIMAZIN
 70
     0
  9
$DIMDSEP
 70
    46
  9
$DIMATFIT
 70
     3
  9
$DIMFRAC
 70
     0
  9
$DIMLDRBLK
  1

  9
$DIMLUNIT
 70
     2
  9
$DIMLWD
 70
    -2
  9
$DIMLWE
 70
    -2
  9
$DIMTMOVE
 70
     0
  9
$LUNITS
 70
     2
  9
$LUPREC
 70
     4
  9
$SKETCHINC
 40
0.1
  9
$FILLETRAD
 40
0.0
  9
$AUNITS
 70
     0
  9
$AUPREC
 70
     0
  9
$MENU
  1
.
  9
$ELEVATION
 40
0.0
  9
$PELEVATION
 40
0.0
  9
$THICKNESS
 40
0.0
  9
$LIMCHECK
 70
     0
  9
$CHAMFERA
 40
0.0
  9
$CHAMFERB
 40
0.0
  9
$CHAMFERC
 40
0.0
  9
$CHAMFERD
 40
0.0
  9
$SKPOLY
 70
     0
  9
$TDCREATE
 40
2455508.912859873
  9
$TDUCREATE
 40
2455508.871193206
  9
$TDUPDATE
 40
2455508.919761458
  9
$TDUUPDATE
 40
2455508.878094791
  9
$TDINDWG
 40
0.0069019444
  9
$TDUSRTIMER
 40
0.0069019444
  9
$USRTIMER
 70
     1
  9
$ANGBASE
 50
0.0
  9
$ANGDIR
 70
     0
  9
$PDMODE
 70
     0
  9
$PDSIZE
 40
0.0
  9
$PLINEWID
 40
0.0
  9
$SPLFRAME
 70
     0
  9
$SPLINETYPE
 70
     6
  9
$SPLINESEGS
 70
     8
  9
$HANDSEED
  5
1094
  9
$SURFTAB1
 70
     6
  9
$SURFTAB2
 70
     6
  9
$SURFTYPE
 70
     6
  9
$SURFU
 70
     6
  9
$SURFV
 70
     6
  9
$UCSBASE
  2

  9
$UCSNAME
  2

  9
$UCSORG
 10
0.0
 20
0.0
 30
0.0
  9
$UCSXDIR
 10
1.0
 20
0.0
 30
0.0
  9
$UCSYDIR
 10
0.0
 20
1.0
 30
0.0
  9
$UCSORTHOREF
  2

  9
$UCSORTHOVIEW
 70
     1
  9
$UCSORGTOP
 10
0.0
 20
0.0
 30
0.0
  9
$UCSORGBOTTOM
 10
0.0
 20
0.0
 30
0.0
  9
$UCSORGLEFT
 10
0.0
 20
0.0
 30
0.0
  9
$UCSORGRIGHT
 10
0.0
 20
0.0
 30
0.0
  9
$UCSORGFRONT
 10
0.0
 20
0.0
 30
0.0
  9
$UCSORGBACK
 10
0.0
 20
0.0
 30
0.0
  9
$PUCSBASE
  2

  9
$PUCSNAME
  2

  9
$PUCSORG
 10
0.0
 20
0.0
 30
0.0
  9
$PUCSXDIR
 10
1.0
 20
0.0
 30
0.0
  9
$PUCSYDIR
 10
0.0
 20
1.0
 30
0.0
  9
$PUCSORTHOREF
  2

  9
$PUCSORTHOVIEW
 70
     0
  9
$PUCSORGTOP
 10
0.0
 20
0.0
 30
0.0
  9
$PUCSORGBOTTOM
 10
0.0
 20
0.0
 30
0.0
  9
$PUCSORGLEFT
 10
0.0
 20
0.0
 30
0.0
  9
$PUCSORGRIGHT
 10
0.0
 20
0.0
 30
0.0
  9
$PUCSORGFRONT
 10
0.0
 20
0.0
 30
0.0
  9
$PUCSORGBACK
 10
0.0
 20
0.0
 30
0.0
  9
$USERI1
 70
     0
  9
$USERI2
 70
     0
  9
$USERI3
 70
     0
  9
$USERI4
 70
     0
  9
$USERI5
 70
     0
  9
$USERR1
 40
0.0
  9
$USERR2
 40
0.0
  9
$USERR3
 40
0.0
  9
$USERR4
 40
0.0
  9
$USERR5
 40
0.0
  9
$WORLDVIEW
 70
     1
  9
$SHADEDGE
 70
     3
  9
$SHADEDIF
 70
    70
  9
$TILEMODE
 70
     1
  9
$MAXACTVP
 70
    64
  9
$PINSBASE
 10
0.0
 20
0.0
 30
0.0
  9
$PLIMCHECK
 70
     0
  9
$PEXTMIN
 10
1.000000000000000E+20
 20
1.000000000000000E+20
 30
1.000000000000000E+20
  9
$PEXTMAX
 10
-1.000000000000000E+20
 20
-1.000000000000000E+20
 30
-1.000000000000000E+20
  9
$PLIMMIN
 10
0.0
 20
0.0
  9
$PLIMMAX
 10
12.0
 20
9.0
  9
$UNITMODE
 70
     0
  9
$VISRETAIN
 70
     1
  9
$PLINEGEN
 70
     0
  9
$PSLTSCALE
 70
     1
  9
$TREEDEPTH
 70
  3020
  9
$CMLSTYLE
  2
Standard
  9
$CMLJUST
 70
     0
  9
$CMLSCALE
 40
1.0
  9
$PROXYGRAPHICS
 70
     1
  9
$MEASUREMENT
 70
     0
  9
$CELWEIGHT
370
    -1
  9
$ENDCAPS
280
     0
  9
$JOINSTYLE
280
     0
  9
$LWDISPLAY
290
     0
  9
$INSUNITS
 70
     0
  9
$HYPERLINKBASE
  1

  9
$STYLESHEET
  1

  9
$XEDIT
290
     1
  9
$CEPSNTYPE
380
     0
  9
$PSTYLEMODE
290
     1
  9
$FINGERPRINTGUID
  2
{14776112-0B8B-47E1-A231-522F2C052936}
  9
$VERSIONGUID
  2
{D02AF870-5B7B-4721-98FE-7C3BB5FF3FCD}
  9
$EXTNAMES
290
     1
  9
$PSVPSCALE
 40
0.0
  9
$OLESTARTUP
290
     0
  0
ENDSEC
  0
SECTION
  2
CLASSES
  0
CLASS
  1
ACDBDICTIONARYWDFLT
  2
AcDbDictionaryWithDefault
  3
AutoCAD 2000
 90
        0
280
     0
281
     0
  0
CLASS
  1
ACDBPLACEHOLDER
  2
AcDbPlaceHolder
  3
AutoCAD 2000
 90
        0
280
     0
281
     0
  0
CLASS
  1
LAYOUT
  2
AcDbLayout
  3
AutoCAD 2000
 90
        0
280
     0
281
     0
  0
CLASS
  1
DICTIONARYVAR
  2
AcDbDictionaryVar
  3
AutoCAD 2000
 90
        0
280
     0
281
     0
  0
ENDSEC
  0
SECTION
  2
TABLES
  0
TABLE
  2
VPORT
  5
8
330
0
100
AcDbSymbolTable
 70
     4
  0
VPORT
  5
1093
330
8
100
AcDbSymbolTableRecord
100
AcDbViewportTableRecord
  2
*Active
 70
     0
 10
0.0
 20
0.0
 11
1.0
 21
1.0
 12
970.5
 22
447.5
 13
0.0
 23
0.0
 14
1.0
 24
1.0
 15
0.0
 25
0.0
 16
0.0
 26
0.0
 36
1.0
 17
0.0
 27
0.0
 37
0.0
 40
939.2160611016567
 41
2.073363431151241
 42
50.0
 43
0.0
 44
0.0
 50
0.0
 51
0.0
 71
     0
 72
   100
 73
     1
 74
     3
 75
     0
 76
     0
 77
     0
 78
     0
281
     0
 65
     1
110
0.0
120
0.0
130
0.0
111
1.0
121
0.0
131
0.0
112
0.0
122
1.0
132
0.0
 79
     1
146
0.0
  0
ENDTAB
  0
TABLE
  2
LTYPE
  5
5
330
0
100
AcDbSymbolTable
 70
     1
  0
LTYPE
  5
13
330
5
100
AcDbSymbolTableRecord
100
AcDbLinetypeTableRecord
  2
ByBlock
 70
     0
  3

 72
    65
 73
     0
 40
0.0
  0
LTYPE
  5
14
330
5
100
AcDbSymbolTableRecord
100
AcDbLinetypeTableRecord
  2
ByLayer
 70
     0
  3

 72
    65
 73
     0
 40
0.0
  0
LTYPE
  5
15
330
5
100
AcDbSymbolTableRecord
100
AcDbLinetypeTableRecord
  2
Continuous
 70
     0
  3
Solid line
 72
    65
 73
     0
 40
0.0
  0
ENDTAB
  0
TABLE
  2
LAYER
  5
2
330
0
100
AcDbSymbolTable
 70
     1
  0
LAYER
  5
10
330
2
100
AcDbSymbolTableRecord
100
AcDbLayerTableRecord
  2
0
 70
     0
 62
     7
  6
Continuous
370
    -3
390
F
  0
ENDTAB
  0
TABLE
  2
STYLE
  5
3
330
0
100
AcDbSymbolTable
 70
     1
  0
STYLE
  5
11
330
3
100
AcDbSymbolTableRecord
100
AcDbTextStyleTableRecord
  2
Standard
 70
     0
 40
0.0
 41
1.0
 50
0.0
 71
     0
 42
0.2
  3
txt
  4

  0
ENDTAB
  0
TABLE
  2
VIEW
  5
6
330
0
100
AcDbSymbolTable
 70
     0
  0
ENDTAB
  0
TABLE
  2
UCS
  5
7
330
0
100
AcDbSymbolTable
 70
     0
  0
ENDTAB
  0
TABLE
  2
APPID
  5
9
330
0
100
AcDbSymbolTable
 70
     1
  0
APPID
  5
12
330
9
100
AcDbSymbolTableRecord
100
AcDbRegAppTableRecord
  2
ACAD
 70
     0
  0
ENDTAB
  0
TABLE
  2
DIMSTYLE
  5
A
330
0
100
AcDbSymbolTable
 70
     1
100
AcDbDimStyleTable
 71
     0
  0
DIMSTYLE
105
1046
330
A
100
AcDbSymbolTableRecord
100
AcDbDimStyleTableRecord
  2
Standard
 70
     0
340
11
  0
ENDTAB
  0
TABLE
  2
BLOCK_RECORD
  5
1
330
0
100
AcDbSymbolTable
 70
     0
  0
BLOCK_RECORD
  5
1E
330
1
100
AcDbSymbolTableRecord
100
AcDbBlockTableRecord
  2
*Model_Space
340
21
  0
BLOCK_RECORD
  5
1A
330
1
100
AcDbSymbolTableRecord
100
AcDbBlockTableRecord
  2
*Paper_Space
340
1D
  0
ENDTAB
  0
ENDSEC
  0
SECTION
  2
BLOCKS
  0
BLOCK
  5
1F
330
1E
100
AcDbEntity
  8
0
100
AcDbBlockBegin
  2
*Model_Space
 70
     0
 10
0.0
 20
0.0
 30
0.0
  3
*Model_Space
  1

  0
ENDBLK
  5
20
330
1E
100
AcDbEntity
  8
0
100
AcDbBlockEnd
  0
BLOCK
  5
1B
330
1A
100
AcDbEntity
 67
     1
  8
0
100
AcDbBlockBegin
  2
*Paper_Space
 70
     0
 10
0.0
 20
0.0
 30
0.0
  3
*Paper_Space
  1

  0
ENDBLK
  5
1C
330
1A
100
AcDbEntity
 67
     1
  8
0
100
AcDbBlockEnd
  0
ENDSEC
  0
SECTION
  2
ENTITIES
  0
LINE
  5
22
330
1E
100
AcDbEntity
  8
0
100
AcDbLine
 10
90.7529
 20
309.502
 30
0.0
 11
155.9499999999999
 21
309.0
 31
0.0
  0
LINE
  5
23
330
1E
100
AcDbEntity
  8
0
100
AcDbLine
 10
2.01969
 20
342.368
 30
0.0
 11
3.129799999999999
 21
333.9909999999999
 31
0.0
  0
LINE
  5
26
330
1E
100
AcDbEntity
  8
0
100
AcDbLine
 10
3.129799999999999
 20
333.9909999999999
 30
0.0
 11
6.3845
 21
326.1859999999999
 31
0.0
  0
LINE
  5
27
330
1E
100
AcDbEntity
  8
0
100
AcDbLine
 10
2.01969
 20
342.368
 30
0.0
 11
3.129799999999999
 21
333.9909999999999
 31
0.0
  0
LINE
  5
2C
330
1E
100
AcDbEntity
  8
0
100
AcDbLine
 10
11.562
 20
319.483
 30
0.0
 11
18.3094
 21
314.3399999999999
 31
0.0
  0
LINE
  5
2D
330
1E
100
AcDbEntity
  8
0
100
AcDbLine
 10
26.1669
 20
311.106
 30
0.0
 11
34.5991
 21
310.0029999999999
 31
0.0
  0
LINE
  5
2E
330
1E
100
AcDbEntity
  8
0
100
AcDbLine
 10
18.3094
 20
314.3399999999999
 30
0.0
 11
26.1669
 21
311.106
 31
0.0
  0
LINE
  5
2C6
330
1E
100
AcDbEntity
  8
0
100
AcDbLine
 10
34.5991
 20
310.0029999999999
 30
0.0
 11
90.7529
 21
309.502
 31
0.0
  0
LINE
  5
335
330
1E
100
AcDbEntity
  8
0
100
AcDbLine
 10
221.147
 20
309.502
 30
0.0
 11
232.6690462127829
 21
309.604798467653
 31
0.0
  0
LINE
  5
336
330
1E
100
AcDbEntity
  8
0
100
AcDbLine
 10
232.6690462127829
 20
309.604798467653
 30
0.0
 11
233.0
 21
301.0
 31
0.0
  0
LINE
  5
337
330
1E
100
AcDbEntity
  8
0
100
AcDbLine
 10
233.0
 20
301.0
 30
0.0
 11
237.0999999999999
 21
250.0
 31
0.0
  0
LINE
  5
338
330
1E
100
AcDbEntity
  8
0
100
AcDbLine
 10
237.0999999999999
 20
250.0
 30
0.0
 11
240.9
 21
208.0
 31
0.0
  0
LINE
  5
339
330
1E
100
AcDbEntity
  8
0
100
AcDbLine
 10
240.9
 20
208.0
 30
0.0
 11
247.5
 21
155.0
 31
0.0
  0
LINE
  5
33A
330
1E
100
AcDbEntity
  8
0
100
AcDbLine
 10
253.88
 20
117.056
 30
0.0
 11
257.562
 21
102.4829999999999
 31
0.0
  0
LINE
  5
33B
330
1E
100
AcDbEntity
  8
0
100
AcDbLine
 10
257.562
 20
102.4829999999999
 30
0.0
 11
264.188
 21
88.32980000000009
 31
0.0
  0
LINE
  5
33C
330
1E
100
AcDbEntity
  8
0
100
AcDbLine
 10
264.188
 20
88.32980000000009
 30
0.0
 11
270.8149999999999
 21
77.25970000000009
 31
0.0
  0
LINE
  5
33D
330
1E
100
AcDbEntity
  8
0
100
AcDbLine
 10
270.8149999999999
 20
77.25970000000009
 30
0.0
 11
277.9929999999999
 21
68.1513000000001
 31
0.0
  0
LINE
  5
33E
330
1E
100
AcDbEntity
  8
0
100
AcDbLine
 10
277.9929999999999
 20
68.1513000000001
 30
0.0
 11
286.829
 21
59.4633000000001
 31
0.0
  0
LINE
  5
33F
330
1E
100
AcDbEntity
  8
0
100
AcDbLine
 10
286.829
 20
59.4633000000001
 30
0.0
 11
297.387
 21
50.5086000000001
 31
0.0
  0
LINE
  5
340
330
1E
100
AcDbEntity
  8
0
100
AcDbLine
 10
297.387
 20
50.5086000000001
 30
0.0
 11
309.156
 21
42.4759000000001
 31
0.0
  0
LINE
  5
357
330
1E
100
AcDbEntity
  8
0
100
AcDbLine
 10
309.156
 20
42.4759000000001
 30
0.0
 11
320.5759999999999
 21
35.7537000000001
 31
0.0
  0
LINE
  5
35F
330
1E
100
AcDbEntity
  8
0
100
AcDbLine
 10
439.003
 20
14.55630000000009
 30
0.0
 11
517.441
 21
11.1832000000001
 31
0.0
  0
LINE
  5
360
330
1E
100
AcDbEntity
  8
0
100
AcDbLine
 10
404.2119999999999
 20
15.9519000000001
 30
0.0
 11
439.003
 21
14.55630000000009
 31
0.0
  0
LINE
  5
361
330
1E
100
AcDbEntity
  8
0
100
AcDbLine
 10
384.855
 20
17.4078000000001
 30
0.0
 11
404.2119999999999
 21
15.9519000000001
 31
0.0
  0
LINE
  5
362
330
1E
100
AcDbEntity
  8
0
100
AcDbLine
 10
365.7
 20
20.2087000000001
 30
0.0
 11
384.855
 21
17.4078000000001
 31
0.0
  0
LINE
  5
363
330
1E
100
AcDbEntity
  8
0
100
AcDbLine
 10
347.098
 20
25.25030000000009
 30
0.0
 11
365.7
 21
20.2087000000001
 31
0.0
  0
LINE
  5
364
330
1E
100
AcDbEntity
  8
0
100
AcDbLine
 10
332.5469999999999
 20
30.2920000000001
 30
0.0
 11
347.098
 21
25.25030000000009
 31
0.0
  0
LINE
  5
365
330
1E
100
AcDbEntity
  8
0
100
AcDbLine
 10
320.5759999999999
 20
35.7537000000001
 30
0.0
 11
332.5469999999999
 21
30.2920000000001
 31
0.0
  0
LINE
  5
36A
330
1E
100
AcDbEntity
  8
0
100
AcDbLine
 10
0.0
 20
499.849
 30
0.0
 11
0.0
 21
565.0
 31
0.0
  0
LINE
  5
407
330
1E
100
AcDbEntity
  8
0
100
AcDbLine
 10
311.8999999999999
 20
499.849
 30
0.0
 11
311.8999999999999
 21
630.1509999999999
 31
0.0
  0
LINE
  5
408
330
1E
100
AcDbEntity
  8
0
100
AcDbLine
 10
0.0
 20
565.0
 30
0.0
 11
0.0
 21
630.1509999999999
 31
0.0
  0
LINE
  5
409
330
1E
100
AcDbEntity
  8
0
100
AcDbLine
 10
0.0
 20
565.0
 30
0.0
 11
0.0
 21
499.849
 31
0.0
  0
LINE
  5
47A
330
1E
100
AcDbEntity
  8
0
100
AcDbLine
 10
311.8999999999999
 20
630.1509999999999
 30
0.0
 11
311.8999999999999
 21
499.849
 31
0.0
  0
LINE
  5
47B
330
1E
100
AcDbEntity
  8
0
100
AcDbLine
 10
0.0
 20
630.1509999999999
 30
0.0
 11
1.009849999999999
 21
690.3430000000001
 31
0.0
  0
LINE
  5
47C
330
1E
100
AcDbEntity
  8
0
100
AcDbLine
 10
0.0
 20
630.1509999999999
 30
0.0
 11
0.0
 21
565.0
 31
0.0
  0
LINE
  5
47D
330
1E
100
AcDbEntity
  8
0
100
AcDbLine
 10
1.009849999999999
 20
690.3430000000001
 30
0.0
 11
1.51477
 21
740.49
 31
0.0
  0
LINE
  5
481
330
1E
100
AcDbEntity
  8
0
100
AcDbLine
 10
310.11
 20
690.3430000000001
 30
0.0
 11
310.668
 21
690.3430000000001
 31
0.0
  0
LINE
  5
482
330
1E
100
AcDbEntity
  8
0
100
AcDbLine
 10
310.8899999999999
 20
690.3430000000001
 30
0.0
 11
311.8999999999999
 21
630.1509999999999
 31
0.0
  0
LINE
  5
483
330
1E
100
AcDbEntity
  8
0
100
AcDbLine
 10
310.668
 20
690.3430000000001
 30
0.0
 11
310.8899999999999
 21
690.3430000000001
 31
0.0
  0
LINE
  5
48E
330
1E
100
AcDbEntity
  8
0
100
AcDbLine
 10
310.827095200091
 20
696.58950891291
 30
0.0
 11
310.8899999999999
 21
690.3430000000001
 31
0.0
  0
LINE
  5
48F
330
1E
100
AcDbEntity
  8
0
100
AcDbLine
 10
1.51477
 20
740.49
 30
0.0
 11
2.01969
 21
787.6319999999999
 31
0.0
  0
LINE
  5
491
330
1E
100
AcDbEntity
  8
0
100
AcDbLine
 10
429.657
 20
696.11
 30
0.0
 11
564.849
 21
695.1010000000001
 31
0.0
  0
LINE
  5
492
330
1E
100
AcDbEntity
  8
0
100
AcDbLine
 10
3.129799999999999
 20
796.0089999999999
 30
0.0
 11
6.3845
 21
803.814
 31
0.0
  0
LINE
  5
493
330
1E
100
AcDbEntity
  8
0
100
AcDbLine
 10
3.129799999999999
 20
796.0089999999999
 30
0.0
 11
6.3845
 21
803.814
 31
0.0
  0
LINE
  5
494
330
1E
100
AcDbEntity
  8
0
100
AcDbLine
 10
2.01969
 20
787.6319999999999
 30
0.0
 11
3.129799999999999
 21
796.0089999999999
 31
0.0
  0
LINE
  5
499
330
1E
100
AcDbEntity
  8
0
100
AcDbLine
 10
6.3845
 20
803.814
 30
0.0
 11
11.562
 21
810.5169999999999
 31
0.0
  0
LINE
  5
49A
330
1E
100
AcDbEntity
  8
0
100
AcDbLine
 10
18.3094
 20
815.6599999999999
 30
0.0
 11
26.1669
 21
818.8939999999998
 31
0.0
  0
LINE
  5
49B
330
1E
100
AcDbEntity
  8
0
100
AcDbLine
 10
11.562
 20
810.5169999999999
 30
0.0
 11
18.3094
 21
815.6599999999999
 31
0.0
  0
LINE
  5
4A3
330
1E
100
AcDbEntity
  8
0
100
AcDbLine
 10
26.1669
 20
818.8939999999998
 30
0.0
 11
34.5991
 21
819.997
 31
0.0
  0
LINE
  5
4A5
330
1E
100
AcDbEntity
  8
0
100
AcDbLine
 10
6.3845
 20
803.814
 30
0.0
 11
11.562
 21
810.5169999999999
 31
0.0
  0
LINE
  5
4E4
330
1E
100
AcDbEntity
  8
0
100
AcDbLine
 10
149.369391260911
 20
820.9493310962139
 30
0.0
 11
149.502
 21
830.2469999999999
 31
0.0
  0
LINE
  5
4E9
330
1E
100
AcDbEntity
  8
0
100
AcDbLine
 10
154.34
 20
876.6910000000001
 30
0.0
 11
159.4829999999999
 21
883.4379999999999
 31
0.0
  0
LINE
  5
4EC
330
1E
100
AcDbEntity
  8
0
100
AcDbLine
 10
151.106
 20
868.833
 30
0.0
 11
154.34
 21
876.6910000000001
 31
0.0
  0
LINE
  5
4ED
330
1E
100
AcDbEntity
  8
0
100
AcDbLine
 10
150.0029999999999
 20
860.401
 30
0.0
 11
151.106
 21
868.833
 31
0.0
  0
LINE
  5
4F4
330
1E
100
AcDbEntity
  8
0
100
AcDbLine
 10
166.1859999999999
 20
888.615
 30
0.0
 11
173.9909999999999
 21
891.8699999999999
 31
0.0
  0
LINE
  5
4F5
330
1E
100
AcDbEntity
  8
0
100
AcDbLine
 10
173.9909999999999
 20
891.8699999999999
 30
0.0
 11
182.3679999999999
 21
892.98
 31
0.0
  0
LINE
  5
4F6
330
1E
100
AcDbEntity
  8
0
100
AcDbLine
 10
159.4829999999999
 20
883.4379999999999
 30
0.0
 11
166.1859999999999
 21
888.615
 31
0.0
  0
LINE
  5
4F7
330
1E
100
AcDbEntity
  8
0
100
AcDbLine
 10
149.502
 20
830.2469999999999
 30
0.0
 11
150.0029999999999
 21
860.401
 31
0.0
  0
LINE
  5
50E
330
1E
100
AcDbEntity
  8
0
100
AcDbLine
 10
429.657
 20
893.9899999999999
 30
0.0
 11
564.849
 21
895.0
 31
0.0
  0
LINE
  5
50F
330
1E
100
AcDbEntity
  8
0
100
AcDbLine
 10
304.51
 20
893.485
 30
0.0
 11
429.657
 21
893.9899999999999
 31
0.0
  0
LINE
  5
510
330
1E
100
AcDbEntity
  8
0
100
AcDbLine
 10
182.3679999999999
 20
892.98
 30
0.0
 11
304.51
 21
893.485
 31
0.0
  0
LINE
  5
511
330
1E
100
AcDbEntity
  8
0
100
AcDbLine
 10
90.7529
 20
820.498
 30
0.0
 11
149.369391260911
 21
820.9493310962139
 31
0.0
  0
LINE
  5
512
330
1E
100
AcDbEntity
  8
0
100
AcDbLine
 10
90.7529
 20
820.498
 30
0.0
 11
149.369391260911
 21
820.9493310962139
 31
0.0
  0
LINE
  5
513
330
1E
100
AcDbEntity
  8
0
100
AcDbLine
 10
34.5991
 20
819.997
 30
0.0
 11
90.7529
 21
820.498
 31
0.0
  0
LINE
  5
591
330
1E
100
AcDbEntity
  8
0
100
AcDbLine
 10
987.8669999999999
 20
0.347929000000079
 30
0.0
 11
1086.0
 21
0.0000000000000791
 31
0.0
  0
LINE
  5
592
330
1E
100
AcDbEntity
  8
0
100
AcDbLine
 10
987.8669999999999
 20
0.347929000000079
 30
0.0
 11
1086.0
 21
0.0000000000000791
 31
0.0
  0
LINE
  5
593
330
1E
100
AcDbEntity
  8
0
100
AcDbLine
 10
904.7139999999998
 20
1.73945000000008
 30
0.0
 11
987.8669999999999
 21
0.347929000000079
 31
0.0
  0
LINE
  5
594
330
1E
100
AcDbEntity
  8
0
100
AcDbLine
 10
904.7139999999998
 20
1.73945000000008
 30
0.0
 11
987.8669999999999
 21
0.347929000000079
 31
0.0
  0
LINE
  5
595
330
1E
100
AcDbEntity
  8
0
100
AcDbLine
 10
809.623
 20
2.43899000000008
 30
0.0
 11
904.7139999999998
 21
1.73945000000008
 31
0.0
  0
LINE
  5
596
330
1E
100
AcDbEntity
  8
0
100
AcDbLine
 10
711.242
 20
4.88736000000008
 30
0.0
 11
809.623
 21
2.43899000000008
 31
0.0
  0
LINE
  5
597
330
1E
100
AcDbEntity
  8
0
100
AcDbLine
 10
616.48
 20
7.68550000000008
 30
0.0
 11
711.242
 21
4.88736000000008
 31
0.0
  0
LINE
  5
598
330
1E
100
AcDbEntity
  8
0
100
AcDbLine
 10
517.441
 20
11.1832000000001
 30
0.0
 11
616.48
 21
7.68550000000008
 31
0.0
  0
LINE
  5
599
330
1E
100
AcDbEntity
  8
0
100
AcDbLine
 10
1086.0
 20
0.0000000000000791
 30
0.0
 11
1184.13
 21
0.347929000000079
 31
0.0
  0
LINE
  5
59A
330
1E
100
AcDbEntity
  8
0
100
AcDbLine
 10
1086.0
 20
0.0000000000000791
 30
0.0
 11
1184.13
 21
0.347929000000079
 31
0.0
  0
LINE
  5
5A1
330
1E
100
AcDbEntity
  8
0
100
AcDbLine
 10
1067.749999999999
 20
366.253
 30
0.0
 11
1071.059999999999
 21
364.0109999999999
 31
0.0
  0
LINE
  5
5A2
330
1E
100
AcDbEntity
  8
0
100
AcDbLine
 10
1071.059999999999
 20
364.0109999999999
 30
0.0
 11
1074.54
 21
362.3369999999999
 31
0.0
  0
LINE
  5
5A3
330
1E
100
AcDbEntity
  8
0
100
AcDbLine
 10
1074.54
 20
362.3369999999999
 30
0.0
 11
1078.259999999999
 21
361.074
 31
0.0
  0
LINE
  5
5A4
330
1E
100
AcDbEntity
  8
0
100
AcDbLine
 10
1078.259999999999
 20
361.074
 30
0.0
 11
1082.08
 21
360.3159999999999
 31
0.0
  0
LINE
  5
5A5
330
1E
100
AcDbEntity
  8
0
100
AcDbLine
 10
1086.0
 20
360.0
 30
0.0
 11
1089.92
 21
360.3159999999999
 31
0.0
  0
LINE
  5
5A6
330
1E
100
AcDbEntity
  8
0
100
AcDbLine
 10
1082.08
 20
360.3159999999999
 30
0.0
 11
1086.0
 21
360.0
 31
0.0
  0
LINE
  5
5A7
330
1E
100
AcDbEntity
  8
0
100
AcDbLine
 10
1064.81
 20
368.8109999999999
 30
0.0
 11
1067.749999999999
 21
366.253
 31
0.0
  0
LINE
  5
5A8
330
1E
100
AcDbEntity
  8
0
100
AcDbLine
 10
1062.25
 20
371.7469999999999
 30
0.0
 11
1064.81
 21
368.8109999999999
 31
0.0
  0
LINE
  5
5A9
330
1E
100
AcDbEntity
  8
0
100
AcDbLine
 10
1060.009999999999
 20
375.063
 30
0.0
 11
1062.25
 21
371.7469999999999
 31
0.0
  0
LINE
  5
5AA
330
1E
100
AcDbEntity
  8
0
100
AcDbLine
 10
1058.34
 20
378.5369999999999
 30
0.0
 11
1060.009999999999
 21
375.063
 31
0.0
  0
LINE
  5
5AB
330
1E
100
AcDbEntity
  8
0
100
AcDbLine
 10
1057.07
 20
382.263
 30
0.0
 11
1058.34
 21
378.5369999999999
 31
0.0
  0
LINE
  5
5AC
330
1E
100
AcDbEntity
  8
0
100
AcDbLine
 10
1056.32
 20
386.0839999999999
 30
0.0
 11
1057.07
 21
382.263
 31
0.0
  0
LINE
  5
5AD
330
1E
100
AcDbEntity
  8
0
100
AcDbLine
 10
1056.0
 20
390.0
 30
0.0
 11
1056.32
 21
386.0839999999999
 31
0.0
  0
LINE
  5
5AE
330
1E
100
AcDbEntity
  8
0
100
AcDbLine
 10
1056.0
 20
390.0
 30
0.0
 11
1056.32
 21
393.916
 31
0.0
  0
LINE
  5
5B3
330
1E
100
AcDbEntity
  8
0
100
AcDbLine
 10
1107.19
 20
368.8109999999999
 30
0.0
 11
1109.75
 21
371.7469999999999
 31
0.0
  0
LINE
  5
5B4
330
1E
100
AcDbEntity
  8
0
100
AcDbLine
 10
1109.75
 20
371.7469999999999
 30
0.0
 11
1111.99
 21
375.063
 31
0.0
  0
LINE
  5
5B5
330
1E
100
AcDbEntity
  8
0
100
AcDbLine
 10
1111.99
 20
375.063
 30
0.0
 11
1113.66
 21
378.5369999999999
 31
0.0
  0
LINE
  5
5B6
330
1E
100
AcDbEntity
  8
0
100
AcDbLine
 10
1113.66
 20
378.5369999999999
 30
0.0
 11
1114.929999999999
 21
382.263
 31
0.0
  0
LINE
  5
5B7
330
1E
100
AcDbEntity
  8
0
100
AcDbLine
 10
1115.68
 20
386.0839999999999
 30
0.0
 11
1116.0
 21
390.0
 31
0.0
  0
LINE
  5
5B8
330
1E
100
AcDbEntity
  8
0
100
AcDbLine
 10
1114.929999999999
 20
382.263
 30
0.0
 11
1115.68
 21
386.0839999999999
 31
0.0
  0
LINE
  5
5B9
330
1E
100
AcDbEntity
  8
0
100
AcDbLine
 10
1104.25
 20
366.253
 30
0.0
 11
1107.19
 21
368.8109999999999
 31
0.0
  0
LINE
  5
5BA
330
1E
100
AcDbEntity
  8
0
100
AcDbLine
 10
1100.94
 20
364.0109999999999
 30
0.0
 11
1104.25
 21
366.253
 31
0.0
  0
LINE
  5
5BB
330
1E
100
AcDbEntity
  8
0
100
AcDbLine
 10
1097.46
 20
362.3369999999999
 30
0.0
 11
1100.94
 21
364.0109999999999
 31
0.0
  0
LINE
  5
5BC
330
1E
100
AcDbEntity
  8
0
100
AcDbLine
 10
1093.74
 20
361.074
 30
0.0
 11
1097.46
 21
362.3369999999999
 31
0.0
  0
LINE
  5
5BD
330
1E
100
AcDbEntity
  8
0
100
AcDbLine
 10
1089.92
 20
360.3159999999999
 30
0.0
 11
1093.74
 21
361.074
 31
0.0
  0
LINE
  5
5EE
330
1E
100
AcDbEntity
  8
0
100
AcDbLine
 10
1062.25
 20
408.253
 30
0.0
 11
1064.81
 21
411.19
 31
0.0
  0
LINE
  5
5EF
330
1E
100
AcDbEntity
  8
0
100
AcDbLine
 10
1060.009999999999
 20
404.9369999999999
 30
0.0
 11
1062.25
 21
408.253
 31
0.0
  0
LINE
  5
5F0
330
1E
100
AcDbEntity
  8
0
100
AcDbLine
 10
1058.34
 20
401.463
 30
0.0
 11
1060.009999999999
 21
404.9369999999999
 31
0.0
  0
LINE
  5
5F1
330
1E
100
AcDbEntity
  8
0
100
AcDbLine
 10
1057.07
 20
397.7369999999999
 30
0.0
 11
1058.34
 21
401.463
 31
0.0
  0
LINE
  5
5F2
330
1E
100
AcDbEntity
  8
0
100
AcDbLine
 10
1056.32
 20
393.916
 30
0.0
 11
1057.07
 21
397.7369999999999
 31
0.0
  0
LINE
  5
5F3
330
1E
100
AcDbEntity
  8
0
100
AcDbLine
 10
1064.81
 20
411.19
 30
0.0
 11
1067.749999999999
 21
413.7469999999999
 31
0.0
  0
LINE
  5
5F4
330
1E
100
AcDbEntity
  8
0
100
AcDbLine
 10
1067.749999999999
 20
413.7469999999999
 30
0.0
 11
1071.059999999999
 21
415.99
 31
0.0
  0
LINE
  5
5F5
330
1E
100
AcDbEntity
  8
0
100
AcDbLine
 10
1071.059999999999
 20
415.99
 30
0.0
 11
1074.54
 21
417.663
 31
0.0
  0
LINE
  5
5F6
330
1E
100
AcDbEntity
  8
0
100
AcDbLine
 10
1074.54
 20
417.663
 30
0.0
 11
1078.259999999999
 21
418.9259999999999
 31
0.0
  0
LINE
  5
5F7
330
1E
100
AcDbEntity
  8
0
100
AcDbLine
 10
1078.259999999999
 20
418.9259999999999
 30
0.0
 11
1082.08
 21
419.6839999999999
 31
0.0
  0
LINE
  5
5F8
330
1E
100
AcDbEntity
  8
0
100
AcDbLine
 10
1111.99
 20
404.9369999999999
 30
0.0
 11
1113.66
 21
401.463
 31
0.0
  0
LINE
  5
5F9
330
1E
100
AcDbEntity
  8
0
100
AcDbLine
 10
1100.94
 20
415.99
 30
0.0
 11
1104.25
 21
413.7469999999999
 31
0.0
  0
LINE
  5
5FA
330
1E
100
AcDbEntity
  8
0
100
AcDbLine
 10
1097.46
 20
417.663
 30
0.0
 11
1100.94
 21
415.99
 31
0.0
  0
LINE
  5
5FB
330
1E
100
AcDbEntity
  8
0
100
AcDbLine
 10
1093.74
 20
418.9259999999999
 30
0.0
 11
1097.46
 21
417.663
 31
0.0
  0
LINE
  5
5FC
330
1E
100
AcDbEntity
  8
0
100
AcDbLine
 10
1089.92
 20
419.6839999999999
 30
0.0
 11
1093.74
 21
418.9259999999999
 31
0.0
  0
LINE
  5
5FD
330
1E
100
AcDbEntity
  8
0
100
AcDbLine
 10
1104.25
 20
413.7469999999999
 30
0.0
 11
1107.19
 21
411.19
 31
0.0
  0
LINE
  5
5FE
330
1E
100
AcDbEntity
  8
0
100
AcDbLine
 10
1107.19
 20
411.19
 30
0.0
 11
1109.75
 21
408.253
 31
0.0
  0
LINE
  5
5FF
330
1E
100
AcDbEntity
  8
0
100
AcDbLine
 10
1109.75
 20
408.253
 30
0.0
 11
1111.99
 21
404.9369999999999
 31
0.0
  0
LINE
  5
600
330
1E
100
AcDbEntity
  8
0
100
AcDbLine
 10
1114.929999999999
 20
397.7369999999999
 30
0.0
 11
1115.68
 21
393.916
 31
0.0
  0
LINE
  5
601
330
1E
100
AcDbEntity
  8
0
100
AcDbLine
 10
1115.68
 20
393.916
 30
0.0
 11
1116.0
 21
390.0
 31
0.0
  0
LINE
  5
602
330
1E
100
AcDbEntity
  8
0
100
AcDbLine
 10
1113.66
 20
401.463
 30
0.0
 11
1114.929999999999
 21
397.7369999999999
 31
0.0
  0
LINE
  5
603
330
1E
100
AcDbEntity
  8
0
100
AcDbLine
 10
1086.0
 20
420.0
 30
0.0
 11
1089.92
 21
419.6839999999999
 31
0.0
  0
LINE
  5
604
330
1E
100
AcDbEntity
  8
0
100
AcDbLine
 10
1082.08
 20
419.6839999999999
 30
0.0
 11
1086.0
 21
420.0
 31
0.0
  0
LINE
  5
607
330
1E
100
AcDbEntity
  8
0
100
AcDbLine
 10
1940.5
 20
440.0
 30
0.0
 11
1941.0
 21
390.0
 31
0.0
  0
LINE
  5
60E
330
1E
100
AcDbEntity
  8
0
100
AcDbLine
 10
1939.0
 20
479.0
 30
0.0
 11
1940.5
 21
440.0
 31
0.0
  0
LINE
  5
60F
330
1E
100
AcDbEntity
  8
0
100
AcDbLine
 10
1934.9
 20
530.0
 30
0.0
 11
1939.0
 21
479.0
 31
0.0
  0
LINE
  5
610
330
1E
100
AcDbEntity
  8
0
100
AcDbLine
 10
1931.099999999999
 20
572.0
 30
0.0
 11
1934.9
 21
530.0
 31
0.0
  0
LINE
  5
611
330
1E
100
AcDbEntity
  8
0
100
AcDbLine
 10
1924.5
 20
625.0
 30
0.0
 11
1931.099999999999
 21
572.0
 31
0.0
  0
LINE
  5
718
330
1E
100
AcDbEntity
  8
0
100
AcDbLine
 10
564.849
 20
695.1010000000001
 30
0.0
 11
564.9580000000001
 21
695.1010000000001
 31
0.0
  0
LINE
  5
719
330
1E
100
AcDbEntity
  8
0
100
AcDbLine
 10
564.849
 20
895.0
 30
0.0
 11
705.0
 21
895.0
 31
0.0
  0
LINE
  5
71A
330
1E
100
AcDbEntity
  8
0
100
AcDbLine
 10
845.151
 20
695.1010000000001
 30
0.0
 11
980.343
 21
696.11
 31
0.0
  0
LINE
  5
71B
330
1E
100
AcDbEntity
  8
0
100
AcDbLine
 10
845.021
 20
695.1010000000001
 30
0.0
 11
845.151
 21
695.1010000000001
 31
0.0
  0
LINE
  5
D32
330
1E
100
AcDbEntity
  8
0
100
AcDbLine
 10
980.343
 20
696.11
 30
0.0
 11
1105.49
 21
696.6149999999999
 31
0.0
  0
LINE
  5
EE8
330
1E
100
AcDbEntity
  8
0
100
AcDbLine
 10
980.343
 20
893.768
 30
0.0
 11
980.343
 21
893.21
 31
0.0
  0
LINE
  5
EE9
330
1E
100
AcDbEntity
  8
0
100
AcDbLine
 10
705.0
 20
895.0
 30
0.0
 11
845.151
 21
895.0
 31
0.0
  0
LINE
  5
EEA
330
1E
100
AcDbEntity
  8
0
100
AcDbLine
 10
845.151
 20
895.0
 30
0.0
 11
980.343
 21
893.9899999999999
 31
0.0
  0
LINE
  5
EEB
330
1E
100
AcDbEntity
  8
0
100
AcDbLine
 10
980.343
 20
893.9899999999999
 30
0.0
 11
1105.49
 21
893.485
 31
0.0
  0
LINE
  5
EEC
330
1E
100
AcDbEntity
  8
0
100
AcDbLine
 10
980.343
 20
893.9899999999999
 30
0.0
 11
980.343
 21
893.768
 31
0.0
  0
LINE
  5
EF4
330
1E
100
AcDbEntity
  8
0
100
AcDbLine
 10
1236.01
 20
698.23
 30
0.0
 11
1243.81
 21
701.485
 31
0.0
  0
LINE
  5
EF5
330
1E
100
AcDbEntity
  8
0
100
AcDbLine
 10
1227.63
 20
697.12
 30
0.0
 11
1236.01
 21
698.23
 31
0.0
  0
LINE
  5
EF7
330
1E
100
AcDbEntity
  8
0
100
AcDbLine
 10
1250.52
 20
706.6629999999999
 30
0.0
 11
1255.66
 21
713.41
 31
0.0
  0
LINE
  5
EFB
330
1E
100
AcDbEntity
  8
0
100
AcDbLine
 10
1243.81
 20
701.485
 30
0.0
 11
1250.52
 21
706.6629999999999
 31
0.0
  0
LINE
  5
EFD
330
1E
100
AcDbEntity
  8
0
100
AcDbLine
 10
1105.49
 20
696.6149999999999
 30
0.0
 11
1227.63
 21
697.12
 31
0.0
  0
LINE
  5
F0B
330
1E
100
AcDbEntity
  8
0
100
AcDbLine
 10
1918.12
 20
662.9439999999999
 30
0.0
 11
1924.5
 21
625.0
 31
0.0
  0
LINE
  5
F0C
330
1E
100
AcDbEntity
  8
0
100
AcDbLine
 10
1914.44
 20
677.5169999999999
 30
0.0
 11
1918.12
 21
662.9439999999999
 31
0.0
  0
LINE
  5
F0D
330
1E
100
AcDbEntity
  8
0
100
AcDbLine
 10
1907.809999999999
 20
691.6699999999999
 30
0.0
 11
1914.44
 21
677.5169999999999
 31
0.0
  0
LINE
  5
F0E
330
1E
100
AcDbEntity
  8
0
100
AcDbLine
 10
1901.19
 20
702.74
 30
0.0
 11
1907.809999999999
 21
691.6699999999999
 31
0.0
  0
LINE
  5
F0F
330
1E
100
AcDbEntity
  8
0
100
AcDbLine
 10
1894.01
 20
711.8489999999999
 30
0.0
 11
1901.19
 21
702.74
 31
0.0
  0
LINE
  5
F10
330
1E
100
AcDbEntity
  8
0
100
AcDbLine
 10
1885.17
 20
720.5369999999999
 30
0.0
 11
1894.01
 21
711.8489999999999
 31
0.0
  0
LINE
  5
F11
330
1E
100
AcDbEntity
  8
0
100
AcDbLine
 10
1874.609999999999
 20
729.4910000000001
 30
0.0
 11
1885.17
 21
720.5369999999999
 31
0.0
  0
LINE
  5
1025
330
1E
100
AcDbEntity
  8
0
100
AcDbLine
 10
1255.66
 20
876.6910000000001
 30
0.0
 11
1258.89
 21
868.833
 31
0.0
  0
LINE
  5
1026
330
1E
100
AcDbEntity
  8
0
100
AcDbLine
 10
1250.52
 20
883.4379999999999
 30
0.0
 11
1255.66
 21
876.6910000000001
 31
0.0
  0
LINE
  5
1027
330
1E
100
AcDbEntity
  8
0
100
AcDbLine
 10
1258.89
 20
868.833
 30
0.0
 11
1260.0
 21
860.401
 31
0.0
  0
LINE
  5
102C
330
1E
100
AcDbEntity
  8
0
100
AcDbLine
 10
1236.01
 20
891.8699999999999
 30
0.0
 11
1243.81
 21
888.615
 31
0.0
  0
LINE
  5
102E
330
1E
100
AcDbEntity
  8
0
100
AcDbLine
 10
1227.63
 20
892.98
 30
0.0
 11
1236.01
 21
891.8699999999999
 31
0.0
  0
LINE
  5
102F
330
1E
100
AcDbEntity
  8
0
100
AcDbLine
 10
1243.81
 20
888.615
 30
0.0
 11
1250.52
 21
883.4379999999999
 31
0.0
  0
LINE
  5
1030
330
1E
100
AcDbEntity
  8
0
100
AcDbLine
 10
1260.5
 20
830.2469999999999
 30
0.0
 11
1261.0
 21
795.0499999999999
 31
0.0
  0
LINE
  5
1031
330
1E
100
AcDbEntity
  8
0
100
AcDbLine
 10
1260.0
 20
860.401
 30
0.0
 11
1260.5
 21
830.2469999999999
 31
0.0
  0
LINE
  5
1032
330
1E
100
AcDbEntity
  8
0
100
AcDbLine
 10
1105.49
 20
893.485
 30
0.0
 11
1227.63
 21
892.98
 31
0.0
  0
LINE
  5
1033
330
1E
100
AcDbEntity
  8
0
100
AcDbLine
 10
1260.763043741309
 20
778.370175037949
 30
0.0
 11
1267.29
 21
778.261
 31
0.0
  0
LINE
  5
1034
330
1E
100
AcDbEntity
  8
0
100
AcDbLine
 10
1267.29
 20
778.261
 30
0.0
 11
1362.38
 21
777.561
 31
0.0
  0
LINE
  5
1035
330
1E
100
AcDbEntity
  8
0
100
AcDbLine
 10
1362.38
 20
777.561
 30
0.0
 11
1460.76
 21
775.113
 31
0.0
  0
LINE
  5
1036
330
1E
100
AcDbEntity
  8
0
100
AcDbLine
 10
1460.76
 20
775.113
 30
0.0
 11
1555.52
 21
772.315
 31
0.0
  0
LINE
  5
1037
330
1E
100
AcDbEntity
  8
0
100
AcDbLine
 10
1555.52
 20
772.315
 30
0.0
 11
1654.56
 21
768.817
 31
0.0
  0
LINE
  5
1038
330
1E
100
AcDbEntity
  8
0
100
AcDbLine
 10
1654.56
 20
768.817
 30
0.0
 11
1733.0
 21
765.444
 31
0.0
  0
LINE
  5
1039
330
1E
100
AcDbEntity
  8
0
100
AcDbLine
 10
1733.0
 20
765.444
 30
0.0
 11
1767.79
 21
764.048
 31
0.0
  0
LINE
  5
103A
330
1E
100
AcDbEntity
  8
0
100
AcDbLine
 10
1767.79
 20
764.048
 30
0.0
 11
1787.15
 21
762.5919999999999
 31
0.0
  0
LINE
  5
103B
330
1E
100
AcDbEntity
  8
0
100
AcDbLine
 10
1787.15
 20
762.5919999999999
 30
0.0
 11
1806.3
 21
759.791
 31
0.0
  0
LINE
  5
103C
330
1E
100
AcDbEntity
  8
0
100
AcDbLine
 10
1806.3
 20
759.791
 30
0.0
 11
1824.9
 21
754.75
 31
0.0
  0
LINE
  5
103D
330
1E
100
AcDbEntity
  8
0
100
AcDbLine
 10
1824.9
 20
754.75
 30
0.0
 11
1839.45
 21
749.7080000000001
 31
0.0
  0
LINE
  5
103E
330
1E
100
AcDbEntity
  8
0
100
AcDbLine
 10
1839.45
 20
749.7080000000001
 30
0.0
 11
1851.42
 21
744.2460000000001
 31
0.0
  0
LINE
  5
103F
330
1E
100
AcDbEntity
  8
0
100
AcDbLine
 10
1851.42
 20
744.2460000000001
 30
0.0
 11
1862.84
 21
737.5239999999998
 31
0.0
  0
LINE
  5
1040
330
1E
100
AcDbEntity
  8
0
100
AcDbLine
 10
1862.84
 20
737.5239999999998
 30
0.0
 11
1874.609999999999
 21
729.4910000000001
 31
0.0
  0
LINE
  5
104A
330
1E
100
AcDbEntity
  8
0
  6
Continuous
100
AcDbLine
 10
1255.66
 20
713.41
 30
0.0
 11
1258.727610198392
 21
723.689007081596
 31
0.0
  0
LINE
  5
104B
330
1E
100
AcDbEntity
  8
0
  6
Continuous
100
AcDbLine
 10
1258.727610198392
 20
723.689007081596
 30
0.0
 11
1260.881321534154
 21
746.0745406265857
 31
0.0
  0
LINE
  5
104C
330
1E
100
AcDbEntity
  8
0
  6
Continuous
100
AcDbLine
 10
1260.881321534154
 20
746.0745406265857
 30
0.0
 11
1260.881321534154
 21
778.3681966299422
 31
0.0
  0
LINE
  5
104D
330
1E
100
AcDbEntity
  8
0
  6
Continuous
100
AcDbLine
 10
1260.881321534154
 20
778.3681966299422
 30
0.0
 11
1261.0
 21
795.0499999999999
 31
0.0
  0
LINE
  5
104E
330
1E
100
AcDbEntity
  8
0
100
AcDbLine
 10
1939.0
 20
301.0
 30
0.0
 11
1940.5
 21
340.0
 31
0.0
  0
LINE
  5
104F
330
1E
100
AcDbEntity
  8
0
100
AcDbLine
 10
1940.5
 20
340.0
 30
0.0
 11
1941.0
 21
390.0
 31
0.0
  0
LINE
  5
1050
330
1E
100
AcDbEntity
  8
0
100
AcDbLine
 10
1555.52
 20
7.685000000000172
 30
0.0
 11
1654.56
 21
11.18300000000022
 31
0.0
  0
LINE
  5
1051
330
1E
100
AcDbEntity
  8
0
100
AcDbLine
 10
1362.379999999999
 20
2.439000000000305
 30
0.0
 11
1460.759999999999
 21
4.88700000000017
 31
0.0
  0
LINE
  5
1052
330
1E
100
AcDbEntity
  8
0
100
AcDbLine
 10
1460.759999999999
 20
4.88700000000017
 30
0.0
 11
1555.52
 21
7.685000000000172
 31
0.0
  0
LINE
  5
1053
330
1E
100
AcDbEntity
  8
0
100
AcDbLine
 10
1874.609999999999
 20
50.50900000000002
 30
0.0
 11
1885.17
 21
59.46300000000019
 31
0.0
  0
LINE
  5
1054
330
1E
100
AcDbEntity
  8
0
100
AcDbLine
 10
1924.5
 20
155.0000000000001
 30
0.0
 11
1931.099999999999
 21
208.0
 31
0.0
  0
LINE
  5
1055
330
1E
100
AcDbEntity
  8
0
100
AcDbLine
 10
1934.9
 20
250.0
 30
0.0
 11
1939.0
 21
301.0
 31
0.0
  0
LINE
  5
1056
330
1E
100
AcDbEntity
  8
0
100
AcDbLine
 10
1931.099999999999
 20
208.0
 30
0.0
 11
1934.9
 21
250.0
 31
0.0
  0
LINE
  5
1057
330
1E
100
AcDbEntity
  8
0
100
AcDbLine
 10
1918.12
 20
117.0560000000001
 30
0.0
 11
1924.5
 21
155.0000000000001
 31
0.0
  0
LINE
  5
1058
330
1E
100
AcDbEntity
  8
0
100
AcDbLine
 10
1901.19
 20
77.2600000000001
 30
0.0
 11
1907.809999999999
 21
88.33000000000016
 31
0.0
  0
LINE
  5
1059
330
1E
100
AcDbEntity
  8
0
100
AcDbLine
 10
1914.44
 20
102.4830000000001
 30
0.0
 11
1918.12
 21
117.0560000000001
 31
0.0
  0
LINE
  5
105A
330
1E
100
AcDbEntity
  8
0
100
AcDbLine
 10
1907.809999999999
 20
88.33000000000016
 30
0.0
 11
1914.44
 21
102.4830000000001
 31
0.0
  0
LINE
  5
105B
330
1E
100
AcDbEntity
  8
0
100
AcDbLine
 10
1894.01
 20
68.15100000000018
 30
0.0
 11
1901.19
 21
77.2600000000001
 31
0.0
  0
LINE
  5
105C
330
1E
100
AcDbEntity
  8
0
100
AcDbLine
 10
1885.17
 20
59.46300000000019
 30
0.0
 11
1894.01
 21
68.15100000000018
 31
0.0
  0
LINE
  5
105D
330
1E
100
AcDbEntity
  8
0
100
AcDbLine
 10
1654.56
 20
11.18300000000022
 30
0.0
 11
1733.0
 21
14.55600000000015
 31
0.0
  0
LINE
  5
105E
330
1E
100
AcDbEntity
  8
0
100
AcDbLine
 10
1787.15
 20
17.40800000000013
 30
0.0
 11
1806.3
 21
20.20900000000005
 31
0.0
  0
LINE
  5
105F
330
1E
100
AcDbEntity
  8
0
100
AcDbLine
 10
1733.0
 20
14.55600000000015
 30
0.0
 11
1767.79
 21
15.95200000000011
 31
0.0
  0
LINE
  5
1060
330
1E
100
AcDbEntity
  8
0
100
AcDbLine
 10
1767.79
 20
15.95200000000011
 30
0.0
 11
1787.15
 21
17.40800000000013
 31
0.0
  0
LINE
  5
1061
330
1E
100
AcDbEntity
  8
0
100
AcDbLine
 10
1839.45
 20
30.29200000000003
 30
0.0
 11
1851.42
 21
35.75400000000001
 31
0.0
  0
LINE
  5
1062
330
1E
100
AcDbEntity
  8
0
100
AcDbLine
 10
1806.3
 20
20.20900000000005
 30
0.0
 11
1824.9
 21
25.25000000000011
 31
0.0
  0
LINE
  5
1063
330
1E
100
AcDbEntity
  8
0
100
AcDbLine
 10
1824.9
 20
25.25000000000011
 30
0.0
 11
1839.45
 21
30.29200000000003
 31
0.0
  0
LINE
  5
1064
330
1E
100
AcDbEntity
  8
0
100
AcDbLine
 10
1851.42
 20
35.75400000000001
 30
0.0
 11
1862.84
 21
42.47600000000022
 31
0.0
  0
LINE
  5
1065
330
1E
100
AcDbEntity
  8
0
100
AcDbLine
 10
1862.84
 20
42.47600000000022
 30
0.0
 11
1874.609999999999
 21
50.50900000000002
 31
0.0
  0
LINE
  5
1066
330
1E
100
AcDbEntity
  8
0
  6
Continuous
100
AcDbLine
 10
1362.379999999999
 20
2.439000000000305
 30
0.0
 11
1184.13
 21
0.347929000000079
 31
0.0
  0
LINE
  5
1067
330
1E
100
AcDbEntity
  8
0
  6
Continuous
100
AcDbLine
 10
845.021
 20
695.1010000000001
 30
0.0
 11
564.9580000000001
 21
695.1010000000001
 31
0.0
  0
LINE
  5
1068
330
1E
100
AcDbEntity
  8
0
  6
Continuous
100
AcDbLine
 10
6.3845
 20
326.1859999999999
 30
0.0
 11
11.562
 21
319.483
 31
0.0
  0
LINE
  5
1069
330
1E
100
AcDbEntity
  8
0
  6
Continuous
100
AcDbLine
 10
1.51477
 20
389.5099999999999
 30
0.0
 11
2.01969
 21
342.368
 31
0.0
  0
LINE
  5
106A
330
1E
100
AcDbEntity
  8
0
  6
Continuous
100
AcDbLine
 10
1.51477
 20
389.5099999999999
 30
0.0
 11
0.0
 21
499.849
 31
0.0
  0
LINE
  5
106B
330
1E
100
AcDbEntity
  8
0
  6
Continuous
100
AcDbLine
 10
149.369391260911
 20
820.9493310962139
 30
0.0
 11
149.1186784658457
 21
778.3681966299422
 31
0.0
  0
LINE
  5
1077
330
1E
100
AcDbEntity
  8
0
100
AcDbLine
 10
564.8489999999999
 20
695.1010000000001
 30
0.0
 11
429.6569999999999
 21
696.11
 31
0.0
  0
LINE
  5
1078
330
1E
100
AcDbEntity
  8
0
  6
Continuous
100
AcDbLine
 10
564.9789999999999
 20
695.1010000000001
 30
0.0
 11
845.0419999999999
 21
695.1010000000001
 31
0.0
  0
LINE
  5
1079
330
1E
100
AcDbEntity
  8
0
100
AcDbLine
 10
564.9789999999999
 20
695.1010000000001
 30
0.0
 11
564.8489999999999
 21
695.1010000000001
 31
0.0
  0
LINE
  5
107A
330
1E
100
AcDbEntity
  8
0
  6
Continuous
100
AcDbLine
 10
151.2723898016074
 20
723.689007081596
 30
0.0
 11
149.1186784658457
 21
746.0745406265857
 31
0.0
  0
LINE
  5
107B
330
1E
100
AcDbEntity
  8
0
100
AcDbLine
 10
304.51
 20
696.6149999999999
 30
0.0
 11
182.3699999999998
 21
697.12
 31
0.0
  0
LINE
  5
107C
330
1E
100
AcDbEntity
  8
0
100
AcDbLine
 10
429.6569999999999
 20
696.11
 30
0.0
 11
304.51
 21
696.6149999999999
 31
0.0
  0
LINE
  5
107D
330
1E
100
AcDbEntity
  8
0
100
AcDbLine
 10
182.3699999999998
 20
697.12
 30
0.0
 11
173.99
 21
698.23
 31
0.0
  0
LINE
  5
107E
330
1E
100
AcDbEntity
  8
0
100
AcDbLine
 10
159.48
 20
706.6629999999999
 30
0.0
 11
154.3399999999999
 21
713.41
 31
0.0
  0
LINE
  5
107F
330
1E
100
AcDbEntity
  8
0
100
AcDbLine
 10
166.19
 20
701.485
 30
0.0
 11
159.48
 21
706.6629999999999
 31
0.0
  0
LINE
  5
1080
330
1E
100
AcDbEntity
  8
0
100
AcDbLine
 10
173.99
 20
698.23
 30
0.0
 11
166.19
 21
701.485
 31
0.0
  0
LINE
  5
1081
330
1E
100
AcDbEntity
  8
0
  6
Continuous
100
AcDbLine
 10
154.3399999999999
 20
713.41
 30
0.0
 11
151.2723898016074
 21
723.689007081596
 31
0.0
  0
LINE
  5
1082
330
1E
100
AcDbEntity
  8
0
  6
Continuous
100
AcDbLine
 10
149.1186784658457
 20
746.0745406265857
 30
0.0
 11
149.1186784658457
 21
778.3681966299422
 31
0.0
  0
LINE
  5
1083
330
1E
100
AcDbEntity
  8
0
100
AcDbLine
 10
277.3008999999999
 20
310.0029999999999
 30
0.0
 11
221.1470999999999
 21
309.502
 31
0.0
  0
LINE
  5
1084
330
1E
100
AcDbEntity
  8
0
  6
Continuous
100
AcDbLine
 10
310.3852299999999
 20
389.5099999999999
 30
0.0
 11
309.8803099999999
 21
342.368
 31
0.0
  0
LINE
  5
1085
330
1E
100
AcDbEntity
  8
0
100
AcDbLine
 10
293.5906
 20
314.3399999999999
 30
0.0
 11
285.7330999999999
 21
311.106
 31
0.0
  0
LINE
  5
1086
330
1E
100
AcDbEntity
  8
0
  6
Continuous
100
AcDbLine
 10
305.5154999999999
 20
326.1859999999999
 30
0.0
 11
300.3379999999999
 21
319.483
 31
0.0
  0
LINE
  5
1087
330
1E
100
AcDbEntity
  8
0
100
AcDbLine
 10
300.3379999999999
 20
319.483
 30
0.0
 11
293.5906
 21
314.3399999999999
 31
0.0
  0
LINE
  5
1088
330
1E
100
AcDbEntity
  8
0
100
AcDbLine
 10
308.7702
 20
333.9909999999999
 30
0.0
 11
305.5154999999999
 21
326.1859999999999
 31
0.0
  0
LINE
  5
1089
330
1E
100
AcDbEntity
  8
0
100
AcDbLine
 10
309.8803099999999
 20
342.368
 30
0.0
 11
308.7702
 21
333.9909999999999
 31
0.0
  0
LINE
  5
108A
330
1E
100
AcDbEntity
  8
0
100
AcDbLine
 10
309.8803099999999
 20
342.368
 30
0.0
 11
308.7702
 21
333.9909999999999
 31
0.0
  0
LINE
  5
108B
330
1E
100
AcDbEntity
  8
0
100
AcDbLine
 10
285.7330999999999
 20
311.106
 30
0.0
 11
277.3008999999999
 21
310.0029999999999
 31
0.0
  0
LINE
  5
108C
330
1E
100
AcDbEntity
  8
0
  6
Continuous
100
AcDbLine
 10
310.3852299999999
 20
389.5099999999999
 30
0.0
 11
311.8999999999999
 21
499.849
 31
0.0
  0
LINE
  5
108D
330
1E
100
AcDbEntity
  8
0
100
AcDbLine
 10
221.1470999999999
 20
309.502
 30
0.0
 11
155.9499999999999
 21
309.0
 31
0.0
  0
LINE
  5
108E
330
1E
100
AcDbEntity
  8
0
  6
Continuous
100
AcDbLine
 10
247.5
 20
155.0
 30
0.0
 11
253.88
 21
117.056
 31
0.0
  0
ENDSEC
  0
SECTION
  2
OBJECTS
  0
DICTIONARY
  5
C
330
0
100
AcDbDictionary
281
     1
  3
ACAD_GROUP
350
D
  3
ACAD_LAYOUT
350
19
  3
ACAD_MLINESTYLE
350
16
  3
ACAD_PLOTSETTINGS
350
18
  3
ACAD_PLOTSTYLENAME
350
E
  3
AcDbVariableDictionary
350
1090
  0
DICTIONARY
  5
D
102
{ACAD_REACTORS
330
C
102
}
330
C
100
AcDbDictionary
281
     1
  0
DICTIONARY
  5
19
102
{ACAD_REACTORS
330
C
102
}
330
C
100
AcDbDictionary
281
     1
  3
Layout1
350
1D
  3
Model
350
21
  0
DICTIONARY
  5
16
102
{ACAD_REACTORS
330
C
102
}
330
C
100
AcDbDictionary
281
     1
  3
Standard
350
17
  0
DICTIONARY
  5
18
102
{ACAD_REACTORS
330
C
102
}
330
C
100
AcDbDictionary
281
     1
  0
ACDBDICTIONARYWDFLT
  5
E
102
{ACAD_REACTORS
330
C
102
}
330
C
100
AcDbDictionary
281
     1
  3
Normal
350
F
100
AcDbDictionaryWithDefault
340
F
  0
DICTIONARY
  5
1090
102
{ACAD_REACTORS
330
C
102
}
330
C
100
AcDbDictionary
281
     1
  3
DIMASSOC
350
1091
  0
LAYOUT
  5
1D
102
{ACAD_REACTORS
330
19
102
}
330
19
100
AcDbPlotSettings
  1

  2
C:\Programme\AutoCAD LT 2002 Deu\plotters\DWF ePlot (optimized for plotting).pc3
  4

  6

 40
0.0
 41
0.0
 42
0.0
 43
0.0
 44
0.0
 45
0.0
 46
0.0
 47
0.0
 48
0.0
 49
0.0
140
0.0
141
0.0
142
1.0
143
1.0
 70
   688
 72
     0
 73
     0
 74
     5
  7

 75
    16
147
1.0
148
0.0
149
0.0
100
AcDbLayout
  1
Layout1
 70
     1
 71
     1
 10
0.0
 20
0.0
 11
12.0
 21
9.0
 12
0.0
 22
0.0
 32
0.0
 14
1.000000000000000E+20
 24
1.000000000000000E+20
 34
1.000000000000000E+20
 15
-1.000000000000000E+20
 25
-1.000000000000000E+20
 35
-1.000000000000000E+20
146
0.0
 13
0.0
 23
0.0
 33
0.0
 16
1.0
 26
0.0
 36
0.0
 17
0.0
 27
1.0
 37
0.0
 76
     0
330
1A
  0
LAYOUT
  5
21
102
{ACAD_REACTORS
330
19
102
}
330
19
100
AcDbPlotSettings
  1

  2
C:\Programme\AutoCAD LT 2002 Deu\plotters\DWF ePlot (optimized for plotting).pc3
  4

  6

 40
0.0
 41
0.0
 42
0.0
 43
0.0
 44
0.0
 45
0.0
 46
0.0
 47
0.0
 48
0.0
 49
0.0
140
0.0
141
0.0
142
1.0
143
1.0
 70
  1712
 72
     0
 73
     0
 74
     0
  7

 75
     0
147
1.0
148
0.0
149
0.0
100
AcDbLayout
  1
Model
 70
     1
 71
     0
 10
0.0
 20
0.0
 11
12.0
 21
9.0
 12
0.0
 22
0.0
 32
0.0
 14
0.0
 24
0.0
 34
0.0
 15
0.0
 25
0.0
 35
0.0
146
0.0
 13
0.0
 23
0.0
 33
0.0
 16
1.0
 26
0.0
 36
0.0
 17
0.0
 27
1.0
 37
0.0
 76
     0
330
1E
  0
MLINESTYLE
  5
17
102
{ACAD_REACTORS
330
16
102
}
330
16
100
AcDbMlineStyle
  2
STANDARD
 70
     0
  3

 62
   256
 51
90.0
 52
90.0
 71
     2
 49
0.5
 62
   256
  6
BYLAYER
 49
-0.5
 62
   256
  6
BYLAYER
  0
ACDBPLACEHOLDER
  5
F
102
{ACAD_REACTORS
330
E
102
}
330
E
  0
DICTIONARYVAR
  5
1091
102
{ACAD_REACTORS
330
1090
102
}
330
1090
100
DictionaryVariables
280
     0
  1
1
  0
ENDSEC
  0
EOF
