  0
SECTION
  2
HEADER
  9
$ACADVER
  1
AC1015
  9
$ACADMAINTVER
 70
    13
  9
$DWGCODEPAGE
  3
ANSI_1252
  9
$INSBASE
 10
0.0
 20
0.0
 30
0.0
  9
$EXTMIN
 10
151.0
 20
600.177
 30
0.0
  9
$EXTMAX
 10
565.0
 20
780.823
 30
0.0
  9
$LIMMIN
 10
0.0
 20
0.0
  9
$LIMMAX
 10
12.0
 20
9.0
  9
$ORTHOMODE
 70
     0
  9
$REGENMODE
 70
     1
  9
$FILLMODE
 70
     1
  9
$QTEXTMODE
 70
     0
  9
$MIRRTEXT
 70
     1
  9
$LTSCALE
 40
1.0
  9
$ATTMODE
 70
     1
  9
$TEXTSIZE
 40
0.2
  9
$TRACEWID
 40
0.05
  9
$TEXTSTYLE
  7
Standard
  9
$CLAYER
  8
0
  9
$CELTYPE
  6
Continuous
  9
$CECOLOR
 62
   256
  9
$CELTSCALE
 40
1.0
  9
$DISPSILH
 70
     0
  9
$DIMSCALE
 40
1.0
  9
$DIMASZ
 40
0.18
  9
$DIMEXO
 40
0.0625
  9
$DIMDLI
 40
0.38
  9
$DIMRND
 40
0.0
  9
$DIMDLE
 40
0.0
  9
$DIMEXE
 40
0.18
  9
$DIMTP
 40
0.0
  9
$DIMTM
 40
0.0
  9
$DIMTXT
 40
0.18
  9
$DIMCEN
 40
0.09
  9
$DIMTSZ
 40
0.0
  9
$DIMTOL
 70
     0
  9
$DIMLIM
 70
     0
  9
$DIMTIH
 70
     1
  9
$DIMTOH
 70
     1
  9
$DIMSE1
 70
     0
  9
$DIMSE2
 70
     0
  9
$DIMTAD
 70
     0
  9
$DIMZIN
 70
     0
  9
$DIMBLK
  1

  9
$DIMASO
 70
     1
  9
$DIMSHO
 70
     1
  9
$DIMPOST
  1

  9
$DIMAPOST
  1

  9
$DIMALT
 70
     0
  9
$DIMALTD
 70
     2
  9
$DIMALTF
 40
25.4
  9
$DIMLFAC
 40
1.0
  9
$DIMTOFL
 70
     0
  9
$DIMTVP
 40
0.0
  9
$DIMTIX
 70
     0
  9
$DIMSOXD
 70
     0
  9
$DIMSAH
 70
     0
  9
$DIMBLK1
  1

  9
$DIMBLK2
  1

  9
$DIMSTYLE
  2
Standard
  9
$DIMCLRD
 70
     0
  9
$DIMCLRE
 70
     0
  9
$DIMCLRT
 70
     0
  9
$DIMTFAC
 40
1.0
  9
$DIMGAP
 40
0.09
  9
$DIMJUST
 70
     0
  9
$DIMSD1
 70
     0
  9
$DIMSD2
 70
     0
  9
$DIMTOLJ
 70
     1
  9
$DIMTZIN
 70
     0
  9
$DIMALTZ
 70
     0
  9
$DIMALTTZ
 70
     0
  9
$DIMUPT
 70
     0
  9
$DIMDEC
 70
     4
  9
$DIMTDEC
 70
     4
  9
$DIMALTU
 70
     2
  9
$DIMALTTD
 70
     2
  9
$DIMTXSTY
  7
Standard
  9
$DIMAUNIT
 70
     0
  9
$DIMADEC
 70
     0
  9
$DIMALTRND
 40
0.0
  9
$DIMAZIN
 70
     0
  9
$DIMDSEP
 70
    46
  9
$DIMATFIT
 70
     3
  9
$DIMFRAC
 70
     0
  9
$DIMLDRBLK
  1

  9
$DIMLUNIT
 70
     2
  9
$DIMLWD
 70
    -2
  9
$DIMLWE
 70
    -2
  9
$DIMTMOVE
 70
     0
  9
$LUNITS
 70
     2
  9
$LUPREC
 70
     4
  9
$SKETCHINC
 40
0.1
  9
$FILLETRAD
 40
0.0
  9
$AUNITS
 70
     0
  9
$AUPREC
 70
     0
  9
$MENU
  1
.
  9
$ELEVATION
 40
0.0
  9
$PELEVATION
 40
0.0
  9
$THICKNESS
 40
0.0
  9
$LIMCHECK
 70
     0
  9
$CHAMFERA
 40
0.0
  9
$CHAMFERB
 40
0.0
  9
$CHAMFERC
 40
0.0
  9
$CHAMFERD
 40
0.0
  9
$SKPOLY
 70
     0
  9
$TDCREATE
 40
2455509.364776470
  9
$TDUCREATE
 40
2455509.323109803
  9
$TDUPDATE
 40
2455509.369652233
  9
$TDUUPDATE
 40
2455509.327985567
  9
$TDINDWG
 40
0.0048757639
  9
$TDUSRTIMER
 40
0.0048757639
  9
$USRTIMER
 70
     1
  9
$ANGBASE
 50
0.0
  9
$ANGDIR
 70
     0
  9
$PDMODE
 70
     0
  9
$PDSIZE
 40
0.0
  9
$PLINEWID
 40
0.0
  9
$SPLFRAME
 70
     0
  9
$SPLINETYPE
 70
     6
  9
$SPLINESEGS
 70
     8
  9
$HANDSEED
  5
2211
  9
$SURFTAB1
 70
     6
  9
$SURFTAB2
 70
     6
  9
$SURFTYPE
 70
     6
  9
$SURFU
 70
     6
  9
$SURFV
 70
     6
  9
$UCSBASE
  2

  9
$UCSNAME
  2

  9
$UCSORG
 10
0.0
 20
0.0
 30
0.0
  9
$UCSXDIR
 10
1.0
 20
0.0
 30
0.0
  9
$UCSYDIR
 10
0.0
 20
1.0
 30
0.0
  9
$UCSORTHOREF
  2

  9
$UCSORTHOVIEW
 70
     1
  9
$UCSORGTOP
 10
0.0
 20
0.0
 30
0.0
  9
$UCSORGBOTTOM
 10
0.0
 20
0.0
 30
0.0
  9
$UCSORGLEFT
 10
0.0
 20
0.0
 30
0.0
  9
$UCSORGRIGHT
 10
0.0
 20
0.0
 30
0.0
  9
$UCSORGFRONT
 10
0.0
 20
0.0
 30
0.0
  9
$UCSORGBACK
 10
0.0
 20
0.0
 30
0.0
  9
$PUCSBASE
  2

  9
$PUCSNAME
  2

  9
$PUCSORG
 10
0.0
 20
0.0
 30
0.0
  9
$PUCSXDIR
 10
1.0
 20
0.0
 30
0.0
  9
$PUCSYDIR
 10
0.0
 20
1.0
 30
0.0
  9
$PUCSORTHOREF
  2

  9
$PUCSORTHOVIEW
 70
     0
  9
$PUCSORGTOP
 10
0.0
 20
0.0
 30
0.0
  9
$PUCSORGBOTTOM
 10
0.0
 20
0.0
 30
0.0
  9
$PUCSORGLEFT
 10
0.0
 20
0.0
 30
0.0
  9
$PUCSORGRIGHT
 10
0.0
 20
0.0
 30
0.0
  9
$PUCSORGFRONT
 10
0.0
 20
0.0
 30
0.0
  9
$PUCSORGBACK
 10
0.0
 20
0.0
 30
0.0
  9
$USERI1
 70
     0
  9
$USERI2
 70
     0
  9
$USERI3
 70
     0
  9
$USERI4
 70
     0
  9
$USERI5
 70
     0
  9
$USERR1
 40
0.0
  9
$USERR2
 40
0.0
  9
$USERR3
 40
0.0
  9
$USERR4
 40
0.0
  9
$USERR5
 40
0.0
  9
$WORLDVIEW
 70
     1
  9
$SHADEDGE
 70
     3
  9
$SHADEDIF
 70
    70
  9
$TILEMODE
 70
     1
  9
$MAXACTVP
 70
    64
  9
$PINSBASE
 10
0.0
 20
0.0
 30
0.0
  9
$PLIMCHECK
 70
     0
  9
$PEXTMIN
 10
1.000000000000000E+20
 20
1.000000000000000E+20
 30
1.000000000000000E+20
  9
$PEXTMAX
 10
-1.000000000000000E+20
 20
-1.000000000000000E+20
 30
-1.000000000000000E+20
  9
$PLIMMIN
 10
0.0
 20
0.0
  9
$PLIMMAX
 10
12.0
 20
9.0
  9
$UNITMODE
 70
     0
  9
$VISRETAIN
 70
     1
  9
$PLINEGEN
 70
     0
  9
$PSLTSCALE
 70
     1
  9
$TREEDEPTH
 70
  3020
  9
$CMLSTYLE
  2
Standard
  9
$CMLJUST
 70
     0
  9
$CMLSCALE
 40
1.0
  9
$PROXYGRAPHICS
 70
     1
  9
$MEASUREMENT
 70
     0
  9
$CELWEIGHT
370
    -1
  9
$ENDCAPS
280
     0
  9
$JOINSTYLE
280
     0
  9
$LWDISPLAY
290
     0
  9
$INSUNITS
 70
     0
  9
$HYPERLINKBASE
  1

  9
$STYLESHEET
  1

  9
$XEDIT
290
     1
  9
$CEPSNTYPE
380
     0
  9
$PSTYLEMODE
290
     1
  9
$FINGERPRINTGUID
  2
{BC64B803-A9DB-45E4-86DC-A38322EC78DF}
  9
$VERSIONGUID
  2
{B582CEE8-2C18-427E-B30C-2E1C28B7E143}
  9
$EXTNAMES
290
     1
  9
$PSVPSCALE
 40
0.0
  9
$OLESTARTUP
290
     0
  0
ENDSEC
  0
SECTION
  2
CLASSES
  0
CLASS
  1
ACDBDICTIONARYWDFLT
  2
AcDbDictionaryWithDefault
  3
AutoCAD 2000
 90
        0
280
     0
281
     0
  0
CLASS
  1
ACDBPLACEHOLDER
  2
AcDbPlaceHolder
  3
AutoCAD 2000
 90
        0
280
     0
281
     0
  0
CLASS
  1
LAYOUT
  2
AcDbLayout
  3
AutoCAD 2000
 90
        0
280
     0
281
     0
  0
CLASS
  1
DICTIONARYVAR
  2
AcDbDictionaryVar
  3
AutoCAD 2000
 90
        0
280
     0
281
     0
  0
ENDSEC
  0
SECTION
  2
TABLES
  0
TABLE
  2
VPORT
  5
8
330
0
100
AcDbSymbolTable
 70
     5
  0
VPORT
  5
2210
330
8
100
AcDbSymbolTableRecord
100
AcDbViewportTableRecord
  2
*Active
 70
     0
 10
0.0
 20
0.0
 11
1.0
 21
1.0
 12
358.0
 22
690.5
 13
0.0
 23
0.0
 14
1.0
 24
1.0
 15
0.0
 25
0.0
 16
0.0
 26
0.0
 36
1.0
 17
0.0
 27
0.0
 37
0.0
 40
200.3273824297196
 41
2.073363431151241
 42
50.0
 43
0.0
 44
0.0
 50
0.0
 51
0.0
 71
     0
 72
   100
 73
     1
 74
     3
 75
     0
 76
     0
 77
     0
 78
     0
281
     0
 65
     1
110
0.0
120
0.0
130
0.0
111
1.0
121
0.0
131
0.0
112
0.0
122
1.0
132
0.0
 79
     1
146
0.0
  0
ENDTAB
  0
TABLE
  2
LTYPE
  5
5
330
0
100
AcDbSymbolTable
 70
     1
  0
LTYPE
  5
13
330
5
100
AcDbSymbolTableRecord
100
AcDbLinetypeTableRecord
  2
ByBlock
 70
     0
  3

 72
    65
 73
     0
 40
0.0
  0
LTYPE
  5
14
330
5
100
AcDbSymbolTableRecord
100
AcDbLinetypeTableRecord
  2
ByLayer
 70
     0
  3

 72
    65
 73
     0
 40
0.0
  0
LTYPE
  5
15
330
5
100
AcDbSymbolTableRecord
100
AcDbLinetypeTableRecord
  2
Continuous
 70
     0
  3
Solid line
 72
    65
 73
     0
 40
0.0
  0
ENDTAB
  0
TABLE
  2
LAYER
  5
2
330
0
100
AcDbSymbolTable
 70
     1
  0
LAYER
  5
10
330
2
100
AcDbSymbolTableRecord
100
AcDbLayerTableRecord
  2
0
 70
     0
 62
     7
  6
Continuous
370
    -3
390
F
  0
ENDTAB
  0
TABLE
  2
STYLE
  5
3
330
0
100
AcDbSymbolTable
 70
     1
  0
STYLE
  5
11
330
3
100
AcDbSymbolTableRecord
100
AcDbTextStyleTableRecord
  2
Standard
 70
     0
 40
0.0
 41
1.0
 50
0.0
 71
     0
 42
0.2
  3
txt
  4

  0
ENDTAB
  0
TABLE
  2
VIEW
  5
6
330
0
100
AcDbSymbolTable
 70
     0
  0
ENDTAB
  0
TABLE
  2
UCS
  5
7
330
0
100
AcDbSymbolTable
 70
     0
  0
ENDTAB
  0
TABLE
  2
APPID
  5
9
330
0
100
AcDbSymbolTable
 70
     1
  0
APPID
  5
12
330
9
100
AcDbSymbolTableRecord
100
AcDbRegAppTableRecord
  2
ACAD
 70
     0
  0
ENDTAB
  0
TABLE
  2
DIMSTYLE
  5
A
330
0
100
AcDbSymbolTable
 70
     1
100
AcDbDimStyleTable
 71
     0
  0
DIMSTYLE
105
ED2
330
A
100
AcDbSymbolTableRecord
100
AcDbDimStyleTableRecord
  2
Standard
 70
     0
340
11
  0
ENDTAB
  0
TABLE
  2
BLOCK_RECORD
  5
1
330
0
100
AcDbSymbolTable
 70
     1
  0
BLOCK_RECORD
  5
1E
330
1
100
AcDbSymbolTableRecord
100
AcDbBlockTableRecord
  2
*Model_Space
340
21
  0
BLOCK_RECORD
  5
1A
330
1
100
AcDbSymbolTableRecord
100
AcDbBlockTableRecord
  2
*Paper_Space
340
1D
  0
ENDTAB
  0
ENDSEC
  0
SECTION
  2
BLOCKS
  0
BLOCK
  5
1F
330
1E
100
AcDbEntity
  8
0
100
AcDbBlockBegin
  2
*Model_Space
 70
     0
 10
0.0
 20
0.0
 30
0.0
  3
*Model_Space
  1

  0
ENDBLK
  5
20
330
1E
100
AcDbEntity
  8
0
100
AcDbBlockEnd
  0
BLOCK
  5
1B
330
1A
100
AcDbEntity
 67
     1
  8
0
100
AcDbBlockBegin
  2
*Paper_Space
 70
     0
 10
0.0
 20
0.0
 30
0.0
  3
*Paper_Space
  1

  0
ENDBLK
  5
1C
330
1A
100
AcDbEntity
 67
     1
  8
0
100
AcDbBlockEnd
  0
ENDSEC
  0
SECTION
  2
ENTITIES
  0
LINE
  5
2F
330
1E
100
AcDbEntity
  8
0
100
AcDbLine
 10
151.0
 20
604.677
 30
0.0
 11
151.5
 21
605.177
 31
0.0
  0
LINE
  5
30
330
1E
100
AcDbEntity
  8
0
100
AcDbLine
 10
151.0
 20
604.677
 30
0.0
 11
151.0
 21
600.177
 31
0.0
  0
LINE
  5
AE
330
1E
100
AcDbEntity
  8
0
100
AcDbLine
 10
165.5359999999999
 20
600.177
 30
0.0
 11
166.1899999999999
 21
600.177
 31
0.0
  0
LINE
  5
AF
330
1E
100
AcDbEntity
  8
0
100
AcDbLine
 10
165.5359999999999
 20
600.177
 30
0.0
 11
166.145
 21
600.177
 31
0.0
  0
LINE
  5
C2
330
1E
100
AcDbEntity
  8
0
100
AcDbLine
 10
166.1899999999999
 20
600.177
 30
0.0
 11
168.148
 21
600.177
 31
0.0
  0
LINE
  5
C3
330
1E
100
AcDbEntity
  8
0
100
AcDbLine
 10
166.145
 20
600.177
 30
0.0
 11
168.145
 21
600.177
 31
0.0
  0
LINE
  5
C4
330
1E
100
AcDbEntity
  8
0
100
AcDbLine
 10
168.148
 20
600.177
 30
0.0
 11
171.2809999999999
 21
600.177
 31
0.0
  0
LINE
  5
C5
330
1E
100
AcDbEntity
  8
0
100
AcDbLine
 10
168.145
 20
600.177
 30
0.0
 11
170.039
 21
600.177
 31
0.0
  0
LINE
  5
FC
330
1E
100
AcDbEntity
  8
0
100
AcDbLine
 10
171.2809999999999
 20
600.177
 30
0.0
 11
175.2659999999999
 21
600.177
 31
0.0
  0
LINE
  5
FE
330
1E
100
AcDbEntity
  8
0
100
AcDbLine
 10
175.2659999999999
 20
600.177
 30
0.0
 11
179.9479999999999
 21
600.177
 31
0.0
  0
LINE
  5
104
330
1E
100
AcDbEntity
  8
0
100
AcDbLine
 10
168.1
 20
600.177
 30
0.0
 11
176.3
 21
600.177
 31
0.0
  0
LINE
  5
156
330
1E
100
AcDbEntity
  8
0
100
AcDbLine
 10
179.9479999999999
 20
600.177
 30
0.0
 11
185.002
 21
600.177
 31
0.0
  0
LINE
  5
1A0
330
1E
100
AcDbEntity
  8
0
100
AcDbLine
 10
198.799
 20
600.177
 30
0.0
 11
201.8549999999999
 21
600.177
 31
0.0
  0
LINE
  5
1A1
330
1E
100
AcDbEntity
  8
0
100
AcDbLine
 10
194.73
 20
600.177
 30
0.0
 11
198.799
 21
600.177
 31
0.0
  0
LINE
  5
1A2
330
1E
100
AcDbEntity
  8
0
100
AcDbLine
 10
189.981
 20
600.177
 30
0.0
 11
194.73
 21
600.177
 31
0.0
  0
LINE
  5
1A3
330
1E
100
AcDbEntity
  8
0
100
AcDbLine
 10
185.002
 20
600.177
 30
0.0
 11
189.981
 21
600.177
 31
0.0
  0
LINE
  5
1A9
330
1E
100
AcDbEntity
  8
0
100
AcDbLine
 10
199.9609999999999
 20
600.177
 30
0.0
 11
201.852
 21
600.177
 31
0.0
  0
LINE
  5
1BA
330
1E
100
AcDbEntity
  8
0
100
AcDbLine
 10
201.8549999999999
 20
600.177
 30
0.0
 11
203.8549999999999
 21
600.177
 31
0.0
  0
LINE
  5
1BB
330
1E
100
AcDbEntity
  8
0
100
AcDbLine
 10
201.852
 20
600.177
 30
0.0
 11
203.81
 21
600.177
 31
0.0
  0
LINE
  5
1D6
330
1E
100
AcDbEntity
  8
0
100
AcDbLine
 10
203.8549999999999
 20
600.177
 30
0.0
 11
204.464
 21
600.177
 31
0.0
  0
LINE
  5
1D7
330
1E
100
AcDbEntity
  8
0
100
AcDbLine
 10
203.81
 20
600.177
 30
0.0
 11
204.464
 21
600.177
 31
0.0
  0
LINE
  5
1F0
330
1E
100
AcDbEntity
  8
0
100
AcDbLine
 10
204.464
 20
600.177
 30
0.0
 11
209.0
 21
600.177
 31
0.0
  0
LINE
  5
1F1
330
1E
100
AcDbEntity
  8
0
100
AcDbLine
 10
201.9
 20
600.177
 30
0.0
 11
209.0
 21
600.177
 31
0.0
  0
LINE
  5
1F2
330
1E
100
AcDbEntity
  8
0
100
AcDbLine
 10
193.6999999999999
 20
600.177
 30
0.0
 11
201.9
 21
600.177
 31
0.0
  0
LINE
  5
1F3
330
1E
100
AcDbEntity
  8
0
100
AcDbLine
 10
185.0
 20
600.177
 30
0.0
 11
193.6999999999999
 21
600.177
 31
0.0
  0
LINE
  5
1F4
330
1E
100
AcDbEntity
  8
0
100
AcDbLine
 10
209.0
 20
600.177
 30
0.0
 11
214.4
 21
600.177
 31
0.0
  0
LINE
  5
340
330
1E
100
AcDbEntity
  8
0
100
AcDbLine
 10
275.7769999999999
 20
600.177
 30
0.0
 11
277.361
 21
600.177
 31
0.0
  0
LINE
  5
341
330
1E
100
AcDbEntity
  8
0
100
AcDbLine
 10
277.361
 20
600.177
 30
0.0
 11
280.057
 21
600.177
 31
0.0
  0
LINE
  5
342
330
1E
100
AcDbEntity
  8
0
100
AcDbLine
 10
275.6099999999999
 20
600.177
 30
0.0
 11
276.6959999999999
 21
600.177
 31
0.0
  0
LINE
  5
343
330
1E
100
AcDbEntity
  8
0
100
AcDbLine
 10
275.6099999999999
 20
600.177
 30
0.0
 11
275.7769999999999
 21
600.177
 31
0.0
  0
LINE
  5
344
330
1E
100
AcDbEntity
  8
0
100
AcDbLine
 10
276.6959999999999
 20
600.177
 30
0.0
 11
279.0599999999999
 21
600.177
 31
0.0
  0
LINE
  5
346
330
1E
100
AcDbEntity
  8
0
100
AcDbLine
 10
279.0989999999999
 20
600.177
 30
0.0
 11
279.2429999999999
 21
600.177
 31
0.0
  0
LINE
  5
347
330
1E
100
AcDbEntity
  8
0
100
AcDbLine
 10
280.057
 20
600.177
 30
0.0
 11
283.8379999999999
 21
600.177
 31
0.0
  0
LINE
  5
348
330
1E
100
AcDbEntity
  8
0
100
AcDbLine
 10
283.8379999999999
 20
600.177
 30
0.0
 11
288.3979999999999
 21
600.177
 31
0.0
  0
LINE
  5
349
330
1E
100
AcDbEntity
  8
0
100
AcDbLine
 10
285.8109999999999
 20
600.177
 30
0.0
 11
289.596
 21
600.177
 31
0.0
  0
LINE
  5
34A
330
1E
100
AcDbEntity
  8
0
100
AcDbLine
 10
282.7009999999999
 20
600.177
 30
0.0
 11
285.8109999999999
 21
600.177
 31
0.0
  0
LINE
  5
34B
330
1E
100
AcDbEntity
  8
0
100
AcDbLine
 10
280.5219999999999
 20
600.177
 30
0.0
 11
282.7009999999999
 21
600.177
 31
0.0
  0
LINE
  5
34C
330
1E
100
AcDbEntity
  8
0
100
AcDbLine
 10
279.2429999999999
 20
600.177
 30
0.0
 11
280.5219999999999
 21
600.177
 31
0.0
  0
LINE
  5
37D
330
1E
100
AcDbEntity
  8
0
100
AcDbLine
 10
288.3979999999999
 20
600.177
 30
0.0
 11
293.3009999999999
 21
600.177
 31
0.0
  0
LINE
  5
37E
330
1E
100
AcDbEntity
  8
0
100
AcDbLine
 10
289.596
 20
600.177
 30
0.0
 11
293.6449999999999
 21
600.177
 31
0.0
  0
LINE
  5
37F
330
1E
100
AcDbEntity
  8
0
100
AcDbLine
 10
293.3009999999999
 20
600.177
 30
0.0
 11
298.3899999999999
 21
600.177
 31
0.0
  0
LINE
  5
380
330
1E
100
AcDbEntity
  8
0
100
AcDbLine
 10
293.6449999999999
 20
600.177
 30
0.0
 11
297.778
 21
600.177
 31
0.0
  0
LINE
  5
41E
330
1E
100
AcDbEntity
  8
0
100
AcDbLine
 10
298.3899999999999
 20
600.177
 30
0.0
 11
303.228
 21
600.177
 31
0.0
  0
LINE
  5
41F
330
1E
100
AcDbEntity
  8
0
100
AcDbLine
 10
297.778
 20
600.177
 30
0.0
 11
301.7119999999999
 21
600.177
 31
0.0
  0
LINE
  5
420
330
1E
100
AcDbEntity
  8
0
100
AcDbLine
 10
307.464
 20
600.177
 30
0.0
 11
310.9399999999999
 21
600.177
 31
0.0
  0
LINE
  5
421
330
1E
100
AcDbEntity
  8
0
100
AcDbLine
 10
303.228
 20
600.177
 30
0.0
 11
307.464
 21
600.177
 31
0.0
  0
LINE
  5
422
330
1E
100
AcDbEntity
  8
0
100
AcDbLine
 10
301.7119999999999
 20
600.177
 30
0.0
 11
305.227
 21
600.177
 31
0.0
  0
LINE
  5
423
330
1E
100
AcDbEntity
  8
0
100
AcDbLine
 10
305.227
 20
600.177
 30
0.0
 11
308.123
 21
600.177
 31
0.0
  0
LINE
  5
424
330
1E
100
AcDbEntity
  8
0
100
AcDbLine
 10
308.123
 20
600.177
 30
0.0
 11
310.055
 21
600.177
 31
0.0
  0
LINE
  5
425
330
1E
100
AcDbEntity
  8
0
100
AcDbLine
 10
310.055
 20
600.177
 30
0.0
 11
310.901
 21
600.177
 31
0.0
  0
LINE
  5
426
330
1E
100
AcDbEntity
  8
0
100
AcDbLine
 10
310.9399999999999
 20
600.177
 30
0.0
 11
313.304
 21
600.177
 31
0.0
  0
LINE
  5
428
330
1E
100
AcDbEntity
  8
0
100
AcDbLine
 10
310.901
 20
600.177
 30
0.0
 11
312.639
 21
600.177
 31
0.0
  0
LINE
  5
42A
330
1E
100
AcDbEntity
  8
0
100
AcDbLine
 10
312.639
 20
600.177
 30
0.0
 11
314.223
 21
600.177
 31
0.0
  0
LINE
  5
42D
330
1E
100
AcDbEntity
  8
0
100
AcDbLine
 10
295.0
 20
600.177
 30
0.0
 11
304.1499999999999
 21
600.177
 31
0.0
  0
LINE
  5
42E
330
1E
100
AcDbEntity
  8
0
100
AcDbLine
 10
304.1499999999999
 20
600.177
 30
0.0
 11
312.8399999999999
 21
600.177
 31
0.0
  0
LINE
  5
454
330
1E
100
AcDbEntity
  8
0
100
AcDbLine
 10
314.223
 20
600.177
 30
0.0
 11
314.3899999999999
 21
600.177
 31
0.0
  0
LINE
  5
455
330
1E
100
AcDbEntity
  8
0
100
AcDbLine
 10
313.304
 20
600.177
 30
0.0
 11
314.3899999999999
 21
600.177
 31
0.0
  0
LINE
  5
45A
330
1E
100
AcDbEntity
  8
0
100
AcDbLine
 10
312.8399999999999
 20
600.177
 30
0.0
 11
320.1499999999999
 21
600.177
 31
0.0
  0
LINE
  5
45B
330
1E
100
AcDbEntity
  8
0
100
AcDbLine
 10
314.3899999999999
 20
600.177
 30
0.0
 11
320.1499999999999
 21
600.177
 31
0.0
  0
LINE
  5
46C
330
1E
100
AcDbEntity
  8
0
100
AcDbLine
 10
320.1499999999999
 20
600.177
 30
0.0
 11
325.8399999999999
 21
600.177
 31
0.0
  0
LINE
  5
46D
330
1E
100
AcDbEntity
  8
0
100
AcDbLine
 10
325.8399999999999
 20
600.177
 30
0.0
 11
329.2699999999999
 21
600.177
 31
0.0
  0
LINE
  5
502
330
1E
100
AcDbEntity
  8
0
100
AcDbLine
 10
329.2699999999999
 20
600.177
 30
0.0
 11
330.5
 21
600.177
 31
0.0
  0
LINE
  5
503
330
1E
100
AcDbEntity
  8
0
100
AcDbLine
 10
330.5
 20
600.177
 30
0.0
 11
330.5
 21
604.677
 31
0.0
  0
LINE
  5
504
330
1E
100
AcDbEntity
  8
0
100
AcDbLine
 10
285.85
 20
600.177
 30
0.0
 11
295.0
 21
600.177
 31
0.0
  0
LINE
  5
505
330
1E
100
AcDbEntity
  8
0
100
AcDbLine
 10
277.16
 20
600.177
 30
0.0
 11
285.85
 21
600.177
 31
0.0
  0
LINE
  5
506
330
1E
100
AcDbEntity
  8
0
100
AcDbLine
 10
269.85
 20
600.177
 30
0.0
 11
275.6099999999999
 21
600.177
 31
0.0
  0
LINE
  5
507
330
1E
100
AcDbEntity
  8
0
100
AcDbLine
 10
269.85
 20
600.177
 30
0.0
 11
277.16
 21
600.177
 31
0.0
  0
LINE
  5
509
330
1E
100
AcDbEntity
  8
0
100
AcDbLine
 10
264.16
 20
600.177
 30
0.0
 11
269.85
 21
600.177
 31
0.0
  0
LINE
  5
50A
330
1E
100
AcDbEntity
  8
0
100
AcDbLine
 10
260.73
 20
600.177
 30
0.0
 11
264.16
 21
600.177
 31
0.0
  0
LINE
  5
50B
330
1E
100
AcDbEntity
  8
0
100
AcDbLine
 10
259.5
 20
600.177
 30
0.0
 11
259.5
 21
604.677
 31
0.0
  0
LINE
  5
50C
330
1E
100
AcDbEntity
  8
0
100
AcDbLine
 10
259.5
 20
600.177
 30
0.0
 11
260.73
 21
600.177
 31
0.0
  0
LINE
  5
6F3
330
1E
100
AcDbEntity
  8
0
100
AcDbLine
 10
214.4
 20
600.177
 30
0.0
 11
217.8
 21
600.177
 31
0.0
  0
LINE
  5
6F4
330
1E
100
AcDbEntity
  8
0
100
AcDbLine
 10
217.8
 20
600.177
 30
0.0
 11
219.0
 21
600.177
 31
0.0
  0
LINE
  5
6F5
330
1E
100
AcDbEntity
  8
0
100
AcDbLine
 10
176.3
 20
600.177
 30
0.0
 11
185.0
 21
600.177
 31
0.0
  0
LINE
  5
6F7
330
1E
100
AcDbEntity
  8
0
100
AcDbLine
 10
161.0
 20
600.177
 30
0.0
 11
168.1
 21
600.177
 31
0.0
  0
LINE
  5
6F8
330
1E
100
AcDbEntity
  8
0
100
AcDbLine
 10
161.0
 20
600.177
 30
0.0
 11
165.5359999999999
 21
600.177
 31
0.0
  0
LINE
  5
6F9
330
1E
100
AcDbEntity
  8
0
100
AcDbLine
 10
155.6
 20
600.177
 30
0.0
 11
161.0
 21
600.177
 31
0.0
  0
LINE
  5
6FC
330
1E
100
AcDbEntity
  8
0
100
AcDbLine
 10
151.5
 20
605.177
 30
0.0
 11
163.4999999999999
 21
605.677
 31
0.0
  0
LINE
  5
711
330
1E
100
AcDbEntity
  8
0
100
AcDbLine
 10
259.5
 20
604.677
 30
0.0
 11
260.0
 21
605.177
 31
0.0
  0
LINE
  5
713
330
1E
100
AcDbEntity
  8
0
100
AcDbLine
 10
259.5
 20
604.677
 30
0.0
 11
259.5
 21
600.177
 31
0.0
  0
LINE
  5
726
330
1E
100
AcDbEntity
  8
0
100
AcDbLine
 10
219.0
 20
604.677
 30
0.0
 11
219.0
 21
600.177
 31
0.0
  0
LINE
  5
731
330
1E
100
AcDbEntity
  8
0
100
AcDbLine
 10
268.5
 20
605.177
 30
0.0
 11
270.5
 21
605.677
 31
0.0
  0
LINE
  5
732
330
1E
100
AcDbEntity
  8
0
100
AcDbLine
 10
295.0
 20
605.177
 30
0.0
 11
303.96
 21
605.177
 31
0.0
  0
LINE
  5
733
330
1E
100
AcDbEntity
  8
0
100
AcDbLine
 10
303.96
 20
605.177
 30
0.0
 11
312.36
 21
605.177
 31
0.0
  0
LINE
  5
734
330
1E
100
AcDbEntity
  8
0
100
AcDbLine
 10
319.7799999999999
 20
605.177
 30
0.0
 11
325.38
 21
605.177
 31
0.0
  0
LINE
  5
735
330
1E
100
AcDbEntity
  8
0
100
AcDbLine
 10
325.38
 20
605.177
 30
0.0
 11
328.74
 21
605.177
 31
0.0
  0
LINE
  5
736
330
1E
100
AcDbEntity
  8
0
100
AcDbLine
 10
328.74
 20
605.177
 30
0.0
 11
330.0
 21
605.177
 31
0.0
  0
LINE
  5
737
330
1E
100
AcDbEntity
  8
0
100
AcDbLine
 10
330.0
 20
605.177
 30
0.0
 11
330.5
 21
604.677
 31
0.0
  0
LINE
  5
738
330
1E
100
AcDbEntity
  8
0
100
AcDbLine
 10
312.36
 20
605.177
 30
0.0
 11
319.7799999999999
 21
605.177
 31
0.0
  0
LINE
  5
739
330
1E
100
AcDbEntity
  8
0
100
AcDbLine
 10
286.04
 20
605.177
 30
0.0
 11
295.0
 21
605.177
 31
0.0
  0
LINE
  5
73A
330
1E
100
AcDbEntity
  8
0
100
AcDbLine
 10
277.6399999999999
 20
605.177
 30
0.0
 11
286.04
 21
605.177
 31
0.0
  0
LINE
  5
73B
330
1E
100
AcDbEntity
  8
0
100
AcDbLine
 10
270.22
 20
605.177
 30
0.0
 11
277.6399999999999
 21
605.177
 31
0.0
  0
LINE
  5
73C
330
1E
100
AcDbEntity
  8
0
100
AcDbLine
 10
264.6199999999999
 20
605.177
 30
0.0
 11
270.22
 21
605.177
 31
0.0
  0
LINE
  5
73D
330
1E
100
AcDbEntity
  8
0
100
AcDbLine
 10
261.26
 20
605.177
 30
0.0
 11
264.6199999999999
 21
605.177
 31
0.0
  0
LINE
  5
73E
330
1E
100
AcDbEntity
  8
0
100
AcDbLine
 10
260.0
 20
605.177
 30
0.0
 11
261.26
 21
605.177
 31
0.0
  0
LINE
  5
752
330
1E
100
AcDbEntity
  8
0
100
AcDbLine
 10
218.5
 20
605.177
 30
0.0
 11
219.0
 21
604.677
 31
0.0
  0
LINE
  5
756
330
1E
100
AcDbEntity
  8
0
100
AcDbLine
 10
163.4999999999999
 20
605.677
 30
0.0
 11
165.0
 21
606.177
 31
0.0
  0
LINE
  5
75B
330
1E
100
AcDbEntity
  8
0
100
AcDbLine
 10
165.0
 20
606.177
 30
0.0
 11
166.0
 21
607.177
 31
0.0
  0
LINE
  5
75C
330
1E
100
AcDbEntity
  8
0
100
AcDbLine
 10
319.5
 20
605.677
 30
0.0
 11
321.4999999999999
 21
605.177
 31
0.0
  0
LINE
  5
75D
330
1E
100
AcDbEntity
  8
0
100
AcDbLine
 10
270.5
 20
605.677
 30
0.0
 11
271.4999999999999
 21
606.6769999999999
 31
0.0
  0
LINE
  5
76B
330
1E
100
AcDbEntity
  8
0
100
AcDbLine
 10
206.4999999999999
 20
605.677
 30
0.0
 11
218.5
 21
605.177
 31
0.0
  0
LINE
  5
76D
330
1E
100
AcDbEntity
  8
0
100
AcDbLine
 10
318.5
 20
606.6769999999999
 30
0.0
 11
319.5
 21
605.677
 31
0.0
  0
LINE
  5
76E
330
1E
100
AcDbEntity
  8
0
100
AcDbLine
 10
271.4999999999999
 20
606.6769999999999
 30
0.0
 11
272.0
 21
607.677
 31
0.0
  0
LINE
  5
76F
330
1E
100
AcDbEntity
  8
0
100
AcDbLine
 10
205.0
 20
606.177
 30
0.0
 11
206.4999999999999
 21
605.677
 31
0.0
  0
LINE
  5
77A
330
1E
100
AcDbEntity
  8
0
100
AcDbLine
 10
152.2
 20
600.177
 30
0.0
 11
155.6
 21
600.177
 31
0.0
  0
LINE
  5
77B
330
1E
100
AcDbEntity
  8
0
100
AcDbLine
 10
151.0
 20
600.177
 30
0.0
 11
152.2
 21
600.177
 31
0.0
  0
LINE
  5
77C
330
1E
100
AcDbEntity
  8
0
100
AcDbLine
 10
151.0
 20
600.177
 30
0.0
 11
151.0
 21
604.677
 31
0.0
  0
LINE
  5
784
330
1E
100
AcDbEntity
  8
0
100
AcDbLine
 10
204.0
 20
607.177
 30
0.0
 11
205.0
 21
606.177
 31
0.0
  0
LINE
  5
788
330
1E
100
AcDbEntity
  8
0
100
AcDbLine
 10
166.0
 20
607.177
 30
0.0
 11
166.5
 21
608.677
 31
0.0
  0
LINE
  5
789
330
1E
100
AcDbEntity
  8
0
100
AcDbLine
 10
479.4999999999999
 20
606.6769999999999
 30
0.0
 11
480.0
 21
607.177
 31
0.0
  0
LINE
  5
78A
330
1E
100
AcDbEntity
  8
0
100
AcDbLine
 10
479.4999999999999
 20
606.6769999999999
 30
0.0
 11
480.73
 21
606.6769999999999
 31
0.0
  0
LINE
  5
78B
330
1E
100
AcDbEntity
  8
0
100
AcDbLine
 10
479.4999999999999
 20
606.6769999999999
 30
0.0
 11
479.4999999999999
 21
600.177
 31
0.0
  0
LINE
  5
7E5
330
1E
100
AcDbEntity
  8
0
100
AcDbLine
 10
485.72
 20
600.177
 30
0.0
 11
486.0
 21
600.177
 31
0.0
  0
LINE
  5
7E6
330
1E
100
AcDbEntity
  8
0
100
AcDbLine
 10
494.3599999999999
 20
600.177
 30
0.0
 11
500.48
 21
600.177
 31
0.0
  0
LINE
  5
7E7
330
1E
100
AcDbEntity
  8
0
100
AcDbLine
 10
494.4679999999999
 20
600.177
 30
0.0
 11
500.616
 21
600.177
 31
0.0
  0
LINE
  5
7E8
330
1E
100
AcDbEntity
  8
0
100
AcDbLine
 10
489.828
 20
600.177
 30
0.0
 11
494.4679999999999
 21
600.177
 31
0.0
  0
LINE
  5
7E9
330
1E
100
AcDbEntity
  8
0
100
AcDbLine
 10
487.044
 20
600.177
 30
0.0
 11
489.828
 21
600.177
 31
0.0
  0
LINE
  5
7EB
330
1E
100
AcDbEntity
  8
0
100
AcDbLine
 10
486.0
 20
600.177
 30
0.0
 11
487.044
 21
600.177
 31
0.0
  0
LINE
  5
7F2
330
1E
100
AcDbEntity
  8
0
100
AcDbLine
 10
497.16
 20
600.177
 30
0.0
 11
505.85
 21
600.177
 31
0.0
  0
LINE
  5
7F3
330
1E
100
AcDbEntity
  8
0
100
AcDbLine
 10
489.85
 20
600.177
 30
0.0
 11
497.16
 21
600.177
 31
0.0
  0
LINE
  5
7F5
330
1E
100
AcDbEntity
  8
0
100
AcDbLine
 10
484.16
 20
600.177
 30
0.0
 11
485.72
 21
600.177
 31
0.0
  0
LINE
  5
7F6
330
1E
100
AcDbEntity
  8
0
100
AcDbLine
 10
484.16
 20
600.177
 30
0.0
 11
489.85
 21
600.177
 31
0.0
  0
LINE
  5
7F7
330
1E
100
AcDbEntity
  8
0
100
AcDbLine
 10
497.16
 20
606.6769999999999
 30
0.0
 11
505.85
 21
606.6769999999999
 31
0.0
  0
LINE
  5
7F8
330
1E
100
AcDbEntity
  8
0
100
AcDbLine
 10
489.85
 20
606.6769999999999
 30
0.0
 11
497.16
 21
606.6769999999999
 31
0.0
  0
LINE
  5
7F9
330
1E
100
AcDbEntity
  8
0
100
AcDbLine
 10
484.16
 20
606.6769999999999
 30
0.0
 11
489.85
 21
606.6769999999999
 31
0.0
  0
LINE
  5
7FA
330
1E
100
AcDbEntity
  8
0
100
AcDbLine
 10
497.6399999999999
 20
607.177
 30
0.0
 11
506.04
 21
607.177
 31
0.0
  0
LINE
  5
7FB
330
1E
100
AcDbEntity
  8
0
100
AcDbLine
 10
490.22
 20
607.177
 30
0.0
 11
497.6399999999999
 21
607.177
 31
0.0
  0
LINE
  5
7FC
330
1E
100
AcDbEntity
  8
0
100
AcDbLine
 10
484.62
 20
607.177
 30
0.0
 11
490.22
 21
607.177
 31
0.0
  0
LINE
  5
7FD
330
1E
100
AcDbEntity
  8
0
100
AcDbLine
 10
481.2599999999999
 20
607.177
 30
0.0
 11
484.62
 21
607.177
 31
0.0
  0
LINE
  5
7FE
330
1E
100
AcDbEntity
  8
0
100
AcDbLine
 10
480.73
 20
606.6769999999999
 30
0.0
 11
484.16
 21
606.6769999999999
 31
0.0
  0
LINE
  5
7FF
330
1E
100
AcDbEntity
  8
0
100
AcDbLine
 10
480.0
 20
607.177
 30
0.0
 11
481.2599999999999
 21
607.177
 31
0.0
  0
LINE
  5
800
330
1E
100
AcDbEntity
  8
0
100
AcDbLine
 10
480.73
 20
600.177
 30
0.0
 11
484.16
 21
600.177
 31
0.0
  0
LINE
  5
801
330
1E
100
AcDbEntity
  8
0
100
AcDbLine
 10
479.4999999999999
 20
600.177
 30
0.0
 11
479.4999999999999
 21
606.6769999999999
 31
0.0
  0
LINE
  5
802
330
1E
100
AcDbEntity
  8
0
100
AcDbLine
 10
479.4999999999999
 20
600.177
 30
0.0
 11
480.73
 21
600.177
 31
0.0
  0
LINE
  5
803
330
1E
100
AcDbEntity
  8
0
100
AcDbLine
 10
166.6999999999999
 20
609.877
 30
0.0
 11
167.4
 21
609.877
 31
0.0
  0
LINE
  5
804
330
1E
100
AcDbEntity
  8
0
100
AcDbLine
 10
166.6999999999999
 20
609.877
 30
0.0
 11
166.6999999999999
 21
608.8769999999999
 31
0.0
  0
LINE
  5
805
330
1E
100
AcDbEntity
  8
0
100
AcDbLine
 10
166.5
 20
610.067
 30
0.0
 11
167.1999999999999
 21
610.067
 31
0.0
  0
LINE
  5
806
330
1E
100
AcDbEntity
  8
0
100
AcDbLine
 10
166.5
 20
610.067
 30
0.0
 11
166.6999999999999
 21
609.877
 31
0.0
  0
LINE
  5
807
330
1E
100
AcDbEntity
  8
0
100
AcDbLine
 10
166.5
 20
610.067
 30
0.0
 11
168.0
 21
654.211
 31
0.0
  0
LINE
  5
808
330
1E
100
AcDbEntity
  8
0
100
AcDbLine
 10
166.5
 20
608.677
 30
0.0
 11
166.6999999999999
 21
608.8769999999999
 31
0.0
  0
LINE
  5
80A
330
1E
100
AcDbEntity
  8
0
100
AcDbLine
 10
318.0
 20
607.677
 30
0.0
 11
318.5
 21
606.6769999999999
 31
0.0
  0
LINE
  5
80B
330
1E
100
AcDbEntity
  8
0
100
AcDbLine
 10
272.0
 20
607.677
 30
0.0
 11
272.3749999999999
 21
609.177
 31
0.0
  0
LINE
  5
816
330
1E
100
AcDbEntity
  8
0
100
AcDbLine
 10
203.5
 20
608.677
 30
0.0
 11
204.0
 21
607.177
 31
0.0
  0
LINE
  5
81C
330
1E
100
AcDbEntity
  8
0
100
AcDbLine
 10
167.4
 20
609.877
 30
0.0
 11
169.1999999999999
 21
609.877
 31
0.0
  0
LINE
  5
81D
330
1E
100
AcDbEntity
  8
0
100
AcDbLine
 10
167.1999999999999
 20
610.067
 30
0.0
 11
169.0
 21
610.067
 31
0.0
  0
LINE
  5
81E
330
1E
100
AcDbEntity
  8
0
100
AcDbLine
 10
180.3
 20
608.8769999999999
 30
0.0
 11
185.0
 21
608.8769999999999
 31
0.0
  0
LINE
  5
81F
330
1E
100
AcDbEntity
  8
0
100
AcDbLine
 10
189.7
 20
608.8769999999999
 30
0.0
 11
194.1
 21
608.8769999999999
 31
0.0
  0
LINE
  5
820
330
1E
100
AcDbEntity
  8
0
100
AcDbLine
 10
194.1
 20
608.8769999999999
 30
0.0
 11
197.9
 21
608.8769999999999
 31
0.0
  0
LINE
  5
822
330
1E
100
AcDbEntity
  8
0
100
AcDbLine
 10
197.9
 20
608.8769999999999
 30
0.0
 11
200.8
 21
608.8769999999999
 31
0.0
  0
LINE
  5
823
330
1E
100
AcDbEntity
  8
0
100
AcDbLine
 10
200.8
 20
608.8769999999999
 30
0.0
 11
202.5999999999999
 21
608.8769999999999
 31
0.0
  0
LINE
  5
836
330
1E
100
AcDbEntity
  8
0
100
AcDbLine
 10
202.5999999999999
 20
608.8769999999999
 30
0.0
 11
203.3
 21
608.8769999999999
 31
0.0
  0
LINE
  5
837
330
1E
100
AcDbEntity
  8
0
100
AcDbLine
 10
203.3
 20
608.8769999999999
 30
0.0
 11
203.5
 21
608.677
 31
0.0
  0
LINE
  5
838
330
1E
100
AcDbEntity
  8
0
100
AcDbLine
 10
203.3
 20
608.8769999999999
 30
0.0
 11
203.3
 21
609.877
 31
0.0
  0
LINE
  5
83A
330
1E
100
AcDbEntity
  8
0
100
AcDbLine
 10
185.0
 20
608.8769999999999
 30
0.0
 11
189.7
 21
608.8769999999999
 31
0.0
  0
LINE
  5
83B
330
1E
100
AcDbEntity
  8
0
100
AcDbLine
 10
175.9
 20
608.8769999999999
 30
0.0
 11
180.3
 21
608.8769999999999
 31
0.0
  0
LINE
  5
83C
330
1E
100
AcDbEntity
  8
0
100
AcDbLine
 10
172.1
 20
608.8769999999999
 30
0.0
 11
175.9
 21
608.8769999999999
 31
0.0
  0
LINE
  5
83D
330
1E
100
AcDbEntity
  8
0
100
AcDbLine
 10
172.1
 20
609.877
 30
0.0
 11
175.9
 21
609.877
 31
0.0
  0
LINE
  5
83E
330
1E
100
AcDbEntity
  8
0
100
AcDbLine
 10
175.9
 20
609.877
 30
0.0
 11
180.3
 21
609.877
 31
0.0
  0
LINE
  5
83F
330
1E
100
AcDbEntity
  8
0
100
AcDbLine
 10
194.1
 20
609.877
 30
0.0
 11
197.9
 21
609.877
 31
0.0
  0
LINE
  5
840
330
1E
100
AcDbEntity
  8
0
100
AcDbLine
 10
189.7
 20
609.877
 30
0.0
 11
194.1
 21
609.877
 31
0.0
  0
LINE
  5
841
330
1E
100
AcDbEntity
  8
0
100
AcDbLine
 10
185.0
 20
609.877
 30
0.0
 11
189.7
 21
609.877
 31
0.0
  0
LINE
  5
842
330
1E
100
AcDbEntity
  8
0
100
AcDbLine
 10
197.9
 20
609.877
 30
0.0
 11
200.8
 21
609.877
 31
0.0
  0
LINE
  5
843
330
1E
100
AcDbEntity
  8
0
100
AcDbLine
 10
200.8
 20
609.877
 30
0.0
 11
202.5999999999999
 21
609.877
 31
0.0
  0
LINE
  5
844
330
1E
100
AcDbEntity
  8
0
100
AcDbLine
 10
317.625
 20
609.177
 30
0.0
 11
318.0
 21
607.677
 31
0.0
  0
LINE
  5
845
330
1E
100
AcDbEntity
  8
0
100
AcDbLine
 10
272.3749999999999
 20
609.177
 30
0.0
 11
276.0
 21
680.2365999999999
 31
0.0
  0
LINE
  5
855
330
1E
100
AcDbEntity
  8
0
100
AcDbLine
 10
202.5999999999999
 20
609.877
 30
0.0
 11
203.3
 21
609.877
 31
0.0
  0
LINE
  5
856
330
1E
100
AcDbEntity
  8
0
100
AcDbLine
 10
203.3
 20
609.877
 30
0.0
 11
203.5
 21
610.067
 31
0.0
  0
LINE
  5
857
330
1E
100
AcDbEntity
  8
0
100
AcDbLine
 10
203.3
 20
609.877
 30
0.0
 11
203.3
 21
608.8769999999999
 31
0.0
  0
LINE
  5
858
330
1E
100
AcDbEntity
  8
0
100
AcDbLine
 10
180.3
 20
609.877
 30
0.0
 11
185.0
 21
609.877
 31
0.0
  0
LINE
  5
859
330
1E
100
AcDbEntity
  8
0
100
AcDbLine
 10
172.0
 20
610.067
 30
0.0
 11
175.8
 21
610.067
 31
0.0
  0
LINE
  5
85A
330
1E
100
AcDbEntity
  8
0
100
AcDbLine
 10
175.8
 20
610.067
 30
0.0
 11
180.1999999999999
 21
610.067
 31
0.0
  0
LINE
  5
860
330
1E
100
AcDbEntity
  8
0
100
AcDbLine
 10
194.1999999999999
 20
610.067
 30
0.0
 11
198.0
 21
610.067
 31
0.0
  0
LINE
  5
861
330
1E
100
AcDbEntity
  8
0
100
AcDbLine
 10
189.8
 20
610.067
 30
0.0
 11
194.1999999999999
 21
610.067
 31
0.0
  0
LINE
  5
862
330
1E
100
AcDbEntity
  8
0
100
AcDbLine
 10
185.0
 20
610.067
 30
0.0
 11
189.8
 21
610.067
 31
0.0
  0
LINE
  5
863
330
1E
100
AcDbEntity
  8
0
100
AcDbLine
 10
198.0
 20
610.067
 30
0.0
 11
201.0
 21
610.067
 31
0.0
  0
LINE
  5
86D
330
1E
100
AcDbEntity
  8
0
100
AcDbLine
 10
201.0
 20
610.067
 30
0.0
 11
202.8
 21
610.067
 31
0.0
  0
LINE
  5
86E
330
1E
100
AcDbEntity
  8
0
100
AcDbLine
 10
202.8
 20
610.067
 30
0.0
 11
203.5
 21
610.067
 31
0.0
  0
LINE
  5
86F
330
1E
100
AcDbEntity
  8
0
100
AcDbLine
 10
180.1999999999999
 20
610.067
 30
0.0
 11
185.0
 21
610.067
 31
0.0
  0
LINE
  5
870
330
1E
100
AcDbEntity
  8
0
100
AcDbLine
 10
169.1999999999999
 20
609.877
 30
0.0
 11
172.1
 21
609.877
 31
0.0
  0
LINE
  5
871
330
1E
100
AcDbEntity
  8
0
100
AcDbLine
 10
169.0
 20
610.067
 30
0.0
 11
172.0
 21
610.067
 31
0.0
  0
LINE
  5
872
330
1E
100
AcDbEntity
  8
0
100
AcDbLine
 10
169.1999999999999
 20
608.8769999999999
 30
0.0
 11
172.1
 21
608.8769999999999
 31
0.0
  0
LINE
  5
873
330
1E
100
AcDbEntity
  8
0
100
AcDbLine
 10
167.4
 20
608.8769999999999
 30
0.0
 11
169.1999999999999
 21
608.8769999999999
 31
0.0
  0
LINE
  5
876
330
1E
100
AcDbEntity
  8
0
100
AcDbLine
 10
166.6999999999999
 20
608.8769999999999
 30
0.0
 11
167.4
 21
608.8769999999999
 31
0.0
  0
LINE
  5
877
330
1E
100
AcDbEntity
  8
0
100
AcDbLine
 10
166.6999999999999
 20
608.8769999999999
 30
0.0
 11
166.6999999999999
 21
609.877
 31
0.0
  0
LINE
  5
878
330
1E
100
AcDbEntity
  8
0
100
AcDbLine
 10
500.0
 20
607.17705
 30
0.0
 11
500.0
 21
623.5522999999999
 31
0.0
  0
LINE
  5
879
330
1E
100
AcDbEntity
  8
0
100
AcDbLine
 10
500.0
 20
607.17705
 30
0.0
 11
500.52
 21
607.17705
 31
0.0
  0
LINE
  5
87E
330
1E
100
AcDbEntity
  8
0
100
AcDbLine
 10
500.616
 20
600.177
 30
0.0
 11
507.5759999999999
 21
600.177
 31
0.0
  0
LINE
  5
880
330
1E
100
AcDbEntity
  8
0
100
AcDbLine
 10
500.52
 20
607.17705
 30
0.0
 11
501.9689999999999
 21
607.17705
 31
0.0
  0
LINE
  5
881
330
1E
100
AcDbEntity
  8
0
100
AcDbLine
 10
501.9689999999999
 20
618.707
 30
0.0
 11
504.373
 21
616.7215999999999
 31
0.0
  0
LINE
  5
884
330
1E
100
AcDbEntity
  8
0
100
AcDbLine
 10
501.9689999999999
 20
607.17705
 30
0.0
 11
504.373
 21
607.17705
 31
0.0
  0
LINE
  5
885
330
1E
100
AcDbEntity
  8
0
100
AcDbLine
 10
500.0
 20
623.5522999999999
 30
0.0
 11
500.52
 21
621.0671999999999
 31
0.0
  0
LINE
  5
886
330
1E
100
AcDbEntity
  8
0
100
AcDbLine
 10
500.0
 20
623.5522999999999
 30
0.0
 11
500.211
 21
623.7318
 31
0.0
  0
LINE
  5
887
330
1E
100
AcDbEntity
  8
0
100
AcDbLine
 10
500.0
 20
623.5522999999999
 30
0.0
 11
500.52
 21
626.0374
 31
0.0
  0
LINE
  5
888
330
1E
100
AcDbEntity
  8
0
100
AcDbLine
 10
500.52
 20
621.0671999999999
 30
0.0
 11
501.9689999999999
 21
618.707
 31
0.0
  0
LINE
  5
89E
330
1E
100
AcDbEntity
  8
0
100
AcDbLine
 10
202.0
 20
654.211
 30
0.0
 11
203.5
 21
610.067
 31
0.0
  0
LINE
  5
8B6
330
1E
100
AcDbEntity
  8
0
100
AcDbLine
 10
201.6999999999999
 20
654.4959999999999
 30
0.0
 11
202.0
 21
654.211
 31
0.0
  0
LINE
  5
8BB
330
1E
100
AcDbEntity
  8
0
100
AcDbLine
 10
180.8
 20
654.8769999999999
 30
0.0
 11
182.0
 21
654.8769999999999
 31
0.0
  0
LINE
  5
8BC
330
1E
100
AcDbEntity
  8
0
100
AcDbLine
 10
182.0
 20
654.8769999999999
 30
0.0
 11
183.4999999999999
 21
654.8769999999999
 31
0.0
  0
LINE
  5
8BF
330
1E
100
AcDbEntity
  8
0
100
AcDbLine
 10
188.0
 20
654.8769999999999
 30
0.0
 11
189.1999999999999
 21
654.8769999999999
 31
0.0
  0
LINE
  5
8C0
330
1E
100
AcDbEntity
  8
0
100
AcDbLine
 10
186.5
 20
654.8769999999999
 30
0.0
 11
188.0
 21
654.8769999999999
 31
0.0
  0
LINE
  5
8C1
330
1E
100
AcDbEntity
  8
0
100
AcDbLine
 10
185.0
 20
654.8769999999999
 30
0.0
 11
186.5
 21
654.8769999999999
 31
0.0
  0
LINE
  5
8C2
330
1E
100
AcDbEntity
  8
0
100
AcDbLine
 10
189.1999999999999
 20
654.8769999999999
 30
0.0
 11
190.1999999999999
 21
654.8769999999999
 31
0.0
  0
LINE
  5
8C3
330
1E
100
AcDbEntity
  8
0
100
AcDbLine
 10
190.1999999999999
 20
654.8769999999999
 30
0.0
 11
191.0
 21
654.8769999999999
 31
0.0
  0
LINE
  5
8CF
330
1E
100
AcDbEntity
  8
0
100
AcDbLine
 10
191.0
 20
654.8769999999999
 30
0.0
 11
198.1
 21
654.687
 31
0.0
  0
LINE
  5
8D0
330
1E
100
AcDbEntity
  8
0
100
AcDbLine
 10
198.1
 20
654.687
 30
0.0
 11
201.6999999999999
 21
654.4959999999999
 31
0.0
  0
LINE
  5
8D1
330
1E
100
AcDbEntity
  8
0
100
AcDbLine
 10
183.4999999999999
 20
654.8769999999999
 30
0.0
 11
185.0
 21
654.8769999999999
 31
0.0
  0
LINE
  5
8D2
330
1E
100
AcDbEntity
  8
0
100
AcDbLine
 10
276.5890999999999
 20
686.8735
 30
0.0
 11
276.8734
 21
690.0571999999999
 31
0.0
  0
LINE
  5
8D3
330
1E
100
AcDbEntity
  8
0
100
AcDbLine
 10
276.8734
 20
690.0571999999999
 30
0.0
 11
277.1781999999999
 21
693.1060999999999
 31
0.0
  0
LINE
  5
8D4
330
1E
100
AcDbEntity
  8
0
100
AcDbLine
 10
276.3047
 20
683.5719
 30
0.0
 11
276.5890999999999
 21
686.8735
 31
0.0
  0
LINE
  5
8D5
330
1E
100
AcDbEntity
  8
0
100
AcDbLine
 10
276.0
 20
680.2365999999999
 30
0.0
 11
276.3047
 21
683.5719
 31
0.0
  0
LINE
  5
8D6
330
1E
100
AcDbEntity
  8
0
100
AcDbLine
 10
277.1781999999999
 20
693.1060999999999
 30
0.0
 11
277.4423
 21
696.0877
 31
0.0
  0
LINE
  5
8D7
330
1E
100
AcDbEntity
  8
0
100
AcDbLine
 10
313.127
 20
690.0571999999999
 30
0.0
 11
313.411
 21
686.8735
 31
0.0
  0
LINE
  5
8D8
330
1E
100
AcDbEntity
  8
0
100
AcDbLine
 10
312.822
 20
693.1060999999999
 30
0.0
 11
313.127
 21
690.0571999999999
 31
0.0
  0
LINE
  5
8D9
330
1E
100
AcDbEntity
  8
0
100
AcDbLine
 10
313.411
 20
686.8735
 30
0.0
 11
313.695
 21
683.5719
 31
0.0
  0
LINE
  5
8DA
330
1E
100
AcDbEntity
  8
0
100
AcDbLine
 10
313.695
 20
683.5719
 30
0.0
 11
314.0
 21
680.2365999999999
 31
0.0
  0
LINE
  5
8DB
330
1E
100
AcDbEntity
  8
0
100
AcDbLine
 10
312.5579999999999
 20
696.0877
 30
0.0
 11
312.822
 21
693.1060999999999
 31
0.0
  0
LINE
  5
8DC
330
1E
100
AcDbEntity
  8
0
100
AcDbLine
 10
312.355
 20
698.6986
 30
0.0
 11
312.5579999999999
 21
696.0877
 31
0.0
  0
LINE
  5
8DD
330
1E
100
AcDbEntity
  8
0
100
AcDbLine
 10
314.0
 20
680.2365999999999
 30
0.0
 11
317.625
 21
609.177
 31
0.0
  0
LINE
  5
8DE
330
1E
100
AcDbEntity
  8
0
100
AcDbLine
 10
295.0
 20
699.6488
 30
0.0
 11
298.599
 21
699.8224999999999
 31
0.0
  0
LINE
  5
8DF
330
1E
100
AcDbEntity
  8
0
100
AcDbLine
 10
277.6454
 20
698.6986
 30
0.0
 11
277.8486
 21
701.0739999999999
 31
0.0
  0
LINE
  5
8E0
330
1E
100
AcDbEntity
  8
0
100
AcDbLine
 10
277.4423
 20
696.0877
 30
0.0
 11
277.6454
 21
698.6986
 31
0.0
  0
LINE
  5
8E1
330
1E
100
AcDbEntity
  8
0
100
AcDbLine
 10
179.0
 20
654.8769999999999
 30
0.0
 11
180.8
 21
654.8769999999999
 31
0.0
  0
LINE
  5
8E2
330
1E
100
AcDbEntity
  8
0
100
AcDbLine
 10
171.9
 20
654.687
 30
0.0
 11
179.0
 21
654.8769999999999
 31
0.0
  0
LINE
  5
8E5
330
1E
100
AcDbEntity
  8
0
100
AcDbLine
 10
168.3
 20
654.4959999999999
 30
0.0
 11
171.9
 21
654.687
 31
0.0
  0
LINE
  5
8E8
330
1E
100
AcDbEntity
  8
0
100
AcDbLine
 10
168.0
 20
654.211
 30
0.0
 11
168.3
 21
654.4959999999999
 31
0.0
  0
LINE
  5
8E9
330
1E
100
AcDbEntity
  8
0
100
AcDbLine
 10
500.52
 20
626.0374
 30
0.0
 11
501.0
 21
626.8192799171839
 31
0.0
  0
LINE
  5
8EA
330
1E
100
AcDbEntity
  8
0
100
AcDbLine
 10
500.744
 20
626.1654
 30
0.0
 11
501.0
 21
626.5769844961239
 31
0.0
  0
LINE
  5
8EB
330
1E
100
AcDbEntity
  8
0
100
AcDbLine
 10
500.211
 20
623.7318
 30
0.0
 11
500.744
 21
621.2983
 31
0.0
  0
LINE
  5
8EC
330
1E
100
AcDbEntity
  8
0
100
AcDbLine
 10
500.211
 20
623.7318
 30
0.0
 11
500.744
 21
626.1654
 31
0.0
  0
LINE
  5
8ED
330
1E
100
AcDbEntity
  8
0
100
AcDbLine
 10
501.0
 20
623.7318
 30
0.0
 11
501.485
 21
621.4124
 31
0.0
  0
LINE
  5
8EE
330
1E
100
AcDbEntity
  8
0
100
AcDbLine
 10
501.0
 20
623.7318
 30
0.0
 11
501.0
 21
640.3932999999999
 31
0.0
  0
LINE
  5
8EF
330
1E
100
AcDbEntity
  8
0
100
AcDbLine
 10
501.485
 20
621.4124
 30
0.0
 11
502.838
 21
619.2095000000001
 31
0.0
  0
LINE
  5
8F0
330
1E
100
AcDbEntity
  8
0
100
AcDbLine
 10
501.485
 20
638.0738
 30
0.0
 11
502.838
 21
635.871
 31
0.0
  0
LINE
  5
8F1
330
1E
100
AcDbEntity
  8
0
100
AcDbLine
 10
502.838
 20
635.871
 30
0.0
 11
505.0819999999999
 21
634.0179
 31
0.0
  0
LINE
  5
8F2
330
1E
100
AcDbEntity
  8
0
100
AcDbLine
 10
502.838
 20
619.2095000000001
 30
0.0
 11
505.0819999999999
 21
617.3564999999999
 31
0.0
  0
LINE
  5
8F3
330
1E
100
AcDbEntity
  8
0
100
AcDbLine
 10
501.0
 20
640.3932999999999
 30
0.0
 11
501.485
 21
638.0738
 31
0.0
  0
LINE
  5
8F4
330
1E
100
AcDbEntity
  8
0
100
AcDbLine
 10
501.0
 20
640.3932999999999
 30
0.0
 11
501.1969999999999
 21
640.5847999999999
 31
0.0
  0
LINE
  5
8F5
330
1E
100
AcDbEntity
  8
0
100
AcDbLine
 10
501.0
 20
640.3932999999999
 30
0.0
 11
501.485
 21
642.7128
 31
0.0
  0
LINE
  5
8F6
330
1E
100
AcDbEntity
  8
0
100
AcDbLine
 10
501.485
 20
642.7128
 30
0.0
 11
502.838
 21
644.9156
 31
0.0
  0
LINE
  5
8F7
330
1E
100
AcDbEntity
  8
0
100
AcDbLine
 10
501.6939999999999
 20
642.8561
 30
0.0
 11
503.0
 21
644.954965207547
 31
0.0
  0
LINE
  5
8F8
330
1E
100
AcDbEntity
  8
0
100
AcDbLine
 10
502.838
 20
644.9156
 30
0.0
 11
503.0
 21
645.049379946524
 31
0.0
  0
LINE
  5
8F9
330
1E
100
AcDbEntity
  8
0
100
AcDbLine
 10
501.1969999999999
 20
640.5847999999999
 30
0.0
 11
501.6939999999999
 21
638.3135
 31
0.0
  0
LINE
  5
8FA
330
1E
100
AcDbEntity
  8
0
100
AcDbLine
 10
501.1969999999999
 20
640.5847999999999
 30
0.0
 11
501.6939999999999
 21
642.8561
 31
0.0
  0
LINE
  5
8FB
330
1E
100
AcDbEntity
  8
0
100
AcDbLine
 10
501.6939999999999
 20
638.3135
 30
0.0
 11
503.019
 21
636.1842
 31
0.0
  0
LINE
  5
8FC
330
1E
100
AcDbEntity
  8
0
100
AcDbLine
 10
500.744
 20
621.2983
 30
0.0
 11
502.163
 21
619.0169
 31
0.0
  0
LINE
  5
8FD
330
1E
100
AcDbEntity
  8
0
100
AcDbLine
 10
502.163
 20
619.0169
 30
0.0
 11
504.53
 21
617.0016
 31
0.0
  0
LINE
  5
902
330
1E
100
AcDbEntity
  8
0
100
AcDbLine
 10
507.5759999999999
 20
600.177
 30
0.0
 11
515.0
 21
600.177
 31
0.0
  0
LINE
  5
90D
330
1E
100
AcDbEntity
  8
0
100
AcDbLine
 10
506.04
 20
607.177
 30
0.0
 11
515.0
 21
607.177
 31
0.0
  0
LINE
  5
90E
330
1E
100
AcDbEntity
  8
0
100
AcDbLine
 10
505.85
 20
606.6769999999999
 30
0.0
 11
515.0
 21
606.6769999999999
 31
0.0
  0
LINE
  5
90F
330
1E
100
AcDbEntity
  8
0
100
AcDbLine
 10
505.85
 20
600.177
 30
0.0
 11
515.0
 21
600.177
 31
0.0
  0
LINE
  5
910
330
1E
100
AcDbEntity
  8
0
100
AcDbLine
 10
504.373
 20
607.17705
 30
0.0
 11
507.462
 21
607.17705
 31
0.0
  0
LINE
  5
911
330
1E
100
AcDbEntity
  8
0
100
AcDbLine
 10
507.462
 20
607.17705
 30
0.0
 11
511.134
 21
607.17705
 31
0.0
  0
LINE
  5
919
330
1E
100
AcDbEntity
  8
0
100
AcDbLine
 10
515.0
 20
600.177
 30
0.0
 11
522.4239999999999
 21
600.177
 31
0.0
  0
LINE
  5
91D
330
1E
100
AcDbEntity
  8
0
100
AcDbLine
 10
515.0
 20
606.6769999999999
 30
0.0
 11
524.15
 21
606.6769999999999
 31
0.0
  0
LINE
  5
91F
330
1E
100
AcDbEntity
  8
0
100
AcDbLine
 10
515.0
 20
600.177
 30
0.0
 11
524.15
 21
600.177
 31
0.0
  0
LINE
  5
920
330
1E
100
AcDbEntity
  8
0
100
AcDbLine
 10
515.0
 20
607.177
 30
0.0
 11
523.96
 21
607.177
 31
0.0
  0
LINE
  5
921
330
1E
100
AcDbEntity
  8
0
100
AcDbLine
 10
511.134
 20
607.17705
 30
0.0
 11
515.0
 21
607.17705
 31
0.0
  0
LINE
  5
922
330
1E
100
AcDbEntity
  8
0
100
AcDbLine
 10
507.462
 20
615.1761
 30
0.0
 11
511.134
 21
614.2445999999999
 31
0.0
  0
LINE
  5
923
330
1E
100
AcDbEntity
  8
0
100
AcDbLine
 10
511.134
 20
614.2445999999999
 30
0.0
 11
515.0
 21
613.9104999999999
 31
0.0
  0
LINE
  5
924
330
1E
100
AcDbEntity
  8
0
100
AcDbLine
 10
503.019
 20
636.1842
 30
0.0
 11
505.228
 21
634.3033
 31
0.0
  0
LINE
  5
925
330
1E
100
AcDbEntity
  8
0
100
AcDbLine
 10
504.373
 20
616.7215999999999
 30
0.0
 11
507.462
 21
615.1761
 31
0.0
  0
LINE
  5
926
330
1E
100
AcDbEntity
  8
0
100
AcDbLine
 10
505.0819999999999
 20
617.3564999999999
 30
0.0
 11
507.9649999999999
 21
615.9140999999999
 31
0.0
  0
LINE
  5
927
330
1E
100
AcDbEntity
  8
0
100
AcDbLine
 10
507.9649999999999
 20
615.9140999999999
 30
0.0
 11
511.392
 21
615.0445999999999
 31
0.0
  0
LINE
  5
928
330
1E
100
AcDbEntity
  8
0
100
AcDbLine
 10
507.9649999999999
 20
632.5756
 30
0.0
 11
511.392
 21
631.7060999999999
 31
0.0
  0
LINE
  5
929
330
1E
100
AcDbEntity
  8
0
100
AcDbLine
 10
505.0819999999999
 20
634.0179
 30
0.0
 11
507.9649999999999
 21
632.5756
 31
0.0
  0
LINE
  5
92A
330
1E
100
AcDbEntity
  8
0
100
AcDbLine
 10
505.228
 20
634.3033
 30
0.0
 11
508.154
 21
632.8837
 31
0.0
  0
LINE
  5
92B
330
1E
100
AcDbEntity
  8
0
100
AcDbLine
 10
508.154
 20
632.8837
 30
0.0
 11
511.4659999999999
 21
632.0318999999999
 31
0.0
  0
LINE
  5
92C
330
1E
100
AcDbEntity
  8
0
100
AcDbLine
 10
504.53
 20
617.0016
 30
0.0
 11
507.6649999999999
 21
615.4805999999999
 31
0.0
  0
LINE
  5
92D
330
1E
100
AcDbEntity
  8
0
100
AcDbLine
 10
507.6649999999999
 20
615.4805999999999
 30
0.0
 11
511.214
 21
614.5679999999999
 31
0.0
  0
LINE
  5
92E
330
1E
100
AcDbEntity
  8
0
100
AcDbLine
 10
511.392
 20
615.0445999999999
 30
0.0
 11
515.0
 21
614.7327999999999
 31
0.0
  0
LINE
  5
92F
330
1E
100
AcDbEntity
  8
0
100
AcDbLine
 10
515.0
 20
614.7327999999999
 30
0.0
 11
518.608
 21
615.0445999999999
 31
0.0
  0
LINE
  5
930
330
1E
100
AcDbEntity
  8
0
100
AcDbLine
 10
511.392
 20
631.7060999999999
 30
0.0
 11
515.0
 21
631.3943
 31
0.0
  0
LINE
  5
931
330
1E
100
AcDbEntity
  8
0
100
AcDbLine
 10
511.4659999999999
 20
632.0318999999999
 30
0.0
 11
515.0
 21
631.7124999999999
 31
0.0
  0
LINE
  5
933
330
1E
100
AcDbEntity
  8
0
100
AcDbLine
 10
515.0
 20
631.7124999999999
 30
0.0
 11
518.534
 21
632.0318999999999
 31
0.0
  0
LINE
  5
934
330
1E
100
AcDbEntity
  8
0
100
AcDbLine
 10
515.0
 20
631.3943
 30
0.0
 11
518.608
 21
631.7060999999999
 31
0.0
  0
LINE
  5
936
330
1E
100
AcDbEntity
  8
0
100
AcDbLine
 10
511.214
 20
614.5679999999999
 30
0.0
 11
515.0
 21
614.2258
 31
0.0
  0
LINE
  5
938
330
1E
100
AcDbEntity
  8
0
100
AcDbLine
 10
515.0
 20
614.2258
 30
0.0
 11
518.7859999999999
 21
614.5679999999999
 31
0.0
  0
LINE
  5
939
330
1E
100
AcDbEntity
  8
0
100
AcDbLine
 10
515.0
 20
613.9104999999999
 30
0.0
 11
518.8659999999999
 21
614.2445999999999
 31
0.0
  0
LINE
  5
93B
330
1E
100
AcDbEntity
  8
0
100
AcDbLine
 10
515.0
 20
607.17705
 30
0.0
 11
518.8659999999999
 21
607.17705
 31
0.0
  0
LINE
  5
93C
330
1E
100
AcDbEntity
  8
0
100
AcDbLine
 10
503.0
 20
640.5847999999999
 30
0.0
 11
503.0
 21
711.9739999999999
 31
0.0
  0
LINE
  5
93D
330
1E
100
AcDbEntity
  8
0
100
AcDbLine
 10
278.0111
 20
703.1119999999999
 30
0.0
 11
278.0957
 21
704.8569999999999
 31
0.0
  0
LINE
  5
93E
330
1E
100
AcDbEntity
  8
0
100
AcDbLine
 10
277.8486
 20
701.0739999999999
 30
0.0
 11
278.0111
 21
703.1119999999999
 31
0.0
  0
LINE
  5
93F
330
1E
100
AcDbEntity
  8
0
100
AcDbLine
 10
285.0159999999999
 20
702.097
 30
0.0
 11
286.856
 21
701.3819999999999
 31
0.0
  0
LINE
  5
940
330
1E
100
AcDbEntity
  8
0
100
AcDbLine
 10
298.599
 20
699.8224999999999
 30
0.0
 11
301.973
 21
700.2899999999999
 31
0.0
  0
LINE
  5
941
330
1E
100
AcDbEntity
  8
0
100
AcDbLine
 10
301.973
 20
700.2899999999999
 30
0.0
 11
304.9529999999999
 21
701.0689999999999
 31
0.0
  0
LINE
  5
942
330
1E
100
AcDbEntity
  8
0
100
AcDbLine
 10
291.401
 20
699.8224999999999
 30
0.0
 11
295.0
 21
699.6488
 31
0.0
  0
LINE
  5
943
330
1E
100
AcDbEntity
  8
0
100
AcDbLine
 10
295.0
 20
700.398
 30
0.0
 11
297.9449999999999
 21
700.518
 31
0.0
  0
LINE
  5
944
330
1E
100
AcDbEntity
  8
0
100
AcDbLine
 10
297.9449999999999
 20
700.518
 30
0.0
 11
300.705
 21
700.843
 31
0.0
  0
LINE
  5
945
330
1E
100
AcDbEntity
  8
0
100
AcDbLine
 10
300.705
 20
700.843
 30
0.0
 11
303.1439999999999
 21
701.3819999999999
 31
0.0
  0
LINE
  5
946
330
1E
100
AcDbEntity
  8
0
100
AcDbLine
 10
292.055
 20
700.518
 30
0.0
 11
295.0
 21
700.398
 31
0.0
  0
LINE
  5
947
330
1E
100
AcDbEntity
  8
0
100
AcDbLine
 10
303.1439999999999
 20
701.3819999999999
 30
0.0
 11
304.984
 21
702.097
 31
0.0
  0
LINE
  5
948
330
1E
100
AcDbEntity
  8
0
100
AcDbLine
 10
304.984
 20
702.097
 30
0.0
 11
306.0879999999999
 21
702.9049999999999
 31
0.0
  0
LINE
  5
949
330
1E
100
AcDbEntity
  8
0
100
AcDbLine
 10
304.984
 20
702.097
 30
0.0
 11
306.0879999999999
 21
702.9060000000001
 31
0.0
  0
LINE
  5
94A
330
1E
100
AcDbEntity
  8
0
100
AcDbLine
 10
304.9529999999999
 20
701.0689999999999
 30
0.0
 11
307.202
 21
702.1010000000001
 31
0.0
  0
LINE
  5
94B
330
1E
100
AcDbEntity
  8
0
100
AcDbLine
 10
312.151
 20
701.0739999999999
 30
0.0
 11
312.355
 21
698.6986
 31
0.0
  0
LINE
  5
94C
330
1E
100
AcDbEntity
  8
0
100
AcDbLine
 10
307.202
 20
702.1010000000001
 30
0.0
 11
308.552
 21
703.27
 31
0.0
  0
LINE
  5
94D
330
1E
100
AcDbEntity
  8
0
100
AcDbLine
 10
289.295
 20
700.843
 30
0.0
 11
292.055
 21
700.518
 31
0.0
  0
LINE
  5
94E
330
1E
100
AcDbEntity
  8
0
100
AcDbLine
 10
286.856
 20
701.3819999999999
 30
0.0
 11
289.295
 21
700.843
 31
0.0
  0
LINE
  5
94F
330
1E
100
AcDbEntity
  8
0
100
AcDbLine
 10
288.0269999999999
 20
700.2899999999999
 30
0.0
 11
291.401
 21
699.8224999999999
 31
0.0
  0
LINE
  5
950
330
1E
100
AcDbEntity
  8
0
100
AcDbLine
 10
285.047
 20
701.0689999999999
 30
0.0
 11
288.0269999999999
 21
700.2899999999999
 31
0.0
  0
LINE
  5
951
330
1E
100
AcDbEntity
  8
0
100
AcDbLine
 10
306.0879999999999
 20
702.9049999999999
 30
0.0
 11
306.502
 21
703.7689999999998
 31
0.0
  0
LINE
  5
952
330
1E
100
AcDbEntity
  8
0
100
AcDbLine
 10
283.9119
 20
702.9060000000001
 30
0.0
 11
285.0159999999999
 21
702.097
 31
0.0
  0
LINE
  5
953
330
1E
100
AcDbEntity
  8
0
100
AcDbLine
 10
311.989
 20
703.1119999999999
 30
0.0
 11
312.151
 21
701.0739999999999
 31
0.0
  0
LINE
  5
954
330
1E
100
AcDbEntity
  8
0
100
AcDbLine
 10
306.0879999999999
 20
702.9060000000001
 30
0.0
 11
306.502
 21
703.7689999999998
 31
0.0
  0
LINE
  5
955
330
1E
100
AcDbEntity
  8
0
100
AcDbLine
 10
295.0
 20
703.368
 30
0.0
 11
297.9449999999999
 21
703.49
 31
0.0
  0
LINE
  5
956
330
1E
100
AcDbEntity
  8
0
100
AcDbLine
 10
297.9449999999999
 20
703.49
 30
0.0
 11
300.705
 21
703.8129999999999
 31
0.0
  0
LINE
  5
957
330
1E
100
AcDbEntity
  8
0
100
AcDbLine
 10
300.705
 20
703.8129999999999
 30
0.0
 11
303.1439999999999
 21
704.353
 31
0.0
  0
LINE
  5
958
330
1E
100
AcDbEntity
  8
0
100
AcDbLine
 10
308.552
 20
703.27
 30
0.0
 11
309.058
 21
704.5169999999999
 31
0.0
  0
LINE
  5
959
330
1E
100
AcDbEntity
  8
0
100
AcDbLine
 10
292.055
 20
703.49
 30
0.0
 11
295.0
 21
703.368
 31
0.0
  0
LINE
  5
95A
330
1E
100
AcDbEntity
  8
0
100
AcDbLine
 10
303.1439999999999
 20
704.353
 30
0.0
 11
304.984
 21
705.0679999999999
 31
0.0
  0
LINE
  5
95B
330
1E
100
AcDbEntity
  8
0
100
AcDbLine
 10
309.058
 20
704.5169999999999
 30
0.0
 11
309.058
 21
706.498
 31
0.0
  0
LINE
  5
95C
330
1E
100
AcDbEntity
  8
0
100
AcDbLine
 10
289.295
 20
703.8129999999999
 30
0.0
 11
292.055
 21
703.49
 31
0.0
  0
LINE
  5
95D
330
1E
100
AcDbEntity
  8
0
100
AcDbLine
 10
286.856
 20
704.353
 30
0.0
 11
289.295
 21
703.8129999999999
 31
0.0
  0
LINE
  5
95E
330
1E
100
AcDbEntity
  8
0
100
AcDbLine
 10
283.9119
 20
702.9049999999999
 30
0.0
 11
285.0159999999999
 21
702.097
 31
0.0
  0
LINE
  5
95F
330
1E
100
AcDbEntity
  8
0
100
AcDbLine
 10
283.4977999999999
 20
703.7689999999998
 30
0.0
 11
283.9119
 21
702.9049999999999
 31
0.0
  0
LINE
  5
960
330
1E
100
AcDbEntity
  8
0
100
AcDbLine
 10
283.4977999999999
 20
703.7689999999998
 30
0.0
 11
283.9119
 21
704.6319999999999
 31
0.0
  0
LINE
  5
961
330
1E
100
AcDbEntity
  8
0
100
AcDbLine
 10
283.4977999999999
 20
703.7689999999998
 30
0.0
 11
283.9119
 21
702.9060000000001
 31
0.0
  0
LINE
  5
962
330
1E
100
AcDbEntity
  8
0
100
AcDbLine
 10
282.7975
 20
702.1010000000001
 30
0.0
 11
285.047
 21
701.0689999999999
 31
0.0
  0
LINE
  5
963
330
1E
100
AcDbEntity
  8
0
100
AcDbLine
 10
281.4479
 20
703.27
 30
0.0
 11
282.7975
 21
702.1010000000001
 31
0.0
  0
LINE
  5
964
330
1E
100
AcDbEntity
  8
0
100
AcDbLine
 10
278.0957
 20
704.8569999999999
 30
0.0
 11
278.2185
 21
705.97
 31
0.0
  0
LINE
  5
965
330
1E
100
AcDbEntity
  8
0
100
AcDbLine
 10
278.2185
 20
705.97
 30
0.0
 11
278.3158
 21
706.7739999999998
 31
0.0
  0
LINE
  5
966
330
1E
100
AcDbEntity
  8
0
100
AcDbLine
 10
278.3856999999999
 20
707.12
 30
0.0
 11
280.9417999999999
 21
723.511
 31
0.0
  0
LINE
  5
967
330
1E
100
AcDbEntity
  8
0
100
AcDbLine
 10
278.3158
 20
706.7739999999998
 30
0.0
 11
278.3856999999999
 21
707.12
 31
0.0
  0
LINE
  5
968
330
1E
100
AcDbEntity
  8
0
100
AcDbLine
 10
283.9119
 20
704.6319999999999
 30
0.0
 11
285.0159999999999
 21
705.4400000000001
 31
0.0
  0
LINE
  5
969
330
1E
100
AcDbEntity
  8
0
100
AcDbLine
 10
311.904
 20
704.8569999999999
 30
0.0
 11
311.989
 21
703.1119999999999
 31
0.0
  0
LINE
  5
96A
330
1E
100
AcDbEntity
  8
0
100
AcDbLine
 10
306.0879999999999
 20
704.6319999999999
 30
0.0
 11
306.502
 21
703.7689999999998
 31
0.0
  0
LINE
  5
96B
330
1E
100
AcDbEntity
  8
0
100
AcDbLine
 10
304.984
 20
705.0679999999999
 30
0.0
 11
305.2379814471239
 21
705.2541150278289
 31
0.0
  0
LINE
  5
96C
330
1E
100
AcDbEntity
  8
0
100
AcDbLine
 10
308.552
 20
705.3799999999999
 30
0.0
 11
309.058
 21
704.5169999999999
 31
0.0
  0
LINE
  5
96D
330
1E
100
AcDbEntity
  8
0
100
AcDbLine
 10
285.0159999999999
 20
705.0679999999999
 30
0.0
 11
286.856
 21
704.353
 31
0.0
  0
LINE
  5
96E
330
1E
100
AcDbEntity
  8
0
100
AcDbLine
 10
284.76199554731
 20
705.2541150278289
 30
0.0
 11
285.0159999999999
 21
705.0679999999999
 31
0.0
  0
LINE
  5
96F
330
1E
100
AcDbEntity
  8
0
100
AcDbLine
 10
303.1439999999999
 20
706.156
 30
0.0
 11
304.984
 21
705.4400000000001
 31
0.0
  0
LINE
  5
970
330
1E
100
AcDbEntity
  8
0
100
AcDbLine
 10
311.782
 20
705.97
 30
0.0
 11
311.904
 21
704.8569999999999
 31
0.0
  0
LINE
  5
971
330
1E
100
AcDbEntity
  8
0
100
AcDbLine
 10
304.984
 20
705.4400000000001
 30
0.0
 11
306.0879999999999
 21
704.6319999999999
 31
0.0
  0
LINE
  5
972
330
1E
100
AcDbEntity
  8
0
100
AcDbLine
 10
307.202
 20
706.189
 30
0.0
 11
308.552
 21
705.3799999999999
 31
0.0
  0
LINE
  5
973
330
1E
100
AcDbEntity
  8
0
100
AcDbLine
 10
300.705
 20
706.696
 30
0.0
 11
303.1439999999999
 21
706.156
 31
0.0
  0
LINE
  5
974
330
1E
100
AcDbEntity
  8
0
100
AcDbLine
 10
311.684
 20
706.7739999999998
 30
0.0
 11
311.782
 21
705.97
 31
0.0
  0
LINE
  5
975
330
1E
100
AcDbEntity
  8
0
100
AcDbLine
 10
304.9529999999999
 20
706.904
 30
0.0
 11
307.202
 21
706.189
 31
0.0
  0
LINE
  5
976
330
1E
100
AcDbEntity
  8
0
100
AcDbLine
 10
309.058
 20
706.498
 30
0.0
 11
309.058
 21
704.5169999999999
 31
0.0
  0
LINE
  5
977
330
1E
100
AcDbEntity
  8
0
100
AcDbLine
 10
309.058
 20
706.498
 30
0.0
 11
309.058
 21
713.518
 31
0.0
  0
LINE
  5
978
330
1E
100
AcDbEntity
  8
0
100
AcDbLine
 10
289.295
 20
706.696
 30
0.0
 11
292.055
 21
707.0189999999999
 31
0.0
  0
LINE
  5
979
330
1E
100
AcDbEntity
  8
0
100
AcDbLine
 10
286.856
 20
706.156
 30
0.0
 11
289.295
 21
706.696
 31
0.0
  0
LINE
  5
97A
330
1E
100
AcDbEntity
  8
0
100
AcDbLine
 10
285.0159999999999
 20
705.4400000000001
 30
0.0
 11
286.856
 21
706.156
 31
0.0
  0
LINE
  5
97B
330
1E
100
AcDbEntity
  8
0
100
AcDbLine
 10
295.0
 20
707.1399999999999
 30
0.0
 11
297.9449999999999
 21
707.0189999999999
 31
0.0
  0
LINE
  5
97C
330
1E
100
AcDbEntity
  8
0
100
AcDbLine
 10
311.614
 20
707.12
 30
0.0
 11
311.684
 21
706.7739999999998
 31
0.0
  0
LINE
  5
97D
330
1E
100
AcDbEntity
  8
0
100
AcDbLine
 10
297.9449999999999
 20
707.0189999999999
 30
0.0
 11
300.705
 21
706.696
 31
0.0
  0
LINE
  5
97E
330
1E
100
AcDbEntity
  8
0
100
AcDbLine
 10
298.599
 20
707.7669999999999
 30
0.0
 11
301.973
 21
707.4429999999999
 31
0.0
  0
LINE
  5
97F
330
1E
100
AcDbEntity
  8
0
100
AcDbLine
 10
301.973
 20
707.4429999999999
 30
0.0
 11
304.9529999999999
 21
706.904
 31
0.0
  0
LINE
  5
980
330
1E
100
AcDbEntity
  8
0
100
AcDbLine
 10
292.055
 20
707.0189999999999
 30
0.0
 11
295.0
 21
707.1399999999999
 31
0.0
  0
LINE
  5
981
330
1E
100
AcDbEntity
  8
0
100
AcDbLine
 10
295.0
 20
707.888
 30
0.0
 11
298.599
 21
707.7669999999999
 31
0.0
  0
LINE
  5
982
330
1E
100
AcDbEntity
  8
0
100
AcDbLine
 10
291.401
 20
707.7669999999999
 30
0.0
 11
295.0
 21
707.888
 31
0.0
  0
LINE
  5
983
330
1E
100
AcDbEntity
  8
0
100
AcDbLine
 10
288.0269999999999
 20
707.4429999999999
 30
0.0
 11
291.401
 21
707.7669999999999
 31
0.0
  0
LINE
  5
984
330
1E
100
AcDbEntity
  8
0
100
AcDbLine
 10
285.047
 20
706.904
 30
0.0
 11
288.0269999999999
 21
707.4429999999999
 31
0.0
  0
LINE
  5
985
330
1E
100
AcDbEntity
  8
0
100
AcDbLine
 10
282.7975
 20
706.189
 30
0.0
 11
285.047
 21
706.904
 31
0.0
  0
LINE
  5
986
330
1E
100
AcDbEntity
  8
0
100
AcDbLine
 10
281.4479
 20
705.3799999999999
 30
0.0
 11
282.7975
 21
706.189
 31
0.0
  0
LINE
  5
987
330
1E
100
AcDbEntity
  8
0
100
AcDbLine
 10
280.9417999999999
 20
706.498
 30
0.0
 11
280.9417999999999
 21
704.5169999999999
 31
0.0
  0
LINE
  5
988
330
1E
100
AcDbEntity
  8
0
100
AcDbLine
 10
280.9417999999999
 20
706.498
 30
0.0
 11
280.9417999999999
 21
713.518
 31
0.0
  0
LINE
  5
989
330
1E
100
AcDbEntity
  8
0
100
AcDbLine
 10
280.9417999999999
 20
704.5169999999999
 30
0.0
 11
281.4479
 21
703.27
 31
0.0
  0
LINE
  5
98A
330
1E
100
AcDbEntity
  8
0
100
AcDbLine
 10
280.9417999999999
 20
704.5169999999999
 30
0.0
 11
280.9417999999999
 21
706.498
 31
0.0
  0
LINE
  5
98B
330
1E
100
AcDbEntity
  8
0
100
AcDbLine
 10
280.9417999999999
 20
704.5169999999999
 30
0.0
 11
281.4479
 21
705.3799999999999
 31
0.0
  0
LINE
  5
98C
330
1E
100
AcDbEntity
  8
0
100
AcDbLine
 10
503.384
 20
708.8849999999999
 30
0.0
 11
504.6319999999999
 21
705.9719999999999
 31
0.0
  0
LINE
  5
98D
330
1E
100
AcDbEntity
  8
0
100
AcDbLine
 10
309.058
 20
713.518
 30
0.0
 11
309.058
 21
718.8889999999998
 31
0.0
  0
LINE
  5
98E
330
1E
100
AcDbEntity
  8
0
100
AcDbLine
 10
309.058
 20
713.518
 30
0.0
 11
309.058
 21
706.498
 31
0.0
  0
LINE
  5
98F
330
1E
100
AcDbEntity
  8
0
100
AcDbLine
 10
280.9417999999999
 20
713.518
 30
0.0
 11
280.9417999999999
 21
718.8889999999998
 31
0.0
  0
LINE
  5
990
330
1E
100
AcDbEntity
  8
0
100
AcDbLine
 10
280.9417999999999
 20
713.518
 30
0.0
 11
280.9417999999999
 21
706.498
 31
0.0
  0
LINE
  5
991
330
1E
100
AcDbEntity
  8
0
100
AcDbLine
 10
503.0
 20
711.9739999999999
 30
0.0
 11
503.384
 21
715.151
 31
0.0
  0
LINE
  5
992
330
1E
100
AcDbEntity
  8
0
100
AcDbLine
 10
503.0
 20
711.9739999999999
 30
0.0
 11
503.0
 21
640.5847999999999
 31
0.0
  0
LINE
  5
993
330
1E
100
AcDbEntity
  8
0
100
AcDbLine
 10
503.0
 20
711.9739999999999
 30
0.0
 11
503.384
 21
708.8849999999999
 31
0.0
  0
LINE
  5
994
330
1E
100
AcDbEntity
  8
0
100
AcDbLine
 10
504.6319999999999
 20
705.9719999999999
 30
0.0
 11
506.5519999999999
 21
703.413
 31
0.0
  0
LINE
  5
995
330
1E
100
AcDbEntity
  8
0
100
AcDbLine
 10
503.384
 20
715.151
 30
0.0
 11
504.6319999999999
 21
718.0629999999999
 31
0.0
  0
LINE
  5
996
330
1E
100
AcDbEntity
  8
0
100
AcDbLine
 10
504.6319999999999
 20
718.0629999999999
 30
0.0
 11
505.219743916615
 21
718.846658555487
 31
0.0
  0
LINE
  5
997
330
1E
100
AcDbEntity
  8
0
100
AcDbLine
 10
506.5519999999999
 20
703.413
 30
0.0
 11
509.048
 21
701.471
 31
0.0
  0
LINE
  5
998
330
1E
100
AcDbEntity
  8
0
100
AcDbLine
 10
509.048
 20
701.471
 30
0.0
 11
511.928
 21
700.2349999999999
 31
0.0
  0
LINE
  5
999
330
1E
100
AcDbEntity
  8
0
100
AcDbLine
 10
511.928
 20
700.2349999999999
 30
0.0
 11
515.0
 21
699.7939999999999
 31
0.0
  0
LINE
  5
99A
330
1E
100
AcDbEntity
  8
0
100
AcDbLine
 10
512.7919999999999
 20
703.5889999999999
 30
0.0
 11
515.0
 21
703.2360000000001
 31
0.0
  0
LINE
  5
99B
330
1E
100
AcDbEntity
  8
0
100
AcDbLine
 10
510.6799999999999
 20
704.383
 30
0.0
 11
512.7919999999999
 21
703.5889999999999
 31
0.0
  0
LINE
  5
99C
330
1E
100
AcDbEntity
  8
0
100
AcDbLine
 10
508.856
 20
705.7949999999999
 30
0.0
 11
510.6799999999999
 21
704.383
 31
0.0
  0
LINE
  5
99D
330
1E
100
AcDbEntity
  8
0
100
AcDbLine
 10
507.5119999999999
 20
707.6489999999998
 30
0.0
 11
508.856
 21
705.7949999999999
 31
0.0
  0
LINE
  5
99E
330
1E
100
AcDbEntity
  8
0
100
AcDbLine
 10
506.648
 20
709.7669999999999
 30
0.0
 11
507.5119999999999
 21
707.6489999999998
 31
0.0
  0
LINE
  5
99F
330
1E
100
AcDbEntity
  8
0
100
AcDbLine
 10
506.36
 20
711.9739999999999
 30
0.0
 11
506.648
 21
709.7669999999999
 31
0.0
  0
LINE
  5
9A0
330
1E
100
AcDbEntity
  8
0
100
AcDbLine
 10
506.36
 20
711.9739999999999
 30
0.0
 11
506.36
 21
718.7480458821589
 31
0.0
  0
LINE
  5
9A1
330
1E
100
AcDbEntity
  8
0
100
AcDbLine
 10
515.0
 20
699.7939999999999
 30
0.0
 11
518.0719999999999
 21
700.2349999999999
 31
0.0
  0
LINE
  5
9A2
330
1E
100
AcDbEntity
  8
0
100
AcDbLine
 10
515.0
 20
703.2360000000001
 30
0.0
 11
517.2080000000001
 21
703.5889999999999
 31
0.0
  0
LINE
  5
9A3
330
1E
100
AcDbEntity
  8
0
100
AcDbLine
 10
309.058
 20
718.8889999999998
 30
0.0
 11
309.058
 21
713.518
 31
0.0
  0
LINE
  5
9A4
330
1E
100
AcDbEntity
  8
0
100
AcDbLine
 10
309.058
 20
718.8889999999998
 30
0.0
 11
309.058
 21
722.3589999999999
 31
0.0
  0
LINE
  5
9A5
330
1E
100
AcDbEntity
  8
0
100
AcDbLine
 10
280.9417999999999
 20
718.8889999999998
 30
0.0
 11
280.9417999999999
 21
713.518
 31
0.0
  0
LINE
  5
9A6
330
1E
100
AcDbEntity
  8
0
100
AcDbLine
 10
280.9417999999999
 20
718.8889999999998
 30
0.0
 11
280.9417999999999
 21
722.3589999999999
 31
0.0
  0
LINE
  5
9A7
330
1E
100
AcDbEntity
  8
0
100
AcDbLine
 10
280.9417999999999
 20
722.3589999999999
 30
0.0
 11
280.9417999999999
 21
723.511
 31
0.0
  0
LINE
  5
9A8
330
1E
100
AcDbEntity
  8
0
100
AcDbLine
 10
280.9417999999999
 20
722.3589999999999
 30
0.0
 11
280.9417999999999
 21
718.8889999999998
 31
0.0
  0
LINE
  5
9A9
330
1E
100
AcDbEntity
  8
0
100
AcDbLine
 10
309.058
 20
722.3589999999999
 30
0.0
 11
309.058
 21
723.511
 31
0.0
  0
LINE
  5
9AA
330
1E
100
AcDbEntity
  8
0
100
AcDbLine
 10
309.058
 20
722.3589999999999
 30
0.0
 11
309.058
 21
718.8889999999998
 31
0.0
  0
LINE
  5
9AB
330
1E
100
AcDbEntity
  8
0
100
AcDbLine
 10
309.058
 20
723.511
 30
0.0
 11
311.614
 21
707.12
 31
0.0
  0
LINE
  5
9AC
330
1E
100
AcDbEntity
  8
0
100
AcDbLine
 10
309.058
 20
723.511
 30
0.0
 11
309.058
 21
722.3589999999999
 31
0.0
  0
LINE
  5
9AD
330
1E
100
AcDbEntity
  8
0
100
AcDbLine
 10
280.9417999999999
 20
723.511
 30
0.0
 11
281.4479
 21
725.73
 31
0.0
  0
LINE
  5
9AE
330
1E
100
AcDbEntity
  8
0
100
AcDbLine
 10
280.9417999999999
 20
723.511
 30
0.0
 11
280.9417999999999
 21
722.3589999999999
 31
0.0
  0
LINE
  5
9AF
330
1E
100
AcDbEntity
  8
0
100
AcDbLine
 10
308.552
 20
725.73
 30
0.0
 11
309.058
 21
723.511
 31
0.0
  0
LINE
  5
9B0
330
1E
100
AcDbEntity
  8
0
100
AcDbLine
 10
304.9529999999999
 20
729.6469999999999
 30
0.0
 11
307.202
 21
727.8089999999999
 31
0.0
  0
LINE
  5
9B1
330
1E
100
AcDbEntity
  8
0
100
AcDbLine
 10
307.202
 20
727.8089999999999
 30
0.0
 11
308.552
 21
725.73
 31
0.0
  0
LINE
  5
9B2
330
1E
100
AcDbEntity
  8
0
100
AcDbLine
 10
298.599
 20
731.8649999999999
 30
0.0
 11
301.973
 21
731.033
 31
0.0
  0
LINE
  5
9B3
330
1E
100
AcDbEntity
  8
0
100
AcDbLine
 10
301.973
 20
731.033
 30
0.0
 11
304.9529999999999
 21
729.6469999999999
 31
0.0
  0
LINE
  5
9B4
330
1E
100
AcDbEntity
  8
0
100
AcDbLine
 10
295.0
 20
732.177
 30
0.0
 11
298.599
 21
731.8649999999999
 31
0.0
  0
LINE
  5
9B5
330
1E
100
AcDbEntity
  8
0
100
AcDbLine
 10
291.401
 20
731.8649999999999
 30
0.0
 11
295.0
 21
732.177
 31
0.0
  0
LINE
  5
9B6
330
1E
100
AcDbEntity
  8
0
100
AcDbLine
 10
288.0269999999999
 20
731.033
 30
0.0
 11
291.401
 21
731.8649999999999
 31
0.0
  0
LINE
  5
9B7
330
1E
100
AcDbEntity
  8
0
100
AcDbLine
 10
285.047
 20
729.6469999999999
 30
0.0
 11
288.0269999999999
 21
731.033
 31
0.0
  0
LINE
  5
9B8
330
1E
100
AcDbEntity
  8
0
100
AcDbLine
 10
282.7975
 20
727.8089999999999
 30
0.0
 11
285.047
 21
729.6469999999999
 31
0.0
  0
LINE
  5
9B9
330
1E
100
AcDbEntity
  8
0
100
AcDbLine
 10
281.4479
 20
725.73
 30
0.0
 11
282.7975
 21
727.8089999999999
 31
0.0
  0
LINE
  5
9BA
330
1E
100
AcDbEntity
  8
0
100
AcDbLine
 10
467.4819999999999
 20
733.9119999999999
 30
0.0
 11
469.599
 21
731.198
 31
0.0
  0
LINE
  5
9BB
330
1E
100
AcDbEntity
  8
0
100
AcDbLine
 10
478.87
 20
726.276
 30
0.0
 11
478.87
 21
727.1721502019039
 31
0.0
  0
LINE
  5
9BC
330
1E
100
AcDbEntity
  8
0
100
AcDbLine
 10
478.87
 20
726.276
 30
0.0
 11
478.87
 21
726.893
 31
0.0
  0
LINE
  5
9BD
330
1E
100
AcDbEntity
  8
0
100
AcDbLine
 10
478.87
 20
726.276
 30
0.0
 11
480.33
 21
726.276
 31
0.0
  0
LINE
  5
9BE
330
1E
100
AcDbEntity
  8
0
100
AcDbLine
 10
480.33
 20
726.276
 30
0.0
 11
480.33
 21
726.893
 31
0.0
  0
LINE
  5
9BF
330
1E
100
AcDbEntity
  8
0
100
AcDbLine
 10
479.3576646090529
 20
726.276
 30
0.0
 11
481.788
 21
725.1199999999999
 31
0.0
  0
LINE
  5
9C0
330
1E
100
AcDbEntity
  8
0
100
AcDbLine
 10
474.084
 20
729.7069999999999
 30
0.0
 11
474.084
 21
730.3239999999999
 31
0.0
  0
LINE
  5
9C1
330
1E
100
AcDbEntity
  8
0
100
AcDbLine
 10
474.084
 20
729.7069999999999
 30
0.0
 11
475.544
 21
729.7069999999999
 31
0.0
  0
LINE
  5
9C2
330
1E
100
AcDbEntity
  8
0
100
AcDbLine
 10
474.084
 20
730.3239999999999
 30
0.0
 11
474.084
 21
729.7069999999999
 31
0.0
  0
LINE
  5
9C3
330
1E
100
AcDbEntity
  8
0
100
AcDbLine
 10
474.084
 20
730.3239999999999
 30
0.0
 11
474.084
 21
731.5129758042529
 31
0.0
  0
LINE
  5
9C4
330
1E
100
AcDbEntity
  8
0
100
AcDbLine
 10
474.084
 20
730.3239999999999
 30
0.0
 11
475.544
 21
730.3239999999999
 31
0.0
  0
LINE
  5
9C5
330
1E
100
AcDbEntity
  8
0
100
AcDbLine
 10
480.33
 20
726.893
 30
0.0
 11
480.33
 21
727.6939391217569
 31
0.0
  0
LINE
  5
9C6
330
1E
100
AcDbEntity
  8
0
100
AcDbLine
 10
480.33
 20
726.893
 30
0.0
 11
480.33
 21
726.276
 31
0.0
  0
LINE
  5
9C7
330
1E
100
AcDbEntity
  8
0
100
AcDbLine
 10
478.87
 20
726.893
 30
0.0
 11
478.87
 21
726.276
 31
0.0
  0
LINE
  5
9C8
330
1E
100
AcDbEntity
  8
0
100
AcDbLine
 10
478.87
 20
726.893
 30
0.0
 11
478.87
 21
727.3441060606058
 31
0.0
  0
LINE
  5
9C9
330
1E
100
AcDbEntity
  8
0
100
AcDbLine
 10
478.87
 20
726.893
 30
0.0
 11
480.33
 21
726.893
 31
0.0
  0
LINE
  5
9CA
330
1E
100
AcDbEntity
  8
0
100
AcDbLine
 10
475.544
 20
730.3239999999999
 30
0.0
 11
475.544
 21
731.4810333287899
 31
0.0
  0
LINE
  5
9CB
330
1E
100
AcDbEntity
  8
0
100
AcDbLine
 10
475.544
 20
730.3239999999999
 30
0.0
 11
475.544
 21
729.7069999999999
 31
0.0
  0
LINE
  5
9CC
330
1E
100
AcDbEntity
  8
0
100
AcDbLine
 10
478.87
 20
727.1721502019039
 30
0.0
 11
478.87
 21
726.276
 31
0.0
  0
LINE
  5
9CD
330
1E
100
AcDbEntity
  8
0
100
AcDbLine
 10
480.33
 20
727.6939391217569
 30
0.0
 11
480.33
 21
726.893
 31
0.0
  0
LINE
  5
9CE
330
1E
100
AcDbEntity
  8
0
100
AcDbLine
 10
478.87
 20
727.3441060606058
 30
0.0
 11
478.87
 21
726.893
 31
0.0
  0
LINE
  5
9CF
330
1E
100
AcDbEntity
  8
0
100
AcDbLine
 10
475.544
 20
729.7069999999999
 30
0.0
 11
475.544
 21
730.3239999999999
 31
0.0
  0
LINE
  5
9D0
330
1E
100
AcDbEntity
  8
0
100
AcDbLine
 10
477.7009999999999
 20
727.064
 30
0.0
 11
478.87
 21
726.5079598727671
 31
0.0
  0
LINE
  5
9D1
330
1E
100
AcDbEntity
  8
0
100
AcDbLine
 10
474.1969999999999
 20
729.2539999999998
 30
0.0
 11
477.7009999999999
 21
727.064
 31
0.0
  0
LINE
  5
9D2
330
1E
100
AcDbEntity
  8
0
100
AcDbLine
 10
475.949
 20
726.508
 30
0.0
 11
480.183
 21
724.4419999999999
 31
0.0
  0
LINE
  5
9D3
330
1E
100
AcDbEntity
  8
0
100
AcDbLine
 10
472.299
 20
728.791
 30
0.0
 11
475.949
 21
726.508
 31
0.0
  0
LINE
  5
9D4
330
1E
100
AcDbEntity
  8
0
100
AcDbLine
 10
475.544
 20
731.4810333287899
 30
0.0
 11
475.544
 21
730.3239999999999
 31
0.0
  0
LINE
  5
9D5
330
1E
100
AcDbEntity
  8
0
100
AcDbLine
 10
474.084
 20
731.5129758042529
 30
0.0
 11
474.084
 21
730.3239999999999
 31
0.0
  0
LINE
  5
9D6
330
1E
100
AcDbEntity
  8
0
100
AcDbLine
 10
470.758
 20
734.3697709815081
 30
0.0
 11
470.758
 21
733.7899999999999
 31
0.0
  0
LINE
  5
9D7
330
1E
100
AcDbEntity
  8
0
100
AcDbLine
 10
470.758
 20
734.4069999999999
 30
0.0
 11
470.758
 21
733.7899999999999
 31
0.0
  0
LINE
  5
9D8
330
1E
100
AcDbEntity
  8
0
100
AcDbLine
 10
470.758
 20
734.4069999999999
 30
0.0
 11
472.218
 21
734.4069999999999
 31
0.0
  0
LINE
  5
9D9
330
1E
100
AcDbEntity
  8
0
100
AcDbLine
 10
481.1399999999999
 20
733.4049999999999
 30
0.0
 11
481.1399999999999
 21
734.0219999999999
 31
0.0
  0
LINE
  5
9DA
330
1E
100
AcDbEntity
  8
0
100
AcDbLine
 10
479.68
 20
733.4049999999999
 30
0.0
 11
479.68
 21
734.568156397395
 31
0.0
  0
LINE
  5
9DB
330
1E
100
AcDbEntity
  8
0
100
AcDbLine
 10
479.68
 20
733.4049999999999
 30
0.0
 11
479.68
 21
734.0219999999999
 31
0.0
  0
LINE
  5
9DC
330
1E
100
AcDbEntity
  8
0
100
AcDbLine
 10
479.68
 20
733.4049999999999
 30
0.0
 11
481.1399999999999
 21
733.4049999999999
 31
0.0
  0
LINE
  5
9DD
330
1E
100
AcDbEntity
  8
0
100
AcDbLine
 10
481.1399999999999
 20
734.0219999999999
 30
0.0
 11
481.1399999999999
 21
734.600620274014
 31
0.0
  0
LINE
  5
9DE
330
1E
100
AcDbEntity
  8
0
100
AcDbLine
 10
481.1399999999999
 20
734.0219999999999
 30
0.0
 11
481.1399999999999
 21
733.4049999999999
 31
0.0
  0
LINE
  5
9DF
330
1E
100
AcDbEntity
  8
0
100
AcDbLine
 10
481.1399999999999
 20
734.600620274014
 30
0.0
 11
481.1399999999999
 21
734.0219999999999
 31
0.0
  0
LINE
  5
9E0
330
1E
100
AcDbEntity
  8
0
100
AcDbLine
 10
479.68
 20
734.568156397395
 30
0.0
 11
479.68
 21
734.0219999999999
 31
0.0
  0
LINE
  5
9E1
330
1E
100
AcDbEntity
  8
0
100
AcDbLine
 10
479.68
 20
734.568156397395
 30
0.0
 11
479.68
 21
733.4049999999999
 31
0.0
  0
LINE
  5
9E2
330
1E
100
AcDbEntity
  8
0
100
AcDbLine
 10
479.68
 20
734.0219999999999
 30
0.0
 11
479.68
 21
733.4049999999999
 31
0.0
  0
LINE
  5
9E3
330
1E
100
AcDbEntity
  8
0
100
AcDbLine
 10
479.68
 20
734.0219999999999
 30
0.0
 11
479.68
 21
734.568156397395
 31
0.0
  0
LINE
  5
9E4
330
1E
100
AcDbEntity
  8
0
100
AcDbLine
 10
479.68
 20
734.0219999999999
 30
0.0
 11
481.1399999999999
 21
734.0219999999999
 31
0.0
  0
LINE
  5
9E5
330
1E
100
AcDbEntity
  8
0
100
AcDbLine
 10
472.218
 20
734.4069999999999
 30
0.0
 11
472.218
 21
733.7899999999999
 31
0.0
  0
LINE
  5
9E6
330
1E
100
AcDbEntity
  8
0
100
AcDbLine
 10
472.218
 20
733.7899999999999
 30
0.0
 11
472.218
 21
734.4069999999999
 31
0.0
  0
LINE
  5
9E7
330
1E
100
AcDbEntity
  8
0
100
AcDbLine
 10
470.758
 20
733.7899999999999
 30
0.0
 11
470.758
 21
734.3697709815081
 31
0.0
  0
LINE
  5
9E8
330
1E
100
AcDbEntity
  8
0
100
AcDbLine
 10
470.758
 20
733.7899999999999
 30
0.0
 11
470.758
 21
734.4069999999999
 31
0.0
  0
LINE
  5
9E9
330
1E
100
AcDbEntity
  8
0
100
AcDbLine
 10
470.758
 20
733.7899999999999
 30
0.0
 11
472.218
 21
733.7899999999999
 31
0.0
  0
LINE
  5
9EA
330
1E
100
AcDbEntity
  8
0
100
AcDbLine
 10
471.569
 20
731.568
 30
0.0
 11
474.1969999999999
 21
729.2539999999998
 31
0.0
  0
LINE
  5
9EB
330
1E
100
AcDbEntity
  8
0
100
AcDbLine
 10
469.599
 20
734.3439999999999
 30
0.0
 11
471.569
 21
731.568
 31
0.0
  0
LINE
  5
9EC
330
1E
100
AcDbEntity
  8
0
100
AcDbLine
 10
469.599
 20
731.198
 30
0.0
 11
472.299
 21
728.791
 31
0.0
  0
LINE
  5
9ED
330
1E
100
AcDbEntity
  8
0
100
AcDbLine
 10
468.869
 20
731.9810000000001
 30
0.0
 11
469.22836941343
 21
731.673149462424
 31
0.0
  0
LINE
  5
9EE
330
1E
100
AcDbEntity
  8
0
100
AcDbLine
 10
468.869
 20
731.9810000000001
 30
0.0
 11
469.599
 21
731.198
 31
0.0
  0
LINE
  5
9EF
330
1E
100
AcDbEntity
  8
0
100
AcDbLine
 10
469.38
 20
738.87626839036
 30
0.0
 11
469.38
 21
737.942
 31
0.0
  0
LINE
  5
9F0
330
1E
100
AcDbEntity
  8
0
100
AcDbLine
 10
469.38
 20
739.249756762453
 30
0.0
 11
469.38
 21
738.5589999999999
 31
0.0
  0
LINE
  5
9F1
330
1E
100
AcDbEntity
  8
0
100
AcDbLine
 10
469.38
 20
738.5589999999999
 30
0.0
 11
469.38
 21
737.942
 31
0.0
  0
LINE
  5
9F2
330
1E
100
AcDbEntity
  8
0
100
AcDbLine
 10
469.38
 20
738.5589999999999
 30
0.0
 11
469.38
 21
739.249756762453
 31
0.0
  0
LINE
  5
9F3
330
1E
100
AcDbEntity
  8
0
100
AcDbLine
 10
469.38
 20
738.5589999999999
 30
0.0
 11
470.839
 21
738.5589999999999
 31
0.0
  0
LINE
  5
9F4
330
1E
100
AcDbEntity
  8
0
100
AcDbLine
 10
470.839
 20
738.5589999999999
 30
0.0
 11
470.839
 21
739.3434493079459
 31
0.0
  0
LINE
  5
9F5
330
1E
100
AcDbEntity
  8
0
100
AcDbLine
 10
470.839
 20
738.5589999999999
 30
0.0
 11
470.839
 21
737.942
 31
0.0
  0
LINE
  5
9F6
330
1E
100
AcDbEntity
  8
0
100
AcDbLine
 10
479.5989999999999
 20
737.4889999999999
 30
0.0
 11
479.5989999999999
 21
738.1060000000001
 31
0.0
  0
LINE
  5
9F7
330
1E
100
AcDbEntity
  8
0
100
AcDbLine
 10
478.139
 20
738.488390106721
 30
0.0
 11
478.139
 21
738.1060000000001
 31
0.0
  0
LINE
  5
9F8
330
1E
100
AcDbEntity
  8
0
100
AcDbLine
 10
478.139
 20
738.488390106721
 30
0.0
 11
478.139
 21
737.4889999999999
 31
0.0
  0
LINE
  5
9F9
330
1E
100
AcDbEntity
  8
0
100
AcDbLine
 10
479.5989999999999
 20
738.1060000000001
 30
0.0
 11
479.5989999999999
 21
738.3930079319299
 31
0.0
  0
LINE
  5
9FA
330
1E
100
AcDbEntity
  8
0
100
AcDbLine
 10
479.5989999999999
 20
738.1060000000001
 30
0.0
 11
479.5989999999999
 21
737.4889999999999
 31
0.0
  0
LINE
  5
9FB
330
1E
100
AcDbEntity
  8
0
100
AcDbLine
 10
479.5989999999999
 20
738.3930079319299
 30
0.0
 11
479.5989999999999
 21
738.1060000000001
 31
0.0
  0
LINE
  5
9FC
330
1E
100
AcDbEntity
  8
0
100
AcDbLine
 10
478.139
 20
738.1060000000001
 30
0.0
 11
478.139
 21
737.4889999999999
 31
0.0
  0
LINE
  5
9FD
330
1E
100
AcDbEntity
  8
0
100
AcDbLine
 10
478.139
 20
738.1060000000001
 30
0.0
 11
478.139
 21
738.488390106721
 31
0.0
  0
LINE
  5
9FE
330
1E
100
AcDbEntity
  8
0
100
AcDbLine
 10
478.139
 20
738.1060000000001
 30
0.0
 11
479.5989999999999
 21
738.1060000000001
 31
0.0
  0
LINE
  5
9FF
330
1E
100
AcDbEntity
  8
0
100
AcDbLine
 10
478.139
 20
737.4889999999999
 30
0.0
 11
478.139
 21
738.488390106721
 31
0.0
  0
LINE
  5
A00
330
1E
100
AcDbEntity
  8
0
100
AcDbLine
 10
478.139
 20
737.4889999999999
 30
0.0
 11
478.139
 21
738.1060000000001
 31
0.0
  0
LINE
  5
A01
330
1E
100
AcDbEntity
  8
0
100
AcDbLine
 10
478.139
 20
737.4889999999999
 30
0.0
 11
479.5989999999999
 21
737.4889999999999
 31
0.0
  0
LINE
  5
A02
330
1E
100
AcDbEntity
  8
0
100
AcDbLine
 10
470.839
 20
737.942
 30
0.0
 11
470.839
 21
738.5589999999999
 31
0.0
  0
LINE
  5
A03
330
1E
100
AcDbEntity
  8
0
100
AcDbLine
 10
470.839
 20
739.3434493079459
 30
0.0
 11
470.839
 21
738.5589999999999
 31
0.0
  0
LINE
  5
A04
330
1E
100
AcDbEntity
  8
0
100
AcDbLine
 10
469.38
 20
737.942
 30
0.0
 11
469.38
 21
738.87626839036
 31
0.0
  0
LINE
  5
A05
330
1E
100
AcDbEntity
  8
0
100
AcDbLine
 10
469.38
 20
737.942
 30
0.0
 11
469.38
 21
738.5589999999999
 31
0.0
  0
LINE
  5
A06
330
1E
100
AcDbEntity
  8
0
100
AcDbLine
 10
469.38
 20
737.942
 30
0.0
 11
470.839
 21
737.942
 31
0.0
  0
LINE
  5
A07
330
1E
100
AcDbEntity
  8
0
100
AcDbLine
 10
468.358
 20
736.5339999999999
 30
0.0
 11
469.599
 21
734.3439999999999
 31
0.0
  0
LINE
  5
A08
330
1E
100
AcDbEntity
  8
0
100
AcDbLine
 10
467.92
 20
739.1560000000001
 30
0.0
 11
468.358
 21
736.5339999999999
 31
0.0
  0
LINE
  5
A09
330
1E
100
AcDbEntity
  8
0
100
AcDbLine
 10
467.92
 20
739.1560000000001
 30
0.0
 11
468.358
 21
741.778
 31
0.0
  0
LINE
  5
A0A
330
1E
100
AcDbEntity
  8
0
100
AcDbLine
 10
466.241
 20
736.472
 30
0.0
 11
467.4819999999999
 21
733.9119999999999
 31
0.0
  0
LINE
  5
A0B
330
1E
100
AcDbEntity
  8
0
100
AcDbLine
 10
465.73
 20
739.1560000000001
 30
0.0
 11
466.241
 21
736.472
 31
0.0
  0
LINE
  5
A0C
330
1E
100
AcDbEntity
  8
0
100
AcDbLine
 10
465.73
 20
739.1560000000001
 30
0.0
 11
466.241
 21
741.84
 31
0.0
  0
LINE
  5
A0D
330
1E
100
AcDbEntity
  8
0
100
AcDbLine
 10
466.8249999999999
 20
734.603
 30
0.0
 11
468.869
 21
731.9810000000001
 31
0.0
  0
LINE
  5
A0E
330
1E
100
AcDbEntity
  8
0
100
AcDbLine
 10
465.5109999999999
 20
737.348
 30
0.0
 11
466.8249999999999
 21
734.603
 31
0.0
  0
LINE
  5
A0F
330
1E
100
AcDbEntity
  8
0
100
AcDbLine
 10
465.0
 20
740.0629999999999
 30
0.0
 11
465.5109999999999
 21
737.348
 31
0.0
  0
LINE
  5
A10
330
1E
100
AcDbEntity
  8
0
100
AcDbLine
 10
465.0
 20
740.0629999999999
 30
0.0
 11
465.0
 21
759.095
 31
0.0
  0
LINE
  5
A11
330
1E
100
AcDbEntity
  8
0
100
AcDbLine
 10
465.0
 20
740.0629999999999
 30
0.0
 11
465.5109999999999
 21
742.7769999999999
 31
0.0
  0
LINE
  5
A12
330
1E
100
AcDbEntity
  8
0
100
AcDbLine
 10
484.1409999999999
 20
729.5627390885311
 30
0.0
 11
484.1409999999999
 21
729.323
 31
0.0
  0
LINE
  5
A13
330
1E
100
AcDbEntity
  8
0
100
AcDbLine
 10
484.1409999999999
 20
730.899499169711
 30
0.0
 11
484.1409999999999
 21
729.94
 31
0.0
  0
LINE
  5
A14
330
1E
100
AcDbEntity
  8
0
100
AcDbLine
 10
484.1409999999999
 20
729.94
 30
0.0
 11
484.1409999999999
 21
729.323
 31
0.0
  0
LINE
  5
A15
330
1E
100
AcDbEntity
  8
0
100
AcDbLine
 10
484.1409999999999
 20
729.94
 30
0.0
 11
484.1409999999999
 21
730.899499169711
 31
0.0
  0
LINE
  5
A16
330
1E
100
AcDbEntity
  8
0
100
AcDbLine
 10
484.1409999999999
 20
729.94
 30
0.0
 11
485.601
 21
729.94
 31
0.0
  0
LINE
  5
A17
330
1E
100
AcDbEntity
  8
0
100
AcDbLine
 10
484.1409999999999
 20
729.323
 30
0.0
 11
484.1409999999999
 21
729.5627390885311
 31
0.0
  0
LINE
  5
A18
330
1E
100
AcDbEntity
  8
0
100
AcDbLine
 10
484.1409999999999
 20
729.323
 30
0.0
 11
484.1409999999999
 21
729.94
 31
0.0
  0
LINE
  5
A19
330
1E
100
AcDbEntity
  8
0
100
AcDbLine
 10
484.1409999999999
 20
729.323
 30
0.0
 11
485.601
 21
729.323
 31
0.0
  0
LINE
  5
A1A
330
1E
100
AcDbEntity
  8
0
100
AcDbLine
 10
481.788
 20
725.1199999999999
 30
0.0
 11
485.278
 21
723.8094477060229
 31
0.0
  0
LINE
  5
A1B
330
1E
100
AcDbEntity
  8
0
100
AcDbLine
 10
480.183
 20
724.4419999999999
 30
0.0
 11
485.073
 21
722.6519999999999
 31
0.0
  0
LINE
  5
A1C
330
1E
100
AcDbEntity
  8
0
100
AcDbLine
 10
491.558
 20
721.915143766886
 30
0.0
 11
491.558
 21
721.7069999999999
 31
0.0
  0
LINE
  5
A1D
330
1E
100
AcDbEntity
  8
0
100
AcDbLine
 10
491.558
 20
721.7069999999999
 30
0.0
 11
492.8219999999999
 21
721.3989999999999
 31
0.0
  0
LINE
  5
A1E
330
1E
100
AcDbEntity
  8
0
100
AcDbLine
 10
491.558
 20
721.7069999999999
 30
0.0
 11
491.558
 21
721.915143766886
 31
0.0
  0
LINE
  5
A1F
330
1E
100
AcDbEntity
  8
0
100
AcDbLine
 10
491.558
 20
721.7069999999999
 30
0.0
 11
492.288
 21
722.241
 31
0.0
  0
LINE
  5
A20
330
1E
100
AcDbEntity
  8
0
100
AcDbLine
 10
485.278
 20
723.8094477060229
 30
0.0
 11
485.278
 21
723.428
 31
0.0
  0
LINE
  5
A21
330
1E
100
AcDbEntity
  8
0
100
AcDbLine
 10
485.278
 20
725.663927499423
 30
0.0
 11
485.278
 21
724.045
 31
0.0
  0
LINE
  5
A22
330
1E
100
AcDbEntity
  8
0
100
AcDbLine
 10
485.278
 20
724.045
 30
0.0
 11
485.278
 21
723.428
 31
0.0
  0
LINE
  5
A23
330
1E
100
AcDbEntity
  8
0
100
AcDbLine
 10
485.278
 20
724.045
 30
0.0
 11
485.278
 21
725.663927499423
 31
0.0
  0
LINE
  5
A24
330
1E
100
AcDbEntity
  8
0
100
AcDbLine
 10
485.278
 20
724.045
 30
0.0
 11
486.738
 21
724.045
 31
0.0
  0
LINE
  5
A25
330
1E
100
AcDbEntity
  8
0
100
AcDbLine
 10
485.278
 20
723.428
 30
0.0
 11
485.278
 21
723.8094477060229
 31
0.0
  0
LINE
  5
A26
330
1E
100
AcDbEntity
  8
0
100
AcDbLine
 10
485.278
 20
723.428
 30
0.0
 11
485.278
 21
724.045
 31
0.0
  0
LINE
  5
A27
330
1E
100
AcDbEntity
  8
0
100
AcDbLine
 10
485.278
 20
723.428
 30
0.0
 11
486.738
 21
723.428
 31
0.0
  0
LINE
  5
A28
330
1E
100
AcDbEntity
  8
0
100
AcDbLine
 10
485.601
 20
729.94
 30
0.0
 11
485.601
 21
731.1410949850548
 31
0.0
  0
LINE
  5
A29
330
1E
100
AcDbEntity
  8
0
100
AcDbLine
 10
485.601
 20
729.94
 30
0.0
 11
485.601
 21
729.323
 31
0.0
  0
LINE
  5
A2A
330
1E
100
AcDbEntity
  8
0
100
AcDbLine
 10
485.601
 20
729.323
 30
0.0
 11
485.601
 21
729.94
 31
0.0
  0
LINE
  5
A2B
330
1E
100
AcDbEntity
  8
0
100
AcDbLine
 10
485.601
 20
731.1410949850548
 30
0.0
 11
485.601
 21
729.94
 31
0.0
  0
LINE
  5
A2C
330
1E
100
AcDbEntity
  8
0
100
AcDbLine
 10
486.738
 20
724.045
 30
0.0
 11
486.738
 21
723.428
 31
0.0
  0
LINE
  5
A2D
330
1E
100
AcDbEntity
  8
0
100
AcDbLine
 10
486.738
 20
723.428
 30
0.0
 11
486.738
 21
724.045
 31
0.0
  0
LINE
  5
A2E
330
1E
100
AcDbEntity
  8
0
100
AcDbLine
 10
489.495
 20
727.662734791944
 30
0.0
 11
489.495
 21
727.126
 31
0.0
  0
LINE
  5
A2F
330
1E
100
AcDbEntity
  8
0
100
AcDbLine
 10
489.495
 20
727.662734791944
 30
0.0
 11
489.495
 21
726.5089999999998
 31
0.0
  0
LINE
  5
A30
330
1E
100
AcDbEntity
  8
0
100
AcDbLine
 10
489.495
 20
727.126
 30
0.0
 11
489.495
 21
726.5089999999998
 31
0.0
  0
LINE
  5
A31
330
1E
100
AcDbEntity
  8
0
100
AcDbLine
 10
489.495
 20
727.126
 30
0.0
 11
489.495
 21
727.662734791944
 31
0.0
  0
LINE
  5
A32
330
1E
100
AcDbEntity
  8
0
100
AcDbLine
 10
489.495
 20
727.126
 30
0.0
 11
490.955
 21
727.126
 31
0.0
  0
LINE
  5
A33
330
1E
100
AcDbEntity
  8
0
100
AcDbLine
 10
489.495
 20
726.5089999999998
 30
0.0
 11
489.495
 21
727.662734791944
 31
0.0
  0
LINE
  5
A34
330
1E
100
AcDbEntity
  8
0
100
AcDbLine
 10
489.495
 20
726.5089999999998
 30
0.0
 11
489.495
 21
727.126
 31
0.0
  0
LINE
  5
A35
330
1E
100
AcDbEntity
  8
0
100
AcDbLine
 10
489.495
 20
726.5089999999998
 30
0.0
 11
490.955
 21
726.5089999999998
 31
0.0
  0
LINE
  5
A36
330
1E
100
AcDbEntity
  8
0
100
AcDbLine
 10
490.955
 20
727.126
 30
0.0
 11
490.955
 21
728.14442582558
 31
0.0
  0
LINE
  5
A37
330
1E
100
AcDbEntity
  8
0
100
AcDbLine
 10
490.955
 20
727.126
 30
0.0
 11
490.955
 21
726.5089999999998
 31
0.0
  0
LINE
  5
A38
330
1E
100
AcDbEntity
  8
0
100
AcDbLine
 10
490.955
 20
726.5089999999998
 30
0.0
 11
490.955
 21
727.126
 31
0.0
  0
LINE
  5
A39
330
1E
100
AcDbEntity
  8
0
100
AcDbLine
 10
490.955
 20
728.14442582558
 30
0.0
 11
490.955
 21
727.126
 31
0.0
  0
LINE
  5
A3A
330
1E
100
AcDbEntity
  8
0
100
AcDbLine
 10
490.5479999999999
 20
733.261
 30
0.0
 11
490.5479999999999
 21
733.8769999999999
 31
0.0
  0
LINE
  5
A3B
330
1E
100
AcDbEntity
  8
0
100
AcDbLine
 10
489.088
 20
733.4828743718589
 30
0.0
 11
489.088
 21
733.261
 31
0.0
  0
LINE
  5
A3C
330
1E
100
AcDbEntity
  8
0
100
AcDbLine
 10
489.088
 20
734.832889414548
 30
0.0
 11
489.088
 21
733.8769999999999
 31
0.0
  0
LINE
  5
A3D
330
1E
100
AcDbEntity
  8
0
100
AcDbLine
 10
490.5479999999999
 20
733.8769999999999
 30
0.0
 11
490.5479999999999
 21
734.8785773703919
 31
0.0
  0
LINE
  5
A3E
330
1E
100
AcDbEntity
  8
0
100
AcDbLine
 10
490.5479999999999
 20
733.8769999999999
 30
0.0
 11
490.5479999999999
 21
733.261
 31
0.0
  0
LINE
  5
A3F
330
1E
100
AcDbEntity
  8
0
100
AcDbLine
 10
490.5479999999999
 20
734.8785773703919
 30
0.0
 11
490.5479999999999
 21
733.8769999999999
 31
0.0
  0
LINE
  5
A40
330
1E
100
AcDbEntity
  8
0
100
AcDbLine
 10
489.088
 20
733.8769999999999
 30
0.0
 11
489.088
 21
733.261
 31
0.0
  0
LINE
  5
A41
330
1E
100
AcDbEntity
  8
0
100
AcDbLine
 10
489.088
 20
733.8769999999999
 30
0.0
 11
489.088
 21
734.832889414548
 31
0.0
  0
LINE
  5
A42
330
1E
100
AcDbEntity
  8
0
100
AcDbLine
 10
489.088
 20
733.8769999999999
 30
0.0
 11
490.5479999999999
 21
733.8769999999999
 31
0.0
  0
LINE
  5
A43
330
1E
100
AcDbEntity
  8
0
100
AcDbLine
 10
489.088
 20
733.261
 30
0.0
 11
489.088
 21
733.4828743718589
 31
0.0
  0
LINE
  5
A44
330
1E
100
AcDbEntity
  8
0
100
AcDbLine
 10
489.088
 20
733.261
 30
0.0
 11
489.088
 21
733.8769999999999
 31
0.0
  0
LINE
  5
A45
330
1E
100
AcDbEntity
  8
0
100
AcDbLine
 10
489.088
 20
733.261
 30
0.0
 11
490.5479999999999
 21
733.261
 31
0.0
  0
LINE
  5
A46
330
1E
100
AcDbEntity
  8
0
100
AcDbLine
 10
488.358
 20
737.035
 30
0.0
 11
488.358
 21
737.6519999999999
 31
0.0
  0
LINE
  5
A47
330
1E
100
AcDbEntity
  8
0
100
AcDbLine
 10
486.898
 20
737.8488262728329
 30
0.0
 11
486.898
 21
737.035
 31
0.0
  0
LINE
  5
A48
330
1E
100
AcDbEntity
  8
0
100
AcDbLine
 10
486.898
 20
738.2010945394479
 30
0.0
 11
486.898
 21
737.6519999999999
 31
0.0
  0
LINE
  5
A49
330
1E
100
AcDbEntity
  8
0
100
AcDbLine
 10
488.358
 20
737.6519999999999
 30
0.0
 11
488.358
 21
738.187121550719
 31
0.0
  0
LINE
  5
A4A
330
1E
100
AcDbEntity
  8
0
100
AcDbLine
 10
488.358
 20
737.6519999999999
 30
0.0
 11
488.358
 21
737.035
 31
0.0
  0
LINE
  5
A4B
330
1E
100
AcDbEntity
  8
0
100
AcDbLine
 10
488.358
 20
738.187121550719
 30
0.0
 11
488.358
 21
737.6519999999999
 31
0.0
  0
LINE
  5
A4C
330
1E
100
AcDbEntity
  8
0
100
AcDbLine
 10
486.898
 20
737.6519999999999
 30
0.0
 11
486.898
 21
737.035
 31
0.0
  0
LINE
  5
A4D
330
1E
100
AcDbEntity
  8
0
100
AcDbLine
 10
486.898
 20
737.6519999999999
 30
0.0
 11
486.898
 21
738.2010945394479
 31
0.0
  0
LINE
  5
A4E
330
1E
100
AcDbEntity
  8
0
100
AcDbLine
 10
486.898
 20
737.6519999999999
 30
0.0
 11
488.358
 21
737.6519999999999
 31
0.0
  0
LINE
  5
A4F
330
1E
100
AcDbEntity
  8
0
100
AcDbLine
 10
486.898
 20
737.035
 30
0.0
 11
486.898
 21
737.8488262728329
 31
0.0
  0
LINE
  5
A50
330
1E
100
AcDbEntity
  8
0
100
AcDbLine
 10
486.898
 20
737.035
 30
0.0
 11
486.898
 21
737.6519999999999
 31
0.0
  0
LINE
  5
A51
330
1E
100
AcDbEntity
  8
0
100
AcDbLine
 10
486.898
 20
737.035
 30
0.0
 11
488.358
 21
737.035
 31
0.0
  0
LINE
  5
A52
330
1E
100
AcDbEntity
  8
0
100
AcDbLine
 10
486.293795020267
 20
723.428
 30
0.0
 11
486.3869999999999
 21
723.393
 31
0.0
  0
LINE
  5
A53
330
1E
100
AcDbEntity
  8
0
100
AcDbLine
 10
486.3869999999999
 20
723.393
 30
0.0
 11
491.558
 21
721.915143766886
 31
0.0
  0
LINE
  5
A54
330
1E
100
AcDbEntity
  8
0
100
AcDbLine
 10
485.073
 20
722.6519999999999
 30
0.0
 11
490.4749999999999
 21
721.11
 31
0.0
  0
LINE
  5
A55
330
1E
100
AcDbEntity
  8
0
100
AcDbLine
 10
490.4749999999999
 20
721.11
 30
0.0
 11
496.168
 21
719.9689999999999
 31
0.0
  0
LINE
  5
A56
330
1E
100
AcDbEntity
  8
0
100
AcDbLine
 10
499.489
 20
719.9609999999999
 30
0.0
 11
500.753
 21
720.2689999999998
 31
0.0
  0
LINE
  5
A57
330
1E
100
AcDbEntity
  8
0
100
AcDbLine
 10
498.7589999999999
 20
720.495
 30
0.0
 11
500.023
 21
720.8039999999999
 31
0.0
  0
LINE
  5
A58
330
1E
100
AcDbEntity
  8
0
100
AcDbLine
 10
498.7589999999999
 20
720.495
 30
0.0
 11
499.489
 21
719.9609999999999
 31
0.0
  0
LINE
  5
A59
330
1E
100
AcDbEntity
  8
0
100
AcDbLine
 10
498.7589999999999
 20
720.495
 30
0.0
 11
498.7589999999999
 21
721.5134262956669
 31
0.0
  0
LINE
  5
A5A
330
1E
100
AcDbEntity
  8
0
100
AcDbLine
 10
500.753
 20
720.2689999999998
 30
0.0
 11
500.753
 21
720.331670117217
 31
0.0
  0
LINE
  5
A5B
330
1E
100
AcDbEntity
  8
0
100
AcDbLine
 10
492.8219999999999
 20
721.3989999999999
 30
0.0
 11
493.5519999999999
 21
721.933
 31
0.0
  0
LINE
  5
A5C
330
1E
100
AcDbEntity
  8
0
100
AcDbLine
 10
492.288
 20
722.241
 30
0.0
 11
493.5519999999999
 21
721.933
 31
0.0
  0
LINE
  5
A5D
330
1E
100
AcDbEntity
  8
0
100
AcDbLine
 10
492.288
 20
722.241
 30
0.0
 11
492.288
 21
722.350399300496
 31
0.0
  0
LINE
  5
A5E
330
1E
100
AcDbEntity
  8
0
100
AcDbLine
 10
492.288
 20
722.350399300496
 30
0.0
 11
492.288
 21
722.241
 31
0.0
  0
LINE
  5
A5F
330
1E
100
AcDbEntity
  8
0
100
AcDbLine
 10
493.5519999999999
 20
721.933
 30
0.0
 11
493.5519999999999
 21
722.536839049394
 31
0.0
  0
LINE
  5
A60
330
1E
100
AcDbEntity
  8
0
100
AcDbLine
 10
493.5519999999999
 20
722.536839049394
 30
0.0
 11
493.5519999999999
 21
721.933
 31
0.0
  0
LINE
  5
A61
330
1E
100
AcDbEntity
  8
0
100
AcDbLine
 10
497.2019999999999
 20
724.151
 30
0.0
 11
497.9309999999999
 21
724.686
 31
0.0
  0
LINE
  5
A62
330
1E
100
AcDbEntity
  8
0
100
AcDbLine
 10
494.3599999999999
 20
729.4529999999999
 30
0.0
 11
494.3599999999999
 21
730.07
 31
0.0
  0
LINE
  5
A63
330
1E
100
AcDbEntity
  8
0
100
AcDbLine
 10
494.3599999999999
 20
729.4529999999999
 30
0.0
 11
495.8199999999999
 21
729.4529999999999
 31
0.0
  0
LINE
  5
A64
330
1E
100
AcDbEntity
  8
0
100
AcDbLine
 10
495.8199999999999
 20
730.07
 30
0.0
 11
495.8199999999999
 21
731.2759312086379
 31
0.0
  0
LINE
  5
A65
330
1E
100
AcDbEntity
  8
0
100
AcDbLine
 10
495.8199999999999
 20
730.07
 30
0.0
 11
495.8199999999999
 21
729.4529999999999
 31
0.0
  0
LINE
  5
A66
330
1E
100
AcDbEntity
  8
0
100
AcDbLine
 10
495.8199999999999
 20
729.4529999999999
 30
0.0
 11
495.8199999999999
 21
730.07
 31
0.0
  0
LINE
  5
A67
330
1E
100
AcDbEntity
  8
0
100
AcDbLine
 10
495.8199999999999
 20
731.2759312086379
 30
0.0
 11
495.8199999999999
 21
730.07
 31
0.0
  0
LINE
  5
A68
330
1E
100
AcDbEntity
  8
0
100
AcDbLine
 10
494.3599999999999
 20
730.9527580982241
 30
0.0
 11
494.3599999999999
 21
730.07
 31
0.0
  0
LINE
  5
A69
330
1E
100
AcDbEntity
  8
0
100
AcDbLine
 10
494.3599999999999
 20
730.07
 30
0.0
 11
494.3599999999999
 21
729.4529999999999
 31
0.0
  0
LINE
  5
A6A
330
1E
100
AcDbEntity
  8
0
100
AcDbLine
 10
494.3599999999999
 20
730.07
 30
0.0
 11
494.3599999999999
 21
730.9527580982241
 31
0.0
  0
LINE
  5
A6B
330
1E
100
AcDbEntity
  8
0
100
AcDbLine
 10
494.3599999999999
 20
730.07
 30
0.0
 11
495.8199999999999
 21
730.07
 31
0.0
  0
LINE
  5
A6C
330
1E
100
AcDbEntity
  8
0
100
AcDbLine
 10
497.9309999999999
 20
724.686
 30
0.0
 11
497.9309999999999
 21
725.7911326143981
 31
0.0
  0
LINE
  5
A6D
330
1E
100
AcDbEntity
  8
0
100
AcDbLine
 10
496.6669999999999
 20
724.9939999999999
 30
0.0
 11
497.9309999999999
 21
724.686
 31
0.0
  0
LINE
  5
A6E
330
1E
100
AcDbEntity
  8
0
100
AcDbLine
 10
496.6669999999999
 20
724.9939999999999
 30
0.0
 11
496.6669999999999
 21
725.700110594487
 31
0.0
  0
LINE
  5
A6F
330
1E
100
AcDbEntity
  8
0
100
AcDbLine
 10
497.9309999999999
 20
725.7911326143981
 30
0.0
 11
497.9309999999999
 21
724.686
 31
0.0
  0
LINE
  5
A70
330
1E
100
AcDbEntity
  8
0
100
AcDbLine
 10
496.6669999999999
 20
725.700110594487
 30
0.0
 11
496.6669999999999
 21
724.9939999999999
 31
0.0
  0
LINE
  5
A71
330
1E
100
AcDbEntity
  8
0
100
AcDbLine
 10
495.9369999999999
 20
725.536278811026
 30
0.0
 11
495.9369999999999
 21
724.46
 31
0.0
  0
LINE
  5
A72
330
1E
100
AcDbEntity
  8
0
100
AcDbLine
 10
495.9369999999999
 20
724.46
 30
0.0
 11
497.2019999999999
 21
724.151
 31
0.0
  0
LINE
  5
A73
330
1E
100
AcDbEntity
  8
0
100
AcDbLine
 10
495.9369999999999
 20
724.46
 30
0.0
 11
495.9369999999999
 21
725.536278811026
 31
0.0
  0
LINE
  5
A74
330
1E
100
AcDbEntity
  8
0
100
AcDbLine
 10
495.9369999999999
 20
724.46
 30
0.0
 11
496.6669999999999
 21
724.9939999999999
 31
0.0
  0
LINE
  5
A75
330
1E
100
AcDbEntity
  8
0
100
AcDbLine
 10
498.8199999999999
 20
733.157537420083
 30
0.0
 11
498.8199999999999
 21
732.567
 31
0.0
  0
LINE
  5
A76
330
1E
100
AcDbEntity
  8
0
100
AcDbLine
 10
497.1169999999999
 20
736.582
 30
0.0
 11
497.1169999999999
 21
737.1979999999999
 31
0.0
  0
LINE
  5
A77
330
1E
100
AcDbEntity
  8
0
100
AcDbLine
 10
495.657
 20
737.161178390983
 30
0.0
 11
495.657
 21
736.582
 31
0.0
  0
LINE
  5
A78
330
1E
100
AcDbEntity
  8
0
100
AcDbLine
 10
495.657
 20
738.1172661776139
 30
0.0
 11
495.657
 21
737.1979999999999
 31
0.0
  0
LINE
  5
A79
330
1E
100
AcDbEntity
  8
0
100
AcDbLine
 10
497.1169999999999
 20
737.1979999999999
 30
0.0
 11
497.1169999999999
 21
738.1032931888849
 31
0.0
  0
LINE
  5
A7A
330
1E
100
AcDbEntity
  8
0
100
AcDbLine
 10
497.1169999999999
 20
737.1979999999999
 30
0.0
 11
497.1169999999999
 21
736.582
 31
0.0
  0
LINE
  5
A7B
330
1E
100
AcDbEntity
  8
0
100
AcDbLine
 10
497.1169999999999
 20
738.1032931888849
 30
0.0
 11
497.1169999999999
 21
737.1979999999999
 31
0.0
  0
LINE
  5
A7C
330
1E
100
AcDbEntity
  8
0
100
AcDbLine
 10
495.657
 20
737.1979999999999
 30
0.0
 11
495.657
 21
736.582
 31
0.0
  0
LINE
  5
A7D
330
1E
100
AcDbEntity
  8
0
100
AcDbLine
 10
495.657
 20
737.1979999999999
 30
0.0
 11
495.657
 21
738.1172661776139
 31
0.0
  0
LINE
  5
A7E
330
1E
100
AcDbEntity
  8
0
100
AcDbLine
 10
495.657
 20
737.1979999999999
 30
0.0
 11
497.1169999999999
 21
737.1979999999999
 31
0.0
  0
LINE
  5
A7F
330
1E
100
AcDbEntity
  8
0
100
AcDbLine
 10
495.657
 20
736.582
 30
0.0
 11
495.657
 21
737.161178390983
 31
0.0
  0
LINE
  5
A80
330
1E
100
AcDbEntity
  8
0
100
AcDbLine
 10
495.657
 20
736.582
 30
0.0
 11
495.657
 21
737.1979999999999
 31
0.0
  0
LINE
  5
A81
330
1E
100
AcDbEntity
  8
0
100
AcDbLine
 10
495.657
 20
736.582
 30
0.0
 11
497.1169999999999
 21
736.582
 31
0.0
  0
LINE
  5
A82
330
1E
100
AcDbEntity
  8
0
100
AcDbLine
 10
498.8199999999999
 20
734.1970817401089
 30
0.0
 11
498.8199999999999
 21
733.1839999999999
 31
0.0
  0
LINE
  5
A83
330
1E
100
AcDbEntity
  8
0
100
AcDbLine
 10
498.8199999999999
 20
733.1839999999999
 30
0.0
 11
498.8199999999999
 21
732.567
 31
0.0
  0
LINE
  5
A84
330
1E
100
AcDbEntity
  8
0
100
AcDbLine
 10
498.8199999999999
 20
733.1839999999999
 30
0.0
 11
498.8199999999999
 21
734.1970817401089
 31
0.0
  0
LINE
  5
A85
330
1E
100
AcDbEntity
  8
0
100
AcDbLine
 10
498.8199999999999
 20
733.1839999999999
 30
0.0
 11
500.2799999999999
 21
733.1839999999999
 31
0.0
  0
LINE
  5
A86
330
1E
100
AcDbEntity
  8
0
100
AcDbLine
 10
498.8199999999999
 20
732.567
 30
0.0
 11
498.8199999999999
 21
733.157537420083
 31
0.0
  0
LINE
  5
A87
330
1E
100
AcDbEntity
  8
0
100
AcDbLine
 10
498.8199999999999
 20
732.567
 30
0.0
 11
498.8199999999999
 21
733.1839999999999
 31
0.0
  0
LINE
  5
A88
330
1E
100
AcDbEntity
  8
0
100
AcDbLine
 10
498.8199999999999
 20
732.567
 30
0.0
 11
500.2799999999999
 21
732.567
 31
0.0
  0
LINE
  5
A89
330
1E
100
AcDbEntity
  8
0
100
AcDbLine
 10
498.7589999999999
 20
721.5134262956669
 30
0.0
 11
498.7589999999999
 21
720.495
 31
0.0
  0
LINE
  5
A8A
330
1E
100
AcDbEntity
  8
0
100
AcDbLine
 10
500.2799999999999
 20
733.1839999999999
 30
0.0
 11
500.2799999999999
 21
733.95879053442
 31
0.0
  0
LINE
  5
A8B
330
1E
100
AcDbEntity
  8
0
100
AcDbLine
 10
500.2799999999999
 20
733.1839999999999
 30
0.0
 11
500.2799999999999
 21
732.567
 31
0.0
  0
LINE
  5
A8C
330
1E
100
AcDbEntity
  8
0
100
AcDbLine
 10
500.3169999999999
 20
727.306332517859
 30
0.0
 11
500.3169999999999
 21
727.212
 31
0.0
  0
LINE
  5
A8D
330
1E
100
AcDbEntity
  8
0
100
AcDbLine
 10
500.3169999999999
 20
727.212
 30
0.0
 11
501.581
 21
726.903
 31
0.0
  0
LINE
  5
A8E
330
1E
100
AcDbEntity
  8
0
100
AcDbLine
 10
500.3169999999999
 20
727.212
 30
0.0
 11
500.3169999999999
 21
727.306332517859
 31
0.0
  0
LINE
  5
A8F
330
1E
100
AcDbEntity
  8
0
100
AcDbLine
 10
500.3169999999999
 20
727.212
 30
0.0
 11
501.0469999999999
 21
727.747
 31
0.0
  0
LINE
  5
A90
330
1E
100
AcDbEntity
  8
0
100
AcDbLine
 10
500.2799999999999
 20
732.567
 30
0.0
 11
500.2799999999999
 21
733.1839999999999
 31
0.0
  0
LINE
  5
A91
330
1E
100
AcDbEntity
  8
0
100
AcDbLine
 10
500.2799999999999
 20
733.95879053442
 30
0.0
 11
500.2799999999999
 21
733.1839999999999
 31
0.0
  0
LINE
  5
A92
330
1E
100
AcDbEntity
  8
0
100
AcDbLine
 10
500.023
 20
722.037766142736
 30
0.0
 11
500.023
 21
720.8039999999999
 31
0.0
  0
LINE
  5
A93
330
1E
100
AcDbEntity
  8
0
100
AcDbLine
 10
500.023
 20
720.8039999999999
 30
0.0
 11
500.753
 21
720.2689999999998
 31
0.0
  0
LINE
  5
A94
330
1E
100
AcDbEntity
  8
0
100
AcDbLine
 10
500.023
 20
720.8039999999999
 30
0.0
 11
500.023
 21
722.037766142736
 31
0.0
  0
LINE
  5
A95
330
1E
100
AcDbEntity
  8
0
100
AcDbLine
 10
493.099193548387
 20
721.601768979231
 30
0.0
 11
497.044
 21
720.802
 31
0.0
  0
LINE
  5
A96
330
1E
100
AcDbEntity
  8
0
100
AcDbLine
 10
497.044
 20
720.802
 30
0.0
 11
498.7589999999999
 21
720.5845247374029
 31
0.0
  0
LINE
  5
A97
330
1E
100
AcDbEntity
  8
0
100
AcDbLine
 10
502.3109999999999
 20
727.4389999999999
 30
0.0
 11
502.3109999999999
 21
728.182853913341
 31
0.0
  0
LINE
  5
A98
330
1E
100
AcDbEntity
  8
0
100
AcDbLine
 10
501.581
 20
726.903
 30
0.0
 11
502.3109999999999
 21
727.4389999999999
 31
0.0
  0
LINE
  5
A99
330
1E
100
AcDbEntity
  8
0
100
AcDbLine
 10
501.0469999999999
 20
727.747
 30
0.0
 11
502.3109999999999
 21
727.4389999999999
 31
0.0
  0
LINE
  5
A9A
330
1E
100
AcDbEntity
  8
0
100
AcDbLine
 10
502.3109999999999
 20
728.182853913341
 30
0.0
 11
502.3109999999999
 21
727.4389999999999
 31
0.0
  0
LINE
  5
A9B
330
1E
100
AcDbEntity
  8
0
100
AcDbLine
 10
500.753
 20
720.331670117217
 30
0.0
 11
503.613
 21
719.9689999999999
 31
0.0
  0
LINE
  5
A9C
330
1E
100
AcDbEntity
  8
0
100
AcDbLine
 10
500.753
 20
720.331670117217
 30
0.0
 11
500.753
 21
720.2689999999998
 31
0.0
  0
LINE
  5
A9D
330
1E
100
AcDbEntity
  8
0
100
AcDbLine
 10
496.168
 20
719.9689999999999
 30
0.0
 11
502.591
 21
719.0739999999999
 31
0.0
  0
LINE
  5
A9E
330
1E
100
AcDbEntity
  8
0
100
AcDbLine
 10
509.7929999999999
 20
719.348
 30
0.0
 11
509.7929999999999
 21
720.210552224371
 31
0.0
  0
LINE
  5
A9F
330
1E
100
AcDbEntity
  8
0
100
AcDbLine
 10
508.5289999999999
 20
719.0389999999999
 30
0.0
 11
509.7929999999999
 21
719.348
 31
0.0
  0
LINE
  5
AA0
330
1E
100
AcDbEntity
  8
0
100
AcDbLine
 10
506.36
 20
718.7480458821589
 30
0.0
 11
506.36
 21
711.9739999999999
 31
0.0
  0
LINE
  5
AA1
330
1E
100
AcDbEntity
  8
0
100
AcDbLine
 10
507.799
 20
719.5739999999999
 30
0.0
 11
509.063
 21
719.8819999999999
 31
0.0
  0
LINE
  5
AA2
330
1E
100
AcDbEntity
  8
0
100
AcDbLine
 10
507.799
 20
719.5739999999999
 30
0.0
 11
508.5289999999999
 21
719.0389999999999
 31
0.0
  0
LINE
  5
AA3
330
1E
100
AcDbEntity
  8
0
100
AcDbLine
 10
503.892
 20
723.642727272727
 30
0.0
 11
503.892
 21
723.3519999999999
 31
0.0
  0
LINE
  5
AA4
330
1E
100
AcDbEntity
  8
0
100
AcDbLine
 10
503.892
 20
723.3519999999999
 30
0.0
 11
505.1569999999999
 21
723.661
 31
0.0
  0
LINE
  5
AA5
330
1E
100
AcDbEntity
  8
0
100
AcDbLine
 10
503.892
 20
723.3519999999999
 30
0.0
 11
504.6219999999999
 21
722.818
 31
0.0
  0
LINE
  5
AA6
330
1E
100
AcDbEntity
  8
0
100
AcDbLine
 10
503.892
 20
723.3519999999999
 30
0.0
 11
503.892
 21
723.642727272727
 31
0.0
  0
LINE
  5
AA7
330
1E
100
AcDbEntity
  8
0
100
AcDbLine
 10
505.1569999999999
 20
724.167481945625
 30
0.0
 11
505.1569999999999
 21
723.661
 31
0.0
  0
LINE
  5
AA8
330
1E
100
AcDbEntity
  8
0
100
AcDbLine
 10
505.1569999999999
 20
723.661
 30
0.0
 11
505.8869999999999
 21
723.126
 31
0.0
  0
LINE
  5
AA9
330
1E
100
AcDbEntity
  8
0
100
AcDbLine
 10
505.1569999999999
 20
723.661
 30
0.0
 11
505.1569999999999
 21
724.167481945625
 31
0.0
  0
LINE
  5
AAA
330
1E
100
AcDbEntity
  8
0
100
AcDbLine
 10
505.8869999999999
 20
723.126
 30
0.0
 11
505.8869999999999
 21
723.754207586934
 31
0.0
  0
LINE
  5
AAB
330
1E
100
AcDbEntity
  8
0
100
AcDbLine
 10
508.42
 20
726.793124617403
 30
0.0
 11
508.42
 21
726.3789999999999
 31
0.0
  0
LINE
  5
AAC
330
1E
100
AcDbEntity
  8
0
100
AcDbLine
 10
508.42
 20
726.3789999999999
 30
0.0
 11
509.684
 21
726.6869999999999
 31
0.0
  0
LINE
  5
AAD
330
1E
100
AcDbEntity
  8
0
100
AcDbLine
 10
508.42
 20
726.3789999999999
 30
0.0
 11
509.1499999999999
 21
725.8439999999999
 31
0.0
  0
LINE
  5
AAE
330
1E
100
AcDbEntity
  8
0
100
AcDbLine
 10
508.42
 20
726.3789999999999
 30
0.0
 11
508.42
 21
726.793124617403
 31
0.0
  0
LINE
  5
AAF
330
1E
100
AcDbEntity
  8
0
100
AcDbLine
 10
505.8869999999999
 20
723.754207586934
 30
0.0
 11
505.8869999999999
 21
723.126
 31
0.0
  0
LINE
  5
AB0
330
1E
100
AcDbEntity
  8
0
100
AcDbLine
 10
504.6219999999999
 20
722.818
 30
0.0
 11
505.8869999999999
 21
723.126
 31
0.0
  0
LINE
  5
AB1
330
1E
100
AcDbEntity
  8
0
100
AcDbLine
 10
509.684
 20
726.6869999999999
 30
0.0
 11
510.414
 21
726.1519999999999
 31
0.0
  0
LINE
  5
AB2
330
1E
100
AcDbEntity
  8
0
100
AcDbLine
 10
509.1499999999999
 20
725.8439999999999
 30
0.0
 11
510.414
 21
726.1519999999999
 31
0.0
  0
LINE
  5
AB3
330
1E
100
AcDbEntity
  8
0
100
AcDbLine
 10
509.063
 20
720.137045861887
 30
0.0
 11
509.063
 21
719.8819999999999
 31
0.0
  0
LINE
  5
AB4
330
1E
100
AcDbEntity
  8
0
100
AcDbLine
 10
509.063
 20
719.8819999999999
 30
0.0
 11
509.7929999999999
 21
719.348
 31
0.0
  0
LINE
  5
AB5
330
1E
100
AcDbEntity
  8
0
100
AcDbLine
 10
509.063
 20
719.8819999999999
 30
0.0
 11
509.063
 21
720.137045861887
 31
0.0
  0
LINE
  5
AB6
330
1E
100
AcDbEntity
  8
0
100
AcDbLine
 10
512.334
 20
722.7999999999999
 30
0.0
 11
513.599
 21
723.108
 31
0.0
  0
LINE
  5
AB7
330
1E
100
AcDbEntity
  8
0
100
AcDbLine
 10
512.334
 20
722.7999999999999
 30
0.0
 11
513.0639999999999
 21
722.2649999999999
 31
0.0
  0
LINE
  5
AB8
330
1E
100
AcDbEntity
  8
0
100
AcDbLine
 10
513.599
 20
724.2640938007901
 30
0.0
 11
513.599
 21
723.108
 31
0.0
  0
LINE
  5
AB9
330
1E
100
AcDbEntity
  8
0
100
AcDbLine
 10
513.599
 20
723.108
 30
0.0
 11
514.329
 21
722.574
 31
0.0
  0
LINE
  5
ABA
330
1E
100
AcDbEntity
  8
0
100
AcDbLine
 10
513.599
 20
723.108
 30
0.0
 11
513.599
 21
724.2640938007901
 31
0.0
  0
LINE
  5
ABB
330
1E
100
AcDbEntity
  8
0
100
AcDbLine
 10
514.329
 20
722.574
 30
0.0
 11
514.329
 21
723.6980957446809
 31
0.0
  0
LINE
  5
ABC
330
1E
100
AcDbEntity
  8
0
100
AcDbLine
 10
514.329
 20
723.6980957446809
 30
0.0
 11
514.329
 21
722.574
 31
0.0
  0
LINE
  5
ABD
330
1E
100
AcDbEntity
  8
0
100
AcDbLine
 10
513.0639999999999
 20
722.2649999999999
 30
0.0
 11
514.329
 21
722.574
 31
0.0
  0
LINE
  5
ABE
330
1E
100
AcDbEntity
  8
0
100
AcDbLine
 10
509.7929999999999
 20
720.210552224371
 30
0.0
 11
509.7929999999999
 21
719.348
 31
0.0
  0
LINE
  5
ABF
330
1E
100
AcDbEntity
  8
0
100
AcDbLine
 10
504.6959999999999
 20
731.0834047155529
 30
0.0
 11
504.6959999999999
 21
729.965
 31
0.0
  0
LINE
  5
AC0
330
1E
100
AcDbEntity
  8
0
100
AcDbLine
 10
506.691
 20
730.19
 30
0.0
 11
506.691
 21
730.5386323000509
 31
0.0
  0
LINE
  5
AC1
330
1E
100
AcDbEntity
  8
0
100
AcDbLine
 10
505.961
 20
729.656
 30
0.0
 11
506.691
 21
730.19
 31
0.0
  0
LINE
  5
AC2
330
1E
100
AcDbEntity
  8
0
100
AcDbLine
 10
506.691
 20
730.5386323000509
 30
0.0
 11
506.691
 21
730.19
 31
0.0
  0
LINE
  5
AC3
330
1E
100
AcDbEntity
  8
0
100
AcDbLine
 10
505.426
 20
730.4989999999999
 30
0.0
 11
506.691
 21
730.19
 31
0.0
  0
LINE
  5
AC4
330
1E
100
AcDbEntity
  8
0
100
AcDbLine
 10
505.426
 20
730.4989999999999
 30
0.0
 11
505.426
 21
731.3733729901221
 31
0.0
  0
LINE
  5
AC5
330
1E
100
AcDbEntity
  8
0
100
AcDbLine
 10
510.3399999999999
 20
732.4089999999999
 30
0.0
 11
511.07
 21
732.943
 31
0.0
  0
LINE
  5
AC6
330
1E
100
AcDbEntity
  8
0
100
AcDbLine
 10
511.07
 20
732.943
 30
0.0
 11
511.07
 21
734.44137007874
 31
0.0
  0
LINE
  5
AC7
330
1E
100
AcDbEntity
  8
0
100
AcDbLine
 10
511.07
 20
734.44137007874
 30
0.0
 11
511.07
 21
732.943
 31
0.0
  0
LINE
  5
AC8
330
1E
100
AcDbEntity
  8
0
100
AcDbLine
 10
509.806
 20
733.2519999999999
 30
0.0
 11
511.07
 21
732.943
 31
0.0
  0
LINE
  5
AC9
330
1E
100
AcDbEntity
  8
0
100
AcDbLine
 10
509.806
 20
733.2519999999999
 30
0.0
 11
509.806
 21
734.465381413985
 31
0.0
  0
LINE
  5
ACA
330
1E
100
AcDbEntity
  8
0
100
AcDbLine
 10
509.806
 20
734.465381413985
 30
0.0
 11
509.806
 21
733.2519999999999
 31
0.0
  0
LINE
  5
ACB
330
1E
100
AcDbEntity
  8
0
100
AcDbLine
 10
509.0759999999999
 20
734.060800827194
 30
0.0
 11
509.0759999999999
 21
732.7180000000001
 31
0.0
  0
LINE
  5
ACC
330
1E
100
AcDbEntity
  8
0
100
AcDbLine
 10
509.0759999999999
 20
732.7180000000001
 30
0.0
 11
510.3399999999999
 21
732.4089999999999
 31
0.0
  0
LINE
  5
ACD
330
1E
100
AcDbEntity
  8
0
100
AcDbLine
 10
509.0759999999999
 20
732.7180000000001
 30
0.0
 11
509.0759999999999
 21
734.060800827194
 31
0.0
  0
LINE
  5
ACE
330
1E
100
AcDbEntity
  8
0
100
AcDbLine
 10
509.0759999999999
 20
732.7180000000001
 30
0.0
 11
509.806
 21
733.2519999999999
 31
0.0
  0
LINE
  5
ACF
330
1E
100
AcDbEntity
  8
0
100
AcDbLine
 10
505.426
 20
731.3733729901221
 30
0.0
 11
505.426
 21
730.4989999999999
 31
0.0
  0
LINE
  5
AD0
330
1E
100
AcDbEntity
  8
0
100
AcDbLine
 10
504.6959999999999
 20
729.965
 30
0.0
 11
505.961
 21
729.656
 31
0.0
  0
LINE
  5
AD1
330
1E
100
AcDbEntity
  8
0
100
AcDbLine
 10
504.6959999999999
 20
729.965
 30
0.0
 11
504.6959999999999
 21
731.0834047155529
 31
0.0
  0
LINE
  5
AD2
330
1E
100
AcDbEntity
  8
0
100
AcDbLine
 10
504.6959999999999
 20
729.965
 30
0.0
 11
505.426
 21
730.4989999999999
 31
0.0
  0
LINE
  5
AD3
330
1E
100
AcDbEntity
  8
0
100
AcDbLine
 10
513.5019999999999
 20
729.342
 30
0.0
 11
514.766
 21
729.6499999999999
 31
0.0
  0
LINE
  5
AD4
330
1E
100
AcDbEntity
  8
0
100
AcDbLine
 10
513.5019999999999
 20
729.342
 30
0.0
 11
514.2319999999999
 21
728.807
 31
0.0
  0
LINE
  5
AD5
330
1E
100
AcDbEntity
  8
0
100
AcDbLine
 10
514.766
 20
729.6499999999999
 30
0.0
 11
515.4959999999999
 21
729.115
 31
0.0
  0
LINE
  5
AD6
330
1E
100
AcDbEntity
  8
0
100
AcDbLine
 10
514.2319999999999
 20
728.807
 30
0.0
 11
515.4959999999999
 21
729.115
 31
0.0
  0
LINE
  5
AD7
330
1E
100
AcDbEntity
  8
0
100
AcDbLine
 10
504.4159999999999
 20
737.3439999999999
 30
0.0
 11
504.4159999999999
 21
736.1289999999999
 31
0.0
  0
LINE
  5
AD8
330
1E
100
AcDbEntity
  8
0
100
AcDbLine
 10
504.4159999999999
 20
736.7449999999999
 30
0.0
 11
504.4159999999999
 21
736.1289999999999
 31
0.0
  0
LINE
  5
AD9
330
1E
100
AcDbEntity
  8
0
100
AcDbLine
 10
504.4159999999999
 20
736.7449999999999
 30
0.0
 11
504.4159999999999
 21
737.9382394678489
 31
0.0
  0
LINE
  5
ADA
330
1E
100
AcDbEntity
  8
0
100
AcDbLine
 10
504.4159999999999
 20
736.7449999999999
 30
0.0
 11
505.8759999999999
 21
736.7449999999999
 31
0.0
  0
LINE
  5
ADB
330
1E
100
AcDbEntity
  8
0
100
AcDbLine
 10
505.8759999999999
 20
736.7449999999999
 30
0.0
 11
505.8759999999999
 21
737.85626765917
 31
0.0
  0
LINE
  5
ADC
330
1E
100
AcDbEntity
  8
0
100
AcDbLine
 10
505.8759999999999
 20
736.7449999999999
 30
0.0
 11
505.8759999999999
 21
736.1289999999999
 31
0.0
  0
LINE
  5
ADD
330
1E
100
AcDbEntity
  8
0
100
AcDbLine
 10
505.8759999999999
 20
736.1289999999999
 30
0.0
 11
505.8759999999999
 21
736.7449999999999
 31
0.0
  0
LINE
  5
ADE
330
1E
100
AcDbEntity
  8
0
100
AcDbLine
 10
504.4159999999999
 20
736.1289999999999
 30
0.0
 11
504.4159999999999
 21
737.3439999999999
 31
0.0
  0
LINE
  5
ADF
330
1E
100
AcDbEntity
  8
0
100
AcDbLine
 10
504.4159999999999
 20
736.1289999999999
 30
0.0
 11
504.4159999999999
 21
736.7449999999999
 31
0.0
  0
LINE
  5
AE0
330
1E
100
AcDbEntity
  8
0
100
AcDbLine
 10
504.4159999999999
 20
736.1289999999999
 30
0.0
 11
505.8759999999999
 21
736.1289999999999
 31
0.0
  0
LINE
  5
AE1
330
1E
100
AcDbEntity
  8
0
100
AcDbLine
 10
505.8759999999999
 20
737.85626765917
 30
0.0
 11
505.8759999999999
 21
736.7449999999999
 31
0.0
  0
LINE
  5
AE2
330
1E
100
AcDbEntity
  8
0
100
AcDbLine
 10
504.4159999999999
 20
737.9382394678489
 30
0.0
 11
504.4159999999999
 21
736.7449999999999
 31
0.0
  0
LINE
  5
AE3
330
1E
100
AcDbEntity
  8
0
100
AcDbLine
 10
511.35
 20
737.3439999999999
 30
0.0
 11
511.35
 21
736.4379999999999
 31
0.0
  0
LINE
  5
AE4
330
1E
100
AcDbEntity
  8
0
100
AcDbLine
 10
511.35
 20
737.3439999999999
 30
0.0
 11
511.4819999999999
 21
737.7389999999999
 31
0.0
  0
LINE
  5
AE5
330
1E
100
AcDbEntity
  8
0
100
AcDbLine
 10
511.4819999999999
 20
736.8319999999999
 30
0.0
 11
511.8319999999999
 21
737.2029999999999
 31
0.0
  0
LINE
  5
AE6
330
1E
100
AcDbEntity
  8
0
100
AcDbLine
 10
511.4819999999999
 20
737.7389999999999
 30
0.0
 11
511.8319999999999
 21
738.1089999999999
 31
0.0
  0
LINE
  5
AE7
330
1E
100
AcDbEntity
  8
0
100
AcDbLine
 10
511.8319999999999
 20
738.1089999999999
 30
0.0
 11
512.4159999999999
 21
738.436
 31
0.0
  0
LINE
  5
AE8
330
1E
100
AcDbEntity
  8
0
100
AcDbLine
 10
511.8319999999999
 20
737.2029999999999
 30
0.0
 11
512.4159999999999
 21
737.5289999999999
 31
0.0
  0
LINE
  5
AE9
330
1E
100
AcDbEntity
  8
0
100
AcDbLine
 10
511.35
 20
736.4379999999999
 30
0.0
 11
511.4819999999999
 21
736.0419999999999
 31
0.0
  0
LINE
  5
AEA
330
1E
100
AcDbEntity
  8
0
100
AcDbLine
 10
511.35
 20
736.4379999999999
 30
0.0
 11
511.4819999999999
 21
736.8319999999999
 31
0.0
  0
LINE
  5
AEB
330
1E
100
AcDbEntity
  8
0
100
AcDbLine
 10
511.35
 20
736.4379999999999
 30
0.0
 11
511.35
 21
737.3439999999999
 31
0.0
  0
LINE
  5
AEC
330
1E
100
AcDbEntity
  8
0
100
AcDbLine
 10
511.4819999999999
 20
736.0419999999999
 30
0.0
 11
511.8319999999999
 21
735.672
 31
0.0
  0
LINE
  5
AED
330
1E
100
AcDbEntity
  8
0
100
AcDbLine
 10
512.4159999999999
 20
737.5289999999999
 30
0.0
 11
513.19
 21
737.7760000000001
 31
0.0
  0
LINE
  5
AEE
330
1E
100
AcDbEntity
  8
0
100
AcDbLine
 10
512.4159999999999
 20
738.436
 30
0.0
 11
513.19
 21
738.6829999999999
 31
0.0
  0
LINE
  5
AEF
330
1E
100
AcDbEntity
  8
0
100
AcDbLine
 10
513.19
 20
738.6829999999999
 30
0.0
 11
514.066
 21
738.831
 31
0.0
  0
LINE
  5
AF0
330
1E
100
AcDbEntity
  8
0
100
AcDbLine
 10
513.19
 20
737.7760000000001
 30
0.0
 11
514.066
 21
737.924
 31
0.0
  0
LINE
  5
AF1
330
1E
100
AcDbEntity
  8
0
100
AcDbLine
 10
511.8319999999999
 20
735.672
 30
0.0
 11
512.4159999999999
 21
735.346
 31
0.0
  0
LINE
  5
AF2
330
1E
100
AcDbEntity
  8
0
100
AcDbLine
 10
512.4159999999999
 20
735.346
 30
0.0
 11
513.19
 21
735.0989999999999
 31
0.0
  0
LINE
  5
AF3
330
1E
100
AcDbEntity
  8
0
100
AcDbLine
 10
514.066
 20
738.831
 30
0.0
 11
515.0
 21
738.8860000000001
 31
0.0
  0
LINE
  5
AF4
330
1E
100
AcDbEntity
  8
0
100
AcDbLine
 10
514.066
 20
737.924
 30
0.0
 11
515.0
 21
737.9789999999999
 31
0.0
  0
LINE
  5
AF5
330
1E
100
AcDbEntity
  8
0
100
AcDbLine
 10
513.19
 20
735.0989999999999
 30
0.0
 11
514.066
 21
734.95
 31
0.0
  0
LINE
  5
AF6
330
1E
100
AcDbEntity
  8
0
100
AcDbLine
 10
514.066
 20
734.95
 30
0.0
 11
515.0
 21
734.895
 31
0.0
  0
LINE
  5
AF7
330
1E
100
AcDbEntity
  8
0
100
AcDbLine
 10
515.0
 20
734.895
 30
0.0
 11
515.9339999999999
 21
734.95
 31
0.0
  0
LINE
  5
AF8
330
1E
100
AcDbEntity
  8
0
100
AcDbLine
 10
511.07
 20
739.931
 30
0.0
 11
511.07
 21
741.334263749745
 31
0.0
  0
LINE
  5
AF9
330
1E
100
AcDbEntity
  8
0
100
AcDbLine
 10
509.806
 20
739.6219999999999
 30
0.0
 11
511.07
 21
739.931
 31
0.0
  0
LINE
  5
AFA
330
1E
100
AcDbEntity
  8
0
100
AcDbLine
 10
510.3399999999999
 20
740.465
 30
0.0
 11
510.3399999999999
 21
742.075457779595
 31
0.0
  0
LINE
  5
AFB
330
1E
100
AcDbEntity
  8
0
100
AcDbLine
 10
510.3399999999999
 20
740.465
 30
0.0
 11
511.07
 21
739.931
 31
0.0
  0
LINE
  5
AFC
330
1E
100
AcDbEntity
  8
0
100
AcDbLine
 10
509.0759999999999
 20
740.1569999999999
 30
0.0
 11
510.3399999999999
 21
740.465
 31
0.0
  0
LINE
  5
AFD
330
1E
100
AcDbEntity
  8
0
100
AcDbLine
 10
509.0759999999999
 20
740.1569999999999
 30
0.0
 11
509.806
 21
739.6219999999999
 31
0.0
  0
LINE
  5
AFE
330
1E
100
AcDbEntity
  8
0
100
AcDbLine
 10
509.0759999999999
 20
740.1569999999999
 30
0.0
 11
509.0759999999999
 21
740.6271991728059
 31
0.0
  0
LINE
  5
AFF
330
1E
100
AcDbEntity
  8
0
100
AcDbLine
 10
515.0
 20
738.8860000000001
 30
0.0
 11
515.9339999999999
 21
738.831
 31
0.0
  0
LINE
  5
B00
330
1E
100
AcDbEntity
  8
0
100
AcDbLine
 10
515.0
 20
737.9789999999999
 30
0.0
 11
515.9339999999999
 21
737.924
 31
0.0
  0
LINE
  5
B01
330
1E
100
AcDbEntity
  8
0
100
AcDbLine
 10
503.613
 20
719.9689999999999
 30
0.0
 11
507.84493401558
 21
719.540336029678
 31
0.0
  0
LINE
  5
B02
330
1E
100
AcDbEntity
  8
0
100
AcDbLine
 10
509.7929999999999
 20
719.4142699871049
 30
0.0
 11
515.0
 21
719.2589999999999
 31
0.0
  0
LINE
  5
B03
330
1E
100
AcDbEntity
  8
0
100
AcDbLine
 10
502.591
 20
719.0739999999999
 30
0.0
 11
508.65
 21
718.5499999999999
 31
0.0
  0
LINE
  5
B04
330
1E
100
AcDbEntity
  8
0
100
AcDbLine
 10
508.65
 20
718.5499999999999
 30
0.0
 11
515.0
 21
718.3339999999999
 31
0.0
  0
LINE
  5
B05
330
1E
100
AcDbEntity
  8
0
100
AcDbLine
 10
470.758
 20
742.71
 30
0.0
 11
470.758
 21
743.785
 31
0.0
  0
LINE
  5
B06
330
1E
100
AcDbEntity
  8
0
100
AcDbLine
 10
470.758
 20
742.71
 30
0.0
 11
470.758
 21
742.0930000000001
 31
0.0
  0
LINE
  5
B07
330
1E
100
AcDbEntity
  8
0
100
AcDbLine
 10
470.758
 20
742.71
 30
0.0
 11
472.218
 21
742.71
 31
0.0
  0
LINE
  5
B08
330
1E
100
AcDbEntity
  8
0
100
AcDbLine
 10
470.758
 20
743.785
 30
0.0
 11
470.758
 21
742.0930000000001
 31
0.0
  0
LINE
  5
B09
330
1E
100
AcDbEntity
  8
0
100
AcDbLine
 10
470.758
 20
743.785
 30
0.0
 11
470.758
 21
742.71
 31
0.0
  0
LINE
  5
B0A
330
1E
100
AcDbEntity
  8
0
100
AcDbLine
 10
481.1399999999999
 20
741.571
 30
0.0
 11
481.1399999999999
 21
742.1879999999999
 31
0.0
  0
LINE
  5
B0B
330
1E
100
AcDbEntity
  8
0
100
AcDbLine
 10
479.68
 20
742.1879999999999
 30
0.0
 11
479.68
 21
742.376263157895
 31
0.0
  0
LINE
  5
B0C
330
1E
100
AcDbEntity
  8
0
100
AcDbLine
 10
479.68
 20
742.1879999999999
 30
0.0
 11
479.68
 21
741.571
 31
0.0
  0
LINE
  5
B0D
330
1E
100
AcDbEntity
  8
0
100
AcDbLine
 10
479.68
 20
742.1879999999999
 30
0.0
 11
481.1399999999999
 21
742.1879999999999
 31
0.0
  0
LINE
  5
B0E
330
1E
100
AcDbEntity
  8
0
100
AcDbLine
 10
481.1399999999999
 20
742.1879999999999
 30
0.0
 11
481.1399999999999
 21
741.571
 31
0.0
  0
LINE
  5
B0F
330
1E
100
AcDbEntity
  8
0
100
AcDbLine
 10
479.68
 20
742.376263157895
 30
0.0
 11
479.68
 21
741.571
 31
0.0
  0
LINE
  5
B10
330
1E
100
AcDbEntity
  8
0
100
AcDbLine
 10
479.68
 20
742.376263157895
 30
0.0
 11
479.68
 21
742.1879999999999
 31
0.0
  0
LINE
  5
B11
330
1E
100
AcDbEntity
  8
0
100
AcDbLine
 10
479.68
 20
741.571
 30
0.0
 11
479.68
 21
742.1879999999999
 31
0.0
  0
LINE
  5
B12
330
1E
100
AcDbEntity
  8
0
100
AcDbLine
 10
479.68
 20
741.571
 30
0.0
 11
479.68
 21
742.376263157895
 31
0.0
  0
LINE
  5
B13
330
1E
100
AcDbEntity
  8
0
100
AcDbLine
 10
479.68
 20
741.571
 30
0.0
 11
481.1399999999999
 21
741.571
 31
0.0
  0
LINE
  5
B14
330
1E
100
AcDbEntity
  8
0
100
AcDbLine
 10
472.218
 20
742.0930000000001
 30
0.0
 11
472.218
 21
742.71
 31
0.0
  0
LINE
  5
B15
330
1E
100
AcDbEntity
  8
0
100
AcDbLine
 10
472.218
 20
743.554473684211
 30
0.0
 11
472.218
 21
742.71
 31
0.0
  0
LINE
  5
B16
330
1E
100
AcDbEntity
  8
0
100
AcDbLine
 10
472.218
 20
742.71
 30
0.0
 11
472.218
 21
742.0930000000001
 31
0.0
  0
LINE
  5
B17
330
1E
100
AcDbEntity
  8
0
100
AcDbLine
 10
472.218
 20
742.71
 30
0.0
 11
472.218
 21
743.554473684211
 31
0.0
  0
LINE
  5
B18
330
1E
100
AcDbEntity
  8
0
100
AcDbLine
 10
470.758
 20
742.0930000000001
 30
0.0
 11
470.758
 21
742.71
 31
0.0
  0
LINE
  5
B19
330
1E
100
AcDbEntity
  8
0
100
AcDbLine
 10
470.758
 20
742.0930000000001
 30
0.0
 11
470.758
 21
743.785
 31
0.0
  0
LINE
  5
B1A
330
1E
100
AcDbEntity
  8
0
100
AcDbLine
 10
470.758
 20
742.0930000000001
 30
0.0
 11
472.218
 21
742.0930000000001
 31
0.0
  0
LINE
  5
B1B
330
1E
100
AcDbEntity
  8
0
100
AcDbLine
 10
469.599
 20
743.968
 30
0.0
 11
471.569
 21
746.745
 31
0.0
  0
LINE
  5
B1C
330
1E
100
AcDbEntity
  8
0
100
AcDbLine
 10
468.358
 20
741.778
 30
0.0
 11
469.599
 21
743.968
 31
0.0
  0
LINE
  5
B1D
330
1E
100
AcDbEntity
  8
0
100
AcDbLine
 10
467.4819999999999
 20
744.3999999999999
 30
0.0
 11
469.599
 21
747.115
 31
0.0
  0
LINE
  5
B1E
330
1E
100
AcDbEntity
  8
0
100
AcDbLine
 10
466.241
 20
741.84
 30
0.0
 11
467.4819999999999
 21
744.3999999999999
 31
0.0
  0
LINE
  5
B1F
330
1E
100
AcDbEntity
  8
0
100
AcDbLine
 10
484.1409999999999
 20
745.9156167386249
 30
0.0
 11
484.1409999999999
 21
745.653
 31
0.0
  0
LINE
  5
B20
330
1E
100
AcDbEntity
  8
0
100
AcDbLine
 10
484.1409999999999
 20
745.653
 30
0.0
 11
484.1409999999999
 21
746.2699999999999
 31
0.0
  0
LINE
  5
B21
330
1E
100
AcDbEntity
  8
0
100
AcDbLine
 10
484.1409999999999
 20
745.653
 30
0.0
 11
484.1409999999999
 21
745.9156167386249
 31
0.0
  0
LINE
  5
B22
330
1E
100
AcDbEntity
  8
0
100
AcDbLine
 10
484.1409999999999
 20
745.653
 30
0.0
 11
485.601
 21
745.653
 31
0.0
  0
LINE
  5
B23
330
1E
100
AcDbEntity
  8
0
100
AcDbLine
 10
475.544
 20
746.176
 30
0.0
 11
475.544
 21
746.7929999999999
 31
0.0
  0
LINE
  5
B24
330
1E
100
AcDbEntity
  8
0
100
AcDbLine
 10
474.084
 20
746.7929999999999
 30
0.0
 11
474.084
 21
746.176
 31
0.0
  0
LINE
  5
B25
330
1E
100
AcDbEntity
  8
0
100
AcDbLine
 10
474.084
 20
746.7929999999999
 30
0.0
 11
475.544
 21
746.7929999999999
 31
0.0
  0
LINE
  5
B26
330
1E
100
AcDbEntity
  8
0
100
AcDbLine
 10
484.1409999999999
 20
746.2699999999999
 30
0.0
 11
484.1409999999999
 21
747.508828032494
 31
0.0
  0
LINE
  5
B27
330
1E
100
AcDbEntity
  8
0
100
AcDbLine
 10
484.1409999999999
 20
746.2699999999999
 30
0.0
 11
484.1409999999999
 21
745.653
 31
0.0
  0
LINE
  5
B28
330
1E
100
AcDbEntity
  8
0
100
AcDbLine
 10
484.1409999999999
 20
746.2699999999999
 30
0.0
 11
485.601
 21
746.2699999999999
 31
0.0
  0
LINE
  5
B29
330
1E
100
AcDbEntity
  8
0
100
AcDbLine
 10
475.544
 20
746.7929999999999
 30
0.0
 11
475.544
 21
746.176
 31
0.0
  0
LINE
  5
B2A
330
1E
100
AcDbEntity
  8
0
100
AcDbLine
 10
474.084
 20
746.489077494547
 30
0.0
 11
474.084
 21
746.176
 31
0.0
  0
LINE
  5
B2B
330
1E
100
AcDbEntity
  8
0
100
AcDbLine
 10
474.084
 20
746.176
 30
0.0
 11
474.084
 21
746.7929999999999
 31
0.0
  0
LINE
  5
B2C
330
1E
100
AcDbEntity
  8
0
100
AcDbLine
 10
474.084
 20
746.176
 30
0.0
 11
474.084
 21
746.489077494547
 31
0.0
  0
LINE
  5
B2D
330
1E
100
AcDbEntity
  8
0
100
AcDbLine
 10
474.084
 20
746.176
 30
0.0
 11
475.544
 21
746.176
 31
0.0
  0
LINE
  5
B2E
330
1E
100
AcDbEntity
  8
0
100
AcDbLine
 10
471.569
 20
746.745
 30
0.0
 11
474.1969999999999
 21
749.058
 31
0.0
  0
LINE
  5
B2F
330
1E
100
AcDbEntity
  8
0
100
AcDbLine
 10
484.1409999999999
 20
747.508828032494
 30
0.0
 11
484.1409999999999
 21
746.2699999999999
 31
0.0
  0
LINE
  5
B30
330
1E
100
AcDbEntity
  8
0
100
AcDbLine
 10
474.1969999999999
 20
749.058
 30
0.0
 11
477.7009999999999
 21
751.248
 31
0.0
  0
LINE
  5
B31
330
1E
100
AcDbEntity
  8
0
100
AcDbLine
 10
469.599
 20
747.115
 30
0.0
 11
472.299
 21
749.5210000000001
 31
0.0
  0
LINE
  5
B32
330
1E
100
AcDbEntity
  8
0
100
AcDbLine
 10
468.869
 20
748.1449999999999
 30
0.0
 11
471.715
 21
750.5819999999999
 31
0.0
  0
LINE
  5
B33
330
1E
100
AcDbEntity
  8
0
100
AcDbLine
 10
466.8249999999999
 20
745.5219999999999
 30
0.0
 11
468.869
 21
748.1449999999999
 31
0.0
  0
LINE
  5
B34
330
1E
100
AcDbEntity
  8
0
100
AcDbLine
 10
465.5109999999999
 20
742.7769999999999
 30
0.0
 11
466.8249999999999
 21
745.5219999999999
 31
0.0
  0
LINE
  5
B35
330
1E
100
AcDbEntity
  8
0
100
AcDbLine
 10
471.715
 20
750.5819999999999
 30
0.0
 11
475.365
 21
752.895
 31
0.0
  0
LINE
  5
B36
330
1E
100
AcDbEntity
  8
0
100
AcDbLine
 10
465.0
 20
759.095
 30
0.0
 11
465.5109999999999
 21
761.8099999999999
 31
0.0
  0
LINE
  5
B37
330
1E
100
AcDbEntity
  8
0
100
AcDbLine
 10
465.0
 20
759.095
 30
0.0
 11
465.0
 21
740.0629999999999
 31
0.0
  0
LINE
  5
B38
330
1E
100
AcDbEntity
  8
0
100
AcDbLine
 10
480.33
 20
749.6069999999999
 30
0.0
 11
480.33
 21
750.2239999999999
 31
0.0
  0
LINE
  5
B39
330
1E
100
AcDbEntity
  8
0
100
AcDbLine
 10
478.87
 20
750.9870233631379
 30
0.0
 11
478.87
 21
750.2239999999999
 31
0.0
  0
LINE
  5
B3A
330
1E
100
AcDbEntity
  8
0
100
AcDbLine
 10
478.87
 20
750.2239999999999
 30
0.0
 11
478.87
 21
750.9870233631379
 31
0.0
  0
LINE
  5
B3B
330
1E
100
AcDbEntity
  8
0
100
AcDbLine
 10
478.87
 20
750.2239999999999
 30
0.0
 11
478.87
 21
749.6069999999999
 31
0.0
  0
LINE
  5
B3C
330
1E
100
AcDbEntity
  8
0
100
AcDbLine
 10
478.87
 20
750.2239999999999
 30
0.0
 11
480.33
 21
750.2239999999999
 31
0.0
  0
LINE
  5
B3D
330
1E
100
AcDbEntity
  8
0
100
AcDbLine
 10
480.33
 20
750.6610816267669
 30
0.0
 11
480.33
 21
750.2239999999999
 31
0.0
  0
LINE
  5
B3E
330
1E
100
AcDbEntity
  8
0
100
AcDbLine
 10
480.33
 20
750.2239999999999
 30
0.0
 11
480.33
 21
749.6069999999999
 31
0.0
  0
LINE
  5
B3F
330
1E
100
AcDbEntity
  8
0
100
AcDbLine
 10
480.33
 20
750.2239999999999
 30
0.0
 11
480.33
 21
750.6610816267669
 31
0.0
  0
LINE
  5
B40
330
1E
100
AcDbEntity
  8
0
100
AcDbLine
 10
478.87
 20
750.775712121212
 30
0.0
 11
478.87
 21
749.6069999999999
 31
0.0
  0
LINE
  5
B41
330
1E
100
AcDbEntity
  8
0
100
AcDbLine
 10
478.87
 20
749.6069999999999
 30
0.0
 11
478.87
 21
750.2239999999999
 31
0.0
  0
LINE
  5
B42
330
1E
100
AcDbEntity
  8
0
100
AcDbLine
 10
478.87
 20
749.6069999999999
 30
0.0
 11
478.87
 21
750.775712121212
 31
0.0
  0
LINE
  5
B43
330
1E
100
AcDbEntity
  8
0
100
AcDbLine
 10
478.87
 20
749.6069999999999
 30
0.0
 11
480.33
 21
749.6069999999999
 31
0.0
  0
LINE
  5
B44
330
1E
100
AcDbEntity
  8
0
100
AcDbLine
 10
477.7009999999999
 20
751.248
 30
0.0
 11
481.788
 21
753.192
 31
0.0
  0
LINE
  5
B45
330
1E
100
AcDbEntity
  8
0
100
AcDbLine
 10
475.949
 20
751.804
 30
0.0
 11
480.183
 21
753.87
 31
0.0
  0
LINE
  5
B46
330
1E
100
AcDbEntity
  8
0
100
AcDbLine
 10
472.299
 20
749.5210000000001
 30
0.0
 11
475.949
 21
751.804
 31
0.0
  0
LINE
  5
B47
330
1E
100
AcDbEntity
  8
0
100
AcDbLine
 10
481.788
 20
753.192
 30
0.0
 11
486.3869999999999
 21
754.919
 31
0.0
  0
LINE
  5
B48
330
1E
100
AcDbEntity
  8
0
100
AcDbLine
 10
480.183
 20
753.87
 30
0.0
 11
485.073
 21
755.6599999999999
 31
0.0
  0
LINE
  5
B49
330
1E
100
AcDbEntity
  8
0
100
AcDbLine
 10
479.6719999999999
 20
754.993
 30
0.0
 11
484.635
 21
756.813
 31
0.0
  0
LINE
  5
B4A
330
1E
100
AcDbEntity
  8
0
100
AcDbLine
 10
485.073
 20
755.6599999999999
 30
0.0
 11
490.4749999999999
 21
757.202
 31
0.0
  0
LINE
  5
B4B
330
1E
100
AcDbEntity
  8
0
100
AcDbLine
 10
484.635
 20
756.813
 30
0.0
 11
490.109
 21
758.355
 31
0.0
  0
LINE
  5
B4C
330
1E
100
AcDbEntity
  8
0
100
AcDbLine
 10
475.365
 20
752.895
 30
0.0
 11
479.6719999999999
 21
754.993
 31
0.0
  0
LINE
  5
B4D
330
1E
100
AcDbEntity
  8
0
100
AcDbLine
 10
489.088
 20
742.561077492727
 30
0.0
 11
489.088
 21
741.426
 31
0.0
  0
LINE
  5
B4E
330
1E
100
AcDbEntity
  8
0
100
AcDbLine
 10
489.088
 20
741.426
 30
0.0
 11
489.088
 21
742.561077492727
 31
0.0
  0
LINE
  5
B4F
330
1E
100
AcDbEntity
  8
0
100
AcDbLine
 10
489.088
 20
741.426
 30
0.0
 11
489.088
 21
740.8089999999999
 31
0.0
  0
LINE
  5
B50
330
1E
100
AcDbEntity
  8
0
100
AcDbLine
 10
489.088
 20
741.426
 30
0.0
 11
490.5479999999999
 21
741.426
 31
0.0
  0
LINE
  5
B51
330
1E
100
AcDbEntity
  8
0
100
AcDbLine
 10
489.088
 20
741.11894145476
 30
0.0
 11
489.088
 21
740.8089999999999
 31
0.0
  0
LINE
  5
B52
330
1E
100
AcDbEntity
  8
0
100
AcDbLine
 10
489.088
 20
740.8089999999999
 30
0.0
 11
489.088
 21
741.426
 31
0.0
  0
LINE
  5
B53
330
1E
100
AcDbEntity
  8
0
100
AcDbLine
 10
489.088
 20
740.8089999999999
 30
0.0
 11
489.088
 21
741.11894145476
 31
0.0
  0
LINE
  5
B54
330
1E
100
AcDbEntity
  8
0
100
AcDbLine
 10
489.088
 20
740.8089999999999
 30
0.0
 11
490.5479999999999
 21
740.8089999999999
 31
0.0
  0
LINE
  5
B55
330
1E
100
AcDbEntity
  8
0
100
AcDbLine
 10
500.2799999999999
 20
740.596
 30
0.0
 11
500.2799999999999
 21
741.2130000000001
 31
0.0
  0
LINE
  5
B56
330
1E
100
AcDbEntity
  8
0
100
AcDbLine
 10
490.5479999999999
 20
740.8089999999999
 30
0.0
 11
490.5479999999999
 21
741.426
 31
0.0
  0
LINE
  5
B57
330
1E
100
AcDbEntity
  8
0
100
AcDbLine
 10
490.5479999999999
 20
741.426
 30
0.0
 11
490.5479999999999
 21
740.8089999999999
 31
0.0
  0
LINE
  5
B58
330
1E
100
AcDbEntity
  8
0
100
AcDbLine
 10
490.5479999999999
 20
741.426
 30
0.0
 11
490.5479999999999
 21
742.2361782597199
 31
0.0
  0
LINE
  5
B59
330
1E
100
AcDbEntity
  8
0
100
AcDbLine
 10
490.5479999999999
 20
742.2361782597199
 30
0.0
 11
490.5479999999999
 21
741.426
 31
0.0
  0
LINE
  5
B5A
330
1E
100
AcDbEntity
  8
0
100
AcDbLine
 10
498.8199999999999
 20
742.1168804061681
 30
0.0
 11
498.8199999999999
 21
741.2130000000001
 31
0.0
  0
LINE
  5
B5B
330
1E
100
AcDbEntity
  8
0
100
AcDbLine
 10
498.8199999999999
 20
741.2130000000001
 30
0.0
 11
498.8199999999999
 21
742.1168804061681
 31
0.0
  0
LINE
  5
B5C
330
1E
100
AcDbEntity
  8
0
100
AcDbLine
 10
498.8199999999999
 20
741.2130000000001
 30
0.0
 11
498.8199999999999
 21
740.596
 31
0.0
  0
LINE
  5
B5D
330
1E
100
AcDbEntity
  8
0
100
AcDbLine
 10
498.8199999999999
 20
741.2130000000001
 30
0.0
 11
500.2799999999999
 21
741.2130000000001
 31
0.0
  0
LINE
  5
B5E
330
1E
100
AcDbEntity
  8
0
100
AcDbLine
 10
509.0759999999999
 20
740.6271991728059
 30
0.0
 11
509.0759999999999
 21
740.1569999999999
 31
0.0
  0
LINE
  5
B5F
330
1E
100
AcDbEntity
  8
0
100
AcDbLine
 10
505.426
 20
743.2819999999999
 30
0.0
 11
506.691
 21
743.59
 31
0.0
  0
LINE
  5
B60
330
1E
100
AcDbEntity
  8
0
100
AcDbLine
 10
510.3399999999999
 20
742.075457779595
 30
0.0
 11
510.3399999999999
 21
740.465
 31
0.0
  0
LINE
  5
B61
330
1E
100
AcDbEntity
  8
0
100
AcDbLine
 10
511.07
 20
741.334263749745
 30
0.0
 11
511.07
 21
739.931
 31
0.0
  0
LINE
  5
B62
330
1E
100
AcDbEntity
  8
0
100
AcDbLine
 10
500.2799999999999
 20
741.7529981733199
 30
0.0
 11
500.2799999999999
 21
741.2130000000001
 31
0.0
  0
LINE
  5
B63
330
1E
100
AcDbEntity
  8
0
100
AcDbLine
 10
500.2799999999999
 20
741.2130000000001
 30
0.0
 11
500.2799999999999
 21
740.596
 31
0.0
  0
LINE
  5
B64
330
1E
100
AcDbEntity
  8
0
100
AcDbLine
 10
500.2799999999999
 20
741.2130000000001
 30
0.0
 11
500.2799999999999
 21
741.7529981733199
 31
0.0
  0
LINE
  5
B65
330
1E
100
AcDbEntity
  8
0
100
AcDbLine
 10
498.8199999999999
 20
741.531851902174
 30
0.0
 11
498.8199999999999
 21
740.596
 31
0.0
  0
LINE
  5
B66
330
1E
100
AcDbEntity
  8
0
100
AcDbLine
 10
498.8199999999999
 20
740.596
 30
0.0
 11
498.8199999999999
 21
741.2130000000001
 31
0.0
  0
LINE
  5
B67
330
1E
100
AcDbEntity
  8
0
100
AcDbLine
 10
498.8199999999999
 20
740.596
 30
0.0
 11
498.8199999999999
 21
741.531851902174
 31
0.0
  0
LINE
  5
B68
330
1E
100
AcDbEntity
  8
0
100
AcDbLine
 10
498.8199999999999
 20
740.596
 30
0.0
 11
500.2799999999999
 21
740.596
 31
0.0
  0
LINE
  5
B69
330
1E
100
AcDbEntity
  8
0
100
AcDbLine
 10
485.278
 20
753.071
 30
0.0
 11
485.278
 21
754.502552293977
 31
0.0
  0
LINE
  5
B6A
330
1E
100
AcDbEntity
  8
0
100
AcDbLine
 10
485.278
 20
753.071
 30
0.0
 11
485.278
 21
752.454
 31
0.0
  0
LINE
  5
B6B
330
1E
100
AcDbEntity
  8
0
100
AcDbLine
 10
485.278
 20
753.071
 30
0.0
 11
486.738
 21
753.071
 31
0.0
  0
LINE
  5
B6C
330
1E
100
AcDbEntity
  8
0
100
AcDbLine
 10
485.278
 20
752.454
 30
0.0
 11
485.278
 21
753.071
 31
0.0
  0
LINE
  5
B6D
330
1E
100
AcDbEntity
  8
0
100
AcDbLine
 10
485.278
 20
752.454
 30
0.0
 11
486.738
 21
752.454
 31
0.0
  0
LINE
  5
B6E
330
1E
100
AcDbEntity
  8
0
100
AcDbLine
 10
485.601
 20
745.653
 30
0.0
 11
485.601
 21
746.2699999999999
 31
0.0
  0
LINE
  5
B6F
330
1E
100
AcDbEntity
  8
0
100
AcDbLine
 10
485.601
 20
747.2813751893158
 30
0.0
 11
485.601
 21
746.2699999999999
 31
0.0
  0
LINE
  5
B70
330
1E
100
AcDbEntity
  8
0
100
AcDbLine
 10
485.601
 20
746.2699999999999
 30
0.0
 11
485.601
 21
745.653
 31
0.0
  0
LINE
  5
B71
330
1E
100
AcDbEntity
  8
0
100
AcDbLine
 10
485.601
 20
746.2699999999999
 30
0.0
 11
485.601
 21
747.2813751893158
 31
0.0
  0
LINE
  5
B72
330
1E
100
AcDbEntity
  8
0
100
AcDbLine
 10
489.495
 20
749.0839999999999
 30
0.0
 11
489.495
 21
749.220700541867
 31
0.0
  0
LINE
  5
B73
330
1E
100
AcDbEntity
  8
0
100
AcDbLine
 10
489.495
 20
749.0839999999999
 30
0.0
 11
489.495
 21
748.467
 31
0.0
  0
LINE
  5
B74
330
1E
100
AcDbEntity
  8
0
100
AcDbLine
 10
489.495
 20
749.0839999999999
 30
0.0
 11
490.955
 21
749.0839999999999
 31
0.0
  0
LINE
  5
B75
330
1E
100
AcDbEntity
  8
0
100
AcDbLine
 10
489.495
 20
749.220700541867
 30
0.0
 11
489.495
 21
748.467
 31
0.0
  0
LINE
  5
B76
330
1E
100
AcDbEntity
  8
0
100
AcDbLine
 10
489.495
 20
749.220700541867
 30
0.0
 11
489.495
 21
749.0839999999999
 31
0.0
  0
LINE
  5
B77
330
1E
100
AcDbEntity
  8
0
100
AcDbLine
 10
489.495
 20
748.467
 30
0.0
 11
489.495
 21
749.0839999999999
 31
0.0
  0
LINE
  5
B78
330
1E
100
AcDbEntity
  8
0
100
AcDbLine
 10
489.495
 20
748.467
 30
0.0
 11
489.495
 21
749.220700541867
 31
0.0
  0
LINE
  5
B79
330
1E
100
AcDbEntity
  8
0
100
AcDbLine
 10
489.495
 20
748.467
 30
0.0
 11
490.955
 21
748.467
 31
0.0
  0
LINE
  5
B7A
330
1E
100
AcDbEntity
  8
0
100
AcDbLine
 10
486.738
 20
752.454
 30
0.0
 11
486.738
 21
753.071
 31
0.0
  0
LINE
  5
B7B
330
1E
100
AcDbEntity
  8
0
100
AcDbLine
 10
486.738
 20
754.6863380986419
 30
0.0
 11
486.738
 21
753.071
 31
0.0
  0
LINE
  5
B7C
330
1E
100
AcDbEntity
  8
0
100
AcDbLine
 10
486.738
 20
753.071
 30
0.0
 11
486.738
 21
752.454
 31
0.0
  0
LINE
  5
B7D
330
1E
100
AcDbEntity
  8
0
100
AcDbLine
 10
486.738
 20
753.071
 30
0.0
 11
486.738
 21
754.6863380986419
 31
0.0
  0
LINE
  5
B7E
330
1E
100
AcDbEntity
  8
0
100
AcDbLine
 10
485.278
 20
754.502552293977
 30
0.0
 11
485.278
 21
753.071
 31
0.0
  0
LINE
  5
B7F
330
1E
100
AcDbEntity
  8
0
100
AcDbLine
 10
486.3869999999999
 20
754.919
 30
0.0
 11
491.569
 21
756.4
 31
0.0
  0
LINE
  5
B80
330
1E
100
AcDbEntity
  8
0
100
AcDbLine
 10
490.955
 20
748.467
 30
0.0
 11
490.955
 21
749.0839999999999
 31
0.0
  0
LINE
  5
B81
330
1E
100
AcDbEntity
  8
0
100
AcDbLine
 10
490.955
 20
750.4848670053109
 30
0.0
 11
490.955
 21
749.0839999999999
 31
0.0
  0
LINE
  5
B82
330
1E
100
AcDbEntity
  8
0
100
AcDbLine
 10
490.955
 20
749.0839999999999
 30
0.0
 11
490.955
 21
748.467
 31
0.0
  0
LINE
  5
B83
330
1E
100
AcDbEntity
  8
0
100
AcDbLine
 10
490.955
 20
749.0839999999999
 30
0.0
 11
490.955
 21
750.4848670053109
 31
0.0
  0
LINE
  5
B84
330
1E
100
AcDbEntity
  8
0
100
AcDbLine
 10
494.3599999999999
 20
745.2339999999999
 30
0.0
 11
494.3599999999999
 21
744.6169999999999
 31
0.0
  0
LINE
  5
B85
330
1E
100
AcDbEntity
  8
0
100
AcDbLine
 10
494.3599999999999
 20
745.2339999999999
 30
0.0
 11
495.8199999999999
 21
745.2339999999999
 31
0.0
  0
LINE
  5
B86
330
1E
100
AcDbEntity
  8
0
100
AcDbLine
 10
494.3599999999999
 20
744.9539595959599
 30
0.0
 11
494.3599999999999
 21
744.6169999999999
 31
0.0
  0
LINE
  5
B87
330
1E
100
AcDbEntity
  8
0
100
AcDbLine
 10
494.3599999999999
 20
744.6169999999999
 30
0.0
 11
494.3599999999999
 21
745.2339999999999
 31
0.0
  0
LINE
  5
B88
330
1E
100
AcDbEntity
  8
0
100
AcDbLine
 10
494.3599999999999
 20
744.6169999999999
 30
0.0
 11
494.3599999999999
 21
744.9539595959599
 31
0.0
  0
LINE
  5
B89
330
1E
100
AcDbEntity
  8
0
100
AcDbLine
 10
494.3599999999999
 20
744.6169999999999
 30
0.0
 11
495.8199999999999
 21
744.6169999999999
 31
0.0
  0
LINE
  5
B8A
330
1E
100
AcDbEntity
  8
0
100
AcDbLine
 10
493.5519999999999
 20
754.567
 30
0.0
 11
493.5519999999999
 21
755.4401023299159
 31
0.0
  0
LINE
  5
B8B
330
1E
100
AcDbEntity
  8
0
100
AcDbLine
 10
492.288
 20
754.258
 30
0.0
 11
493.5519999999999
 21
754.567
 31
0.0
  0
LINE
  5
B8C
330
1E
100
AcDbEntity
  8
0
100
AcDbLine
 10
492.8219999999999
 20
755.793468592731
 30
0.0
 11
492.8219999999999
 21
755.1010000000001
 31
0.0
  0
LINE
  5
B8D
330
1E
100
AcDbEntity
  8
0
100
AcDbLine
 10
493.5519999999999
 20
755.4401023299159
 30
0.0
 11
493.5519999999999
 21
754.567
 31
0.0
  0
LINE
  5
B8E
330
1E
100
AcDbEntity
  8
0
100
AcDbLine
 10
492.8219999999999
 20
755.1010000000001
 30
0.0
 11
492.8219999999999
 21
755.793468592731
 31
0.0
  0
LINE
  5
B8F
330
1E
100
AcDbEntity
  8
0
100
AcDbLine
 10
492.8219999999999
 20
755.1010000000001
 30
0.0
 11
493.5519999999999
 21
754.567
 31
0.0
  0
LINE
  5
B90
330
1E
100
AcDbEntity
  8
0
100
AcDbLine
 10
491.558
 20
756.3968562331149
 30
0.0
 11
491.558
 21
754.7919999999999
 31
0.0
  0
LINE
  5
B91
330
1E
100
AcDbEntity
  8
0
100
AcDbLine
 10
491.558
 20
754.7919999999999
 30
0.0
 11
492.8219999999999
 21
755.1010000000001
 31
0.0
  0
LINE
  5
B92
330
1E
100
AcDbEntity
  8
0
100
AcDbLine
 10
491.558
 20
754.7919999999999
 30
0.0
 11
492.288
 21
754.258
 31
0.0
  0
LINE
  5
B93
330
1E
100
AcDbEntity
  8
0
100
AcDbLine
 10
491.558
 20
754.7919999999999
 30
0.0
 11
491.558
 21
756.3968562331149
 31
0.0
  0
LINE
  5
B94
330
1E
100
AcDbEntity
  8
0
100
AcDbLine
 10
495.8199999999999
 20
744.6169999999999
 30
0.0
 11
495.8199999999999
 21
745.2339999999999
 31
0.0
  0
LINE
  5
B95
330
1E
100
AcDbEntity
  8
0
100
AcDbLine
 10
495.8199999999999
 20
746.0876931154379
 30
0.0
 11
495.8199999999999
 21
745.2339999999999
 31
0.0
  0
LINE
  5
B96
330
1E
100
AcDbEntity
  8
0
100
AcDbLine
 10
495.8199999999999
 20
745.2339999999999
 30
0.0
 11
495.8199999999999
 21
744.6169999999999
 31
0.0
  0
LINE
  5
B97
330
1E
100
AcDbEntity
  8
0
100
AcDbLine
 10
495.8199999999999
 20
745.2339999999999
 30
0.0
 11
495.8199999999999
 21
746.0876931154379
 31
0.0
  0
LINE
  5
B98
330
1E
100
AcDbEntity
  8
0
100
AcDbLine
 10
491.569
 20
756.4
 30
0.0
 11
497.044
 21
757.5110000000001
 31
0.0
  0
LINE
  5
B99
330
1E
100
AcDbEntity
  8
0
100
AcDbLine
 10
490.4749999999999
 20
757.202
 30
0.0
 11
496.168
 21
758.343
 31
0.0
  0
LINE
  5
B9A
330
1E
100
AcDbEntity
  8
0
100
AcDbLine
 10
490.109
 20
758.355
 30
0.0
 11
495.8759999999999
 21
759.5579999999999
 31
0.0
  0
LINE
  5
B9B
330
1E
100
AcDbEntity
  8
0
100
AcDbLine
 10
496.6669999999999
 20
750.5989999999999
 30
0.0
 11
497.9309999999999
 21
750.9069999999999
 31
0.0
  0
LINE
  5
B9C
330
1E
100
AcDbEntity
  8
0
100
AcDbLine
 10
495.9369999999999
 20
751.3389393889069
 30
0.0
 11
495.9369999999999
 21
751.1339999999998
 31
0.0
  0
LINE
  5
B9D
330
1E
100
AcDbEntity
  8
0
100
AcDbLine
 10
495.9369999999999
 20
751.1339999999998
 30
0.0
 11
497.2019999999999
 21
751.442
 31
0.0
  0
LINE
  5
B9E
330
1E
100
AcDbEntity
  8
0
100
AcDbLine
 10
495.9369999999999
 20
751.1339999999998
 30
0.0
 11
496.6669999999999
 21
750.5989999999999
 31
0.0
  0
LINE
  5
B9F
330
1E
100
AcDbEntity
  8
0
100
AcDbLine
 10
495.9369999999999
 20
751.1339999999998
 30
0.0
 11
495.9369999999999
 21
751.3389393889069
 31
0.0
  0
LINE
  5
BA0
330
1E
100
AcDbEntity
  8
0
100
AcDbLine
 10
500.3169999999999
 20
748.8588789509739
 30
0.0
 11
500.3169999999999
 21
747.475
 31
0.0
  0
LINE
  5
BA1
330
1E
100
AcDbEntity
  8
0
100
AcDbLine
 10
502.3109999999999
 20
747.2489999999999
 30
0.0
 11
502.3109999999999
 21
747.7147792430209
 31
0.0
  0
LINE
  5
BA2
330
1E
100
AcDbEntity
  8
0
100
AcDbLine
 10
502.3109999999999
 20
747.7147792430209
 30
0.0
 11
502.3109999999999
 21
747.2489999999999
 31
0.0
  0
LINE
  5
BA3
330
1E
100
AcDbEntity
  8
0
100
AcDbLine
 10
501.0469999999999
 20
746.941
 30
0.0
 11
502.3109999999999
 21
747.2489999999999
 31
0.0
  0
LINE
  5
BA4
330
1E
100
AcDbEntity
  8
0
100
AcDbLine
 10
501.581
 20
748.2207408802879
 30
0.0
 11
501.581
 21
747.7829999999999
 31
0.0
  0
LINE
  5
BA5
330
1E
100
AcDbEntity
  8
0
100
AcDbLine
 10
501.581
 20
747.7829999999999
 30
0.0
 11
501.581
 21
748.2207408802879
 31
0.0
  0
LINE
  5
BA6
330
1E
100
AcDbEntity
  8
0
100
AcDbLine
 10
501.581
 20
747.7829999999999
 30
0.0
 11
502.3109999999999
 21
747.2489999999999
 31
0.0
  0
LINE
  5
BA7
330
1E
100
AcDbEntity
  8
0
100
AcDbLine
 10
500.3169999999999
 20
747.475
 30
0.0
 11
501.581
 21
747.7829999999999
 31
0.0
  0
LINE
  5
BA8
330
1E
100
AcDbEntity
  8
0
100
AcDbLine
 10
500.3169999999999
 20
747.475
 30
0.0
 11
501.0469999999999
 21
746.941
 31
0.0
  0
LINE
  5
BA9
330
1E
100
AcDbEntity
  8
0
100
AcDbLine
 10
500.3169999999999
 20
747.475
 30
0.0
 11
500.3169999999999
 21
748.8588789509739
 31
0.0
  0
LINE
  5
BAA
330
1E
100
AcDbEntity
  8
0
100
AcDbLine
 10
498.7589999999999
 20
756.4693597068821
 30
0.0
 11
498.7589999999999
 21
756.0039999999998
 31
0.0
  0
LINE
  5
BAB
330
1E
100
AcDbEntity
  8
0
100
AcDbLine
 10
498.7589999999999
 20
756.0039999999998
 30
0.0
 11
500.023
 21
755.696
 31
0.0
  0
LINE
  5
BAC
330
1E
100
AcDbEntity
  8
0
100
AcDbLine
 10
498.7589999999999
 20
756.0039999999998
 30
0.0
 11
499.489
 21
756.5389999999999
 31
0.0
  0
LINE
  5
BAD
330
1E
100
AcDbEntity
  8
0
100
AcDbLine
 10
498.7589999999999
 20
756.0039999999998
 30
0.0
 11
498.7589999999999
 21
756.4693597068821
 31
0.0
  0
LINE
  5
BAE
330
1E
100
AcDbEntity
  8
0
100
AcDbLine
 10
500.023
 20
755.696
 30
0.0
 11
500.753
 21
756.23
 31
0.0
  0
LINE
  5
BAF
330
1E
100
AcDbEntity
  8
0
100
AcDbLine
 10
499.489
 20
757.82067270513
 30
0.0
 11
499.489
 21
756.5389999999999
 31
0.0
  0
LINE
  5
BB0
330
1E
100
AcDbEntity
  8
0
100
AcDbLine
 10
499.489
 20
756.5389999999999
 30
0.0
 11
500.753
 21
756.23
 31
0.0
  0
LINE
  5
BB1
330
1E
100
AcDbEntity
  8
0
100
AcDbLine
 10
499.489
 20
756.5389999999999
 30
0.0
 11
499.489
 21
757.82067270513
 31
0.0
  0
LINE
  5
BB2
330
1E
100
AcDbEntity
  8
0
100
AcDbLine
 10
497.2019999999999
 20
751.442
 30
0.0
 11
497.9309999999999
 21
750.9069999999999
 31
0.0
  0
LINE
  5
BB3
330
1E
100
AcDbEntity
  8
0
100
AcDbLine
 10
497.044
 20
757.5110000000001
 30
0.0
 11
503.613
 21
758.343
 31
0.0
  0
LINE
  5
BB4
330
1E
100
AcDbEntity
  8
0
100
AcDbLine
 10
496.168
 20
758.343
 30
0.0
 11
502.591
 21
759.238
 31
0.0
  0
LINE
  5
BB5
330
1E
100
AcDbEntity
  8
0
100
AcDbLine
 10
506.691
 20
743.59
 30
0.0
 11
506.691
 21
744.6790094194209
 31
0.0
  0
LINE
  5
BB6
330
1E
100
AcDbEntity
  8
0
100
AcDbLine
 10
504.6219999999999
 20
752.9083468564149
 30
0.0
 11
504.6219999999999
 21
752.775
 31
0.0
  0
LINE
  5
BB7
330
1E
100
AcDbEntity
  8
0
100
AcDbLine
 10
503.892
 20
753.351727272727
 30
0.0
 11
503.892
 21
752.241
 31
0.0
  0
LINE
  5
BB8
330
1E
100
AcDbEntity
  8
0
100
AcDbLine
 10
503.892
 20
752.241
 30
0.0
 11
505.1569999999999
 21
751.933
 31
0.0
  0
LINE
  5
BB9
330
1E
100
AcDbEntity
  8
0
100
AcDbLine
 10
503.892
 20
752.241
 30
0.0
 11
504.6219999999999
 21
752.775
 31
0.0
  0
LINE
  5
BBA
330
1E
100
AcDbEntity
  8
0
100
AcDbLine
 10
503.892
 20
752.241
 30
0.0
 11
503.892
 21
753.351727272727
 31
0.0
  0
LINE
  5
BBB
330
1E
100
AcDbEntity
  8
0
100
AcDbLine
 10
504.6219999999999
 20
752.775
 30
0.0
 11
505.8869999999999
 21
752.467
 31
0.0
  0
LINE
  5
BBC
330
1E
100
AcDbEntity
  8
0
100
AcDbLine
 10
504.6219999999999
 20
752.775
 30
0.0
 11
504.6219999999999
 21
752.9083468564149
 31
0.0
  0
LINE
  5
BBD
330
1E
100
AcDbEntity
  8
0
100
AcDbLine
 10
504.6959999999999
 20
744.119759896171
 30
0.0
 11
504.6959999999999
 21
743.816
 31
0.0
  0
LINE
  5
BBE
330
1E
100
AcDbEntity
  8
0
100
AcDbLine
 10
505.8869999999999
 20
752.467
 30
0.0
 11
505.8869999999999
 21
753.110483667018
 31
0.0
  0
LINE
  5
BBF
330
1E
100
AcDbEntity
  8
0
100
AcDbLine
 10
505.1569999999999
 20
751.933
 30
0.0
 11
505.8869999999999
 21
752.467
 31
0.0
  0
LINE
  5
BC0
330
1E
100
AcDbEntity
  8
0
100
AcDbLine
 10
505.8869999999999
 20
753.110483667018
 30
0.0
 11
505.8869999999999
 21
752.467
 31
0.0
  0
LINE
  5
BC1
330
1E
100
AcDbEntity
  8
0
100
AcDbLine
 10
505.961
 20
745.1849710566879
 30
0.0
 11
505.961
 21
744.1239999999999
 31
0.0
  0
LINE
  5
BC2
330
1E
100
AcDbEntity
  8
0
100
AcDbLine
 10
508.42
 20
748.3089999999999
 30
0.0
 11
509.684
 21
748.001
 31
0.0
  0
LINE
  5
BC3
330
1E
100
AcDbEntity
  8
0
100
AcDbLine
 10
508.42
 20
748.3089999999999
 30
0.0
 11
509.1499999999999
 21
748.8430000000001
 31
0.0
  0
LINE
  5
BC4
330
1E
100
AcDbEntity
  8
0
100
AcDbLine
 10
508.42
 20
748.3089999999999
 30
0.0
 11
508.42
 21
749.1889508817958
 31
0.0
  0
LINE
  5
BC5
330
1E
100
AcDbEntity
  8
0
100
AcDbLine
 10
509.684
 20
748.001
 30
0.0
 11
510.414
 21
748.5349999999999
 31
0.0
  0
LINE
  5
BC6
330
1E
100
AcDbEntity
  8
0
100
AcDbLine
 10
508.42
 20
749.1889508817958
 30
0.0
 11
508.42
 21
748.3089999999999
 31
0.0
  0
LINE
  5
BC7
330
1E
100
AcDbEntity
  8
0
100
AcDbLine
 10
509.1499999999999
 20
748.8430000000001
 30
0.0
 11
510.414
 21
748.5349999999999
 31
0.0
  0
LINE
  5
BC8
330
1E
100
AcDbEntity
  8
0
100
AcDbLine
 10
513.5019999999999
 20
744.4389999999999
 30
0.0
 11
514.766
 21
744.13
 31
0.0
  0
LINE
  5
BC9
330
1E
100
AcDbEntity
  8
0
100
AcDbLine
 10
513.5019999999999
 20
744.4389999999999
 30
0.0
 11
514.2319999999999
 21
744.9739999999999
 31
0.0
  0
LINE
  5
BCA
330
1E
100
AcDbEntity
  8
0
100
AcDbLine
 10
512.334
 20
752.794
 30
0.0
 11
513.599
 21
752.4860000000001
 31
0.0
  0
LINE
  5
BCB
330
1E
100
AcDbEntity
  8
0
100
AcDbLine
 10
512.334
 20
752.794
 30
0.0
 11
513.0639999999999
 21
753.3279999999999
 31
0.0
  0
LINE
  5
BCC
330
1E
100
AcDbEntity
  8
0
100
AcDbLine
 10
514.766
 20
744.13
 30
0.0
 11
515.4959999999999
 21
744.6649999999999
 31
0.0
  0
LINE
  5
BCD
330
1E
100
AcDbEntity
  8
0
100
AcDbLine
 10
514.2319999999999
 20
744.9739999999999
 30
0.0
 11
515.4959999999999
 21
744.6649999999999
 31
0.0
  0
LINE
  5
BCE
330
1E
100
AcDbEntity
  8
0
100
AcDbLine
 10
513.599
 20
752.4860000000001
 30
0.0
 11
514.329
 21
753.0199999999999
 31
0.0
  0
LINE
  5
BCF
330
1E
100
AcDbEntity
  8
0
100
AcDbLine
 10
507.799
 20
756.926
 30
0.0
 11
509.063
 21
756.6169999999999
 31
0.0
  0
LINE
  5
BD0
330
1E
100
AcDbEntity
  8
0
100
AcDbLine
 10
507.799
 20
756.926
 30
0.0
 11
508.5289999999999
 21
757.46
 31
0.0
  0
LINE
  5
BD1
330
1E
100
AcDbEntity
  8
0
100
AcDbLine
 10
509.7929999999999
 20
757.151
 30
0.0
 11
509.7929999999999
 21
757.810093649259
 31
0.0
  0
LINE
  5
BD2
330
1E
100
AcDbEntity
  8
0
100
AcDbLine
 10
509.063
 20
756.6169999999999
 30
0.0
 11
509.7929999999999
 21
757.151
 31
0.0
  0
LINE
  5
BD3
330
1E
100
AcDbEntity
  8
0
100
AcDbLine
 10
508.5289999999999
 20
758.8409548524021
 30
0.0
 11
508.5289999999999
 21
757.46
 31
0.0
  0
LINE
  5
BD4
330
1E
100
AcDbEntity
  8
0
100
AcDbLine
 10
509.7929999999999
 20
757.810093649259
 30
0.0
 11
509.7929999999999
 21
757.151
 31
0.0
  0
LINE
  5
BD5
330
1E
100
AcDbEntity
  8
0
100
AcDbLine
 10
508.5289999999999
 20
757.46
 30
0.0
 11
509.7929999999999
 21
757.151
 31
0.0
  0
LINE
  5
BD6
330
1E
100
AcDbEntity
  8
0
100
AcDbLine
 10
508.5289999999999
 20
757.46
 30
0.0
 11
508.5289999999999
 21
758.8409548524021
 31
0.0
  0
LINE
  5
BD7
330
1E
100
AcDbEntity
  8
0
100
AcDbLine
 10
513.0639999999999
 20
754.339269503546
 30
0.0
 11
513.0639999999999
 21
753.3279999999999
 31
0.0
  0
LINE
  5
BD8
330
1E
100
AcDbEntity
  8
0
100
AcDbLine
 10
513.0639999999999
 20
753.3279999999999
 30
0.0
 11
514.329
 21
753.0199999999999
 31
0.0
  0
LINE
  5
BD9
330
1E
100
AcDbEntity
  8
0
100
AcDbLine
 10
513.0639999999999
 20
753.3279999999999
 30
0.0
 11
513.0639999999999
 21
754.339269503546
 31
0.0
  0
LINE
  5
BDA
330
1E
100
AcDbEntity
  8
0
100
AcDbLine
 10
506.691
 20
744.6790094194209
 30
0.0
 11
506.691
 21
743.59
 31
0.0
  0
LINE
  5
BDB
330
1E
100
AcDbEntity
  8
0
100
AcDbLine
 10
505.961
 20
744.1239999999999
 30
0.0
 11
505.961
 21
745.1849710566879
 31
0.0
  0
LINE
  5
BDC
330
1E
100
AcDbEntity
  8
0
100
AcDbLine
 10
505.961
 20
744.1239999999999
 30
0.0
 11
506.691
 21
743.59
 31
0.0
  0
LINE
  5
BDD
330
1E
100
AcDbEntity
  8
0
100
AcDbLine
 10
504.6959999999999
 20
743.816
 30
0.0
 11
505.961
 21
744.1239999999999
 31
0.0
  0
LINE
  5
BDE
330
1E
100
AcDbEntity
  8
0
100
AcDbLine
 10
504.6959999999999
 20
743.816
 30
0.0
 11
505.426
 21
743.2819999999999
 31
0.0
  0
LINE
  5
BDF
330
1E
100
AcDbEntity
  8
0
100
AcDbLine
 10
504.6959999999999
 20
743.816
 30
0.0
 11
504.6959999999999
 21
744.119759896171
 31
0.0
  0
LINE
  5
BE0
330
1E
100
AcDbEntity
  8
0
100
AcDbLine
 10
503.613
 20
758.343
 30
0.0
 11
508.7959999999999
 21
758.868
 31
0.0
  0
LINE
  5
BE1
330
1E
100
AcDbEntity
  8
0
100
AcDbLine
 10
508.7959999999999
 20
758.868
 30
0.0
 11
515.0
 21
759.053
 31
0.0
  0
LINE
  5
BE2
330
1E
100
AcDbEntity
  8
0
100
AcDbLine
 10
502.591
 20
759.238
 30
0.0
 11
508.65
 21
759.7619999999999
 31
0.0
  0
LINE
  5
BE3
330
1E
100
AcDbEntity
  8
0
100
AcDbLine
 10
508.65
 20
759.7619999999999
 30
0.0
 11
515.0
 21
759.9789999999999
 31
0.0
  0
LINE
  5
BE4
330
1E
100
AcDbEntity
  8
0
100
AcDbLine
 10
495.8759999999999
 20
759.5579999999999
 30
0.0
 11
502.08
 21
760.422
 31
0.0
  0
LINE
  5
BE5
330
1E
100
AcDbEntity
  8
0
100
AcDbLine
 10
515.0
 20
719.2589999999999
 30
0.0
 11
517.500933000211
 21
719.3335764998449
 31
0.0
  0
LINE
  5
BE6
330
1E
100
AcDbEntity
  8
0
100
AcDbLine
 10
515.0
 20
718.3339999999999
 30
0.0
 11
521.35
 21
718.5499999999999
 31
0.0
  0
LINE
  5
BE7
330
1E
100
AcDbEntity
  8
0
100
AcDbLine
 10
515.0
 20
759.053
 30
0.0
 11
521.204
 21
758.868
 31
0.0
  0
LINE
  5
BE8
330
1E
100
AcDbEntity
  8
0
100
AcDbLine
 10
468.869
 20
767.177
 30
0.0
 11
469.599
 21
767.96
 31
0.0
  0
LINE
  5
BE9
330
1E
100
AcDbEntity
  8
0
100
AcDbLine
 10
468.869
 20
767.177
 30
0.0
 11
471.715
 21
769.6139999999999
 31
0.0
  0
LINE
  5
BEA
330
1E
100
AcDbEntity
  8
0
100
AcDbLine
 10
466.8249999999999
 20
764.555
 30
0.0
 11
468.869
 21
767.177
 31
0.0
  0
LINE
  5
BEB
330
1E
100
AcDbEntity
  8
0
100
AcDbLine
 10
465.5109999999999
 20
761.8099999999999
 30
0.0
 11
466.8249999999999
 21
764.555
 31
0.0
  0
LINE
  5
BEC
330
1E
100
AcDbEntity
  8
0
100
AcDbLine
 10
502.08
 20
760.422
 30
0.0
 11
508.577
 21
760.977
 31
0.0
  0
LINE
  5
BED
330
1E
100
AcDbEntity
  8
0
100
AcDbLine
 10
508.577
 20
760.977
 30
0.0
 11
515.0
 21
761.1939999999999
 31
0.0
  0
LINE
  5
BEE
330
1E
100
AcDbEntity
  8
0
100
AcDbLine
 10
471.715
 20
769.6139999999999
 30
0.0
 11
475.365
 21
771.928
 31
0.0
  0
LINE
  5
BEF
330
1E
100
AcDbEntity
  8
0
100
AcDbLine
 10
475.365
 20
771.928
 30
0.0
 11
479.6719999999999
 21
774.0249999999999
 31
0.0
  0
LINE
  5
BF0
330
1E
100
AcDbEntity
  8
0
100
AcDbLine
 10
479.6719999999999
 20
774.0249999999999
 30
0.0
 11
484.635
 21
775.846
 31
0.0
  0
LINE
  5
BF1
330
1E
100
AcDbEntity
  8
0
100
AcDbLine
 10
484.635
 20
775.846
 30
0.0
 11
490.109
 21
777.388
 31
0.0
  0
LINE
  5
BF2
330
1E
100
AcDbEntity
  8
0
100
AcDbLine
 10
480.183
 20
774.716
 30
0.0
 11
485.073
 21
776.505
 31
0.0
  0
LINE
  5
BF3
330
1E
100
AcDbEntity
  8
0
100
AcDbLine
 10
490.109
 20
777.388
 30
0.0
 11
495.8759999999999
 21
778.591
 31
0.0
  0
LINE
  5
BF4
330
1E
100
AcDbEntity
  8
0
100
AcDbLine
 10
485.073
 20
776.505
 30
0.0
 11
490.4749999999999
 21
778.0479999999999
 31
0.0
  0
LINE
  5
BF5
330
1E
100
AcDbEntity
  8
0
100
AcDbLine
 10
495.8759999999999
 20
778.591
 30
0.0
 11
502.08
 21
779.455
 31
0.0
  0
LINE
  5
BF6
330
1E
100
AcDbEntity
  8
0
100
AcDbLine
 10
490.4749999999999
 20
778.0479999999999
 30
0.0
 11
496.168
 21
779.1889999999999
 31
0.0
  0
LINE
  5
BF7
330
1E
100
AcDbEntity
  8
0
100
AcDbLine
 10
502.08
 20
779.455
 30
0.0
 11
508.577
 21
780.01
 31
0.0
  0
LINE
  5
BF8
330
1E
100
AcDbEntity
  8
0
100
AcDbLine
 10
496.168
 20
779.1889999999999
 30
0.0
 11
502.591
 21
780.0830000000001
 31
0.0
  0
LINE
  5
BF9
330
1E
100
AcDbEntity
  8
0
100
AcDbLine
 10
508.577
 20
780.01
 30
0.0
 11
515.0
 21
780.2260000000001
 31
0.0
  0
LINE
  5
BFA
330
1E
100
AcDbEntity
  8
0
100
AcDbLine
 10
502.591
 20
780.0830000000001
 30
0.0
 11
508.65
 21
780.608
 31
0.0
  0
LINE
  5
BFB
330
1E
100
AcDbEntity
  8
0
100
AcDbLine
 10
475.949
 20
772.6489999999999
 30
0.0
 11
480.183
 21
774.716
 31
0.0
  0
LINE
  5
BFC
330
1E
100
AcDbEntity
  8
0
100
AcDbLine
 10
472.299
 20
770.3660000000001
 30
0.0
 11
475.949
 21
772.6489999999999
 31
0.0
  0
LINE
  5
BFD
330
1E
100
AcDbEntity
  8
0
100
AcDbLine
 10
469.599
 20
767.96
 30
0.0
 11
472.299
 21
770.3660000000001
 31
0.0
  0
LINE
  5
BFE
330
1E
100
AcDbEntity
  8
0
100
AcDbLine
 10
469.302940276171
 20
767.580450594959
 30
0.0
 11
469.599
 21
767.96
 31
0.0
  0
LINE
  5
BFF
330
1E
100
AcDbEntity
  8
0
100
AcDbLine
 10
515.0
 20
759.9789999999999
 30
0.0
 11
521.35
 21
759.7619999999999
 31
0.0
  0
LINE
  5
C00
330
1E
100
AcDbEntity
  8
0
100
AcDbLine
 10
515.0
 20
761.1939999999999
 30
0.0
 11
521.4229999999999
 21
760.977
 31
0.0
  0
LINE
  5
C01
330
1E
100
AcDbEntity
  8
0
100
AcDbLine
 10
508.65
 20
780.608
 30
0.0
 11
515.0
 21
780.823
 31
0.0
  0
LINE
  5
C02
330
1E
100
AcDbEntity
  8
0
100
AcDbLine
 10
515.0
 20
780.2260000000001
 30
0.0
 11
521.4229999999999
 21
780.01
 31
0.0
  0
LINE
  5
C08
330
1E
100
AcDbEntity
  8
0
100
AcDbLine
 10
518.608
 20
615.0445999999999
 30
0.0
 11
522.0349999999999
 21
615.9140999999999
 31
0.0
  0
LINE
  5
C09
330
1E
100
AcDbEntity
  8
0
100
AcDbLine
 10
518.608
 20
631.7060999999999
 30
0.0
 11
522.0349999999999
 21
632.5756
 31
0.0
  0
LINE
  5
C0A
330
1E
100
AcDbEntity
  8
0
100
AcDbLine
 10
518.534
 20
632.0318999999999
 30
0.0
 11
521.846
 21
632.8837
 31
0.0
  0
LINE
  5
C0B
330
1E
100
AcDbEntity
  8
0
100
AcDbLine
 10
518.8659999999999
 20
614.2445999999999
 30
0.0
 11
522.538
 21
615.1761
 31
0.0
  0
LINE
  5
C0C
330
1E
100
AcDbEntity
  8
0
100
AcDbLine
 10
518.7859999999999
 20
614.5679999999999
 30
0.0
 11
522.335
 21
615.4805999999999
 31
0.0
  0
LINE
  5
C0D
330
1E
100
AcDbEntity
  8
0
100
AcDbLine
 10
518.8659999999999
 20
607.17705
 30
0.0
 11
522.538
 21
607.17705
 31
0.0
  0
LINE
  5
C0E
330
1E
100
AcDbEntity
  8
0
100
AcDbLine
 10
518.0719999999999
 20
700.2349999999999
 30
0.0
 11
520.952
 21
701.471
 31
0.0
  0
LINE
  5
C0F
330
1E
100
AcDbEntity
  8
0
100
AcDbLine
 10
520.952
 20
701.471
 30
0.0
 11
523.4479999999999
 21
703.413
 31
0.0
  0
LINE
  5
C10
330
1E
100
AcDbEntity
  8
0
100
AcDbLine
 10
517.2080000000001
 20
703.5889999999999
 30
0.0
 11
519.32
 21
704.383
 31
0.0
  0
LINE
  5
C11
330
1E
100
AcDbEntity
  8
0
100
AcDbLine
 10
519.216
 20
719.312
 30
0.0
 11
519.216
 21
719.384718891038
 31
0.0
  0
LINE
  5
C12
330
1E
100
AcDbEntity
  8
0
100
AcDbLine
 10
517.952
 20
719.003
 30
0.0
 11
519.216
 21
719.312
 31
0.0
  0
LINE
  5
C13
330
1E
100
AcDbEntity
  8
0
100
AcDbLine
 10
519.32
 20
704.383
 30
0.0
 11
521.144
 21
705.7949999999999
 31
0.0
  0
LINE
  5
C14
330
1E
100
AcDbEntity
  8
0
100
AcDbLine
 10
521.144
 20
705.7949999999999
 30
0.0
 11
522.488
 21
707.6489999999998
 31
0.0
  0
LINE
  5
C15
330
1E
100
AcDbEntity
  8
0
100
AcDbLine
 10
516.8099999999999
 20
735.0989999999999
 30
0.0
 11
517.584
 21
735.346
 31
0.0
  0
LINE
  5
C16
330
1E
100
AcDbEntity
  8
0
100
AcDbLine
 10
515.9339999999999
 20
734.95
 30
0.0
 11
516.8099999999999
 21
735.0989999999999
 31
0.0
  0
LINE
  5
C17
330
1E
100
AcDbEntity
  8
0
100
AcDbLine
 10
517.222
 20
719.538
 30
0.0
 11
518.4859999999999
 21
719.8459999999999
 31
0.0
  0
LINE
  5
C18
330
1E
100
AcDbEntity
  8
0
100
AcDbLine
 10
517.222
 20
719.538
 30
0.0
 11
517.952
 21
719.003
 31
0.0
  0
LINE
  5
C19
330
1E
100
AcDbEntity
  8
0
100
AcDbLine
 10
518.168
 20
735.672
 30
0.0
 11
518.518
 21
736.0419999999999
 31
0.0
  0
LINE
  5
C1A
330
1E
100
AcDbEntity
  8
0
100
AcDbLine
 10
517.584
 20
735.346
 30
0.0
 11
518.168
 21
735.672
 31
0.0
  0
LINE
  5
C1B
330
1E
100
AcDbEntity
  8
0
100
AcDbLine
 10
518.4859999999999
 20
719.8459999999999
 30
0.0
 11
519.216
 21
719.312
 31
0.0
  0
LINE
  5
C1C
330
1E
100
AcDbEntity
  8
0
100
AcDbLine
 10
518.86
 20
726.3519999999999
 30
0.0
 11
520.124
 21
726.661
 31
0.0
  0
LINE
  5
C1D
330
1E
100
AcDbEntity
  8
0
100
AcDbLine
 10
518.86
 20
726.3519999999999
 30
0.0
 11
519.59
 21
725.818
 31
0.0
  0
LINE
  5
C1E
330
1E
100
AcDbEntity
  8
0
100
AcDbLine
 10
519.59
 20
725.818
 30
0.0
 11
520.854
 21
726.1269999999999
 31
0.0
  0
LINE
  5
C1F
330
1E
100
AcDbEntity
  8
0
100
AcDbLine
 10
518.9299999999999
 20
734.44137007874
 30
0.0
 11
518.9299999999999
 21
732.943
 31
0.0
  0
LINE
  5
C20
330
1E
100
AcDbEntity
  8
0
100
AcDbLine
 10
518.9299999999999
 20
732.943
 30
0.0
 11
520.1939999999999
 21
733.2519999999999
 31
0.0
  0
LINE
  5
C21
330
1E
100
AcDbEntity
  8
0
100
AcDbLine
 10
518.9299999999999
 20
732.943
 30
0.0
 11
519.66
 21
732.4089999999999
 31
0.0
  0
LINE
  5
C22
330
1E
100
AcDbEntity
  8
0
100
AcDbLine
 10
518.9299999999999
 20
732.943
 30
0.0
 11
518.9299999999999
 21
734.44137007874
 31
0.0
  0
LINE
  5
C23
330
1E
100
AcDbEntity
  8
0
100
AcDbLine
 10
520.124
 20
726.661
 30
0.0
 11
520.854
 21
726.1269999999999
 31
0.0
  0
LINE
  5
C24
330
1E
100
AcDbEntity
  8
0
100
AcDbLine
 10
520.1939999999999
 20
733.2519999999999
 30
0.0
 11
520.924
 21
732.7180000000001
 31
0.0
  0
LINE
  5
C25
330
1E
100
AcDbEntity
  8
0
100
AcDbLine
 10
520.1939999999999
 20
733.2519999999999
 30
0.0
 11
520.1939999999999
 21
734.465381413985
 31
0.0
  0
LINE
  5
C26
330
1E
100
AcDbEntity
  8
0
100
AcDbLine
 10
520.924
 20
732.7180000000001
 30
0.0
 11
520.924
 21
734.060800827194
 31
0.0
  0
LINE
  5
C27
330
1E
100
AcDbEntity
  8
0
100
AcDbLine
 10
520.1939999999999
 20
734.465381413985
 30
0.0
 11
520.1939999999999
 21
733.2519999999999
 31
0.0
  0
LINE
  5
C28
330
1E
100
AcDbEntity
  8
0
100
AcDbLine
 10
520.924
 20
734.060800827194
 30
0.0
 11
520.924
 21
732.7180000000001
 31
0.0
  0
LINE
  5
C29
330
1E
100
AcDbEntity
  8
0
100
AcDbLine
 10
519.66
 20
732.4089999999999
 30
0.0
 11
520.924
 21
732.7180000000001
 31
0.0
  0
LINE
  5
C2A
330
1E
100
AcDbEntity
  8
0
100
AcDbLine
 10
518.6499999999999
 20
736.4379999999999
 30
0.0
 11
518.6499999999999
 21
737.3439999999999
 31
0.0
  0
LINE
  5
C2B
330
1E
100
AcDbEntity
  8
0
100
AcDbLine
 10
518.518
 20
736.0419999999999
 30
0.0
 11
518.6499999999999
 21
736.4379999999999
 31
0.0
  0
LINE
  5
C2C
330
1E
100
AcDbEntity
  8
0
100
AcDbLine
 10
518.6499999999999
 20
737.3439999999999
 30
0.0
 11
518.6499999999999
 21
736.4379999999999
 31
0.0
  0
LINE
  5
C2D
330
1E
100
AcDbEntity
  8
0
100
AcDbLine
 10
518.518
 20
736.8319999999999
 30
0.0
 11
518.6499999999999
 21
736.4379999999999
 31
0.0
  0
LINE
  5
C2E
330
1E
100
AcDbEntity
  8
0
100
AcDbLine
 10
518.168
 20
737.2029999999999
 30
0.0
 11
518.518
 21
736.8319999999999
 31
0.0
  0
LINE
  5
C2F
330
1E
100
AcDbEntity
  8
0
100
AcDbLine
 10
518.518
 20
737.7389999999999
 30
0.0
 11
518.6499999999999
 21
737.3439999999999
 31
0.0
  0
LINE
  5
C30
330
1E
100
AcDbEntity
  8
0
100
AcDbLine
 10
517.584
 20
737.5289999999999
 30
0.0
 11
518.168
 21
737.2029999999999
 31
0.0
  0
LINE
  5
C31
330
1E
100
AcDbEntity
  8
0
100
AcDbLine
 10
516.8099999999999
 20
737.7760000000001
 30
0.0
 11
517.584
 21
737.5289999999999
 31
0.0
  0
LINE
  5
C32
330
1E
100
AcDbEntity
  8
0
100
AcDbLine
 10
518.168
 20
738.1089999999999
 30
0.0
 11
518.518
 21
737.7389999999999
 31
0.0
  0
LINE
  5
C33
330
1E
100
AcDbEntity
  8
0
100
AcDbLine
 10
517.584
 20
738.436
 30
0.0
 11
518.168
 21
738.1089999999999
 31
0.0
  0
LINE
  5
C34
330
1E
100
AcDbEntity
  8
0
100
AcDbLine
 10
517.222
 20
756.962
 30
0.0
 11
518.4859999999999
 21
756.653
 31
0.0
  0
LINE
  5
C35
330
1E
100
AcDbEntity
  8
0
100
AcDbLine
 10
517.222
 20
756.962
 30
0.0
 11
517.952
 21
757.496
 31
0.0
  0
LINE
  5
C36
330
1E
100
AcDbEntity
  8
0
100
AcDbLine
 10
518.86
 20
748.335
 30
0.0
 11
520.124
 21
748.0260000000001
 31
0.0
  0
LINE
  5
C37
330
1E
100
AcDbEntity
  8
0
100
AcDbLine
 10
518.86
 20
748.335
 30
0.0
 11
519.59
 21
748.8689999999999
 31
0.0
  0
LINE
  5
C38
330
1E
100
AcDbEntity
  8
0
100
AcDbLine
 10
518.4859999999999
 20
756.653
 30
0.0
 11
519.216
 21
757.188
 31
0.0
  0
LINE
  5
C39
330
1E
100
AcDbEntity
  8
0
100
AcDbLine
 10
517.952
 20
758.9649729206959
 30
0.0
 11
517.952
 21
757.496
 31
0.0
  0
LINE
  5
C3A
330
1E
100
AcDbEntity
  8
0
100
AcDbLine
 10
517.952
 20
757.496
 30
0.0
 11
519.216
 21
757.188
 31
0.0
  0
LINE
  5
C3B
330
1E
100
AcDbEntity
  8
0
100
AcDbLine
 10
517.952
 20
757.496
 30
0.0
 11
517.952
 21
758.9649729206959
 31
0.0
  0
LINE
  5
C3C
330
1E
100
AcDbEntity
  8
0
100
AcDbLine
 10
519.59
 20
748.8689999999999
 30
0.0
 11
520.854
 21
748.5599999999999
 31
0.0
  0
LINE
  5
C3D
330
1E
100
AcDbEntity
  8
0
100
AcDbLine
 10
519.66
 20
742.075457779595
 30
0.0
 11
519.66
 21
740.465
 31
0.0
  0
LINE
  5
C3E
330
1E
100
AcDbEntity
  8
0
100
AcDbLine
 10
518.9299999999999
 20
741.3342637497439
 30
0.0
 11
518.9299999999999
 21
739.931
 31
0.0
  0
LINE
  5
C3F
330
1E
100
AcDbEntity
  8
0
100
AcDbLine
 10
518.9299999999999
 20
739.931
 30
0.0
 11
520.1939999999999
 21
739.6219999999999
 31
0.0
  0
LINE
  5
C40
330
1E
100
AcDbEntity
  8
0
100
AcDbLine
 10
518.9299999999999
 20
739.931
 30
0.0
 11
519.66
 21
740.465
 31
0.0
  0
LINE
  5
C41
330
1E
100
AcDbEntity
  8
0
100
AcDbLine
 10
518.9299999999999
 20
739.931
 30
0.0
 11
518.9299999999999
 21
741.3342637497439
 31
0.0
  0
LINE
  5
C42
330
1E
100
AcDbEntity
  8
0
100
AcDbLine
 10
520.924
 20
740.1569999999999
 30
0.0
 11
520.924
 21
740.6271991728059
 31
0.0
  0
LINE
  5
C43
330
1E
100
AcDbEntity
  8
0
100
AcDbLine
 10
520.1939999999999
 20
739.6219999999999
 30
0.0
 11
520.924
 21
740.1569999999999
 31
0.0
  0
LINE
  5
C44
330
1E
100
AcDbEntity
  8
0
100
AcDbLine
 10
520.124
 20
748.0260000000001
 30
0.0
 11
520.854
 21
748.5599999999999
 31
0.0
  0
LINE
  5
C45
330
1E
100
AcDbEntity
  8
0
100
AcDbLine
 10
520.924
 20
740.6271991728059
 30
0.0
 11
520.924
 21
740.1569999999999
 31
0.0
  0
LINE
  5
C46
330
1E
100
AcDbEntity
  8
0
100
AcDbLine
 10
519.66
 20
740.465
 30
0.0
 11
520.924
 21
740.1569999999999
 31
0.0
  0
LINE
  5
C47
330
1E
100
AcDbEntity
  8
0
100
AcDbLine
 10
519.66
 20
740.465
 30
0.0
 11
519.66
 21
742.075457779595
 31
0.0
  0
LINE
  5
C48
330
1E
100
AcDbEntity
  8
0
100
AcDbLine
 10
516.8099999999999
 20
738.6829999999999
 30
0.0
 11
517.584
 21
738.436
 31
0.0
  0
LINE
  5
C49
330
1E
100
AcDbEntity
  8
0
100
AcDbLine
 10
515.9339999999999
 20
738.831
 30
0.0
 11
516.8099999999999
 21
738.6829999999999
 31
0.0
  0
LINE
  5
C4A
330
1E
100
AcDbEntity
  8
0
100
AcDbLine
 10
515.9339999999999
 20
737.924
 30
0.0
 11
516.8099999999999
 21
737.7760000000001
 31
0.0
  0
LINE
  5
C4B
330
1E
100
AcDbEntity
  8
0
100
AcDbLine
 10
521.204
 20
719.444
 30
0.0
 11
526.3869999999999
 21
719.9689999999999
 31
0.0
  0
LINE
  5
C4C
330
1E
100
AcDbEntity
  8
0
100
AcDbLine
 10
519.216
 20
719.384718891038
 30
0.0
 11
521.204
 21
719.444
 31
0.0
  0
LINE
  5
C4D
330
1E
100
AcDbEntity
  8
0
100
AcDbLine
 10
519.216
 20
719.384718891038
 30
0.0
 11
519.216
 21
719.312
 31
0.0
  0
LINE
  5
C50
330
1E
100
AcDbEntity
  8
0
100
AcDbLine
 10
521.35
 20
718.5499999999999
 30
0.0
 11
527.409
 21
719.0739999999999
 31
0.0
  0
LINE
  5
C51
330
1E
100
AcDbEntity
  8
0
100
AcDbLine
 10
521.204
 20
758.868
 30
0.0
 11
526.3869999999999
 21
758.343
 31
0.0
  0
LINE
  5
C52
330
1E
100
AcDbEntity
  8
0
100
AcDbLine
 10
521.35
 20
759.7619999999999
 30
0.0
 11
527.409
 21
759.238
 31
0.0
  0
LINE
  5
C55
330
1E
100
AcDbEntity
  8
0
100
AcDbLine
 10
522.4239999999999
 20
600.177
 30
0.0
 11
529.384
 21
600.177
 31
0.0
  0
LINE
  5
C57
330
1E
100
AcDbEntity
  8
0
100
AcDbLine
 10
522.0349999999999
 20
615.9140999999999
 30
0.0
 11
524.9179999999999
 21
617.3564999999999
 31
0.0
  0
LINE
  5
C58
330
1E
100
AcDbEntity
  8
0
100
AcDbLine
 10
521.846
 20
632.8837
 30
0.0
 11
524.7719999999999
 21
634.3033
 31
0.0
  0
LINE
  5
C59
330
1E
100
AcDbEntity
  8
0
100
AcDbLine
 10
522.0349999999999
 20
632.5756
 30
0.0
 11
524.9179999999999
 21
634.0179
 31
0.0
  0
LINE
  5
C5A
330
1E
100
AcDbEntity
  8
0
100
AcDbLine
 10
522.335
 20
615.4805999999999
 30
0.0
 11
525.47
 21
617.0016
 31
0.0
  0
LINE
  5
C5B
330
1E
100
AcDbEntity
  8
0
100
AcDbLine
 10
522.538
 20
615.1761
 30
0.0
 11
525.6269999999999
 21
616.7215999999999
 31
0.0
  0
LINE
  5
C5C
330
1E
100
AcDbEntity
  8
0
100
AcDbLine
 10
522.538
 20
607.17705
 30
0.0
 11
525.6269999999999
 21
607.17705
 31
0.0
  0
LINE
  5
C5D
330
1E
100
AcDbEntity
  8
0
100
AcDbLine
 10
523.4479999999999
 20
703.413
 30
0.0
 11
525.3680000000001
 21
705.9719999999999
 31
0.0
  0
LINE
  5
C5E
330
1E
100
AcDbEntity
  8
0
100
AcDbLine
 10
522.488
 20
707.6489999999998
 30
0.0
 11
523.3519999999999
 21
709.7669999999999
 31
0.0
  0
LINE
  5
C5F
330
1E
100
AcDbEntity
  8
0
100
AcDbLine
 10
523.6399999999999
 20
711.9739999999999
 30
0.0
 11
523.6399999999999
 21
718.7480458821589
 31
0.0
  0
LINE
  5
C60
330
1E
100
AcDbEntity
  8
0
100
AcDbLine
 10
523.3519999999999
 20
709.7669999999999
 30
0.0
 11
523.6399999999999
 21
711.9739999999999
 31
0.0
  0
LINE
  5
C61
330
1E
100
AcDbEntity
  8
0
100
AcDbLine
 10
524.15
 20
606.6769999999999
 30
0.0
 11
532.84
 21
606.6769999999999
 31
0.0
  0
LINE
  5
C62
330
1E
100
AcDbEntity
  8
0
100
AcDbLine
 10
524.15
 20
600.177
 30
0.0
 11
532.84
 21
600.177
 31
0.0
  0
LINE
  5
C63
330
1E
100
AcDbEntity
  8
0
100
AcDbLine
 10
523.96
 20
607.177
 30
0.0
 11
532.3599999999999
 21
607.177
 31
0.0
  0
LINE
  5
C64
330
1E
100
AcDbEntity
  8
0
100
AcDbLine
 10
524.9179999999999
 20
617.3564999999999
 30
0.0
 11
527.1619999999999
 21
619.2095000000001
 31
0.0
  0
LINE
  5
C65
330
1E
100
AcDbEntity
  8
0
100
AcDbLine
 10
524.7719999999999
 20
634.3033
 30
0.0
 11
526.9809999999999
 21
636.1842
 31
0.0
  0
LINE
  5
C68
330
1E
100
AcDbEntity
  8
0
100
AcDbLine
 10
524.9179999999999
 20
634.0179
 30
0.0
 11
527.1619999999999
 21
635.871
 31
0.0
  0
LINE
  5
C69
330
1E
100
AcDbEntity
  8
0
100
AcDbLine
 10
525.3680000000001
 20
705.9719999999999
 30
0.0
 11
526.616
 21
708.8849999999999
 31
0.0
  0
LINE
  5
C6A
330
1E
100
AcDbEntity
  8
0
100
AcDbLine
 10
525.47
 20
617.0016
 30
0.0
 11
527.8369999999999
 21
619.0169
 31
0.0
  0
LINE
  5
C6B
330
1E
100
AcDbEntity
  8
0
100
AcDbLine
 10
525.6269999999999
 20
616.7215999999999
 30
0.0
 11
528.0309999999999
 21
618.707
 31
0.0
  0
LINE
  5
C6C
330
1E
100
AcDbEntity
  8
0
100
AcDbLine
 10
525.6269999999999
 20
607.17705
 30
0.0
 11
528.0309999999999
 21
607.17705
 31
0.0
  0
LINE
  5
C6D
330
1E
100
AcDbEntity
  8
0
100
AcDbLine
 10
525.3680000000001
 20
718.0629999999999
 30
0.0
 11
526.616
 21
715.151
 31
0.0
  0
LINE
  5
C6E
330
1E
100
AcDbEntity
  8
0
100
AcDbLine
 10
524.7802560833849
 20
718.846658555487
 30
0.0
 11
525.3680000000001
 21
718.0629999999999
 31
0.0
  0
LINE
  5
C6F
330
1E
100
AcDbEntity
  8
0
100
AcDbLine
 10
523.6399999999999
 20
718.7480458821589
 30
0.0
 11
523.6399999999999
 21
711.9739999999999
 31
0.0
  0
LINE
  5
C70
330
1E
100
AcDbEntity
  8
0
100
AcDbLine
 10
522.932
 20
723.208
 30
0.0
 11
524.196
 21
723.5169999999999
 31
0.0
  0
LINE
  5
C71
330
1E
100
AcDbEntity
  8
0
100
AcDbLine
 10
522.932
 20
723.208
 30
0.0
 11
523.6609999999999
 21
722.6739999999999
 31
0.0
  0
LINE
  5
C72
330
1E
100
AcDbEntity
  8
0
100
AcDbLine
 10
524.196
 20
723.5169999999999
 30
0.0
 11
524.9259999999999
 21
722.982
 31
0.0
  0
LINE
  5
C73
330
1E
100
AcDbEntity
  8
0
100
AcDbLine
 10
524.196
 20
723.5169999999999
 30
0.0
 11
524.196
 21
724.4358742565849
 31
0.0
  0
LINE
  5
C74
330
1E
100
AcDbEntity
  8
0
100
AcDbLine
 10
524.9259999999999
 20
722.982
 30
0.0
 11
524.9259999999999
 21
724.133051401869
 31
0.0
  0
LINE
  5
C75
330
1E
100
AcDbEntity
  8
0
100
AcDbLine
 10
524.196
 20
724.4358742565849
 30
0.0
 11
524.196
 21
723.5169999999999
 31
0.0
  0
LINE
  5
C76
330
1E
100
AcDbEntity
  8
0
100
AcDbLine
 10
524.9259999999999
 20
724.133051401869
 30
0.0
 11
524.9259999999999
 21
722.982
 31
0.0
  0
LINE
  5
C77
330
1E
100
AcDbEntity
  8
0
100
AcDbLine
 10
523.6609999999999
 20
722.6739999999999
 30
0.0
 11
524.9259999999999
 21
722.982
 31
0.0
  0
LINE
  5
C78
330
1E
100
AcDbEntity
  8
0
100
AcDbLine
 10
523.3089999999999
 20
730.5386323000509
 30
0.0
 11
523.3089999999999
 21
730.19
 31
0.0
  0
LINE
  5
C79
330
1E
100
AcDbEntity
  8
0
100
AcDbLine
 10
523.3089999999999
 20
730.19
 30
0.0
 11
524.574
 21
730.4989999999999
 31
0.0
  0
LINE
  5
C7A
330
1E
100
AcDbEntity
  8
0
100
AcDbLine
 10
523.3089999999999
 20
730.19
 30
0.0
 11
524.0389999999999
 21
729.656
 31
0.0
  0
LINE
  5
C7B
330
1E
100
AcDbEntity
  8
0
100
AcDbLine
 10
523.3089999999999
 20
730.19
 30
0.0
 11
523.3089999999999
 21
730.5386323000509
 31
0.0
  0
LINE
  5
C7C
330
1E
100
AcDbEntity
  8
0
100
AcDbLine
 10
524.124
 20
737.3439999999999
 30
0.0
 11
524.124
 21
736.1289999999999
 31
0.0
  0
LINE
  5
C7D
330
1E
100
AcDbEntity
  8
0
100
AcDbLine
 10
524.124
 20
736.1289999999999
 30
0.0
 11
524.124
 21
736.7449999999999
 31
0.0
  0
LINE
  5
C7E
330
1E
100
AcDbEntity
  8
0
100
AcDbLine
 10
524.124
 20
736.1289999999999
 30
0.0
 11
525.584
 21
736.1289999999999
 31
0.0
  0
LINE
  5
C7F
330
1E
100
AcDbEntity
  8
0
100
AcDbLine
 10
524.124
 20
736.1289999999999
 30
0.0
 11
524.124
 21
737.3439999999999
 31
0.0
  0
LINE
  5
C80
330
1E
100
AcDbEntity
  8
0
100
AcDbLine
 10
523.3089999999999
 20
743.59
 30
0.0
 11
524.574
 21
743.2819999999999
 31
0.0
  0
LINE
  5
C81
330
1E
100
AcDbEntity
  8
0
100
AcDbLine
 10
523.3089999999999
 20
743.59
 30
0.0
 11
524.0389999999999
 21
744.1239999999999
 31
0.0
  0
LINE
  5
C82
330
1E
100
AcDbEntity
  8
0
100
AcDbLine
 10
523.3089999999999
 20
743.59
 30
0.0
 11
523.3089999999999
 21
744.6790094194209
 31
0.0
  0
LINE
  5
C83
330
1E
100
AcDbEntity
  8
0
100
AcDbLine
 10
522.932
 20
752.385
 30
0.0
 11
524.196
 21
752.076
 31
0.0
  0
LINE
  5
C84
330
1E
100
AcDbEntity
  8
0
100
AcDbLine
 10
522.932
 20
752.385
 30
0.0
 11
523.6609999999999
 21
752.9189999999999
 31
0.0
  0
LINE
  5
C85
330
1E
100
AcDbEntity
  8
0
100
AcDbLine
 10
523.6609999999999
 20
752.9189999999999
 30
0.0
 11
524.9259999999999
 21
752.611
 31
0.0
  0
LINE
  5
C86
330
1E
100
AcDbEntity
  8
0
100
AcDbLine
 10
524.0389999999999
 20
745.1849710566879
 30
0.0
 11
524.0389999999999
 21
744.1239999999999
 31
0.0
  0
LINE
  5
C87
330
1E
100
AcDbEntity
  8
0
100
AcDbLine
 10
523.3089999999999
 20
744.6790094194209
 30
0.0
 11
523.3089999999999
 21
743.59
 31
0.0
  0
LINE
  5
C88
330
1E
100
AcDbEntity
  8
0
100
AcDbLine
 10
524.0389999999999
 20
744.1239999999999
 30
0.0
 11
525.3039999999999
 21
743.816
 31
0.0
  0
LINE
  5
C89
330
1E
100
AcDbEntity
  8
0
100
AcDbLine
 10
524.0389999999999
 20
744.1239999999999
 30
0.0
 11
524.0389999999999
 21
745.1849710566879
 31
0.0
  0
LINE
  5
C8A
330
1E
100
AcDbEntity
  8
0
100
AcDbLine
 10
524.124
 20
737.85626765917
 30
0.0
 11
524.124
 21
736.7449999999999
 31
0.0
  0
LINE
  5
C8B
330
1E
100
AcDbEntity
  8
0
100
AcDbLine
 10
524.196
 20
752.076
 30
0.0
 11
524.9259999999999
 21
752.611
 31
0.0
  0
LINE
  5
C8C
330
1E
100
AcDbEntity
  8
0
100
AcDbLine
 10
524.574
 20
743.2819999999999
 30
0.0
 11
525.3039999999999
 21
743.816
 31
0.0
  0
LINE
  5
C8D
330
1E
100
AcDbEntity
  8
0
100
AcDbLine
 10
524.124
 20
736.7449999999999
 30
0.0
 11
525.584
 21
736.7449999999999
 31
0.0
  0
LINE
  5
C8E
330
1E
100
AcDbEntity
  8
0
100
AcDbLine
 10
524.124
 20
736.7449999999999
 30
0.0
 11
524.124
 21
737.85626765917
 31
0.0
  0
LINE
  5
C8F
330
1E
100
AcDbEntity
  8
0
100
AcDbLine
 10
524.124
 20
736.7449999999999
 30
0.0
 11
524.124
 21
736.1289999999999
 31
0.0
  0
LINE
  5
C90
330
1E
100
AcDbEntity
  8
0
100
AcDbLine
 10
524.574
 20
731.3733729901221
 30
0.0
 11
524.574
 21
730.4989999999999
 31
0.0
  0
LINE
  5
C91
330
1E
100
AcDbEntity
  8
0
100
AcDbLine
 10
525.3039999999999
 20
743.816
 30
0.0
 11
525.3039999999999
 21
744.119759896171
 31
0.0
  0
LINE
  5
C92
330
1E
100
AcDbEntity
  8
0
100
AcDbLine
 10
525.3039999999999
 20
744.119759896171
 30
0.0
 11
525.3039999999999
 21
743.816
 31
0.0
  0
LINE
  5
C93
330
1E
100
AcDbEntity
  8
0
100
AcDbLine
 10
524.574
 20
730.4989999999999
 30
0.0
 11
525.3039999999999
 21
729.965
 31
0.0
  0
LINE
  5
C94
330
1E
100
AcDbEntity
  8
0
100
AcDbLine
 10
524.574
 20
730.4989999999999
 30
0.0
 11
524.574
 21
731.3733729901221
 31
0.0
  0
LINE
  5
C95
330
1E
100
AcDbEntity
  8
0
100
AcDbLine
 10
525.3039999999999
 20
729.965
 30
0.0
 11
525.3039999999999
 21
731.0834047155529
 31
0.0
  0
LINE
  5
C96
330
1E
100
AcDbEntity
  8
0
100
AcDbLine
 10
525.584
 20
736.1289999999999
 30
0.0
 11
525.584
 21
736.7449999999999
 31
0.0
  0
LINE
  5
C97
330
1E
100
AcDbEntity
  8
0
100
AcDbLine
 10
525.584
 20
737.9382394678489
 30
0.0
 11
525.584
 21
736.7449999999999
 31
0.0
  0
LINE
  5
C98
330
1E
100
AcDbEntity
  8
0
100
AcDbLine
 10
525.584
 20
736.7449999999999
 30
0.0
 11
525.584
 21
736.1289999999999
 31
0.0
  0
LINE
  5
C99
330
1E
100
AcDbEntity
  8
0
100
AcDbLine
 10
525.584
 20
736.7449999999999
 30
0.0
 11
525.584
 21
737.9382394678489
 31
0.0
  0
LINE
  5
C9A
330
1E
100
AcDbEntity
  8
0
100
AcDbLine
 10
525.3039999999999
 20
731.0834047155529
 30
0.0
 11
525.3039999999999
 21
729.965
 31
0.0
  0
LINE
  5
C9B
330
1E
100
AcDbEntity
  8
0
100
AcDbLine
 10
524.0389999999999
 20
729.656
 30
0.0
 11
525.3039999999999
 21
729.965
 31
0.0
  0
LINE
  5
C9C
330
1E
100
AcDbEntity
  8
0
100
AcDbLine
 10
526.3869999999999
 20
719.9689999999999
 30
0.0
 11
527.5816118353979
 21
720.1204860190119
 31
0.0
  0
LINE
  5
C9D
330
1E
100
AcDbEntity
  8
0
100
AcDbLine
 10
526.616
 20
708.8849999999999
 30
0.0
 11
527.0
 21
711.9739999999999
 31
0.0
  0
LINE
  5
C9E
330
1E
100
AcDbEntity
  8
0
100
AcDbLine
 10
526.9809999999999
 20
636.1842
 30
0.0
 11
528.306
 21
638.3135
 31
0.0
  0
LINE
  5
C9F
330
1E
100
AcDbEntity
  8
0
100
AcDbLine
 10
527.0
 20
644.954965207547
 30
0.0
 11
528.306
 21
642.8561
 31
0.0
  0
LINE
  5
CA0
330
1E
100
AcDbEntity
  8
0
100
AcDbLine
 10
527.0
 20
645.049379946524
 30
0.0
 11
527.1619999999999
 21
644.9156
 31
0.0
  0
LINE
  5
CA1
330
1E
100
AcDbEntity
  8
0
100
AcDbLine
 10
527.1619999999999
 20
619.2095000000001
 30
0.0
 11
528.5149999999999
 21
621.4124
 31
0.0
  0
LINE
  5
CA4
330
1E
100
AcDbEntity
  8
0
100
AcDbLine
 10
527.1619999999999
 20
635.871
 30
0.0
 11
528.5149999999999
 21
638.0738
 31
0.0
  0
LINE
  5
CA5
330
1E
100
AcDbEntity
  8
0
100
AcDbLine
 10
527.1619999999999
 20
644.9156
 30
0.0
 11
528.5149999999999
 21
642.7128
 31
0.0
  0
LINE
  5
CA6
330
1E
100
AcDbEntity
  8
0
100
AcDbLine
 10
527.0
 20
640.5847999999999
 30
0.0
 11
527.0
 21
711.9739999999999
 31
0.0
  0
LINE
  5
CA7
330
1E
100
AcDbEntity
  8
0
100
AcDbLine
 10
527.0
 20
711.9739999999999
 30
0.0
 11
527.0
 21
640.5847999999999
 31
0.0
  0
LINE
  5
CA8
330
1E
100
AcDbEntity
  8
0
100
AcDbLine
 10
526.616
 20
715.151
 30
0.0
 11
527.0
 21
711.9739999999999
 31
0.0
  0
LINE
  5
CA9
330
1E
100
AcDbEntity
  8
0
100
AcDbLine
 10
527.2509999999999
 20
756.138
 30
0.0
 11
528.5159999999999
 21
755.8289999999999
 31
0.0
  0
LINE
  5
CAA
330
1E
100
AcDbEntity
  8
0
100
AcDbLine
 10
527.2509999999999
 20
756.138
 30
0.0
 11
527.9819999999999
 21
756.672
 31
0.0
  0
LINE
  5
CAB
330
1E
100
AcDbEntity
  8
0
100
AcDbLine
 10
527.2509999999999
 20
720.3619999999999
 30
0.0
 11
528.5159999999999
 21
720.6699999999999
 31
0.0
  0
LINE
  5
CAC
330
1E
100
AcDbEntity
  8
0
100
AcDbLine
 10
527.2509999999999
 20
720.3619999999999
 30
0.0
 11
527.9819999999999
 21
719.8279999999999
 31
0.0
  0
LINE
  5
CAD
330
1E
100
AcDbEntity
  8
0
100
AcDbLine
 10
527.409
 20
719.0739999999999
 30
0.0
 11
533.832
 21
719.9689999999999
 31
0.0
  0
LINE
  5
CAE
330
1E
100
AcDbEntity
  8
0
100
AcDbLine
 10
526.3869999999999
 20
758.343
 30
0.0
 11
532.9559999999999
 21
757.5110000000001
 31
0.0
  0
LINE
  5
CAF
330
1E
100
AcDbEntity
  8
0
100
AcDbLine
 10
527.409
 20
759.238
 30
0.0
 11
533.832
 21
758.343
 31
0.0
  0
LINE
  5
CB0
330
1E
100
AcDbEntity
  8
0
100
AcDbLine
 10
521.4229999999999
 20
760.977
 30
0.0
 11
527.9199999999999
 21
760.422
 31
0.0
  0
LINE
  5
CB1
330
1E
100
AcDbEntity
  8
0
100
AcDbLine
 10
521.4229999999999
 20
780.01
 30
0.0
 11
527.9199999999999
 21
779.455
 31
0.0
  0
LINE
  5
CB2
330
1E
100
AcDbEntity
  8
0
100
AcDbLine
 10
527.6889999999999
 20
747.7147792430209
 30
0.0
 11
527.6889999999999
 21
747.2489999999999
 31
0.0
  0
LINE
  5
CB3
330
1E
100
AcDbEntity
  8
0
100
AcDbLine
 10
527.6889999999999
 20
747.2489999999999
 30
0.0
 11
528.953
 21
746.941
 31
0.0
  0
LINE
  5
CB4
330
1E
100
AcDbEntity
  8
0
100
AcDbLine
 10
527.6889999999999
 20
747.2489999999999
 30
0.0
 11
528.4189999999999
 21
747.7829999999999
 31
0.0
  0
LINE
  5
CB5
330
1E
100
AcDbEntity
  8
0
100
AcDbLine
 10
527.6889999999999
 20
747.2489999999999
 30
0.0
 11
527.6889999999999
 21
747.7147792430209
 31
0.0
  0
LINE
  5
CB6
330
1E
100
AcDbEntity
  8
0
100
AcDbLine
 10
527.6889999999999
 20
728.182853913341
 30
0.0
 11
527.6889999999999
 21
727.4389999999999
 31
0.0
  0
LINE
  5
CB7
330
1E
100
AcDbEntity
  8
0
100
AcDbLine
 10
527.6889999999999
 20
727.4389999999999
 30
0.0
 11
528.953
 21
727.747
 31
0.0
  0
LINE
  5
CB8
330
1E
100
AcDbEntity
  8
0
100
AcDbLine
 10
527.6889999999999
 20
727.4389999999999
 30
0.0
 11
528.4189999999999
 21
726.903
 31
0.0
  0
LINE
  5
CB9
330
1E
100
AcDbEntity
  8
0
100
AcDbLine
 10
527.6889999999999
 20
727.4389999999999
 30
0.0
 11
527.6889999999999
 21
728.182853913341
 31
0.0
  0
LINE
  5
CBA
330
1E
100
AcDbEntity
  8
0
100
AcDbLine
 10
527.8369999999999
 20
619.0169
 30
0.0
 11
529.2559999999999
 21
621.2983
 31
0.0
  0
LINE
  5
CBB
330
1E
100
AcDbEntity
  8
0
100
AcDbLine
 10
527.9819999999999
 20
719.8279999999999
 30
0.0
 11
529.246
 21
720.1360000000001
 31
0.0
  0
LINE
  5
CBC
330
1E
100
AcDbEntity
  8
0
100
AcDbLine
 10
528.0309999999999
 20
618.707
 30
0.0
 11
529.48
 21
621.0671999999999
 31
0.0
  0
LINE
  5
CC1
330
1E
100
AcDbEntity
  8
0
100
AcDbLine
 10
529.384
 20
600.177
 30
0.0
 11
535.5319999999998
 21
600.177
 31
0.0
  0
LINE
  5
CC2
330
1E
100
AcDbEntity
  8
0
100
AcDbLine
 10
529.52
 20
600.177
 30
0.0
 11
535.6399999999999
 21
600.177
 31
0.0
  0
LINE
  5
CC4
330
1E
100
AcDbEntity
  8
0
100
AcDbLine
 10
528.5149999999999
 20
621.4124
 30
0.0
 11
529.0
 21
623.7318
 31
0.0
  0
LINE
  5
CC5
330
1E
100
AcDbEntity
  8
0
100
AcDbLine
 10
529.0
 20
623.7318
 30
0.0
 11
529.0
 21
640.3932999999999
 31
0.0
  0
LINE
  5
CC6
330
1E
100
AcDbEntity
  8
0
100
AcDbLine
 10
529.2559999999999
 20
621.2983
 30
0.0
 11
529.7889999999999
 21
623.7318
 31
0.0
  0
LINE
  5
CC7
330
1E
100
AcDbEntity
  8
0
100
AcDbLine
 10
529.48
 20
621.0671999999999
 30
0.0
 11
530.0
 21
623.5522999999999
 31
0.0
  0
LINE
  5
CC8
330
1E
100
AcDbEntity
  8
0
100
AcDbLine
 10
529.2559999999999
 20
626.1654
 30
0.0
 11
529.7889999999999
 21
623.7318
 31
0.0
  0
LINE
  5
CC9
330
1E
100
AcDbEntity
  8
0
100
AcDbLine
 10
529.0
 20
626.5769844961239
 30
0.0
 11
529.2559999999999
 21
626.1654
 31
0.0
  0
LINE
  5
CCA
330
1E
100
AcDbEntity
  8
0
100
AcDbLine
 10
529.7889999999999
 20
623.7318
 30
0.0
 11
530.0
 21
623.5522999999999
 31
0.0
  0
LINE
  5
CCB
330
1E
100
AcDbEntity
  8
0
100
AcDbLine
 10
529.48
 20
626.0374
 30
0.0
 11
530.0
 21
623.5522999999999
 31
0.0
  0
LINE
  5
CCC
330
1E
100
AcDbEntity
  8
0
100
AcDbLine
 10
529.48
 20
607.17705
 30
0.0
 11
530.0
 21
607.17705
 31
0.0
  0
LINE
  5
CCD
330
1E
100
AcDbEntity
  8
0
100
AcDbLine
 10
530.0
 20
607.17705
 30
0.0
 11
530.0
 21
623.5522999999999
 31
0.0
  0
LINE
  5
CCE
330
1E
100
AcDbEntity
  8
0
100
AcDbLine
 10
528.306
 20
638.3135
 30
0.0
 11
528.803
 21
640.5847999999999
 31
0.0
  0
LINE
  5
CCF
330
1E
100
AcDbEntity
  8
0
100
AcDbLine
 10
528.5149999999999
 20
638.0738
 30
0.0
 11
529.0
 21
640.3932999999999
 31
0.0
  0
LINE
  5
CD0
330
1E
100
AcDbEntity
  8
0
100
AcDbLine
 10
528.306
 20
642.8561
 30
0.0
 11
528.803
 21
640.5847999999999
 31
0.0
  0
LINE
  5
CD1
330
1E
100
AcDbEntity
  8
0
100
AcDbLine
 10
529.246
 20
720.1360000000001
 30
0.0
 11
529.246
 21
720.3315433094839
 31
0.0
  0
LINE
  5
CD2
330
1E
100
AcDbEntity
  8
0
100
AcDbLine
 10
528.803
 20
640.5847999999999
 30
0.0
 11
529.0
 21
640.3932999999999
 31
0.0
  0
LINE
  5
CD3
330
1E
100
AcDbEntity
  8
0
100
AcDbLine
 10
528.5149999999999
 20
642.7128
 30
0.0
 11
529.0
 21
640.3932999999999
 31
0.0
  0
LINE
  5
CD4
330
1E
100
AcDbEntity
  8
0
100
AcDbLine
 10
529.0
 20
626.8192799171839
 30
0.0
 11
529.48
 21
626.0374
 31
0.0
  0
LINE
  5
CD5
330
1E
100
AcDbEntity
  8
0
100
AcDbLine
 10
528.0309999999999
 20
607.17705
 30
0.0
 11
529.48
 21
607.17705
 31
0.0
  0
LINE
  5
CD6
330
1E
100
AcDbEntity
  8
0
100
AcDbLine
 10
527.9819999999999
 20
756.672
 30
0.0
 11
529.246
 21
756.3639999999999
 31
0.0
  0
LINE
  5
CD7
330
1E
100
AcDbEntity
  8
0
100
AcDbLine
 10
527.9819999999999
 20
756.672
 30
0.0
 11
527.9819999999999
 21
758.140984472523
 31
0.0
  0
LINE
  5
CD8
330
1E
100
AcDbEntity
  8
0
100
AcDbLine
 10
528.4189999999999
 20
748.2207408802879
 30
0.0
 11
528.4189999999999
 21
747.7829999999999
 31
0.0
  0
LINE
  5
CD9
330
1E
100
AcDbEntity
  8
0
100
AcDbLine
 10
528.4189999999999
 20
747.7829999999999
 30
0.0
 11
529.6829999999999
 21
747.475
 31
0.0
  0
LINE
  5
CDA
330
1E
100
AcDbEntity
  8
0
100
AcDbLine
 10
528.4189999999999
 20
747.7829999999999
 30
0.0
 11
528.4189999999999
 21
748.2207408802879
 31
0.0
  0
LINE
  5
CDB
330
1E
100
AcDbEntity
  8
0
100
AcDbLine
 10
528.5159999999999
 20
720.6699999999999
 30
0.0
 11
529.246
 21
720.1360000000001
 31
0.0
  0
LINE
  5
CDC
330
1E
100
AcDbEntity
  8
0
100
AcDbLine
 10
529.6829999999999
 20
727.212
 30
0.0
 11
529.6829999999999
 21
727.306332517859
 31
0.0
  0
LINE
  5
CDD
330
1E
100
AcDbEntity
  8
0
100
AcDbLine
 10
528.5159999999999
 20
755.8289999999999
 30
0.0
 11
529.246
 21
756.3639999999999
 31
0.0
  0
LINE
  5
CDE
330
1E
100
AcDbEntity
  8
0
100
AcDbLine
 10
528.953
 20
746.941
 30
0.0
 11
529.6829999999999
 21
747.475
 31
0.0
  0
LINE
  5
CDF
330
1E
100
AcDbEntity
  8
0
100
AcDbLine
 10
529.72
 20
732.567
 30
0.0
 11
529.72
 21
733.1839999999999
 31
0.0
  0
LINE
  5
CE0
330
1E
100
AcDbEntity
  8
0
100
AcDbLine
 10
529.72
 20
732.567
 30
0.0
 11
531.1799999999999
 21
732.567
 31
0.0
  0
LINE
  5
CE1
330
1E
100
AcDbEntity
  8
0
100
AcDbLine
 10
529.72
 20
732.567
 30
0.0
 11
529.72
 21
733.3792867350779
 31
0.0
  0
LINE
  5
CE2
330
1E
100
AcDbEntity
  8
0
100
AcDbLine
 10
529.72
 20
733.3792867350779
 30
0.0
 11
529.72
 21
732.567
 31
0.0
  0
LINE
  5
CE3
330
1E
100
AcDbEntity
  8
0
100
AcDbLine
 10
529.72
 20
733.95879053442
 30
0.0
 11
529.72
 21
733.1839999999999
 31
0.0
  0
LINE
  5
CE4
330
1E
100
AcDbEntity
  8
0
100
AcDbLine
 10
529.72
 20
733.1839999999999
 30
0.0
 11
531.1799999999999
 21
733.1839999999999
 31
0.0
  0
LINE
  5
CE5
330
1E
100
AcDbEntity
  8
0
100
AcDbLine
 10
529.72
 20
733.1839999999999
 30
0.0
 11
529.72
 21
733.95879053442
 31
0.0
  0
LINE
  5
CE6
330
1E
100
AcDbEntity
  8
0
100
AcDbLine
 10
529.72
 20
733.1839999999999
 30
0.0
 11
529.72
 21
732.567
 31
0.0
  0
LINE
  5
CE7
330
1E
100
AcDbEntity
  8
0
100
AcDbLine
 10
531.1799999999999
 20
732.567
 30
0.0
 11
531.1799999999999
 21
733.1839999999999
 31
0.0
  0
LINE
  5
CE8
330
1E
100
AcDbEntity
  8
0
100
AcDbLine
 10
531.1799999999999
 20
734.1970817401089
 30
0.0
 11
531.1799999999999
 21
733.1839999999999
 31
0.0
  0
LINE
  5
CE9
330
1E
100
AcDbEntity
  8
0
100
AcDbLine
 10
531.1799999999999
 20
733.1839999999999
 30
0.0
 11
531.1799999999999
 21
732.567
 31
0.0
  0
LINE
  5
CEA
330
1E
100
AcDbEntity
  8
0
100
AcDbLine
 10
531.1799999999999
 20
733.1839999999999
 30
0.0
 11
531.1799999999999
 21
734.1970817401089
 31
0.0
  0
LINE
  5
CEB
330
1E
100
AcDbEntity
  8
0
100
AcDbLine
 10
529.72
 20
740.596
 30
0.0
 11
531.1799999999999
 21
740.596
 31
0.0
  0
LINE
  5
CEC
330
1E
100
AcDbEntity
  8
0
100
AcDbLine
 10
529.72
 20
740.596
 30
0.0
 11
529.72
 21
741.100067481884
 31
0.0
  0
LINE
  5
CED
330
1E
100
AcDbEntity
  8
0
100
AcDbLine
 10
529.72
 20
740.596
 30
0.0
 11
529.72
 21
741.2130000000001
 31
0.0
  0
LINE
  5
CEE
330
1E
100
AcDbEntity
  8
0
100
AcDbLine
 10
529.72
 20
741.7529981733199
 30
0.0
 11
529.72
 21
741.2130000000001
 31
0.0
  0
LINE
  5
CEF
330
1E
100
AcDbEntity
  8
0
100
AcDbLine
 10
531.1799999999999
 20
742.1168804061681
 30
0.0
 11
531.1799999999999
 21
741.2130000000001
 31
0.0
  0
LINE
  5
CF0
330
1E
100
AcDbEntity
  8
0
100
AcDbLine
 10
529.72
 20
741.2130000000001
 30
0.0
 11
529.72
 21
740.596
 31
0.0
  0
LINE
  5
CF1
330
1E
100
AcDbEntity
  8
0
100
AcDbLine
 10
529.72
 20
741.2130000000001
 30
0.0
 11
531.1799999999999
 21
741.2130000000001
 31
0.0
  0
LINE
  5
CF2
330
1E
100
AcDbEntity
  8
0
100
AcDbLine
 10
529.72
 20
741.2130000000001
 30
0.0
 11
529.72
 21
741.7529981733199
 31
0.0
  0
LINE
  5
CF3
330
1E
100
AcDbEntity
  8
0
100
AcDbLine
 10
529.72
 20
741.100067481884
 30
0.0
 11
529.72
 21
740.596
 31
0.0
  0
LINE
  5
CF4
330
1E
100
AcDbEntity
  8
0
100
AcDbLine
 10
531.1799999999999
 20
741.2130000000001
 30
0.0
 11
531.1799999999999
 21
742.1168804061681
 31
0.0
  0
LINE
  5
CF5
330
1E
100
AcDbEntity
  8
0
100
AcDbLine
 10
531.1799999999999
 20
741.2130000000001
 30
0.0
 11
531.1799999999999
 21
740.596
 31
0.0
  0
LINE
  5
CF6
330
1E
100
AcDbEntity
  8
0
100
AcDbLine
 10
531.1799999999999
 20
740.596
 30
0.0
 11
531.1799999999999
 21
741.2130000000001
 31
0.0
  0
LINE
  5
CF7
330
1E
100
AcDbEntity
  8
0
100
AcDbLine
 10
529.6829999999999
 20
747.475
 30
0.0
 11
529.6829999999999
 21
748.8588789509739
 31
0.0
  0
LINE
  5
CF8
330
1E
100
AcDbEntity
  8
0
100
AcDbLine
 10
529.246
 20
756.3639999999999
 30
0.0
 11
529.246
 21
757.9808919165781
 31
0.0
  0
LINE
  5
CF9
330
1E
100
AcDbEntity
  8
0
100
AcDbLine
 10
529.6829999999999
 20
748.8588789509739
 30
0.0
 11
529.6829999999999
 21
747.475
 31
0.0
  0
LINE
  5
CFA
330
1E
100
AcDbEntity
  8
0
100
AcDbLine
 10
528.953
 20
727.747
 30
0.0
 11
529.6829999999999
 21
727.212
 31
0.0
  0
LINE
  5
CFB
330
1E
100
AcDbEntity
  8
0
100
AcDbLine
 10
529.6829999999999
 20
727.306332517859
 30
0.0
 11
529.6829999999999
 21
727.212
 31
0.0
  0
LINE
  5
CFC
330
1E
100
AcDbEntity
  8
0
100
AcDbLine
 10
528.4189999999999
 20
726.903
 30
0.0
 11
529.6829999999999
 21
727.212
 31
0.0
  0
LINE
  5
CFD
330
1E
100
AcDbEntity
  8
0
100
AcDbLine
 10
529.246
 20
720.3315433094839
 30
0.0
 11
532.9559999999999
 21
720.802
 31
0.0
  0
LINE
  5
CFE
330
1E
100
AcDbEntity
  8
0
100
AcDbLine
 10
529.246
 20
720.3315433094839
 30
0.0
 11
529.246
 21
720.1360000000001
 31
0.0
  0
LINE
  5
D06
330
1E
100
AcDbEntity
  8
0
100
AcDbLine
 10
532.84
 20
606.6769999999999
 30
0.0
 11
540.1499999999999
 21
606.6769999999999
 31
0.0
  0
LINE
  5
D07
330
1E
100
AcDbEntity
  8
0
100
AcDbLine
 10
532.84
 20
600.177
 30
0.0
 11
540.1499999999999
 21
600.177
 31
0.0
  0
LINE
  5
D08
330
1E
100
AcDbEntity
  8
0
100
AcDbLine
 10
532.3599999999999
 20
607.177
 30
0.0
 11
539.78
 21
607.177
 31
0.0
  0
LINE
  5
D09
330
1E
100
AcDbEntity
  8
0
100
AcDbLine
 10
532.0689999999999
 20
750.9069999999999
 30
0.0
 11
533.3330000000001
 21
750.5989999999999
 31
0.0
  0
LINE
  5
D0A
330
1E
100
AcDbEntity
  8
0
100
AcDbLine
 10
532.0689999999999
 20
750.9069999999999
 30
0.0
 11
532.798
 21
751.442
 31
0.0
  0
LINE
  5
D0B
330
1E
100
AcDbEntity
  8
0
100
AcDbLine
 10
532.0689999999999
 20
725.7911326143981
 30
0.0
 11
532.0689999999999
 21
724.686
 31
0.0
  0
LINE
  5
D0C
330
1E
100
AcDbEntity
  8
0
100
AcDbLine
 10
532.883
 20
736.582
 30
0.0
 11
532.883
 21
737.1979999999999
 31
0.0
  0
LINE
  5
D0D
330
1E
100
AcDbEntity
  8
0
100
AcDbLine
 10
532.883
 20
736.582
 30
0.0
 11
534.343
 21
736.582
 31
0.0
  0
LINE
  5
D0E
330
1E
100
AcDbEntity
  8
0
100
AcDbLine
 10
532.883
 20
736.582
 30
0.0
 11
532.883
 21
737.5704778354049
 31
0.0
  0
LINE
  5
D0F
330
1E
100
AcDbEntity
  8
0
100
AcDbLine
 10
532.798
 20
751.442
 30
0.0
 11
534.0629999999999
 21
751.1339999999998
 31
0.0
  0
LINE
  5
D10
330
1E
100
AcDbEntity
  8
0
100
AcDbLine
 10
532.883
 20
737.5704778354049
 30
0.0
 11
532.883
 21
736.582
 31
0.0
  0
LINE
  5
D11
330
1E
100
AcDbEntity
  8
0
100
AcDbLine
 10
532.883
 20
738.1032931888849
 30
0.0
 11
532.883
 21
737.1979999999999
 31
0.0
  0
LINE
  5
D12
330
1E
100
AcDbEntity
  8
0
100
AcDbLine
 10
532.883
 20
737.1979999999999
 30
0.0
 11
534.343
 21
737.1979999999999
 31
0.0
  0
LINE
  5
D13
330
1E
100
AcDbEntity
  8
0
100
AcDbLine
 10
532.883
 20
737.1979999999999
 30
0.0
 11
532.883
 21
738.1032931888849
 31
0.0
  0
LINE
  5
D14
330
1E
100
AcDbEntity
  8
0
100
AcDbLine
 10
532.883
 20
737.1979999999999
 30
0.0
 11
532.883
 21
736.582
 31
0.0
  0
LINE
  5
D15
330
1E
100
AcDbEntity
  8
0
100
AcDbLine
 10
532.0689999999999
 20
724.686
 30
0.0
 11
533.3330000000001
 21
724.9939999999999
 31
0.0
  0
LINE
  5
D16
330
1E
100
AcDbEntity
  8
0
100
AcDbLine
 10
532.0689999999999
 20
724.686
 30
0.0
 11
532.798
 21
724.151
 31
0.0
  0
LINE
  5
D17
330
1E
100
AcDbEntity
  8
0
100
AcDbLine
 10
532.0689999999999
 20
724.686
 30
0.0
 11
532.0689999999999
 21
725.7911326143981
 31
0.0
  0
LINE
  5
D18
330
1E
100
AcDbEntity
  8
0
100
AcDbLine
 10
532.798
 20
724.151
 30
0.0
 11
534.0629999999999
 21
724.46
 31
0.0
  0
LINE
  5
D19
330
1E
100
AcDbEntity
  8
0
100
AcDbLine
 10
533.3330000000001
 20
750.5989999999999
 30
0.0
 11
534.0629999999999
 21
751.1339999999998
 31
0.0
  0
LINE
  5
D1A
330
1E
100
AcDbEntity
  8
0
100
AcDbLine
 10
533.3330000000001
 20
725.700110594487
 30
0.0
 11
533.3330000000001
 21
724.9939999999999
 31
0.0
  0
LINE
  5
D1B
330
1E
100
AcDbEntity
  8
0
100
AcDbLine
 10
533.3330000000001
 20
724.9939999999999
 30
0.0
 11
534.0629999999999
 21
724.46
 31
0.0
  0
LINE
  5
D1C
330
1E
100
AcDbEntity
  8
0
100
AcDbLine
 10
533.3330000000001
 20
724.9939999999999
 30
0.0
 11
533.3330000000001
 21
725.700110594487
 31
0.0
  0
LINE
  5
D1D
330
1E
100
AcDbEntity
  8
0
100
AcDbLine
 10
532.9559999999999
 20
720.802
 30
0.0
 11
536.900806451613
 21
721.601768979231
 31
0.0
  0
LINE
  5
D1E
330
1E
100
AcDbEntity
  8
0
100
AcDbLine
 10
533.832
 20
719.9689999999999
 30
0.0
 11
539.5249999999999
 21
721.11
 31
0.0
  0
LINE
  5
D1F
330
1E
100
AcDbEntity
  8
0
100
AcDbLine
 10
527.9819999999999
 20
758.140984472523
 30
0.0
 11
527.9819999999999
 21
756.672
 31
0.0
  0
LINE
  5
D20
330
1E
100
AcDbEntity
  8
0
100
AcDbLine
 10
529.246
 20
757.9808919165781
 30
0.0
 11
529.246
 21
756.3639999999999
 31
0.0
  0
LINE
  5
D21
330
1E
100
AcDbEntity
  8
0
100
AcDbLine
 10
532.9559999999999
 20
757.5110000000001
 30
0.0
 11
538.431
 21
756.4
 31
0.0
  0
LINE
  5
D29
330
1E
100
AcDbEntity
  8
0
100
AcDbLine
 10
535.5319999999998
 20
600.177
 30
0.0
 11
540.172
 21
600.177
 31
0.0
  0
LINE
  5
D2D
330
1E
100
AcDbEntity
  8
0
100
AcDbLine
 10
534.0629999999999
 20
724.46
 30
0.0
 11
534.0629999999999
 21
725.536278811026
 31
0.0
  0
LINE
  5
D2E
330
1E
100
AcDbEntity
  8
0
100
AcDbLine
 10
534.1799999999999
 20
729.875645410292
 30
0.0
 11
534.1799999999999
 21
729.4529999999999
 31
0.0
  0
LINE
  5
D2F
330
1E
100
AcDbEntity
  8
0
100
AcDbLine
 10
534.1799999999999
 20
729.4529999999999
 30
0.0
 11
534.1799999999999
 21
730.07
 31
0.0
  0
LINE
  5
D30
330
1E
100
AcDbEntity
  8
0
100
AcDbLine
 10
534.1799999999999
 20
729.4529999999999
 30
0.0
 11
535.6399999999999
 21
729.4529999999999
 31
0.0
  0
LINE
  5
D31
330
1E
100
AcDbEntity
  8
0
100
AcDbLine
 10
534.1799999999999
 20
729.4529999999999
 30
0.0
 11
534.1799999999999
 21
729.875645410292
 31
0.0
  0
LINE
  5
D32
330
1E
100
AcDbEntity
  8
0
100
AcDbLine
 10
535.6399999999999
 20
729.4529999999999
 30
0.0
 11
535.6399999999999
 21
730.07
 31
0.0
  0
LINE
  5
D33
330
1E
100
AcDbEntity
  8
0
100
AcDbLine
 10
534.1799999999999
 20
730.07
 30
0.0
 11
535.6399999999999
 21
730.07
 31
0.0
  0
LINE
  5
D34
330
1E
100
AcDbEntity
  8
0
100
AcDbLine
 10
534.1799999999999
 20
730.07
 30
0.0
 11
534.1799999999999
 21
731.2759312086379
 31
0.0
  0
LINE
  5
D35
330
1E
100
AcDbEntity
  8
0
100
AcDbLine
 10
534.1799999999999
 20
730.07
 30
0.0
 11
534.1799999999999
 21
729.4529999999999
 31
0.0
  0
LINE
  5
D36
330
1E
100
AcDbEntity
  8
0
100
AcDbLine
 10
534.1799999999999
 20
731.2759312086379
 30
0.0
 11
534.1799999999999
 21
730.07
 31
0.0
  0
LINE
  5
D37
330
1E
100
AcDbEntity
  8
0
100
AcDbLine
 10
535.6399999999999
 20
730.9527580982241
 30
0.0
 11
535.6399999999999
 21
730.07
 31
0.0
  0
LINE
  5
D38
330
1E
100
AcDbEntity
  8
0
100
AcDbLine
 10
535.6399999999999
 20
730.07
 30
0.0
 11
535.6399999999999
 21
729.4529999999999
 31
0.0
  0
LINE
  5
D39
330
1E
100
AcDbEntity
  8
0
100
AcDbLine
 10
535.6399999999999
 20
730.07
 30
0.0
 11
535.6399999999999
 21
730.9527580982241
 31
0.0
  0
LINE
  5
D3A
330
1E
100
AcDbEntity
  8
0
100
AcDbLine
 10
534.0629999999999
 20
725.536278811026
 30
0.0
 11
534.0629999999999
 21
724.46
 31
0.0
  0
LINE
  5
D3B
330
1E
100
AcDbEntity
  8
0
100
AcDbLine
 10
536.4479999999999
 20
722.536839049394
 30
0.0
 11
536.4479999999999
 21
721.933
 31
0.0
  0
LINE
  5
D3C
330
1E
100
AcDbEntity
  8
0
100
AcDbLine
 10
536.4479999999999
 20
721.933
 30
0.0
 11
537.7119999999999
 21
722.241
 31
0.0
  0
LINE
  5
D3D
330
1E
100
AcDbEntity
  8
0
100
AcDbLine
 10
536.4479999999999
 20
721.933
 30
0.0
 11
537.178
 21
721.3989999999999
 31
0.0
  0
LINE
  5
D3E
330
1E
100
AcDbEntity
  8
0
100
AcDbLine
 10
536.4479999999999
 20
721.933
 30
0.0
 11
536.4479999999999
 21
722.536839049394
 31
0.0
  0
LINE
  5
D40
330
1E
100
AcDbEntity
  8
0
100
AcDbLine
 10
537.7119999999999
 20
722.350399300496
 30
0.0
 11
537.7119999999999
 21
722.241
 31
0.0
  0
LINE
  5
D41
330
1E
100
AcDbEntity
  8
0
100
AcDbLine
 10
537.7119999999999
 20
722.241
 30
0.0
 11
538.442
 21
721.7069999999999
 31
0.0
  0
LINE
  5
D42
330
1E
100
AcDbEntity
  8
0
100
AcDbLine
 10
537.7119999999999
 20
722.241
 30
0.0
 11
537.7119999999999
 21
722.350399300496
 31
0.0
  0
LINE
  5
D43
330
1E
100
AcDbEntity
  8
0
100
AcDbLine
 10
537.178
 20
721.3989999999999
 30
0.0
 11
538.442
 21
721.7069999999999
 31
0.0
  0
LINE
  5
D44
330
1E
100
AcDbEntity
  8
0
100
AcDbLine
 10
534.343
 20
736.582
 30
0.0
 11
534.343
 21
737.1979999999999
 31
0.0
  0
LINE
  5
D45
330
1E
100
AcDbEntity
  8
0
100
AcDbLine
 10
534.0629999999999
 20
751.1339999999998
 30
0.0
 11
534.0629999999999
 21
751.3389393889069
 31
0.0
  0
LINE
  5
D46
330
1E
100
AcDbEntity
  8
0
100
AcDbLine
 10
534.1799999999999
 20
745.2339999999999
 30
0.0
 11
534.1799999999999
 21
744.6169999999999
 31
0.0
  0
LINE
  5
D47
330
1E
100
AcDbEntity
  8
0
100
AcDbLine
 10
534.1799999999999
 20
745.2339999999999
 30
0.0
 11
535.6399999999999
 21
745.2339999999999
 31
0.0
  0
LINE
  5
D48
330
1E
100
AcDbEntity
  8
0
100
AcDbLine
 10
534.1799999999999
 20
745.2339999999999
 30
0.0
 11
534.1799999999999
 21
746.0876931154379
 31
0.0
  0
LINE
  5
D49
330
1E
100
AcDbEntity
  8
0
100
AcDbLine
 10
534.1799999999999
 20
746.0876931154379
 30
0.0
 11
534.1799999999999
 21
745.2339999999999
 31
0.0
  0
LINE
  5
D4A
330
1E
100
AcDbEntity
  8
0
100
AcDbLine
 10
534.1799999999999
 20
744.6169999999999
 30
0.0
 11
535.6399999999999
 21
744.6169999999999
 31
0.0
  0
LINE
  5
D4B
330
1E
100
AcDbEntity
  8
0
100
AcDbLine
 10
534.1799999999999
 20
744.6169999999999
 30
0.0
 11
534.1799999999999
 21
745.2339999999999
 31
0.0
  0
LINE
  5
D4C
330
1E
100
AcDbEntity
  8
0
100
AcDbLine
 10
534.0629999999999
 20
751.3389393889069
 30
0.0
 11
534.0629999999999
 21
751.1339999999998
 31
0.0
  0
LINE
  5
D4D
330
1E
100
AcDbEntity
  8
0
100
AcDbLine
 10
534.343
 20
738.1172661776139
 30
0.0
 11
534.343
 21
737.1979999999999
 31
0.0
  0
LINE
  5
D4E
330
1E
100
AcDbEntity
  8
0
100
AcDbLine
 10
535.6399999999999
 20
745.2339999999999
 30
0.0
 11
535.6399999999999
 21
744.6169999999999
 31
0.0
  0
LINE
  5
D4F
330
1E
100
AcDbEntity
  8
0
100
AcDbLine
 10
535.6399999999999
 20
744.6169999999999
 30
0.0
 11
535.6399999999999
 21
745.2339999999999
 31
0.0
  0
LINE
  5
D50
330
1E
100
AcDbEntity
  8
0
100
AcDbLine
 10
536.4479999999999
 20
754.567
 30
0.0
 11
537.7119999999999
 21
754.258
 31
0.0
  0
LINE
  5
D51
330
1E
100
AcDbEntity
  8
0
100
AcDbLine
 10
536.4479999999999
 20
754.567
 30
0.0
 11
537.178
 21
755.1010000000001
 31
0.0
  0
LINE
  5
D52
330
1E
100
AcDbEntity
  8
0
100
AcDbLine
 10
536.4479999999999
 20
754.567
 30
0.0
 11
536.4479999999999
 21
755.4401023299159
 31
0.0
  0
LINE
  5
D53
330
1E
100
AcDbEntity
  8
0
100
AcDbLine
 10
537.7119999999999
 20
754.258
 30
0.0
 11
538.442
 21
754.7919999999999
 31
0.0
  0
LINE
  5
D54
330
1E
100
AcDbEntity
  8
0
100
AcDbLine
 10
537.178
 20
755.793468592731
 30
0.0
 11
537.178
 21
755.1010000000001
 31
0.0
  0
LINE
  5
D55
330
1E
100
AcDbEntity
  8
0
100
AcDbLine
 10
536.4479999999999
 20
755.4401023299159
 30
0.0
 11
536.4479999999999
 21
754.567
 31
0.0
  0
LINE
  5
D56
330
1E
100
AcDbEntity
  8
0
100
AcDbLine
 10
537.178
 20
755.1010000000001
 30
0.0
 11
538.442
 21
754.7919999999999
 31
0.0
  0
LINE
  5
D57
330
1E
100
AcDbEntity
  8
0
100
AcDbLine
 10
537.178
 20
755.1010000000001
 30
0.0
 11
537.178
 21
755.793468592731
 31
0.0
  0
LINE
  5
D58
330
1E
100
AcDbEntity
  8
0
100
AcDbLine
 10
534.343
 20
737.1979999999999
 30
0.0
 11
534.343
 21
736.582
 31
0.0
  0
LINE
  5
D59
330
1E
100
AcDbEntity
  8
0
100
AcDbLine
 10
534.343
 20
737.1979999999999
 30
0.0
 11
534.343
 21
738.1172661776139
 31
0.0
  0
LINE
  5
D5E
330
1E
100
AcDbEntity
  8
0
100
AcDbLine
 10
538.442
 20
754.7919999999999
 30
0.0
 11
538.442
 21
756.3968562331149
 31
0.0
  0
LINE
  5
D5F
330
1E
100
AcDbEntity
  8
0
100
AcDbLine
 10
538.442
 20
756.3968562331149
 30
0.0
 11
538.442
 21
754.7919999999999
 31
0.0
  0
LINE
  5
D60
330
1E
100
AcDbEntity
  8
0
100
AcDbLine
 10
538.442
 20
721.7069999999999
 30
0.0
 11
538.442
 21
721.915143766885
 31
0.0
  0
LINE
  5
D61
330
1E
100
AcDbEntity
  8
0
100
AcDbLine
 10
539.0449999999999
 20
726.5089999999998
 30
0.0
 11
539.0449999999999
 21
727.126
 31
0.0
  0
LINE
  5
D62
330
1E
100
AcDbEntity
  8
0
100
AcDbLine
 10
539.0449999999999
 20
726.5089999999998
 30
0.0
 11
540.505
 21
726.5089999999998
 31
0.0
  0
LINE
  5
D63
330
1E
100
AcDbEntity
  8
0
100
AcDbLine
 10
539.0449999999999
 20
728.14442582558
 30
0.0
 11
539.0449999999999
 21
727.126
 31
0.0
  0
LINE
  5
D64
330
1E
100
AcDbEntity
  8
0
100
AcDbLine
 10
539.4519999999999
 20
733.66775879397
 30
0.0
 11
539.4519999999999
 21
733.261
 31
0.0
  0
LINE
  5
D65
330
1E
100
AcDbEntity
  8
0
100
AcDbLine
 10
539.4519999999999
 20
733.261
 30
0.0
 11
539.4519999999999
 21
733.8769999999999
 31
0.0
  0
LINE
  5
D66
330
1E
100
AcDbEntity
  8
0
100
AcDbLine
 10
539.4519999999999
 20
733.261
 30
0.0
 11
540.9119999999999
 21
733.261
 31
0.0
  0
LINE
  5
D67
330
1E
100
AcDbEntity
  8
0
100
AcDbLine
 10
539.4519999999999
 20
733.261
 30
0.0
 11
539.4519999999999
 21
733.66775879397
 31
0.0
  0
LINE
  5
D68
330
1E
100
AcDbEntity
  8
0
100
AcDbLine
 10
539.4519999999999
 20
734.8785773703919
 30
0.0
 11
539.4519999999999
 21
733.8769999999999
 31
0.0
  0
LINE
  5
D69
330
1E
100
AcDbEntity
  8
0
100
AcDbLine
 10
539.4519999999999
 20
733.8769999999999
 30
0.0
 11
540.9119999999999
 21
733.8769999999999
 31
0.0
  0
LINE
  5
D6A
330
1E
100
AcDbEntity
  8
0
100
AcDbLine
 10
539.4519999999999
 20
733.8769999999999
 30
0.0
 11
539.4519999999999
 21
734.8785773703919
 31
0.0
  0
LINE
  5
D6B
330
1E
100
AcDbEntity
  8
0
100
AcDbLine
 10
539.4519999999999
 20
733.8769999999999
 30
0.0
 11
539.4519999999999
 21
733.261
 31
0.0
  0
LINE
  5
D6C
330
1E
100
AcDbEntity
  8
0
100
AcDbLine
 10
539.0449999999999
 20
727.126
 30
0.0
 11
540.505
 21
727.126
 31
0.0
  0
LINE
  5
D6D
330
1E
100
AcDbEntity
  8
0
100
AcDbLine
 10
539.0449999999999
 20
727.126
 30
0.0
 11
539.0449999999999
 21
728.14442582558
 31
0.0
  0
LINE
  5
D6E
330
1E
100
AcDbEntity
  8
0
100
AcDbLine
 10
539.0449999999999
 20
727.126
 30
0.0
 11
539.0449999999999
 21
726.5089999999998
 31
0.0
  0
LINE
  5
D6F
330
1E
100
AcDbEntity
  8
0
100
AcDbLine
 10
539.0449999999999
 20
750.4848670053109
 30
0.0
 11
539.0449999999999
 21
749.0839999999999
 31
0.0
  0
LINE
  5
D70
330
1E
100
AcDbEntity
  8
0
100
AcDbLine
 10
539.0449999999999
 20
749.0839999999999
 30
0.0
 11
539.0449999999999
 21
748.467
 31
0.0
  0
LINE
  5
D71
330
1E
100
AcDbEntity
  8
0
100
AcDbLine
 10
539.0449999999999
 20
749.0839999999999
 30
0.0
 11
540.505
 21
749.0839999999999
 31
0.0
  0
LINE
  5
D72
330
1E
100
AcDbEntity
  8
0
100
AcDbLine
 10
539.0449999999999
 20
749.0839999999999
 30
0.0
 11
539.0449999999999
 21
750.4848670053109
 31
0.0
  0
LINE
  5
D73
330
1E
100
AcDbEntity
  8
0
100
AcDbLine
 10
539.0449999999999
 20
748.467
 30
0.0
 11
540.505
 21
748.467
 31
0.0
  0
LINE
  5
D74
330
1E
100
AcDbEntity
  8
0
100
AcDbLine
 10
539.0449999999999
 20
748.467
 30
0.0
 11
539.0449999999999
 21
749.0839999999999
 31
0.0
  0
LINE
  5
D75
330
1E
100
AcDbEntity
  8
0
100
AcDbLine
 10
539.4519999999999
 20
742.2361782597199
 30
0.0
 11
539.4519999999999
 21
741.426
 31
0.0
  0
LINE
  5
D76
330
1E
100
AcDbEntity
  8
0
100
AcDbLine
 10
539.4519999999999
 20
741.426
 30
0.0
 11
539.4519999999999
 21
740.8089999999999
 31
0.0
  0
LINE
  5
D77
330
1E
100
AcDbEntity
  8
0
100
AcDbLine
 10
539.4519999999999
 20
741.426
 30
0.0
 11
540.9119999999999
 21
741.426
 31
0.0
  0
LINE
  5
D78
330
1E
100
AcDbEntity
  8
0
100
AcDbLine
 10
539.4519999999999
 20
741.426
 30
0.0
 11
539.4519999999999
 21
742.2361782597199
 31
0.0
  0
LINE
  5
D79
330
1E
100
AcDbEntity
  8
0
100
AcDbLine
 10
539.4519999999999
 20
740.942737039227
 30
0.0
 11
539.4519999999999
 21
740.8089999999999
 31
0.0
  0
LINE
  5
D7A
330
1E
100
AcDbEntity
  8
0
100
AcDbLine
 10
539.4519999999999
 20
740.8089999999999
 30
0.0
 11
540.9119999999999
 21
740.8089999999999
 31
0.0
  0
LINE
  5
D7B
330
1E
100
AcDbEntity
  8
0
100
AcDbLine
 10
539.4519999999999
 20
740.8089999999999
 30
0.0
 11
539.4519999999999
 21
740.942737039227
 31
0.0
  0
LINE
  5
D7C
330
1E
100
AcDbEntity
  8
0
100
AcDbLine
 10
539.4519999999999
 20
740.8089999999999
 30
0.0
 11
539.4519999999999
 21
741.426
 31
0.0
  0
LINE
  5
D7D
330
1E
100
AcDbEntity
  8
0
100
AcDbLine
 10
538.442
 20
721.915143766885
 30
0.0
 11
543.613
 21
723.393
 31
0.0
  0
LINE
  5
D7E
330
1E
100
AcDbEntity
  8
0
100
AcDbLine
 10
538.442
 20
721.915143766885
 30
0.0
 11
538.442
 21
721.7069999999999
 31
0.0
  0
LINE
  5
D7F
330
1E
100
AcDbEntity
  8
0
100
AcDbLine
 10
539.5249999999999
 20
721.11
 30
0.0
 11
544.927
 21
722.6519999999999
 31
0.0
  0
LINE
  5
D80
330
1E
100
AcDbEntity
  8
0
100
AcDbLine
 10
538.431
 20
756.4
 30
0.0
 11
543.613
 21
754.919
 31
0.0
  0
LINE
  5
D81
330
1E
100
AcDbEntity
  8
0
100
AcDbLine
 10
539.5249999999999
 20
757.202
 30
0.0
 11
544.927
 21
755.6599999999999
 31
0.0
  0
LINE
  5
D82
330
1E
100
AcDbEntity
  8
0
100
AcDbLine
 10
533.832
 20
758.343
 30
0.0
 11
539.5249999999999
 21
757.202
 31
0.0
  0
LINE
  5
D83
330
1E
100
AcDbEntity
  8
0
100
AcDbLine
 10
534.1239999999999
 20
759.5579999999999
 30
0.0
 11
539.8909999999999
 21
758.355
 31
0.0
  0
LINE
  5
D84
330
1E
100
AcDbEntity
  8
0
100
AcDbLine
 10
527.9199999999999
 20
760.422
 30
0.0
 11
534.1239999999999
 21
759.5579999999999
 31
0.0
  0
LINE
  5
D85
330
1E
100
AcDbEntity
  8
0
100
AcDbLine
 10
534.1239999999999
 20
778.591
 30
0.0
 11
539.8909999999999
 21
777.388
 31
0.0
  0
LINE
  5
D92
330
1E
100
AcDbEntity
  8
0
100
AcDbLine
 10
540.1499999999999
 20
606.6769999999999
 30
0.0
 11
545.84
 21
606.6769999999999
 31
0.0
  0
LINE
  5
DAA
330
1E
100
AcDbEntity
  8
0
100
AcDbLine
 10
540.32
 20
600.177
 30
0.0
 11
543.2
 21
600.177
 31
0.0
  0
LINE
  5
DAB
330
1E
100
AcDbEntity
  8
0
100
AcDbLine
 10
540.172
 20
600.177
 30
0.0
 11
542.956
 21
600.177
 31
0.0
  0
LINE
  5
DAC
330
1E
100
AcDbEntity
  8
0
100
AcDbLine
 10
542.956
 20
600.177
 30
0.0
 11
544.0
 21
600.177
 31
0.0
  0
LINE
  5
DAE
330
1E
100
AcDbEntity
  8
0
100
AcDbLine
 10
540.1499999999999
 20
600.177
 30
0.0
 11
545.84
 21
600.177
 31
0.0
  0
LINE
  5
DAF
330
1E
100
AcDbEntity
  8
0
100
AcDbLine
 10
540.505
 20
726.5089999999998
 30
0.0
 11
540.505
 21
727.126
 31
0.0
  0
LINE
  5
DB0
330
1E
100
AcDbEntity
  8
0
100
AcDbLine
 10
540.505
 20
727.662734791944
 30
0.0
 11
540.505
 21
727.126
 31
0.0
  0
LINE
  5
DB1
330
1E
100
AcDbEntity
  8
0
100
AcDbLine
 10
540.9119999999999
 20
733.261
 30
0.0
 11
540.9119999999999
 21
733.8769999999999
 31
0.0
  0
LINE
  5
DB2
330
1E
100
AcDbEntity
  8
0
100
AcDbLine
 10
540.9119999999999
 20
734.832889414548
 30
0.0
 11
540.9119999999999
 21
733.8769999999999
 31
0.0
  0
LINE
  5
DB3
330
1E
100
AcDbEntity
  8
0
100
AcDbLine
 10
540.9119999999999
 20
733.8769999999999
 30
0.0
 11
540.9119999999999
 21
733.261
 31
0.0
  0
LINE
  5
DB4
330
1E
100
AcDbEntity
  8
0
100
AcDbLine
 10
540.9119999999999
 20
733.8769999999999
 30
0.0
 11
540.9119999999999
 21
734.832889414548
 31
0.0
  0
LINE
  5
DB5
330
1E
100
AcDbEntity
  8
0
100
AcDbLine
 10
540.505
 20
727.126
 30
0.0
 11
540.505
 21
726.5089999999998
 31
0.0
  0
LINE
  5
DB6
330
1E
100
AcDbEntity
  8
0
100
AcDbLine
 10
540.505
 20
727.126
 30
0.0
 11
540.505
 21
727.662734791944
 31
0.0
  0
LINE
  5
DB7
330
1E
100
AcDbEntity
  8
0
100
AcDbLine
 10
541.6419999999999
 20
737.7342052079288
 30
0.0
 11
541.6419999999999
 21
737.035
 31
0.0
  0
LINE
  5
DB8
330
1E
100
AcDbEntity
  8
0
100
AcDbLine
 10
541.6419999999999
 20
737.035
 30
0.0
 11
541.6419999999999
 21
737.6519999999999
 31
0.0
  0
LINE
  5
DB9
330
1E
100
AcDbEntity
  8
0
100
AcDbLine
 10
541.6419999999999
 20
737.035
 30
0.0
 11
543.102
 21
737.035
 31
0.0
  0
LINE
  5
DBA
330
1E
100
AcDbEntity
  8
0
100
AcDbLine
 10
541.6419999999999
 20
737.035
 30
0.0
 11
541.6419999999999
 21
737.7342052079288
 31
0.0
  0
LINE
  5
DBB
330
1E
100
AcDbEntity
  8
0
100
AcDbLine
 10
541.6419999999999
 20
738.187121550719
 30
0.0
 11
541.6419999999999
 21
737.6519999999999
 31
0.0
  0
LINE
  5
DBC
330
1E
100
AcDbEntity
  8
0
100
AcDbLine
 10
543.102
 20
737.035
 30
0.0
 11
543.102
 21
737.6519999999999
 31
0.0
  0
LINE
  5
DBD
330
1E
100
AcDbEntity
  8
0
100
AcDbLine
 10
541.6419999999999
 20
737.6519999999999
 30
0.0
 11
543.102
 21
737.6519999999999
 31
0.0
  0
LINE
  5
DBE
330
1E
100
AcDbEntity
  8
0
100
AcDbLine
 10
541.6419999999999
 20
737.6519999999999
 30
0.0
 11
541.6419999999999
 21
738.187121550719
 31
0.0
  0
LINE
  5
DBF
330
1E
100
AcDbEntity
  8
0
100
AcDbLine
 10
541.6419999999999
 20
737.6519999999999
 30
0.0
 11
541.6419999999999
 21
737.035
 31
0.0
  0
LINE
  5
DC0
330
1E
100
AcDbEntity
  8
0
100
AcDbLine
 10
540.9119999999999
 20
740.8089999999999
 30
0.0
 11
540.9119999999999
 21
741.426
 31
0.0
  0
LINE
  5
DC1
330
1E
100
AcDbEntity
  8
0
100
AcDbLine
 10
543.102
 20
738.2010945394479
 30
0.0
 11
543.102
 21
737.6519999999999
 31
0.0
  0
LINE
  5
DC2
330
1E
100
AcDbEntity
  8
0
100
AcDbLine
 10
543.2619999999999
 20
723.5498920657609
 30
0.0
 11
543.2619999999999
 21
723.428
 31
0.0
  0
LINE
  5
DC3
330
1E
100
AcDbEntity
  8
0
100
AcDbLine
 10
543.2619999999999
 20
723.428
 30
0.0
 11
543.2619999999999
 21
724.045
 31
0.0
  0
LINE
  5
DC4
330
1E
100
AcDbEntity
  8
0
100
AcDbLine
 10
543.2619999999999
 20
723.428
 30
0.0
 11
544.7219999999999
 21
723.428
 31
0.0
  0
LINE
  5
DC5
330
1E
100
AcDbEntity
  8
0
100
AcDbLine
 10
543.2619999999999
 20
723.428
 30
0.0
 11
543.2619999999999
 21
723.5498920657609
 31
0.0
  0
LINE
  5
DC6
330
1E
100
AcDbEntity
  8
0
100
AcDbLine
 10
543.2619999999999
 20
724.045
 30
0.0
 11
544.7219999999999
 21
724.045
 31
0.0
  0
LINE
  5
DC7
330
1E
100
AcDbEntity
  8
0
100
AcDbLine
 10
543.2619999999999
 20
724.045
 30
0.0
 11
543.2619999999999
 21
723.428
 31
0.0
  0
LINE
  5
DC8
330
1E
100
AcDbEntity
  8
0
100
AcDbLine
 10
543.102
 20
737.6519999999999
 30
0.0
 11
543.102
 21
737.035
 31
0.0
  0
LINE
  5
DC9
330
1E
100
AcDbEntity
  8
0
100
AcDbLine
 10
543.102
 20
737.6519999999999
 30
0.0
 11
543.102
 21
738.2010945394479
 31
0.0
  0
LINE
  5
DCA
330
1E
100
AcDbEntity
  8
0
100
AcDbLine
 10
539.78
 20
607.177
 30
0.0
 11
545.38
 21
607.177
 31
0.0
  0
LINE
  5
DCB
330
1E
100
AcDbEntity
  8
0
100
AcDbLine
 10
543.613
 20
723.393
 30
0.0
 11
543.7062049797329
 21
723.428
 31
0.0
  0
LINE
  5
DCC
330
1E
100
AcDbEntity
  8
0
100
AcDbLine
 10
540.505
 20
749.220700541867
 30
0.0
 11
540.505
 21
749.0839999999999
 31
0.0
  0
LINE
  5
DCD
330
1E
100
AcDbEntity
  8
0
100
AcDbLine
 10
540.505
 20
749.0839999999999
 30
0.0
 11
540.505
 21
749.220700541867
 31
0.0
  0
LINE
  5
DCE
330
1E
100
AcDbEntity
  8
0
100
AcDbLine
 10
540.505
 20
749.0839999999999
 30
0.0
 11
540.505
 21
748.467
 31
0.0
  0
LINE
  5
DCF
330
1E
100
AcDbEntity
  8
0
100
AcDbLine
 10
540.505
 20
748.467
 30
0.0
 11
540.505
 21
749.0839999999999
 31
0.0
  0
LINE
  5
DD0
330
1E
100
AcDbEntity
  8
0
100
AcDbLine
 10
540.9119999999999
 20
742.561077492727
 30
0.0
 11
540.9119999999999
 21
741.426
 31
0.0
  0
LINE
  5
DD1
330
1E
100
AcDbEntity
  8
0
100
AcDbLine
 10
543.2619999999999
 20
753.071
 30
0.0
 11
543.2619999999999
 21
752.454
 31
0.0
  0
LINE
  5
DD2
330
1E
100
AcDbEntity
  8
0
100
AcDbLine
 10
543.2619999999999
 20
753.071
 30
0.0
 11
544.7219999999999
 21
753.071
 31
0.0
  0
LINE
  5
DD3
330
1E
100
AcDbEntity
  8
0
100
AcDbLine
 10
543.2619999999999
 20
753.071
 30
0.0
 11
543.2619999999999
 21
754.6863380986419
 31
0.0
  0
LINE
  5
DD4
330
1E
100
AcDbEntity
  8
0
100
AcDbLine
 10
543.2619999999999
 20
752.454
 30
0.0
 11
544.7219999999999
 21
752.454
 31
0.0
  0
LINE
  5
DD5
330
1E
100
AcDbEntity
  8
0
100
AcDbLine
 10
543.2619999999999
 20
752.454
 30
0.0
 11
543.2619999999999
 21
753.071
 31
0.0
  0
LINE
  5
DD6
330
1E
100
AcDbEntity
  8
0
100
AcDbLine
 10
540.9119999999999
 20
741.426
 30
0.0
 11
540.9119999999999
 21
742.561077492727
 31
0.0
  0
LINE
  5
DD7
330
1E
100
AcDbEntity
  8
0
100
AcDbLine
 10
540.9119999999999
 20
741.426
 30
0.0
 11
540.9119999999999
 21
740.8089999999999
 31
0.0
  0
LINE
  5
DD8
330
1E
100
AcDbEntity
  8
0
100
AcDbLine
 10
543.2619999999999
 20
754.6863380986419
 30
0.0
 11
543.2619999999999
 21
753.071
 31
0.0
  0
LINE
  5
DDF
330
1E
100
AcDbEntity
  8
0
100
AcDbLine
 10
544.7219999999999
 20
723.428
 30
0.0
 11
544.7219999999999
 21
724.045
 31
0.0
  0
LINE
  5
DE0
330
1E
100
AcDbEntity
  8
0
100
AcDbLine
 10
544.28
 20
600.177
 30
0.0
 11
545.84
 21
600.177
 31
0.0
  0
LINE
  5
DE1
330
1E
100
AcDbEntity
  8
0
100
AcDbLine
 10
544.399
 20
729.6080688420759
 30
0.0
 11
544.399
 21
729.323
 31
0.0
  0
LINE
  5
DE2
330
1E
100
AcDbEntity
  8
0
100
AcDbLine
 10
544.399
 20
729.323
 30
0.0
 11
544.399
 21
729.94
 31
0.0
  0
LINE
  5
DE3
330
1E
100
AcDbEntity
  8
0
100
AcDbLine
 10
544.399
 20
729.323
 30
0.0
 11
545.859
 21
729.323
 31
0.0
  0
LINE
  5
DE4
330
1E
100
AcDbEntity
  8
0
100
AcDbLine
 10
544.399
 20
729.323
 30
0.0
 11
544.399
 21
729.6080688420759
 31
0.0
  0
LINE
  5
DE5
330
1E
100
AcDbEntity
  8
0
100
AcDbLine
 10
544.399
 20
731.1410949850548
 30
0.0
 11
544.399
 21
729.94
 31
0.0
  0
LINE
  5
DE6
330
1E
100
AcDbEntity
  8
0
100
AcDbLine
 10
544.399
 20
729.94
 30
0.0
 11
545.859
 21
729.94
 31
0.0
  0
LINE
  5
DE7
330
1E
100
AcDbEntity
  8
0
100
AcDbLine
 10
544.399
 20
729.94
 30
0.0
 11
544.399
 21
731.1410949850548
 31
0.0
  0
LINE
  5
DE8
330
1E
100
AcDbEntity
  8
0
100
AcDbLine
 10
544.399
 20
729.94
 30
0.0
 11
544.399
 21
729.323
 31
0.0
  0
LINE
  5
DE9
330
1E
100
AcDbEntity
  8
0
100
AcDbLine
 10
544.7219999999999
 20
725.663927499423
 30
0.0
 11
544.7219999999999
 21
724.045
 31
0.0
  0
LINE
  5
DEA
330
1E
100
AcDbEntity
  8
0
100
AcDbLine
 10
544.7219999999999
 20
724.045
 30
0.0
 11
544.7219999999999
 21
723.428
 31
0.0
  0
LINE
  5
DEB
330
1E
100
AcDbEntity
  8
0
100
AcDbLine
 10
544.7219999999999
 20
724.045
 30
0.0
 11
544.7219999999999
 21
725.663927499423
 31
0.0
  0
LINE
  5
DEC
330
1E
100
AcDbEntity
  8
0
100
AcDbLine
 10
544.7219999999999
 20
723.8094477060229
 30
0.0
 11
548.212
 21
725.1199999999999
 31
0.0
  0
LINE
  5
DEF
330
1E
100
AcDbEntity
  8
0
100
AcDbLine
 10
544.927
 20
722.6519999999999
 30
0.0
 11
549.8179999999999
 21
724.4419999999999
 31
0.0
  0
LINE
  5
DF0
330
1E
100
AcDbEntity
  8
0
100
AcDbLine
 10
544.399
 20
747.2813751893158
 30
0.0
 11
544.399
 21
746.2699999999999
 31
0.0
  0
LINE
  5
DF1
330
1E
100
AcDbEntity
  8
0
100
AcDbLine
 10
544.399
 20
746.2699999999999
 30
0.0
 11
544.399
 21
745.653
 31
0.0
  0
LINE
  5
DF2
330
1E
100
AcDbEntity
  8
0
100
AcDbLine
 10
544.399
 20
746.2699999999999
 30
0.0
 11
545.859
 21
746.2699999999999
 31
0.0
  0
LINE
  5
DF3
330
1E
100
AcDbEntity
  8
0
100
AcDbLine
 10
544.399
 20
746.2699999999999
 30
0.0
 11
544.399
 21
747.2813751893158
 31
0.0
  0
LINE
  5
DF4
330
1E
100
AcDbEntity
  8
0
100
AcDbLine
 10
544.7219999999999
 20
754.502552293977
 30
0.0
 11
544.7219999999999
 21
753.071
 31
0.0
  0
LINE
  5
DF5
330
1E
100
AcDbEntity
  8
0
100
AcDbLine
 10
544.7219999999999
 20
753.071
 30
0.0
 11
544.7219999999999
 21
754.502552293977
 31
0.0
  0
LINE
  5
DF6
330
1E
100
AcDbEntity
  8
0
100
AcDbLine
 10
544.7219999999999
 20
753.071
 30
0.0
 11
544.7219999999999
 21
752.454
 31
0.0
  0
LINE
  5
DF7
330
1E
100
AcDbEntity
  8
0
100
AcDbLine
 10
544.7219999999999
 20
752.454
 30
0.0
 11
544.7219999999999
 21
753.071
 31
0.0
  0
LINE
  5
DF8
330
1E
100
AcDbEntity
  8
0
100
AcDbLine
 10
544.399
 20
745.653
 30
0.0
 11
545.859
 21
745.653
 31
0.0
  0
LINE
  5
DF9
330
1E
100
AcDbEntity
  8
0
100
AcDbLine
 10
544.399
 20
745.653
 30
0.0
 11
544.399
 21
746.2699999999999
 31
0.0
  0
LINE
  5
DFA
330
1E
100
AcDbEntity
  8
0
100
AcDbLine
 10
543.613
 20
754.919
 30
0.0
 11
548.212
 21
753.192
 31
0.0
  0
LINE
  5
DFB
330
1E
100
AcDbEntity
  8
0
100
AcDbLine
 10
544.927
 20
755.6599999999999
 30
0.0
 11
549.8179999999999
 21
753.87
 31
0.0
  0
LINE
  5
DFC
330
1E
100
AcDbEntity
  8
0
100
AcDbLine
 10
545.365
 20
756.813
 30
0.0
 11
550.329
 21
754.993
 31
0.0
  0
LINE
  5
DFD
330
1E
100
AcDbEntity
  8
0
100
AcDbLine
 10
539.8909999999999
 20
758.355
 30
0.0
 11
545.365
 21
756.813
 31
0.0
  0
LINE
  5
E15
330
1E
100
AcDbEntity
  8
0
100
AcDbLine
 10
545.84
 20
606.6769999999999
 30
0.0
 11
549.27
 21
606.6769999999999
 31
0.0
  0
LINE
  5
E16
330
1E
100
AcDbEntity
  8
0
100
AcDbLine
 10
545.38
 20
607.177
 30
0.0
 11
548.74
 21
607.177
 31
0.0
  0
LINE
  5
E17
330
1E
100
AcDbEntity
  8
0
100
AcDbLine
 10
549.27
 20
606.6769999999999
 30
0.0
 11
550.4999999999999
 21
606.6769999999999
 31
0.0
  0
LINE
  5
E18
330
1E
100
AcDbEntity
  8
0
100
AcDbLine
 10
548.74
 20
607.177
 30
0.0
 11
550.0
 21
607.177
 31
0.0
  0
LINE
  5
E19
330
1E
100
AcDbEntity
  8
0
100
AcDbLine
 10
545.84
 20
600.177
 30
0.0
 11
549.27
 21
600.177
 31
0.0
  0
LINE
  5
E1F
330
1E
100
AcDbEntity
  8
0
100
AcDbLine
 10
550.4999999999999
 20
600.177
 30
0.0
 11
550.4999999999999
 21
606.6769999999999
 31
0.0
  0
LINE
  5
E20
330
1E
100
AcDbEntity
  8
0
100
AcDbLine
 10
550.0
 20
607.177
 30
0.0
 11
550.4999999999999
 21
606.6769999999999
 31
0.0
  0
LINE
  5
E21
330
1E
100
AcDbEntity
  8
0
100
AcDbLine
 10
549.27
 20
600.177
 30
0.0
 11
550.4999999999999
 21
600.177
 31
0.0
  0
LINE
  5
E22
330
1E
100
AcDbEntity
  8
0
100
AcDbLine
 10
551.13
 20
726.276
 30
0.0
 11
551.13
 21
726.893
 31
0.0
  0
LINE
  5
E23
330
1E
100
AcDbEntity
  8
0
100
AcDbLine
 10
549.6699999999999
 20
726.276
 30
0.0
 11
549.6699999999999
 21
726.893
 31
0.0
  0
LINE
  5
E24
330
1E
100
AcDbEntity
  8
0
100
AcDbLine
 10
549.6699999999999
 20
726.276
 30
0.0
 11
551.13
 21
726.276
 31
0.0
  0
LINE
  5
E25
330
1E
100
AcDbEntity
  8
0
100
AcDbLine
 10
549.6699999999999
 20
726.276
 30
0.0
 11
549.6699999999999
 21
727.307222310355
 31
0.0
  0
LINE
  5
E26
330
1E
100
AcDbEntity
  8
0
100
AcDbLine
 10
548.212
 20
725.1199999999999
 30
0.0
 11
550.6423353909469
 21
726.276
 31
0.0
  0
LINE
  5
E27
330
1E
100
AcDbEntity
  8
0
100
AcDbLine
 10
549.6699999999999
 20
727.307222310355
 30
0.0
 11
549.6699999999999
 21
726.276
 31
0.0
  0
LINE
  5
E28
330
1E
100
AcDbEntity
  8
0
100
AcDbLine
 10
549.6699999999999
 20
726.893
 30
0.0
 11
551.13
 21
726.893
 31
0.0
  0
LINE
  5
E29
330
1E
100
AcDbEntity
  8
0
100
AcDbLine
 10
549.6699999999999
 20
726.893
 30
0.0
 11
549.6699999999999
 21
727.6939391217569
 31
0.0
  0
LINE
  5
E2A
330
1E
100
AcDbEntity
  8
0
100
AcDbLine
 10
549.6699999999999
 20
726.893
 30
0.0
 11
549.6699999999999
 21
726.276
 31
0.0
  0
LINE
  5
E2B
330
1E
100
AcDbEntity
  8
0
100
AcDbLine
 10
549.6699999999999
 20
727.6939391217569
 30
0.0
 11
549.6699999999999
 21
726.893
 31
0.0
  0
LINE
  5
E2C
330
1E
100
AcDbEntity
  8
0
100
AcDbLine
 10
551.13
 20
727.3441060606058
 30
0.0
 11
551.13
 21
726.893
 31
0.0
  0
LINE
  5
E2D
330
1E
100
AcDbEntity
  8
0
100
AcDbLine
 10
551.13
 20
726.893
 30
0.0
 11
551.13
 21
726.276
 31
0.0
  0
LINE
  5
E2E
330
1E
100
AcDbEntity
  8
0
100
AcDbLine
 10
551.13
 20
726.893
 30
0.0
 11
551.13
 21
727.3441060606058
 31
0.0
  0
LINE
  5
E2F
330
1E
100
AcDbEntity
  8
0
100
AcDbLine
 10
551.13
 20
726.5079598727671
 30
0.0
 11
552.299
 21
727.064
 31
0.0
  0
LINE
  5
E30
330
1E
100
AcDbEntity
  8
0
100
AcDbLine
 10
552.299
 20
727.064
 30
0.0
 11
555.803
 21
729.2539999999998
 31
0.0
  0
LINE
  5
E31
330
1E
100
AcDbEntity
  8
0
100
AcDbLine
 10
549.8179999999999
 20
724.4419999999999
 30
0.0
 11
554.0509999999999
 21
726.508
 31
0.0
  0
LINE
  5
E32
330
1E
100
AcDbEntity
  8
0
100
AcDbLine
 10
554.0509999999999
 20
726.508
 30
0.0
 11
557.701
 21
728.791
 31
0.0
  0
LINE
  5
E33
330
1E
100
AcDbEntity
  8
0
100
AcDbLine
 10
545.859
 20
729.323
 30
0.0
 11
545.859
 21
729.94
 31
0.0
  0
LINE
  5
E34
330
1E
100
AcDbEntity
  8
0
100
AcDbLine
 10
545.859
 20
730.899499169711
 30
0.0
 11
545.859
 21
729.94
 31
0.0
  0
LINE
  5
E35
330
1E
100
AcDbEntity
  8
0
100
AcDbLine
 10
545.859
 20
729.94
 30
0.0
 11
545.859
 21
729.323
 31
0.0
  0
LINE
  5
E36
330
1E
100
AcDbEntity
  8
0
100
AcDbLine
 10
545.859
 20
729.94
 30
0.0
 11
545.859
 21
730.899499169711
 31
0.0
  0
LINE
  5
E37
330
1E
100
AcDbEntity
  8
0
100
AcDbLine
 10
554.456
 20
729.7069999999999
 30
0.0
 11
554.456
 21
730.3239999999999
 31
0.0
  0
LINE
  5
E38
330
1E
100
AcDbEntity
  8
0
100
AcDbLine
 10
554.456
 20
729.7069999999999
 30
0.0
 11
555.9159999999999
 21
729.7069999999999
 31
0.0
  0
LINE
  5
E39
330
1E
100
AcDbEntity
  8
0
100
AcDbLine
 10
554.456
 20
731.4810333287899
 30
0.0
 11
554.456
 21
730.3239999999999
 31
0.0
  0
LINE
  5
E3A
330
1E
100
AcDbEntity
  8
0
100
AcDbLine
 10
555.9159999999999
 20
729.7069999999999
 30
0.0
 11
555.9159999999999
 21
730.3239999999999
 31
0.0
  0
LINE
  5
E3B
330
1E
100
AcDbEntity
  8
0
100
AcDbLine
 10
554.456
 20
730.3239999999999
 30
0.0
 11
555.9159999999999
 21
730.3239999999999
 31
0.0
  0
LINE
  5
E3C
330
1E
100
AcDbEntity
  8
0
100
AcDbLine
 10
554.456
 20
730.3239999999999
 30
0.0
 11
554.456
 21
731.4810333287899
 31
0.0
  0
LINE
  5
E3D
330
1E
100
AcDbEntity
  8
0
100
AcDbLine
 10
554.456
 20
730.3239999999999
 30
0.0
 11
554.456
 21
729.7069999999999
 31
0.0
  0
LINE
  5
E3E
330
1E
100
AcDbEntity
  8
0
100
AcDbLine
 10
555.9159999999999
 20
731.5129758042529
 30
0.0
 11
555.9159999999999
 21
730.3239999999999
 31
0.0
  0
LINE
  5
E3F
330
1E
100
AcDbEntity
  8
0
100
AcDbLine
 10
555.9159999999999
 20
730.3239999999999
 30
0.0
 11
555.9159999999999
 21
729.7069999999999
 31
0.0
  0
LINE
  5
E40
330
1E
100
AcDbEntity
  8
0
100
AcDbLine
 10
555.9159999999999
 20
730.3239999999999
 30
0.0
 11
555.9159999999999
 21
731.5129758042529
 31
0.0
  0
LINE
  5
E41
330
1E
100
AcDbEntity
  8
0
100
AcDbLine
 10
555.803
 20
729.2539999999998
 30
0.0
 11
558.431
 21
731.568
 31
0.0
  0
LINE
  5
E42
330
1E
100
AcDbEntity
  8
0
100
AcDbLine
 10
558.431
 20
731.568
 30
0.0
 11
560.4009999999999
 21
734.3439999999999
 31
0.0
  0
LINE
  5
E43
330
1E
100
AcDbEntity
  8
0
100
AcDbLine
 10
557.701
 20
728.791
 30
0.0
 11
560.4009999999999
 21
731.198
 31
0.0
  0
LINE
  5
E44
330
1E
100
AcDbEntity
  8
0
100
AcDbLine
 10
560.4009999999999
 20
731.198
 30
0.0
 11
561.1309999999999
 21
731.9810000000001
 31
0.0
  0
LINE
  5
E45
330
1E
100
AcDbEntity
  8
0
100
AcDbLine
 10
560.4009999999999
 20
731.198
 30
0.0
 11
562.518
 21
733.9119999999999
 31
0.0
  0
LINE
  5
E46
330
1E
100
AcDbEntity
  8
0
100
AcDbLine
 10
548.8599999999999
 20
733.4049999999999
 30
0.0
 11
548.8599999999999
 21
734.0219999999999
 31
0.0
  0
LINE
  5
E47
330
1E
100
AcDbEntity
  8
0
100
AcDbLine
 10
548.8599999999999
 20
733.4049999999999
 30
0.0
 11
550.32
 21
733.4049999999999
 31
0.0
  0
LINE
  5
E48
330
1E
100
AcDbEntity
  8
0
100
AcDbLine
 10
548.8599999999999
 20
733.4049999999999
 30
0.0
 11
548.8599999999999
 21
734.600620274014
 31
0.0
  0
LINE
  5
E49
330
1E
100
AcDbEntity
  8
0
100
AcDbLine
 10
550.32
 20
733.4049999999999
 30
0.0
 11
550.32
 21
734.0219999999999
 31
0.0
  0
LINE
  5
E4A
330
1E
100
AcDbEntity
  8
0
100
AcDbLine
 10
548.8599999999999
 20
734.0219999999999
 30
0.0
 11
550.32
 21
734.0219999999999
 31
0.0
  0
LINE
  5
E4B
330
1E
100
AcDbEntity
  8
0
100
AcDbLine
 10
548.8599999999999
 20
734.0219999999999
 30
0.0
 11
548.8599999999999
 21
734.600620274014
 31
0.0
  0
LINE
  5
E4C
330
1E
100
AcDbEntity
  8
0
100
AcDbLine
 10
548.8599999999999
 20
734.0219999999999
 30
0.0
 11
548.8599999999999
 21
733.4049999999999
 31
0.0
  0
LINE
  5
E4D
330
1E
100
AcDbEntity
  8
0
100
AcDbLine
 10
548.8599999999999
 20
734.600620274014
 30
0.0
 11
548.8599999999999
 21
734.0219999999999
 31
0.0
  0
LINE
  5
E4E
330
1E
100
AcDbEntity
  8
0
100
AcDbLine
 10
548.8599999999999
 20
734.600620274014
 30
0.0
 11
548.8599999999999
 21
733.4049999999999
 31
0.0
  0
LINE
  5
E4F
330
1E
100
AcDbEntity
  8
0
100
AcDbLine
 10
550.32
 20
734.568156397395
 30
0.0
 11
550.32
 21
734.0219999999999
 31
0.0
  0
LINE
  5
E50
330
1E
100
AcDbEntity
  8
0
100
AcDbLine
 10
550.32
 20
734.0219999999999
 30
0.0
 11
550.32
 21
733.4049999999999
 31
0.0
  0
LINE
  5
E51
330
1E
100
AcDbEntity
  8
0
100
AcDbLine
 10
550.32
 20
734.0219999999999
 30
0.0
 11
550.32
 21
734.568156397395
 31
0.0
  0
LINE
  5
E52
330
1E
100
AcDbEntity
  8
0
100
AcDbLine
 10
550.4019999999999
 20
737.4889999999999
 30
0.0
 11
550.4019999999999
 21
738.1060000000001
 31
0.0
  0
LINE
  5
E53
330
1E
100
AcDbEntity
  8
0
100
AcDbLine
 10
550.4019999999999
 20
737.4889999999999
 30
0.0
 11
551.8609999999999
 21
737.4889999999999
 31
0.0
  0
LINE
  5
E54
330
1E
100
AcDbEntity
  8
0
100
AcDbLine
 10
550.4019999999999
 20
737.4889999999999
 30
0.0
 11
550.4019999999999
 21
738.393073262186
 31
0.0
  0
LINE
  5
E55
330
1E
100
AcDbEntity
  8
0
100
AcDbLine
 10
557.7819999999999
 20
734.402234858127
 30
0.0
 11
557.7819999999999
 21
733.7899999999999
 31
0.0
  0
LINE
  5
E56
330
1E
100
AcDbEntity
  8
0
100
AcDbLine
 10
557.7819999999999
 20
733.7899999999999
 30
0.0
 11
557.7819999999999
 21
734.4069999999999
 31
0.0
  0
LINE
  5
E57
330
1E
100
AcDbEntity
  8
0
100
AcDbLine
 10
557.7819999999999
 20
733.7899999999999
 30
0.0
 11
559.241
 21
733.7899999999999
 31
0.0
  0
LINE
  5
E58
330
1E
100
AcDbEntity
  8
0
100
AcDbLine
 10
557.7819999999999
 20
733.7899999999999
 30
0.0
 11
557.7819999999999
 21
734.402234858127
 31
0.0
  0
LINE
  5
E59
330
1E
100
AcDbEntity
  8
0
100
AcDbLine
 10
557.7819999999999
 20
734.4069999999999
 30
0.0
 11
559.241
 21
734.4069999999999
 31
0.0
  0
LINE
  5
E5A
330
1E
100
AcDbEntity
  8
0
100
AcDbLine
 10
557.7819999999999
 20
734.4069999999999
 30
0.0
 11
557.7819999999999
 21
733.7899999999999
 31
0.0
  0
LINE
  5
E5B
330
1E
100
AcDbEntity
  8
0
100
AcDbLine
 10
551.8609999999999
 20
737.4889999999999
 30
0.0
 11
551.8609999999999
 21
738.1060000000001
 31
0.0
  0
LINE
  5
E5C
330
1E
100
AcDbEntity
  8
0
100
AcDbLine
 10
550.4019999999999
 20
738.1060000000001
 30
0.0
 11
551.8609999999999
 21
738.1060000000001
 31
0.0
  0
LINE
  5
E5D
330
1E
100
AcDbEntity
  8
0
100
AcDbLine
 10
550.4019999999999
 20
738.1060000000001
 30
0.0
 11
550.4019999999999
 21
738.393073262186
 31
0.0
  0
LINE
  5
E5E
330
1E
100
AcDbEntity
  8
0
100
AcDbLine
 10
550.4019999999999
 20
738.1060000000001
 30
0.0
 11
550.4019999999999
 21
737.4889999999999
 31
0.0
  0
LINE
  5
E5F
330
1E
100
AcDbEntity
  8
0
100
AcDbLine
 10
550.4019999999999
 20
738.393073262186
 30
0.0
 11
550.4019999999999
 21
738.1060000000001
 31
0.0
  0
LINE
  5
E60
330
1E
100
AcDbEntity
  8
0
100
AcDbLine
 10
550.4019999999999
 20
738.393073262186
 30
0.0
 11
550.4019999999999
 21
737.4889999999999
 31
0.0
  0
LINE
  5
E61
330
1E
100
AcDbEntity
  8
0
100
AcDbLine
 10
551.8609999999999
 20
738.488390106721
 30
0.0
 11
551.8609999999999
 21
738.1060000000001
 31
0.0
  0
LINE
  5
E62
330
1E
100
AcDbEntity
  8
0
100
AcDbLine
 10
551.8609999999999
 20
738.1060000000001
 30
0.0
 11
551.8609999999999
 21
737.4889999999999
 31
0.0
  0
LINE
  5
E63
330
1E
100
AcDbEntity
  8
0
100
AcDbLine
 10
551.8609999999999
 20
738.1060000000001
 30
0.0
 11
551.8609999999999
 21
738.488390106721
 31
0.0
  0
LINE
  5
E64
330
1E
100
AcDbEntity
  8
0
100
AcDbLine
 10
559.241
 20
733.7899999999999
 30
0.0
 11
559.241
 21
734.4069999999999
 31
0.0
  0
LINE
  5
E65
330
1E
100
AcDbEntity
  8
0
100
AcDbLine
 10
559.241
 20
734.4069999999999
 30
0.0
 11
559.241
 21
733.7899999999999
 31
0.0
  0
LINE
  5
E66
330
1E
100
AcDbEntity
  8
0
100
AcDbLine
 10
559.1609999999999
 20
737.942
 30
0.0
 11
559.1609999999999
 21
738.5589999999999
 31
0.0
  0
LINE
  5
E67
330
1E
100
AcDbEntity
  8
0
100
AcDbLine
 10
559.1609999999999
 20
737.942
 30
0.0
 11
560.62
 21
737.942
 31
0.0
  0
LINE
  5
E68
330
1E
100
AcDbEntity
  8
0
100
AcDbLine
 10
559.1609999999999
 20
737.942
 30
0.0
 11
559.1609999999999
 21
738.5967283777139
 31
0.0
  0
LINE
  5
E69
330
1E
100
AcDbEntity
  8
0
100
AcDbLine
 10
548.8599999999999
 20
741.571
 30
0.0
 11
550.32
 21
741.571
 31
0.0
  0
LINE
  5
E6A
330
1E
100
AcDbEntity
  8
0
100
AcDbLine
 10
548.8599999999999
 20
741.571
 30
0.0
 11
548.8599999999999
 21
742.1457368421049
 31
0.0
  0
LINE
  5
E6B
330
1E
100
AcDbEntity
  8
0
100
AcDbLine
 10
548.8599999999999
 20
741.571
 30
0.0
 11
548.8599999999999
 21
742.1879999999999
 31
0.0
  0
LINE
  5
E6C
330
1E
100
AcDbEntity
  8
0
100
AcDbLine
 10
550.32
 20
742.376263157895
 30
0.0
 11
550.32
 21
742.1879999999999
 31
0.0
  0
LINE
  5
E6D
330
1E
100
AcDbEntity
  8
0
100
AcDbLine
 10
548.8599999999999
 20
742.1879999999999
 30
0.0
 11
548.8599999999999
 21
741.571
 31
0.0
  0
LINE
  5
E6E
330
1E
100
AcDbEntity
  8
0
100
AcDbLine
 10
548.8599999999999
 20
742.1879999999999
 30
0.0
 11
550.32
 21
742.1879999999999
 31
0.0
  0
LINE
  5
E6F
330
1E
100
AcDbEntity
  8
0
100
AcDbLine
 10
548.8599999999999
 20
742.1457368421049
 30
0.0
 11
548.8599999999999
 21
741.571
 31
0.0
  0
LINE
  5
E70
330
1E
100
AcDbEntity
  8
0
100
AcDbLine
 10
550.32
 20
742.1879999999999
 30
0.0
 11
550.32
 21
742.376263157895
 31
0.0
  0
LINE
  5
E71
330
1E
100
AcDbEntity
  8
0
100
AcDbLine
 10
550.32
 20
742.1879999999999
 30
0.0
 11
550.32
 21
741.571
 31
0.0
  0
LINE
  5
E72
330
1E
100
AcDbEntity
  8
0
100
AcDbLine
 10
550.32
 20
741.571
 30
0.0
 11
550.32
 21
742.1879999999999
 31
0.0
  0
LINE
  5
E73
330
1E
100
AcDbEntity
  8
0
100
AcDbLine
 10
557.7819999999999
 20
742.71
 30
0.0
 11
557.7819999999999
 21
742.0930000000001
 31
0.0
  0
LINE
  5
E74
330
1E
100
AcDbEntity
  8
0
100
AcDbLine
 10
557.7819999999999
 20
742.71
 30
0.0
 11
559.241
 21
742.71
 31
0.0
  0
LINE
  5
E75
330
1E
100
AcDbEntity
  8
0
100
AcDbLine
 10
557.7819999999999
 20
742.71
 30
0.0
 11
557.7819999999999
 21
743.554473684211
 31
0.0
  0
LINE
  5
E76
330
1E
100
AcDbEntity
  8
0
100
AcDbLine
 10
557.7819999999999
 20
743.554473684211
 30
0.0
 11
557.7819999999999
 21
742.0930000000001
 31
0.0
  0
LINE
  5
E77
330
1E
100
AcDbEntity
  8
0
100
AcDbLine
 10
557.7819999999999
 20
743.554473684211
 30
0.0
 11
557.7819999999999
 21
742.71
 31
0.0
  0
LINE
  5
E78
330
1E
100
AcDbEntity
  8
0
100
AcDbLine
 10
557.7819999999999
 20
742.0930000000001
 30
0.0
 11
559.241
 21
742.0930000000001
 31
0.0
  0
LINE
  5
E79
330
1E
100
AcDbEntity
  8
0
100
AcDbLine
 10
557.7819999999999
 20
742.0930000000001
 30
0.0
 11
557.7819999999999
 21
743.554473684211
 31
0.0
  0
LINE
  5
E7A
330
1E
100
AcDbEntity
  8
0
100
AcDbLine
 10
557.7819999999999
 20
742.0930000000001
 30
0.0
 11
557.7819999999999
 21
742.71
 31
0.0
  0
LINE
  5
E7B
330
1E
100
AcDbEntity
  8
0
100
AcDbLine
 10
559.1609999999999
 20
738.5967283777139
 30
0.0
 11
559.1609999999999
 21
737.942
 31
0.0
  0
LINE
  5
E7C
330
1E
100
AcDbEntity
  8
0
100
AcDbLine
 10
559.241
 20
743.7848421052629
 30
0.0
 11
559.241
 21
742.71
 31
0.0
  0
LINE
  5
E7D
330
1E
100
AcDbEntity
  8
0
100
AcDbLine
 10
559.241
 20
742.71
 30
0.0
 11
559.241
 21
743.7848421052629
 31
0.0
  0
LINE
  5
E7E
330
1E
100
AcDbEntity
  8
0
100
AcDbLine
 10
559.241
 20
742.71
 30
0.0
 11
559.241
 21
742.0930000000001
 31
0.0
  0
LINE
  5
E7F
330
1E
100
AcDbEntity
  8
0
100
AcDbLine
 10
559.241
 20
742.0930000000001
 30
0.0
 11
559.241
 21
742.71
 31
0.0
  0
LINE
  5
E80
330
1E
100
AcDbEntity
  8
0
100
AcDbLine
 10
559.1609999999999
 20
739.3434493079459
 30
0.0
 11
559.1609999999999
 21
738.5589999999999
 31
0.0
  0
LINE
  5
E81
330
1E
100
AcDbEntity
  8
0
100
AcDbLine
 10
559.1609999999999
 20
738.5589999999999
 30
0.0
 11
560.62
 21
738.5589999999999
 31
0.0
  0
LINE
  5
E82
330
1E
100
AcDbEntity
  8
0
100
AcDbLine
 10
559.1609999999999
 20
738.5589999999999
 30
0.0
 11
559.1609999999999
 21
739.3434493079459
 31
0.0
  0
LINE
  5
E83
330
1E
100
AcDbEntity
  8
0
100
AcDbLine
 10
559.1609999999999
 20
738.5589999999999
 30
0.0
 11
559.1609999999999
 21
737.942
 31
0.0
  0
LINE
  5
E84
330
1E
100
AcDbEntity
  8
0
100
AcDbLine
 10
560.62
 20
737.942
 30
0.0
 11
560.62
 21
738.5589999999999
 31
0.0
  0
LINE
  5
E85
330
1E
100
AcDbEntity
  8
0
100
AcDbLine
 10
560.62
 20
739.249756762453
 30
0.0
 11
560.62
 21
738.5589999999999
 31
0.0
  0
LINE
  5
E86
330
1E
100
AcDbEntity
  8
0
100
AcDbLine
 10
560.62
 20
738.5589999999999
 30
0.0
 11
560.62
 21
737.942
 31
0.0
  0
LINE
  5
E87
330
1E
100
AcDbEntity
  8
0
100
AcDbLine
 10
560.62
 20
738.5589999999999
 30
0.0
 11
560.62
 21
739.249756762453
 31
0.0
  0
LINE
  5
E88
330
1E
100
AcDbEntity
  8
0
100
AcDbLine
 10
560.4009999999999
 20
734.3439999999999
 30
0.0
 11
561.6419999999999
 21
736.5339999999999
 31
0.0
  0
LINE
  5
E89
330
1E
100
AcDbEntity
  8
0
100
AcDbLine
 10
560.77163058657
 20
731.673149462423
 30
0.0
 11
561.1309999999999
 21
731.9810000000001
 31
0.0
  0
LINE
  5
E8A
330
1E
100
AcDbEntity
  8
0
100
AcDbLine
 10
561.6419999999999
 20
736.5339999999999
 30
0.0
 11
562.08
 21
739.1560000000001
 31
0.0
  0
LINE
  5
E8B
330
1E
100
AcDbEntity
  8
0
100
AcDbLine
 10
561.1309999999999
 20
731.9810000000001
 30
0.0
 11
563.1749999999999
 21
734.603
 31
0.0
  0
LINE
  5
E8C
330
1E
100
AcDbEntity
  8
0
100
AcDbLine
 10
560.4009999999999
 20
743.968
 30
0.0
 11
561.6419999999999
 21
741.778
 31
0.0
  0
LINE
  5
E8D
330
1E
100
AcDbEntity
  8
0
100
AcDbLine
 10
562.518
 20
733.9119999999999
 30
0.0
 11
563.759
 21
736.472
 31
0.0
  0
LINE
  5
E8E
330
1E
100
AcDbEntity
  8
0
100
AcDbLine
 10
563.759
 20
736.472
 30
0.0
 11
564.2699999999999
 21
739.1560000000001
 31
0.0
  0
LINE
  5
E8F
330
1E
100
AcDbEntity
  8
0
100
AcDbLine
 10
563.1749999999999
 20
734.603
 30
0.0
 11
564.489
 21
737.348
 31
0.0
  0
LINE
  5
E90
330
1E
100
AcDbEntity
  8
0
100
AcDbLine
 10
561.6419999999999
 20
741.778
 30
0.0
 11
562.08
 21
739.1560000000001
 31
0.0
  0
LINE
  5
E91
330
1E
100
AcDbEntity
  8
0
100
AcDbLine
 10
562.518
 20
744.3999999999999
 30
0.0
 11
563.759
 21
741.84
 31
0.0
  0
LINE
  5
E92
330
1E
100
AcDbEntity
  8
0
100
AcDbLine
 10
564.489
 20
737.348
 30
0.0
 11
565.0
 21
740.0629999999999
 31
0.0
  0
LINE
  5
E93
330
1E
100
AcDbEntity
  8
0
100
AcDbLine
 10
563.759
 20
741.84
 30
0.0
 11
564.2699999999999
 21
739.1560000000001
 31
0.0
  0
LINE
  5
E94
330
1E
100
AcDbEntity
  8
0
100
AcDbLine
 10
545.859
 20
745.653
 30
0.0
 11
545.859
 21
746.2699999999999
 31
0.0
  0
LINE
  5
E95
330
1E
100
AcDbEntity
  8
0
100
AcDbLine
 10
545.859
 20
746.2699999999999
 30
0.0
 11
545.859
 21
747.508828032494
 31
0.0
  0
LINE
  5
E96
330
1E
100
AcDbEntity
  8
0
100
AcDbLine
 10
545.859
 20
746.2699999999999
 30
0.0
 11
545.859
 21
745.653
 31
0.0
  0
LINE
  5
E97
330
1E
100
AcDbEntity
  8
0
100
AcDbLine
 10
545.859
 20
747.508828032494
 30
0.0
 11
545.859
 21
746.2699999999999
 31
0.0
  0
LINE
  5
E98
330
1E
100
AcDbEntity
  8
0
100
AcDbLine
 10
554.456
 20
746.7929999999999
 30
0.0
 11
554.456
 21
746.176
 31
0.0
  0
LINE
  5
E99
330
1E
100
AcDbEntity
  8
0
100
AcDbLine
 10
554.456
 20
746.7929999999999
 30
0.0
 11
555.9159999999999
 21
746.7929999999999
 31
0.0
  0
LINE
  5
E9A
330
1E
100
AcDbEntity
  8
0
100
AcDbLine
 10
555.9159999999999
 20
746.7929999999999
 30
0.0
 11
555.9159999999999
 21
746.176
 31
0.0
  0
LINE
  5
E9B
330
1E
100
AcDbEntity
  8
0
100
AcDbLine
 10
554.456
 20
746.340510155398
 30
0.0
 11
554.456
 21
746.176
 31
0.0
  0
LINE
  5
E9C
330
1E
100
AcDbEntity
  8
0
100
AcDbLine
 10
554.456
 20
746.176
 30
0.0
 11
555.9159999999999
 21
746.176
 31
0.0
  0
LINE
  5
E9D
330
1E
100
AcDbEntity
  8
0
100
AcDbLine
 10
554.456
 20
746.176
 30
0.0
 11
554.456
 21
746.340510155398
 31
0.0
  0
LINE
  5
E9E
330
1E
100
AcDbEntity
  8
0
100
AcDbLine
 10
554.456
 20
746.176
 30
0.0
 11
554.456
 21
746.7929999999999
 31
0.0
  0
LINE
  5
E9F
330
1E
100
AcDbEntity
  8
0
100
AcDbLine
 10
555.9159999999999
 20
746.176
 30
0.0
 11
555.9159999999999
 21
746.7929999999999
 31
0.0
  0
LINE
  5
EA0
330
1E
100
AcDbEntity
  8
0
100
AcDbLine
 10
555.803
 20
749.058
 30
0.0
 11
558.431
 21
746.745
 31
0.0
  0
LINE
  5
EA1
330
1E
100
AcDbEntity
  8
0
100
AcDbLine
 10
558.431
 20
746.745
 30
0.0
 11
560.4009999999999
 21
743.968
 31
0.0
  0
LINE
  5
EA2
330
1E
100
AcDbEntity
  8
0
100
AcDbLine
 10
549.6699999999999
 20
750.2239999999999
 30
0.0
 11
549.6699999999999
 21
749.6069999999999
 31
0.0
  0
LINE
  5
EA3
330
1E
100
AcDbEntity
  8
0
100
AcDbLine
 10
549.6699999999999
 20
750.2239999999999
 30
0.0
 11
551.13
 21
750.2239999999999
 31
0.0
  0
LINE
  5
EA4
330
1E
100
AcDbEntity
  8
0
100
AcDbLine
 10
549.6699999999999
 20
750.2239999999999
 30
0.0
 11
549.6699999999999
 21
750.6610816267669
 31
0.0
  0
LINE
  5
EA5
330
1E
100
AcDbEntity
  8
0
100
AcDbLine
 10
549.6699999999999
 20
750.1858572854289
 30
0.0
 11
549.6699999999999
 21
749.6069999999999
 31
0.0
  0
LINE
  5
EA6
330
1E
100
AcDbEntity
  8
0
100
AcDbLine
 10
549.6699999999999
 20
749.6069999999999
 30
0.0
 11
551.13
 21
749.6069999999999
 31
0.0
  0
LINE
  5
EA7
330
1E
100
AcDbEntity
  8
0
100
AcDbLine
 10
549.6699999999999
 20
749.6069999999999
 30
0.0
 11
549.6699999999999
 21
750.1858572854289
 31
0.0
  0
LINE
  5
EA8
330
1E
100
AcDbEntity
  8
0
100
AcDbLine
 10
549.6699999999999
 20
749.6069999999999
 30
0.0
 11
549.6699999999999
 21
750.2239999999999
 31
0.0
  0
LINE
  5
EA9
330
1E
100
AcDbEntity
  8
0
100
AcDbLine
 10
551.13
 20
750.2239999999999
 30
0.0
 11
551.13
 21
750.9870233631379
 31
0.0
  0
LINE
  5
EAA
330
1E
100
AcDbEntity
  8
0
100
AcDbLine
 10
551.13
 20
750.2239999999999
 30
0.0
 11
551.13
 21
749.6069999999999
 31
0.0
  0
LINE
  5
EAB
330
1E
100
AcDbEntity
  8
0
100
AcDbLine
 10
551.13
 20
749.6069999999999
 30
0.0
 11
551.13
 21
750.2239999999999
 31
0.0
  0
LINE
  5
EAC
330
1E
100
AcDbEntity
  8
0
100
AcDbLine
 10
557.701
 20
749.5210000000001
 30
0.0
 11
560.4009999999999
 21
747.115
 31
0.0
  0
LINE
  5
EAD
330
1E
100
AcDbEntity
  8
0
100
AcDbLine
 10
560.4009999999999
 20
747.115
 30
0.0
 11
562.518
 21
744.3999999999999
 31
0.0
  0
LINE
  5
EAE
330
1E
100
AcDbEntity
  8
0
100
AcDbLine
 10
551.13
 20
750.9870233631379
 30
0.0
 11
551.13
 21
750.2239999999999
 31
0.0
  0
LINE
  5
EAF
330
1E
100
AcDbEntity
  8
0
100
AcDbLine
 10
549.6699999999999
 20
750.6610816267669
 30
0.0
 11
549.6699999999999
 21
750.2239999999999
 31
0.0
  0
LINE
  5
EB0
330
1E
100
AcDbEntity
  8
0
100
AcDbLine
 10
548.212
 20
753.192
 30
0.0
 11
552.299
 21
751.248
 31
0.0
  0
LINE
  5
EB1
330
1E
100
AcDbEntity
  8
0
100
AcDbLine
 10
552.299
 20
751.248
 30
0.0
 11
555.803
 21
749.058
 31
0.0
  0
LINE
  5
EB2
330
1E
100
AcDbEntity
  8
0
100
AcDbLine
 10
549.8179999999999
 20
753.87
 30
0.0
 11
554.0509999999999
 21
751.804
 31
0.0
  0
LINE
  5
EB3
330
1E
100
AcDbEntity
  8
0
100
AcDbLine
 10
554.0509999999999
 20
751.804
 30
0.0
 11
557.701
 21
749.5210000000001
 31
0.0
  0
LINE
  5
EB4
330
1E
100
AcDbEntity
  8
0
100
AcDbLine
 10
550.329
 20
754.993
 30
0.0
 11
554.635
 21
752.895
 31
0.0
  0
LINE
  5
EB5
330
1E
100
AcDbEntity
  8
0
100
AcDbLine
 10
554.635
 20
752.895
 30
0.0
 11
558.2849999999999
 21
750.5819999999999
 31
0.0
  0
LINE
  5
EB6
330
1E
100
AcDbEntity
  8
0
100
AcDbLine
 10
558.2849999999999
 20
750.5819999999999
 30
0.0
 11
561.1309999999999
 21
748.1449999999999
 31
0.0
  0
LINE
  5
EB7
330
1E
100
AcDbEntity
  8
0
100
AcDbLine
 10
561.1309999999999
 20
748.1449999999999
 30
0.0
 11
563.1749999999999
 21
745.5219999999999
 31
0.0
  0
LINE
  5
EB8
330
1E
100
AcDbEntity
  8
0
100
AcDbLine
 10
563.1749999999999
 20
745.5219999999999
 30
0.0
 11
564.489
 21
742.7769999999999
 31
0.0
  0
LINE
  5
EB9
330
1E
100
AcDbEntity
  8
0
100
AcDbLine
 10
564.489
 20
742.7769999999999
 30
0.0
 11
565.0
 21
740.0629999999999
 31
0.0
  0
LINE
  5
EBA
330
1E
100
AcDbEntity
  8
0
100
AcDbLine
 10
561.1309999999999
 20
767.177
 30
0.0
 11
563.1749999999999
 21
764.555
 31
0.0
  0
LINE
  5
EBB
330
1E
100
AcDbEntity
  8
0
100
AcDbLine
 10
563.1749999999999
 20
764.555
 30
0.0
 11
564.489
 21
761.8099999999999
 31
0.0
  0
LINE
  5
EBE
330
1E
100
AcDbEntity
  8
0
100
AcDbLine
 10
565.0
 20
759.095
 30
0.0
 11
565.0
 21
740.0629999999999
 31
0.0
  0
LINE
  5
EBF
330
1E
100
AcDbEntity
  8
0
100
AcDbLine
 10
565.0
 20
740.0629999999999
 30
0.0
 11
565.0
 21
759.095
 31
0.0
  0
LINE
  5
EC0
330
1E
100
AcDbEntity
  8
0
100
AcDbLine
 10
564.489
 20
761.8099999999999
 30
0.0
 11
565.0
 21
759.095
 31
0.0
  0
LINE
  5
EC1
330
1E
100
AcDbEntity
  8
0
100
AcDbLine
 10
554.635
 20
771.928
 30
0.0
 11
558.2849999999999
 21
769.6139999999999
 31
0.0
  0
LINE
  5
EC2
330
1E
100
AcDbEntity
  8
0
100
AcDbLine
 10
550.329
 20
774.0249999999999
 30
0.0
 11
554.635
 21
771.928
 31
0.0
  0
LINE
  5
EC3
330
1E
100
AcDbEntity
  8
0
100
AcDbLine
 10
549.8179999999999
 20
774.716
 30
0.0
 11
554.0509999999999
 21
772.6489999999999
 31
0.0
  0
LINE
  5
EC4
330
1E
100
AcDbEntity
  8
0
100
AcDbLine
 10
554.0509999999999
 20
772.6489999999999
 30
0.0
 11
557.701
 21
770.3660000000001
 31
0.0
  0
LINE
  5
EC5
330
1E
100
AcDbEntity
  8
0
100
AcDbLine
 10
558.2849999999999
 20
769.6139999999999
 30
0.0
 11
561.1309999999999
 21
767.177
 31
0.0
  0
LINE
  5
EC6
330
1E
100
AcDbEntity
  8
0
100
AcDbLine
 10
557.701
 20
770.3660000000001
 30
0.0
 11
560.4009999999999
 21
767.96
 31
0.0
  0
LINE
  5
EC7
330
1E
100
AcDbEntity
  8
0
100
AcDbLine
 10
560.4009999999999
 20
767.96
 30
0.0
 11
560.6970597238279
 21
767.5804505949599
 31
0.0
  0
LINE
  5
EC8
330
1E
100
AcDbEntity
  8
0
100
AcDbLine
 10
560.4009999999999
 20
767.96
 30
0.0
 11
561.1309999999999
 21
767.177
 31
0.0
  0
LINE
  5
EC9
330
1E
100
AcDbEntity
  8
0
100
AcDbLine
 10
545.365
 20
775.846
 30
0.0
 11
550.329
 21
774.0249999999999
 31
0.0
  0
LINE
  5
ECA
330
1E
100
AcDbEntity
  8
0
100
AcDbLine
 10
539.8909999999999
 20
777.388
 30
0.0
 11
545.365
 21
775.846
 31
0.0
  0
LINE
  5
ECB
330
1E
100
AcDbEntity
  8
0
100
AcDbLine
 10
544.927
 20
776.505
 30
0.0
 11
549.8179999999999
 21
774.716
 31
0.0
  0
LINE
  5
ECC
330
1E
100
AcDbEntity
  8
0
100
AcDbLine
 10
539.5249999999999
 20
778.0479999999999
 30
0.0
 11
544.927
 21
776.505
 31
0.0
  0
LINE
  5
ECD
330
1E
100
AcDbEntity
  8
0
100
AcDbLine
 10
527.9199999999999
 20
779.455
 30
0.0
 11
534.1239999999999
 21
778.591
 31
0.0
  0
LINE
  5
ECE
330
1E
100
AcDbEntity
  8
0
100
AcDbLine
 10
533.832
 20
779.1889999999999
 30
0.0
 11
539.5249999999999
 21
778.0479999999999
 31
0.0
  0
LINE
  5
ECF
330
1E
100
AcDbEntity
  8
0
100
AcDbLine
 10
527.409
 20
780.0830000000001
 30
0.0
 11
533.832
 21
779.1889999999999
 31
0.0
  0
LINE
  5
ED0
330
1E
100
AcDbEntity
  8
0
100
AcDbLine
 10
521.35
 20
780.608
 30
0.0
 11
527.409
 21
780.0830000000001
 31
0.0
  0
LINE
  5
ED1
330
1E
100
AcDbEntity
  8
0
100
AcDbLine
 10
515.0
 20
780.823
 30
0.0
 11
521.35
 21
780.608
 31
0.0
  0
LINE
  5
19F4
330
1E
100
AcDbEntity
  8
0
100
AcDbLine
 10
275.6099999999999
 20
605.177
 30
0.0
 11
275.7769999999998
 21
605.177
 31
0.0
  0
LINE
  5
19F5
330
1E
100
AcDbEntity
  8
0
100
AcDbLine
 10
298.3899999999998
 20
605.177
 30
0.0
 11
303.228
 21
605.177
 31
0.0
  0
LINE
  5
19F6
330
1E
100
AcDbEntity
  8
0
100
AcDbLine
 10
313.3040000000001
 20
605.177
 30
0.0
 11
314.3899999999998
 21
605.177
 31
0.0
  0
LINE
  5
1A03
330
1E
100
AcDbEntity
  8
0
100
AcDbLine
 10
293.3009999999999
 20
605.177
 30
0.0
 11
298.3899999999998
 21
605.177
 31
0.0
  0
LINE
  5
1A04
330
1E
100
AcDbEntity
  8
0
100
AcDbLine
 10
288.3979999999999
 20
605.177
 30
0.0
 11
293.3009999999999
 21
605.177
 31
0.0
  0
LINE
  5
1A06
330
1E
100
AcDbEntity
  8
0
100
AcDbLine
 10
303.228
 20
605.177
 30
0.0
 11
310.9399999999998
 21
605.177
 31
0.0
  0
LINE
  5
1A07
330
1E
100
AcDbEntity
  8
0
100
AcDbLine
 10
310.9399999999998
 20
605.177
 30
0.0
 11
313.3040000000001
 21
605.177
 31
0.0
  0
LINE
  5
1A08
330
1E
100
AcDbEntity
  8
0
100
AcDbLine
 10
283.8379999999999
 20
605.177
 30
0.0
 11
288.3979999999999
 21
605.177
 31
0.0
  0
LINE
  5
1A09
330
1E
100
AcDbEntity
  8
0
100
AcDbLine
 10
280.057
 20
605.177
 30
0.0
 11
283.8379999999999
 21
605.177
 31
0.0
  0
LINE
  5
1A0A
330
1E
100
AcDbEntity
  8
0
100
AcDbLine
 10
277.3609999999998
 20
605.177
 30
0.0
 11
280.057
 21
605.177
 31
0.0
  0
LINE
  5
1A0B
330
1E
100
AcDbEntity
  8
0
100
AcDbLine
 10
275.7769999999998
 20
605.177
 30
0.0
 11
277.3609999999998
 21
605.177
 31
0.0
  0
LINE
  5
1A5A
330
1E
100
AcDbEntity
  8
0
100
AcDbLine
 10
544.0
 20
600.177
 30
0.0
 11
544.28
 21
600.177
 31
0.0
  0
LINE
  5
1A65
330
1E
100
AcDbEntity
  8
0
100
AcDbLine
 10
542.9560000000001
 20
600.177
 30
0.0
 11
544.0
 21
600.177
 31
0.0
  0
LINE
  5
1A7B
330
1E
100
AcDbEntity
  8
0
100
AcDbLine
 10
540.172
 20
600.177
 30
0.0
 11
542.9560000000001
 21
600.177
 31
0.0
  0
LINE
  5
1A7C
330
1E
100
AcDbEntity
  8
0
100
AcDbLine
 10
535.5319999999997
 20
600.177
 30
0.0
 11
540.172
 21
600.177
 31
0.0
  0
LINE
  5
1AA2
330
1E
100
AcDbEntity
  8
0
100
AcDbLine
 10
529.384
 20
600.177
 30
0.0
 11
535.5319999999997
 21
600.177
 31
0.0
  0
LINE
  5
1AA5
330
1E
100
AcDbEntity
  8
0
100
AcDbLine
 10
522.4239999999999
 20
600.177
 30
0.0
 11
529.384
 21
600.177
 31
0.0
  0
LINE
  5
1ABB
330
1E
100
AcDbEntity
  8
0
100
AcDbLine
 10
507.5759999999998
 20
600.177
 30
0.0
 11
515.0
 21
600.177
 31
0.0
  0
LINE
  5
1ABC
330
1E
100
AcDbEntity
  8
0
100
AcDbLine
 10
515.0
 20
600.177
 30
0.0
 11
522.4239999999999
 21
600.177
 31
0.0
  0
LINE
  5
1AC1
330
1E
100
AcDbEntity
  8
0
100
AcDbLine
 10
507.4399999999998
 20
600.177
 30
0.0
 11
515.0
 21
600.177
 31
0.0
  0
LINE
  5
1AD7
330
1E
100
AcDbEntity
  8
0
100
AcDbLine
 10
500.616
 20
600.177
 30
0.0
 11
507.5759999999998
 21
600.177
 31
0.0
  0
LINE
  5
1AD8
330
1E
100
AcDbEntity
  8
0
100
AcDbLine
 10
500.48
 20
600.177
 30
0.0
 11
507.4399999999998
 21
600.177
 31
0.0
  0
LINE
  5
1ADD
330
1E
100
AcDbEntity
  8
0
100
AcDbLine
 10
489.8279999999999
 20
600.177
 30
0.0
 11
494.4679999999998
 21
600.177
 31
0.0
  0
LINE
  5
1ADE
330
1E
100
AcDbEntity
  8
0
100
AcDbLine
 10
494.4679999999998
 20
600.177
 30
0.0
 11
500.616
 21
600.177
 31
0.0
  0
LINE
  5
1AE3
330
1E
100
AcDbEntity
  8
0
100
AcDbLine
 10
494.3599999999996
 20
600.177
 30
0.0
 11
500.48
 21
600.177
 31
0.0
  0
LINE
  5
1AE4
330
1E
100
AcDbEntity
  8
0
100
AcDbLine
 10
489.6799999999998
 20
600.177
 30
0.0
 11
494.3599999999996
 21
600.177
 31
0.0
  0
LINE
  5
1B0E
330
1E
100
AcDbEntity
  8
0
100
AcDbLine
 10
486.0
 20
600.177
 30
0.0
 11
487.0439999999998
 21
600.177
 31
0.0
  0
LINE
  5
1B10
330
1E
100
AcDbEntity
  8
0
100
AcDbLine
 10
487.0439999999998
 20
600.177
 30
0.0
 11
489.8279999999999
 21
600.177
 31
0.0
  0
LINE
  5
1B15
330
1E
100
AcDbEntity
  8
0
100
AcDbLine
 10
486.7999999999999
 20
600.177
 30
0.0
 11
489.6799999999998
 21
600.177
 31
0.0
  0
LINE
  5
1B5D
330
1E
100
AcDbEntity
  8
0
100
AcDbLine
 10
485.72
 20
600.177
 30
0.0
 11
486.0
 21
600.177
 31
0.0
  0
LINE
  5
1CB7
330
1E
100
AcDbEntity
  8
0
100
AcDbLine
 10
314.2229999999999
 20
600.177
 30
0.0
 11
314.3899999999998
 21
600.177
 31
0.0
  0
LINE
  5
1DBD
330
1E
100
AcDbEntity
  8
0
100
AcDbLine
 10
285.8109999999996
 20
600.177
 30
0.0
 11
289.596
 21
600.177
 31
0.0
  0
LINE
  5
1DBE
330
1E
100
AcDbEntity
  8
0
100
AcDbLine
 10
289.596
 20
600.177
 30
0.0
 11
293.6449999999997
 21
600.177
 31
0.0
  0
LINE
  5
1DCB
330
1E
100
AcDbEntity
  8
0
100
AcDbLine
 10
293.6449999999997
 20
600.177
 30
0.0
 11
297.778
 21
600.177
 31
0.0
  0
LINE
  5
1DCC
330
1E
100
AcDbEntity
  8
0
100
AcDbLine
 10
310.901
 20
600.177
 30
0.0
 11
312.6390000000001
 21
600.177
 31
0.0
  0
LINE
  5
1DCE
330
1E
100
AcDbEntity
  8
0
100
AcDbLine
 10
310.055
 20
600.177
 30
0.0
 11
310.901
 21
600.177
 31
0.0
  0
LINE
  5
1DCF
330
1E
100
AcDbEntity
  8
0
100
AcDbLine
 10
310.9399999999998
 20
600.177
 30
0.0
 11
313.3040000000001
 21
600.177
 31
0.0
  0
LINE
  5
1DD0
330
1E
100
AcDbEntity
  8
0
100
AcDbLine
 10
313.3040000000001
 20
600.177
 30
0.0
 11
314.3899999999998
 21
600.177
 31
0.0
  0
LINE
  5
1DD1
330
1E
100
AcDbEntity
  8
0
100
AcDbLine
 10
308.123
 20
600.177
 30
0.0
 11
310.055
 21
600.177
 31
0.0
  0
LINE
  5
1DD2
330
1E
100
AcDbEntity
  8
0
100
AcDbLine
 10
305.2269999999998
 20
600.177
 30
0.0
 11
308.123
 21
600.177
 31
0.0
  0
LINE
  5
1DD3
330
1E
100
AcDbEntity
  8
0
100
AcDbLine
 10
307.4639999999999
 20
600.177
 30
0.0
 11
310.9399999999998
 21
600.177
 31
0.0
  0
LINE
  5
1DD4
330
1E
100
AcDbEntity
  8
0
100
AcDbLine
 10
301.7119999999997
 20
600.177
 30
0.0
 11
305.2269999999998
 21
600.177
 31
0.0
  0
LINE
  5
1DD5
330
1E
100
AcDbEntity
  8
0
100
AcDbLine
 10
297.778
 20
600.177
 30
0.0
 11
301.7119999999997
 21
600.177
 31
0.0
  0
LINE
  5
1E77
330
1E
100
AcDbEntity
  8
0
100
AcDbLine
 10
279.2429999999999
 20
600.177
 30
0.0
 11
280.5219999999999
 21
600.177
 31
0.0
  0
LINE
  5
1E78
330
1E
100
AcDbEntity
  8
0
100
AcDbLine
 10
280.5219999999999
 20
600.177
 30
0.0
 11
282.701
 21
600.177
 31
0.0
  0
LINE
  5
1E7D
330
1E
100
AcDbEntity
  8
0
100
AcDbLine
 10
282.701
 20
600.177
 30
0.0
 11
285.8109999999996
 21
600.177
 31
0.0
  0
LINE
  5
1E7E
330
1E
100
AcDbEntity
  8
0
100
AcDbLine
 10
279.0989999999999
 20
600.177
 30
0.0
 11
279.2429999999999
 21
600.177
 31
0.0
  0
LINE
  5
1EAF
330
1E
100
AcDbEntity
  8
0
100
AcDbLine
 10
276.6959999999999
 20
600.177
 30
0.0
 11
279.0599999999999
 21
600.177
 31
0.0
  0
LINE
  5
1ECF
330
1E
100
AcDbEntity
  8
0
100
AcDbLine
 10
275.6099999999999
 20
600.177
 30
0.0
 11
275.7769999999998
 21
600.177
 31
0.0
  0
LINE
  5
1ED0
330
1E
100
AcDbEntity
  8
0
100
AcDbLine
 10
275.6099999999999
 20
600.177
 30
0.0
 11
276.6959999999999
 21
600.177
 31
0.0
  0
LINE
  5
1F83
330
1E
100
AcDbEntity
  8
0
100
AcDbLine
 10
203.8099999999999
 20
600.177
 30
0.0
 11
204.4639999999999
 21
600.177
 31
0.0
  0
LINE
  5
1F97
330
1E
100
AcDbEntity
  8
0
100
AcDbLine
 10
201.852
 20
600.177
 30
0.0
 11
203.8099999999999
 21
600.177
 31
0.0
  0
LINE
  5
1FA9
330
1E
100
AcDbEntity
  8
0
100
AcDbLine
 10
199.9609999999997
 20
600.177
 30
0.0
 11
201.852
 21
600.177
 31
0.0
  0
LINE
  5
1FDA
330
1E
100
AcDbEntity
  8
0
100
AcDbLine
 10
194.73
 20
600.177
 30
0.0
 11
199.9609999999997
 21
600.177
 31
0.0
  0
LINE
  5
1FDE
330
1E
100
AcDbEntity
  8
0
100
AcDbLine
 10
171.2809999999999
 20
600.177
 30
0.0
 11
189.981
 21
600.177
 31
0.0
  0
LINE
  5
1FDF
330
1E
100
AcDbEntity
  8
0
100
AcDbLine
 10
189.981
 20
600.177
 30
0.0
 11
194.73
 21
600.177
 31
0.0
  0
LINE
  5
204B
330
1E
100
AcDbEntity
  8
0
100
AcDbLine
 10
168.1449999999999
 20
600.177
 30
0.0
 11
170.0389999999999
 21
600.177
 31
0.0
  0
LINE
  5
204C
330
1E
100
AcDbEntity
  8
0
100
AcDbLine
 10
168.1479999999999
 20
600.177
 30
0.0
 11
171.2809999999999
 21
600.177
 31
0.0
  0
LINE
  5
204D
330
1E
100
AcDbEntity
  8
0
100
AcDbLine
 10
166.1449999999999
 20
600.177
 30
0.0
 11
168.1449999999999
 21
600.177
 31
0.0
  0
LINE
  5
2052
330
1E
100
AcDbEntity
  8
0
100
AcDbLine
 10
166.1899999999998
 20
600.177
 30
0.0
 11
168.1479999999999
 21
600.177
 31
0.0
  0
LINE
  5
2065
330
1E
100
AcDbEntity
  8
0
100
AcDbLine
 10
165.5359999999998
 20
600.177
 30
0.0
 11
166.1899999999998
 21
600.177
 31
0.0
  0
LINE
  5
20F8
330
1E
100
AcDbEntity
  8
0
100
AcDbLine
 10
388.0
 20
654.211
 30
0.0
 11
386.5
 21
610.067
 31
0.0
  0
LINE
  5
20F9
330
1E
100
AcDbEntity
  8
0
100
AcDbLine
 10
423.5
 20
610.067
 30
0.0
 11
422.0
 21
654.211
 31
0.0
  0
LINE
  5
20FB
330
1E
100
AcDbEntity
  8
0
100
AcDbLine
 10
418.719
 20
600.177
 30
0.0
 11
400.0189999999999
 21
600.177
 31
0.0
  0
LINE
  5
20FD
330
1E
100
AcDbEntity
  8
0
100
AcDbLine
 10
409.7999999999999
 20
610.067
 30
0.0
 11
405.0
 21
610.067
 31
0.0
  0
LINE
  5
20FE
330
1E
100
AcDbEntity
  8
0
100
AcDbLine
 10
409.6999999999999
 20
609.877
 30
0.0
 11
405.0
 21
609.877
 31
0.0
  0
LINE
  5
20FF
330
1E
100
AcDbEntity
  8
0
100
AcDbLine
 10
409.6999999999999
 20
608.8769999999999
 30
0.0
 11
405.0
 21
608.8769999999999
 31
0.0
  0
LINE
  5
2100
330
1E
100
AcDbEntity
  8
0
100
AcDbLine
 10
410.052
 20
600.177
 30
0.0
 11
404.9979999999999
 21
600.177
 31
0.0
  0
LINE
  5
2101
330
1E
100
AcDbEntity
  8
0
100
AcDbLine
 10
413.6999999999999
 20
600.177
 30
0.0
 11
405.0
 21
600.177
 31
0.0
  0
LINE
  5
214C
330
1E
100
AcDbEntity
  8
0
100
AcDbLine
 10
425.0
 20
606.177
 30
0.0
 11
424.0
 21
607.177
 31
0.0
  0
LINE
  5
214D
330
1E
100
AcDbEntity
  8
0
100
AcDbLine
 10
429.0
 20
600.177
 30
0.0
 11
424.464
 21
600.177
 31
0.0
  0
LINE
  5
214E
330
1E
100
AcDbEntity
  8
0
100
AcDbLine
 10
429.0
 20
600.177
 30
0.0
 11
421.8999999999999
 21
600.177
 31
0.0
  0
LINE
  5
214F
330
1E
100
AcDbEntity
  8
0
100
AcDbLine
 10
426.4999999999999
 20
605.677
 30
0.0
 11
425.0
 21
606.177
 31
0.0
  0
LINE
  5
2150
330
1E
100
AcDbEntity
  8
0
100
AcDbLine
 10
439.0
 20
604.677
 30
0.0
 11
438.4999999999999
 21
605.177
 31
0.0
  0
LINE
  5
2151
330
1E
100
AcDbEntity
  8
0
100
AcDbLine
 10
437.8
 20
600.177
 30
0.0
 11
434.4
 21
600.177
 31
0.0
  0
LINE
  5
2152
330
1E
100
AcDbEntity
  8
0
100
AcDbLine
 10
439.0
 20
600.177
 30
0.0
 11
437.8
 21
600.177
 31
0.0
  0
LINE
  5
2153
330
1E
100
AcDbEntity
  8
0
100
AcDbLine
 10
439.0
 20
600.177
 30
0.0
 11
439.0
 21
604.677
 31
0.0
  0
LINE
  5
2154
330
1E
100
AcDbEntity
  8
0
100
AcDbLine
 10
439.0
 20
604.677
 30
0.0
 11
439.0
 21
600.177
 31
0.0
  0
LINE
  5
2155
330
1E
100
AcDbEntity
  8
0
100
AcDbLine
 10
438.4999999999999
 20
605.177
 30
0.0
 11
426.4999999999999
 21
605.677
 31
0.0
  0
LINE
  5
2156
330
1E
100
AcDbEntity
  8
0
100
AcDbLine
 10
434.4
 20
600.177
 30
0.0
 11
429.0
 21
600.177
 31
0.0
  0
LINE
  5
2157
330
1E
100
AcDbEntity
  8
0
100
AcDbLine
 10
421.855
 20
600.177
 30
0.0
 11
419.9609999999999
 21
600.177
 31
0.0
  0
LINE
  5
2158
330
1E
100
AcDbEntity
  8
0
100
AcDbLine
 10
421.852
 20
600.177
 30
0.0
 11
418.719
 21
600.177
 31
0.0
  0
LINE
  5
2159
330
1E
100
AcDbEntity
  8
0
100
AcDbLine
 10
424.4640000000002
 20
600.177
 30
0.0
 11
423.8100000000001
 21
600.177
 31
0.0
  0
LINE
  5
215A
330
1E
100
AcDbEntity
  8
0
100
AcDbLine
 10
423.855
 20
600.177
 30
0.0
 11
421.855
 21
600.177
 31
0.0
  0
LINE
  5
215B
330
1E
100
AcDbEntity
  8
0
100
AcDbLine
 10
423.8100000000001
 20
600.177
 30
0.0
 11
421.852
 21
600.177
 31
0.0
  0
LINE
  5
215C
330
1E
100
AcDbEntity
  8
0
100
AcDbLine
 10
414.2
 20
610.067
 30
0.0
 11
409.7999999999999
 21
610.067
 31
0.0
  0
LINE
  5
215D
330
1E
100
AcDbEntity
  8
0
100
AcDbLine
 10
414.1
 20
609.877
 30
0.0
 11
409.6999999999999
 21
609.877
 31
0.0
  0
LINE
  5
215E
330
1E
100
AcDbEntity
  8
0
100
AcDbLine
 10
414.1
 20
608.8769999999999
 30
0.0
 11
409.6999999999999
 21
608.8769999999999
 31
0.0
  0
LINE
  5
215F
330
1E
100
AcDbEntity
  8
0
100
AcDbLine
 10
423.3
 20
608.8769999999999
 30
0.0
 11
423.3
 21
609.877
 31
0.0
  0
LINE
  5
2160
330
1E
100
AcDbEntity
  8
0
100
AcDbLine
 10
423.3
 20
608.8769999999999
 30
0.0
 11
422.5999999999999
 21
608.8769999999999
 31
0.0
  0
LINE
  5
2161
330
1E
100
AcDbEntity
  8
0
100
AcDbLine
 10
422.5999999999999
 20
608.8769999999999
 30
0.0
 11
420.8
 21
608.8769999999999
 31
0.0
  0
LINE
  5
2162
330
1E
100
AcDbEntity
  8
0
100
AcDbLine
 10
420.8
 20
608.8769999999999
 30
0.0
 11
417.9
 21
608.8769999999999
 31
0.0
  0
LINE
  5
2163
330
1E
100
AcDbEntity
  8
0
100
AcDbLine
 10
421.0
 20
610.067
 30
0.0
 11
418.0
 21
610.067
 31
0.0
  0
LINE
  5
2164
330
1E
100
AcDbEntity
  8
0
100
AcDbLine
 10
420.8
 20
609.877
 30
0.0
 11
417.9
 21
609.877
 31
0.0
  0
LINE
  5
2165
330
1E
100
AcDbEntity
  8
0
100
AcDbLine
 10
422.7999999999999
 20
610.067
 30
0.0
 11
421.0
 21
610.067
 31
0.0
  0
LINE
  5
2166
330
1E
100
AcDbEntity
  8
0
100
AcDbLine
 10
422.5999999999999
 20
609.877
 30
0.0
 11
420.8
 21
609.877
 31
0.0
  0
LINE
  5
2167
330
1E
100
AcDbEntity
  8
0
100
AcDbLine
 10
423.5
 20
608.677
 30
0.0
 11
423.3
 21
608.8769999999999
 31
0.0
  0
LINE
  5
2168
330
1E
100
AcDbEntity
  8
0
100
AcDbLine
 10
423.5
 20
610.067
 30
0.0
 11
423.3
 21
609.877
 31
0.0
  0
LINE
  5
2169
330
1E
100
AcDbEntity
  8
0
100
AcDbLine
 10
423.5
 20
610.067
 30
0.0
 11
422.7999999999999
 21
610.067
 31
0.0
  0
LINE
  5
216A
330
1E
100
AcDbEntity
  8
0
100
AcDbLine
 10
423.3
 20
609.877
 30
0.0
 11
423.3
 21
608.8769999999999
 31
0.0
  0
LINE
  5
216B
330
1E
100
AcDbEntity
  8
0
100
AcDbLine
 10
423.3
 20
609.877
 30
0.0
 11
422.5999999999999
 21
609.877
 31
0.0
  0
LINE
  5
216C
330
1E
100
AcDbEntity
  8
0
100
AcDbLine
 10
424.0
 20
607.177
 30
0.0
 11
423.5
 21
608.677
 31
0.0
  0
LINE
  5
216D
330
1E
100
AcDbEntity
  8
0
100
AcDbLine
 10
418.0
 20
610.067
 30
0.0
 11
414.2
 21
610.067
 31
0.0
  0
LINE
  5
216E
330
1E
100
AcDbEntity
  8
0
100
AcDbLine
 10
417.9
 20
609.877
 30
0.0
 11
414.1
 21
609.877
 31
0.0
  0
LINE
  5
216F
330
1E
100
AcDbEntity
  8
0
100
AcDbLine
 10
417.9
 20
608.8769999999999
 30
0.0
 11
414.1
 21
608.8769999999999
 31
0.0
  0
LINE
  5
2170
330
1E
100
AcDbEntity
  8
0
100
AcDbLine
 10
414.734
 20
600.177
 30
0.0
 11
410.052
 21
600.177
 31
0.0
  0
LINE
  5
2171
330
1E
100
AcDbEntity
  8
0
100
AcDbLine
 10
421.855
 20
600.177
 30
0.0
 11
419.9609999999999
 21
600.177
 31
0.0
  0
LINE
  5
2172
330
1E
100
AcDbEntity
  8
0
100
AcDbLine
 10
421.8519999999999
 20
600.177
 30
0.0
 11
418.719
 21
600.177
 31
0.0
  0
LINE
  5
2173
330
1E
100
AcDbEntity
  8
0
100
AcDbLine
 10
423.855
 20
600.177
 30
0.0
 11
421.855
 21
600.177
 31
0.0
  0
LINE
  5
2174
330
1E
100
AcDbEntity
  8
0
100
AcDbLine
 10
423.81
 20
600.177
 30
0.0
 11
421.8519999999999
 21
600.177
 31
0.0
  0
LINE
  5
2175
330
1E
100
AcDbEntity
  8
0
100
AcDbLine
 10
424.464
 20
600.177
 30
0.0
 11
423.855
 21
600.177
 31
0.0
  0
LINE
  5
2176
330
1E
100
AcDbEntity
  8
0
100
AcDbLine
 10
424.464
 20
600.177
 30
0.0
 11
423.81
 21
600.177
 31
0.0
  0
LINE
  5
2177
330
1E
100
AcDbEntity
  8
0
100
AcDbLine
 10
421.8999999999999
 20
600.177
 30
0.0
 11
413.6999999999999
 21
600.177
 31
0.0
  0
LINE
  5
2178
330
1E
100
AcDbEntity
  8
0
100
AcDbLine
 10
418.719
 20
600.177
 30
0.0
 11
414.734
 21
600.177
 31
0.0
  0
LINE
  5
217B
330
1E
100
AcDbEntity
  8
0
100
AcDbLine
 10
383.4999999999999
 20
605.677
 30
0.0
 11
371.4999999999999
 21
605.177
 31
0.0
  0
LINE
  5
217C
330
1E
100
AcDbEntity
  8
0
100
AcDbLine
 10
381.0
 20
600.177
 30
0.0
 11
375.6
 21
600.177
 31
0.0
  0
LINE
  5
21CD
330
1E
100
AcDbEntity
  8
0
100
AcDbLine
 10
395.27
 20
600.177
 30
0.0
 11
390.0390000000001
 21
600.177
 31
0.0
  0
LINE
  5
21CE
330
1E
100
AcDbEntity
  8
0
100
AcDbLine
 10
395.8
 20
610.067
 30
0.0
 11
392.0
 21
610.067
 31
0.0
  0
LINE
  5
21CF
330
1E
100
AcDbEntity
  8
0
100
AcDbLine
 10
395.8999999999999
 20
609.877
 30
0.0
 11
392.1
 21
609.877
 31
0.0
  0
LINE
  5
21D0
330
1E
100
AcDbEntity
  8
0
100
AcDbLine
 10
395.8999999999999
 20
608.8769999999999
 30
0.0
 11
392.1
 21
608.8769999999999
 31
0.0
  0
LINE
  5
21D1
330
1E
100
AcDbEntity
  8
0
100
AcDbLine
 10
395.27
 20
600.177
 30
0.0
 11
391.201
 21
600.177
 31
0.0
  0
LINE
  5
21D2
330
1E
100
AcDbEntity
  8
0
100
AcDbLine
 10
396.3
 20
600.177
 30
0.0
 11
388.1
 21
600.177
 31
0.0
  0
LINE
  5
21D3
330
1E
100
AcDbEntity
  8
0
100
AcDbLine
 10
400.0189999999999
 20
600.177
 30
0.0
 11
395.27
 21
600.177
 31
0.0
  0
LINE
  5
21D4
330
1E
100
AcDbEntity
  8
0
100
AcDbLine
 10
400.1999999999999
 20
610.067
 30
0.0
 11
395.8
 21
610.067
 31
0.0
  0
LINE
  5
21D5
330
1E
100
AcDbEntity
  8
0
100
AcDbLine
 10
400.3
 20
609.877
 30
0.0
 11
395.8999999999999
 21
609.877
 31
0.0
  0
LINE
  5
21D6
330
1E
100
AcDbEntity
  8
0
100
AcDbLine
 10
400.3
 20
608.8769999999999
 30
0.0
 11
395.8999999999999
 21
608.8769999999999
 31
0.0
  0
LINE
  5
21D7
330
1E
100
AcDbEntity
  8
0
100
AcDbLine
 10
400.0189999999999
 20
600.177
 30
0.0
 11
395.27
 21
600.177
 31
0.0
  0
LINE
  5
21D8
330
1E
100
AcDbEntity
  8
0
100
AcDbLine
 10
405.0
 20
610.067
 30
0.0
 11
400.1999999999999
 21
610.067
 31
0.0
  0
LINE
  5
21D9
330
1E
100
AcDbEntity
  8
0
100
AcDbLine
 10
405.0
 20
609.877
 30
0.0
 11
400.3
 21
609.877
 31
0.0
  0
LINE
  5
21DA
330
1E
100
AcDbEntity
  8
0
100
AcDbLine
 10
405.0
 20
608.8769999999999
 30
0.0
 11
400.3
 21
608.8769999999999
 31
0.0
  0
LINE
  5
21DB
330
1E
100
AcDbEntity
  8
0
100
AcDbLine
 10
405.0
 20
600.177
 30
0.0
 11
396.3
 21
600.177
 31
0.0
  0
LINE
  5
21DC
330
1E
100
AcDbEntity
  8
0
100
AcDbLine
 10
404.9979999999999
 20
600.177
 30
0.0
 11
400.0189999999999
 21
600.177
 31
0.0
  0
LINE
  5
21DD
330
1E
100
AcDbEntity
  8
0
100
AcDbLine
 10
388.1479999999999
 20
600.177
 30
0.0
 11
386.19
 21
600.177
 31
0.0
  0
LINE
  5
21DE
330
1E
100
AcDbEntity
  8
0
100
AcDbLine
 10
390.0390000000001
 20
600.177
 30
0.0
 11
388.1479999999999
 21
600.177
 31
0.0
  0
LINE
  5
21DF
330
1E
100
AcDbEntity
  8
0
100
AcDbLine
 10
386.19
 20
600.177
 30
0.0
 11
385.536
 21
600.177
 31
0.0
  0
LINE
  5
21E0
330
1E
100
AcDbEntity
  8
0
100
AcDbLine
 10
387.1999999999999
 20
610.067
 30
0.0
 11
386.5
 21
610.067
 31
0.0
  0
LINE
  5
21E1
330
1E
100
AcDbEntity
  8
0
100
AcDbLine
 10
389.0
 20
610.067
 30
0.0
 11
387.1999999999999
 21
610.067
 31
0.0
  0
LINE
  5
21E2
330
1E
100
AcDbEntity
  8
0
100
AcDbLine
 10
386.6999999999999
 20
609.877
 30
0.0
 11
386.6999999999999
 21
608.8769999999999
 31
0.0
  0
LINE
  5
21E3
330
1E
100
AcDbEntity
  8
0
100
AcDbLine
 10
386.6999999999999
 20
609.877
 30
0.0
 11
386.5
 21
610.067
 31
0.0
  0
LINE
  5
21E4
330
1E
100
AcDbEntity
  8
0
100
AcDbLine
 10
387.3999999999999
 20
609.877
 30
0.0
 11
386.6999999999999
 21
609.877
 31
0.0
  0
LINE
  5
21E5
330
1E
100
AcDbEntity
  8
0
100
AcDbLine
 10
389.1999999999999
 20
609.877
 30
0.0
 11
387.3999999999999
 21
609.877
 31
0.0
  0
LINE
  5
21E6
330
1E
100
AcDbEntity
  8
0
100
AcDbLine
 10
386.6999999999999
 20
608.8769999999999
 30
0.0
 11
386.6999999999999
 21
609.877
 31
0.0
  0
LINE
  5
21E7
330
1E
100
AcDbEntity
  8
0
100
AcDbLine
 10
386.6999999999999
 20
608.8769999999999
 30
0.0
 11
386.5
 21
608.677
 31
0.0
  0
LINE
  5
21E8
330
1E
100
AcDbEntity
  8
0
100
AcDbLine
 10
387.3999999999999
 20
608.8769999999999
 30
0.0
 11
386.6999999999999
 21
608.8769999999999
 31
0.0
  0
LINE
  5
21E9
330
1E
100
AcDbEntity
  8
0
100
AcDbLine
 10
389.1999999999999
 20
608.8769999999999
 30
0.0
 11
387.3999999999999
 21
608.8769999999999
 31
0.0
  0
LINE
  5
21EA
330
1E
100
AcDbEntity
  8
0
100
AcDbLine
 10
386.5
 20
608.677
 30
0.0
 11
386.0
 21
607.177
 31
0.0
  0
LINE
  5
21EB
330
1E
100
AcDbEntity
  8
0
100
AcDbLine
 10
386.0
 20
607.177
 30
0.0
 11
385.0
 21
606.177
 31
0.0
  0
LINE
  5
21EC
330
1E
100
AcDbEntity
  8
0
100
AcDbLine
 10
385.0
 20
606.177
 30
0.0
 11
383.4999999999999
 21
605.677
 31
0.0
  0
LINE
  5
21ED
330
1E
100
AcDbEntity
  8
0
100
AcDbLine
 10
392.0
 20
610.067
 30
0.0
 11
389.0
 21
610.067
 31
0.0
  0
LINE
  5
21EE
330
1E
100
AcDbEntity
  8
0
100
AcDbLine
 10
392.1
 20
609.877
 30
0.0
 11
389.1999999999999
 21
609.877
 31
0.0
  0
LINE
  5
21EF
330
1E
100
AcDbEntity
  8
0
100
AcDbLine
 10
392.1
 20
608.8769999999999
 30
0.0
 11
389.1999999999999
 21
608.8769999999999
 31
0.0
  0
LINE
  5
21F0
330
1E
100
AcDbEntity
  8
0
100
AcDbLine
 10
386.1899999999999
 20
600.177
 30
0.0
 11
385.5359999999999
 21
600.177
 31
0.0
  0
LINE
  5
21F1
330
1E
100
AcDbEntity
  8
0
100
AcDbLine
 10
386.1449999999999
 20
600.177
 30
0.0
 11
385.5359999999999
 21
600.177
 31
0.0
  0
LINE
  5
21F2
330
1E
100
AcDbEntity
  8
0
100
AcDbLine
 10
388.148
 20
600.177
 30
0.0
 11
386.1899999999999
 21
600.177
 31
0.0
  0
LINE
  5
21F3
330
1E
100
AcDbEntity
  8
0
100
AcDbLine
 10
388.145
 20
600.177
 30
0.0
 11
386.1449999999999
 21
600.177
 31
0.0
  0
LINE
  5
21F4
330
1E
100
AcDbEntity
  8
0
100
AcDbLine
 10
390.0389999999999
 20
600.177
 30
0.0
 11
388.148
 21
600.177
 31
0.0
  0
LINE
  5
21F5
330
1E
100
AcDbEntity
  8
0
100
AcDbLine
 10
388.1
 20
600.177
 30
0.0
 11
381.0
 21
600.177
 31
0.0
  0
LINE
  5
21F6
330
1E
100
AcDbEntity
  8
0
100
AcDbLine
 10
385.5359999999999
 20
600.177
 30
0.0
 11
381.0
 21
600.177
 31
0.0
  0
LINE
  5
21F7
330
1E
100
AcDbEntity
  8
0
100
AcDbLine
 10
391.201
 20
600.177
 30
0.0
 11
388.145
 21
600.177
 31
0.0
  0
LINE
  5
21F8
330
1E
100
AcDbEntity
  8
0
100
AcDbLine
 10
371.4999999999999
 20
605.177
 30
0.0
 11
371.0
 21
604.677
 31
0.0
  0
LINE
  5
21F9
330
1E
100
AcDbEntity
  8
0
100
AcDbLine
 10
372.1999999999999
 20
600.177
 30
0.0
 11
371.0
 21
600.177
 31
0.0
  0
LINE
  5
21FA
330
1E
100
AcDbEntity
  8
0
100
AcDbLine
 10
375.6
 20
600.177
 30
0.0
 11
372.1999999999999
 21
600.177
 31
0.0
  0
LINE
  5
21FB
330
1E
100
AcDbEntity
  8
0
100
AcDbLine
 10
371.0
 20
604.677
 30
0.0
 11
371.0
 21
600.177
 31
0.0
  0
LINE
  5
21FC
330
1E
100
AcDbEntity
  8
0
100
AcDbLine
 10
409.1999999999999
 20
654.8769999999999
 30
0.0
 11
408.0
 21
654.8769999999999
 31
0.0
  0
LINE
  5
21FD
330
1E
100
AcDbEntity
  8
0
100
AcDbLine
 10
411.0
 20
654.8769999999999
 30
0.0
 11
409.1999999999999
 21
654.8769999999999
 31
0.0
  0
LINE
  5
21FE
330
1E
100
AcDbEntity
  8
0
100
AcDbLine
 10
422.0
 20
654.211
 30
0.0
 11
421.6999999999999
 21
654.4959999999999
 31
0.0
  0
LINE
  5
21FF
330
1E
100
AcDbEntity
  8
0
100
AcDbLine
 10
421.6999999999999
 20
654.4959999999999
 30
0.0
 11
418.1
 21
654.687
 31
0.0
  0
LINE
  5
2200
330
1E
100
AcDbEntity
  8
0
100
AcDbLine
 10
418.1
 20
654.687
 30
0.0
 11
411.0
 21
654.8769999999999
 31
0.0
  0
LINE
  5
2201
330
1E
100
AcDbEntity
  8
0
100
AcDbLine
 10
399.0
 20
654.8769999999999
 30
0.0
 11
391.9
 21
654.687
 31
0.0
  0
LINE
  5
2202
330
1E
100
AcDbEntity
  8
0
100
AcDbLine
 10
399.8
 20
654.8769999999999
 30
0.0
 11
399.0
 21
654.8769999999999
 31
0.0
  0
LINE
  5
2203
330
1E
100
AcDbEntity
  8
0
100
AcDbLine
 10
400.8
 20
654.8769999999999
 30
0.0
 11
399.8
 21
654.8769999999999
 31
0.0
  0
LINE
  5
2204
330
1E
100
AcDbEntity
  8
0
100
AcDbLine
 10
403.5
 20
654.8769999999999
 30
0.0
 11
402.0
 21
654.8769999999999
 31
0.0
  0
LINE
  5
2205
330
1E
100
AcDbEntity
  8
0
100
AcDbLine
 10
402.0
 20
654.8769999999999
 30
0.0
 11
400.8
 21
654.8769999999999
 31
0.0
  0
LINE
  5
2206
330
1E
100
AcDbEntity
  8
0
100
AcDbLine
 10
406.5
 20
654.8769999999999
 30
0.0
 11
405.0
 21
654.8769999999999
 31
0.0
  0
LINE
  5
2207
330
1E
100
AcDbEntity
  8
0
100
AcDbLine
 10
408.0
 20
654.8769999999999
 30
0.0
 11
406.5
 21
654.8769999999999
 31
0.0
  0
LINE
  5
2208
330
1E
100
AcDbEntity
  8
0
100
AcDbLine
 10
405.0
 20
654.8769999999999
 30
0.0
 11
403.5
 21
654.8769999999999
 31
0.0
  0
LINE
  5
2209
330
1E
100
AcDbEntity
  8
0
100
AcDbLine
 10
388.3
 20
654.4959999999999
 30
0.0
 11
388.0
 21
654.211
 31
0.0
  0
LINE
  5
220A
330
1E
100
AcDbEntity
  8
0
100
AcDbLine
 10
391.9
 20
654.687
 30
0.0
 11
388.3
 21
654.4959999999999
 31
0.0
  0
ENDSEC
  0
SECTION
  2
OBJECTS
  0
DICTIONARY
  5
C
330
0
100
AcDbDictionary
281
     1
  3
ACAD_GROUP
350
D
  3
ACAD_LAYOUT
350
19
  3
ACAD_MLINESTYLE
350
16
  3
ACAD_PLOTSETTINGS
350
18
  3
ACAD_PLOTSTYLENAME
350
E
  3
AcDbVariableDictionary
350
220C
  0
DICTIONARY
  5
D
102
{ACAD_REACTORS
330
C
102
}
330
C
100
AcDbDictionary
281
     1
  0
DICTIONARY
  5
19
102
{ACAD_REACTORS
330
C
102
}
330
C
100
AcDbDictionary
281
     1
  3
Layout1
350
1D
  3
Model
350
21
  0
DICTIONARY
  5
16
102
{ACAD_REACTORS
330
C
102
}
330
C
100
AcDbDictionary
281
     1
  3
Standard
350
17
  0
DICTIONARY
  5
18
102
{ACAD_REACTORS
330
C
102
}
330
C
100
AcDbDictionary
281
     1
  0
ACDBDICTIONARYWDFLT
  5
E
102
{ACAD_REACTORS
330
C
102
}
330
C
100
AcDbDictionary
281
     1
  3
Normal
350
F
100
AcDbDictionaryWithDefault
340
F
  0
DICTIONARY
  5
220C
102
{ACAD_REACTORS
330
C
102
}
330
C
100
AcDbDictionary
281
     1
  3
DIMASSOC
350
220D
  0
LAYOUT
  5
1D
102
{ACAD_REACTORS
330
19
102
}
330
19
100
AcDbPlotSettings
  1

  2
C:\Programme\AutoCAD LT 2002 Deu\plotters\DWF ePlot (optimized for plotting).pc3
  4

  6

 40
0.0
 41
0.0
 42
0.0
 43
0.0
 44
0.0
 45
0.0
 46
0.0
 47
0.0
 48
0.0
 49
0.0
140
0.0
141
0.0
142
1.0
143
1.0
 70
   688
 72
     0
 73
     0
 74
     5
  7

 75
    16
147
1.0
148
0.0
149
0.0
100
AcDbLayout
  1
Layout1
 70
     1
 71
     1
 10
0.0
 20
0.0
 11
12.0
 21
9.0
 12
0.0
 22
0.0
 32
0.0
 14
1.000000000000000E+20
 24
1.000000000000000E+20
 34
1.000000000000000E+20
 15
-1.000000000000000E+20
 25
-1.000000000000000E+20
 35
-1.000000000000000E+20
146
0.0
 13
0.0
 23
0.0
 33
0.0
 16
1.0
 26
0.0
 36
0.0
 17
0.0
 27
1.0
 37
0.0
 76
     0
330
1A
  0
LAYOUT
  5
21
102
{ACAD_REACTORS
330
19
102
}
330
19
100
AcDbPlotSettings
  1

  2
C:\Programme\AutoCAD LT 2002 Deu\plotters\DWF ePlot (optimized for plotting).pc3
  4

  6

 40
0.0
 41
0.0
 42
0.0
 43
0.0
 44
0.0
 45
0.0
 46
0.0
 47
0.0
 48
0.0
 49
0.0
140
0.0
141
0.0
142
1.0
143
1.0
 70
  1712
 72
     0
 73
     0
 74
     0
  7

 75
     0
147
1.0
148
0.0
149
0.0
100
AcDbLayout
  1
Model
 70
     1
 71
     0
 10
0.0
 20
0.0
 11
12.0
 21
9.0
 12
0.0
 22
0.0
 32
0.0
 14
0.0
 24
0.0
 34
0.0
 15
0.0
 25
0.0
 35
0.0
146
0.0
 13
0.0
 23
0.0
 33
0.0
 16
1.0
 26
0.0
 36
0.0
 17
0.0
 27
1.0
 37
0.0
 76
     0
330
1E
  0
MLINESTYLE
  5
17
102
{ACAD_REACTORS
330
16
102
}
330
16
100
AcDbMlineStyle
  2
STANDARD
 70
     0
  3

 62
   256
 51
90.0
 52
90.0
 71
     2
 49
0.5
 62
   256
  6
BYLAYER
 49
-0.5
 62
   256
  6
BYLAYER
  0
ACDBPLACEHOLDER
  5
F
102
{ACAD_REACTORS
330
E
102
}
330
E
  0
DICTIONARYVAR
  5
220D
102
{ACAD_REACTORS
330
220C
102
}
330
220C
100
DictionaryVariables
280
     0
  1
1
  0
ENDSEC
  0
EOF
