  0
SECTION
  2
HEADER
  9
$ACADVER
  1
AC1015
  9
$ACADMAINTVER
 70
    13
  9
$DWGCODEPAGE
  3
ANSI_1252
  9
$INSBASE
 10
0.0
 20
0.0
 30
0.0
  9
$EXTMIN
 10
0.0
 20
0.0000000000000084
 30
0.0
  9
$EXTMAX
 10
866.0
 20
503.0
 30
0.0
  9
$LIMMIN
 10
0.0
 20
0.0
  9
$LIMMAX
 10
12.0
 20
9.0
  9
$ORTHOMODE
 70
     0
  9
$REGENMODE
 70
     1
  9
$FILLMODE
 70
     1
  9
$QTEXTMODE
 70
     0
  9
$MIRRTEXT
 70
     1
  9
$LTSCALE
 40
1.0
  9
$ATTMODE
 70
     1
  9
$TEXTSIZE
 40
0.2
  9
$TRACEWID
 40
0.05
  9
$TEXTSTYLE
  7
Standard
  9
$CLAYER
  8
0
  9
$CELTYPE
  6
Continuous
  9
$CECOLOR
 62
   256
  9
$CELTSCALE
 40
1.0
  9
$DISPSILH
 70
     0
  9
$DIMSCALE
 40
1.0
  9
$DIMASZ
 40
0.18
  9
$DIMEXO
 40
0.0625
  9
$DIMDLI
 40
0.38
  9
$DIMRND
 40
0.0
  9
$DIMDLE
 40
0.0
  9
$DIMEXE
 40
0.18
  9
$DIMTP
 40
0.0
  9
$DIMTM
 40
0.0
  9
$DIMTXT
 40
0.18
  9
$DIMCEN
 40
0.09
  9
$DIMTSZ
 40
0.0
  9
$DIMTOL
 70
     0
  9
$DIMLIM
 70
     0
  9
$DIMTIH
 70
     1
  9
$DIMTOH
 70
     1
  9
$DIMSE1
 70
     0
  9
$DIMSE2
 70
     0
  9
$DIMTAD
 70
     0
  9
$DIMZIN
 70
     0
  9
$DIMBLK
  1

  9
$DIMASO
 70
     1
  9
$DIMSHO
 70
     1
  9
$DIMPOST
  1

  9
$DIMAPOST
  1

  9
$DIMALT
 70
     0
  9
$DIMALTD
 70
     2
  9
$DIMALTF
 40
25.4
  9
$DIMLFAC
 40
1.0
  9
$DIMTOFL
 70
     0
  9
$DIMTVP
 40
0.0
  9
$DIMTIX
 70
     0
  9
$DIMSOXD
 70
     0
  9
$DIMSAH
 70
     0
  9
$DIMBLK1
  1

  9
$DIMBLK2
  1

  9
$DIMSTYLE
  2
Standard
  9
$DIMCLRD
 70
     0
  9
$DIMCLRE
 70
     0
  9
$DIMCLRT
 70
     0
  9
$DIMTFAC
 40
1.0
  9
$DIMGAP
 40
0.09
  9
$DIMJUST
 70
     0
  9
$DIMSD1
 70
     0
  9
$DIMSD2
 70
     0
  9
$DIMTOLJ
 70
     1
  9
$DIMTZIN
 70
     0
  9
$DIMALTZ
 70
     0
  9
$DIMALTTZ
 70
     0
  9
$DIMUPT
 70
     0
  9
$DIMDEC
 70
     4
  9
$DIMTDEC
 70
     4
  9
$DIMALTU
 70
     2
  9
$DIMALTTD
 70
     2
  9
$DIMTXSTY
  7
Standard
  9
$DIMAUNIT
 70
     0
  9
$DIMADEC
 70
     0
  9
$DIMALTRND
 40
0.0
  9
$DIMAZIN
 70
     0
  9
$DIMDSEP
 70
    46
  9
$DIMATFIT
 70
     3
  9
$DIMFRAC
 70
     0
  9
$DIMLDRBLK
  1

  9
$DIMLUNIT
 70
     2
  9
$DIMLWD
 70
    -2
  9
$DIMLWE
 70
    -2
  9
$DIMTMOVE
 70
     0
  9
$LUNITS
 70
     2
  9
$LUPREC
 70
     4
  9
$SKETCHINC
 40
0.1
  9
$FILLETRAD
 40
0.0
  9
$AUNITS
 70
     0
  9
$AUPREC
 70
     0
  9
$MENU
  1
.
  9
$ELEVATION
 40
0.0
  9
$PELEVATION
 40
0.0
  9
$THICKNESS
 40
0.0
  9
$LIMCHECK
 70
     0
  9
$CHAMFERA
 40
0.0
  9
$CHAMFERB
 40
0.0
  9
$CHAMFERC
 40
0.0
  9
$CHAMFERD
 40
0.0
  9
$SKPOLY
 70
     0
  9
$TDCREATE
 40
2455508.866353796
  9
$TDUCREATE
 40
2455508.824687129
  9
$TDUPDATE
 40
2455513.399078044
  9
$TDUUPDATE
 40
2455513.357411377
  9
$TDINDWG
 40
0.0030325926
  9
$TDUSRTIMER
 40
0.0030325926
  9
$USRTIMER
 70
     1
  9
$ANGBASE
 50
0.0
  9
$ANGDIR
 70
     0
  9
$PDMODE
 70
     0
  9
$PDSIZE
 40
0.0
  9
$PLINEWID
 40
0.0
  9
$SPLFRAME
 70
     0
  9
$SPLINETYPE
 70
     6
  9
$SPLINESEGS
 70
     8
  9
$HANDSEED
  5
34D
  9
$SURFTAB1
 70
     6
  9
$SURFTAB2
 70
     6
  9
$SURFTYPE
 70
     6
  9
$SURFU
 70
     6
  9
$SURFV
 70
     6
  9
$UCSBASE
  2

  9
$UCSNAME
  2

  9
$UCSORG
 10
0.0
 20
0.0
 30
0.0
  9
$UCSXDIR
 10
1.0
 20
0.0
 30
0.0
  9
$UCSYDIR
 10
0.0
 20
1.0
 30
0.0
  9
$UCSORTHOREF
  2

  9
$UCSORTHOVIEW
 70
     1
  9
$UCSORGTOP
 10
0.0
 20
0.0
 30
0.0
  9
$UCSORGBOTTOM
 10
0.0
 20
0.0
 30
0.0
  9
$UCSORGLEFT
 10
0.0
 20
0.0
 30
0.0
  9
$UCSORGRIGHT
 10
0.0
 20
0.0
 30
0.0
  9
$UCSORGFRONT
 10
0.0
 20
0.0
 30
0.0
  9
$UCSORGBACK
 10
0.0
 20
0.0
 30
0.0
  9
$PUCSBASE
  2

  9
$PUCSNAME
  2

  9
$PUCSORG
 10
0.0
 20
0.0
 30
0.0
  9
$PUCSXDIR
 10
1.0
 20
0.0
 30
0.0
  9
$PUCSYDIR
 10
0.0
 20
1.0
 30
0.0
  9
$PUCSORTHOREF
  2

  9
$PUCSORTHOVIEW
 70
     0
  9
$PUCSORGTOP
 10
0.0
 20
0.0
 30
0.0
  9
$PUCSORGBOTTOM
 10
0.0
 20
0.0
 30
0.0
  9
$PUCSORGLEFT
 10
0.0
 20
0.0
 30
0.0
  9
$PUCSORGRIGHT
 10
0.0
 20
0.0
 30
0.0
  9
$PUCSORGFRONT
 10
0.0
 20
0.0
 30
0.0
  9
$PUCSORGBACK
 10
0.0
 20
0.0
 30
0.0
  9
$USERI1
 70
     0
  9
$USERI2
 70
     0
  9
$USERI3
 70
     0
  9
$USERI4
 70
     0
  9
$USERI5
 70
     0
  9
$USERR1
 40
0.0
  9
$USERR2
 40
0.0
  9
$USERR3
 40
0.0
  9
$USERR4
 40
0.0
  9
$USERR5
 40
0.0
  9
$WORLDVIEW
 70
     1
  9
$SHADEDGE
 70
     3
  9
$SHADEDIF
 70
    70
  9
$TILEMODE
 70
     1
  9
$MAXACTVP
 70
    64
  9
$PINSBASE
 10
0.0
 20
0.0
 30
0.0
  9
$PLIMCHECK
 70
     0
  9
$PEXTMIN
 10
1.000000000000000E+20
 20
1.000000000000000E+20
 30
1.000000000000000E+20
  9
$PEXTMAX
 10
-1.000000000000000E+20
 20
-1.000000000000000E+20
 30
-1.000000000000000E+20
  9
$PLIMMIN
 10
0.0
 20
0.0
  9
$PLIMMAX
 10
12.0
 20
9.0
  9
$UNITMODE
 70
     0
  9
$VISRETAIN
 70
     1
  9
$PLINEGEN
 70
     0
  9
$PSLTSCALE
 70
     1
  9
$TREEDEPTH
 70
  3020
  9
$CMLSTYLE
  2
Standard
  9
$CMLJUST
 70
     0
  9
$CMLSCALE
 40
1.0
  9
$PROXYGRAPHICS
 70
     1
  9
$MEASUREMENT
 70
     0
  9
$CELWEIGHT
370
    -1
  9
$ENDCAPS
280
     0
  9
$JOINSTYLE
280
     0
  9
$LWDISPLAY
290
     0
  9
$INSUNITS
 70
     0
  9
$HYPERLINKBASE
  1

  9
$STYLESHEET
  1

  9
$XEDIT
290
     1
  9
$CEPSNTYPE
380
     0
  9
$PSTYLEMODE
290
     1
  9
$FINGERPRINTGUID
  2
{90135C43-012D-4D66-87B1-E8CA6DF9DC20}
  9
$VERSIONGUID
  2
{E6FE5A3C-F684-49BE-9DEB-D1C1F6890EF7}
  9
$EXTNAMES
290
     1
  9
$PSVPSCALE
 40
0.0
  9
$OLESTARTUP
290
     0
  0
ENDSEC
  0
SECTION
  2
CLASSES
  0
CLASS
  1
ACDBDICTIONARYWDFLT
  2
AcDbDictionaryWithDefault
  3
AutoCAD 2000
 90
        0
280
     0
281
     0
  0
CLASS
  1
ACDBPLACEHOLDER
  2
AcDbPlaceHolder
  3
AutoCAD 2000
 90
        0
280
     0
281
     0
  0
CLASS
  1
LAYOUT
  2
AcDbLayout
  3
AutoCAD 2000
 90
        0
280
     0
281
     0
  0
CLASS
  1
DICTIONARYVAR
  2
AcDbDictionaryVar
  3
AutoCAD 2000
 90
        0
280
     0
281
     0
  0
ENDSEC
  0
SECTION
  2
TABLES
  0
TABLE
  2
VPORT
  5
8
330
0
100
AcDbSymbolTable
 70
     3
  0
VPORT
  5
34C
330
8
100
AcDbSymbolTableRecord
100
AcDbViewportTableRecord
  2
*Active
 70
     0
 10
0.0
 20
0.0
 11
1.0
 21
1.0
 12
433.0
 22
251.5
 13
0.0
 23
0.0
 14
1.0
 24
1.0
 15
0.0
 25
0.0
 16
0.0
 26
0.0
 36
1.0
 17
0.0
 27
0.0
 37
0.0
 40
506.4024802705749
 41
2.073363431151241
 42
50.0
 43
0.0
 44
0.0
 50
0.0
 51
0.0
 71
     0
 72
   100
 73
     1
 74
     3
 75
     0
 76
     0
 77
     0
 78
     0
281
     0
 65
     1
110
0.0
120
0.0
130
0.0
111
1.0
121
0.0
131
0.0
112
0.0
122
1.0
132
0.0
 79
     1
146
0.0
  0
ENDTAB
  0
TABLE
  2
LTYPE
  5
5
330
0
100
AcDbSymbolTable
 70
     1
  0
LTYPE
  5
13
330
5
100
AcDbSymbolTableRecord
100
AcDbLinetypeTableRecord
  2
ByBlock
 70
     0
  3

 72
    65
 73
     0
 40
0.0
  0
LTYPE
  5
14
330
5
100
AcDbSymbolTableRecord
100
AcDbLinetypeTableRecord
  2
ByLayer
 70
     0
  3

 72
    65
 73
     0
 40
0.0
  0
LTYPE
  5
15
330
5
100
AcDbSymbolTableRecord
100
AcDbLinetypeTableRecord
  2
Continuous
 70
     0
  3
Solid line
 72
    65
 73
     0
 40
0.0
  0
ENDTAB
  0
TABLE
  2
LAYER
  5
2
330
0
100
AcDbSymbolTable
 70
     1
  0
LAYER
  5
10
330
2
100
AcDbSymbolTableRecord
100
AcDbLayerTableRecord
  2
0
 70
     0
 62
     7
  6
Continuous
370
    -3
390
F
  0
ENDTAB
  0
TABLE
  2
STYLE
  5
3
330
0
100
AcDbSymbolTable
 70
     1
  0
STYLE
  5
11
330
3
100
AcDbSymbolTableRecord
100
AcDbTextStyleTableRecord
  2
Standard
 70
     0
 40
0.0
 41
1.0
 50
0.0
 71
     0
 42
0.2
  3
txt
  4

  0
ENDTAB
  0
TABLE
  2
VIEW
  5
6
330
0
100
AcDbSymbolTable
 70
     0
  0
ENDTAB
  0
TABLE
  2
UCS
  5
7
330
0
100
AcDbSymbolTable
 70
     0
  0
ENDTAB
  0
TABLE
  2
APPID
  5
9
330
0
100
AcDbSymbolTable
 70
     1
  0
APPID
  5
12
330
9
100
AcDbSymbolTableRecord
100
AcDbRegAppTableRecord
  2
ACAD
 70
     0
  0
ENDTAB
  0
TABLE
  2
DIMSTYLE
  5
A
330
0
100
AcDbSymbolTable
 70
     1
100
AcDbDimStyleTable
 71
     0
  0
DIMSTYLE
105
2F6
330
A
100
AcDbSymbolTableRecord
100
AcDbDimStyleTableRecord
  2
Standard
 70
     0
340
11
  0
ENDTAB
  0
TABLE
  2
BLOCK_RECORD
  5
1
330
0
100
AcDbSymbolTable
 70
     1
  0
BLOCK_RECORD
  5
1E
330
1
100
AcDbSymbolTableRecord
100
AcDbBlockTableRecord
  2
*Model_Space
340
21
  0
BLOCK_RECORD
  5
1A
330
1
100
AcDbSymbolTableRecord
100
AcDbBlockTableRecord
  2
*Paper_Space
340
1D
  0
ENDTAB
  0
ENDSEC
  0
SECTION
  2
BLOCKS
  0
BLOCK
  5
1F
330
1E
100
AcDbEntity
  8
0
100
AcDbBlockBegin
  2
*Model_Space
 70
     0
 10
0.0
 20
0.0
 30
0.0
  3
*Model_Space
  1

  0
ENDBLK
  5
20
330
1E
100
AcDbEntity
  8
0
100
AcDbBlockEnd
  0
BLOCK
  5
1B
330
1A
100
AcDbEntity
 67
     1
  8
0
100
AcDbBlockBegin
  2
*Paper_Space
 70
     0
 10
0.0
 20
0.0
 30
0.0
  3
*Paper_Space
  1

  0
ENDBLK
  5
1C
330
1A
100
AcDbEntity
 67
     1
  8
0
100
AcDbBlockEnd
  0
ENDSEC
  0
SECTION
  2
ENTITIES
  0
LINE
  5
22
330
1E
100
AcDbEntity
  8
0
100
AcDbLine
 10
37.013
 20
131.356
 30
0.0
 11
97.97200000000001
 21
129.4999999999999
 31
0.0
  0
LINE
  5
23
330
1E
100
AcDbEntity
  8
0
100
AcDbLine
 10
37.013
 20
131.356
 30
0.0
 11
97.97200000000001
 21
129.4999999999999
 31
0.0
  0
LINE
  5
24
330
1E
100
AcDbEntity
  8
0
100
AcDbLine
 10
97.97200000000001
 20
129.4999999999999
 30
0.0
 11
120.6729999999999
 21
129.756
 31
0.0
  0
LINE
  5
26
330
1E
100
AcDbEntity
  8
0
100
AcDbLine
 10
28.728
 20
132.9409999999999
 30
0.0
 11
37.013
 21
131.356
 31
0.0
  0
LINE
  5
28
330
1E
100
AcDbEntity
  8
0
100
AcDbLine
 10
146.203
 20
24.58199999999999
 30
0.0
 11
155.2259999999999
 21
17.58099999999999
 31
0.0
  0
LINE
  5
29
330
1E
100
AcDbEntity
  8
0
100
AcDbLine
 10
130.866
 20
53.223
 30
0.0
 11
133.9429999999999
 21
42.675
 31
0.0
  0
LINE
  5
2A
330
1E
100
AcDbEntity
  8
0
100
AcDbLine
 10
133.9429999999999
 20
42.675
 30
0.0
 11
139.127
 21
32.99
 31
0.0
  0
LINE
  5
2B
330
1E
100
AcDbEntity
  8
0
100
AcDbLine
 10
139.127
 20
32.99
 30
0.0
 11
146.203
 21
24.58199999999999
 31
0.0
  0
LINE
  5
2C
330
1E
100
AcDbEntity
  8
0
100
AcDbLine
 10
155.2259999999999
 20
17.58099999999999
 30
0.0
 11
165.5379999999999
 21
12.677
 31
0.0
  0
LINE
  5
2D
330
1E
100
AcDbEntity
  8
0
100
AcDbLine
 10
165.5379999999999
 20
12.677
 30
0.0
 11
176.669
 21
10.096
 31
0.0
  0
LINE
  5
2E
330
1E
100
AcDbEntity
  8
0
100
AcDbLine
 10
129.706
 20
62.26600000000001
 30
0.0
 11
130.866
 21
53.223
 31
0.0
  0
LINE
  5
2F
330
1E
100
AcDbEntity
  8
0
100
AcDbLine
 10
120.6729999999999
 20
129.756
 30
0.0
 11
122.3779999999999
 21
129.2799999999999
 31
0.0
  0
LINE
  5
30
330
1E
100
AcDbEntity
  8
0
100
AcDbLine
 10
123.3129999999999
 20
128.311
 30
0.0
 11
123.7119999999999
 21
127.0179999999999
 31
0.0
  0
LINE
  5
31
330
1E
100
AcDbEntity
  8
0
100
AcDbLine
 10
122.3779999999999
 20
129.2799999999999
 30
0.0
 11
123.3129999999999
 21
128.311
 31
0.0
  0
LINE
  5
32
330
1E
100
AcDbEntity
  8
0
100
AcDbLine
 10
123.7119999999999
 20
127.0179999999999
 30
0.0
 11
129.706
 21
62.26600000000001
 31
0.0
  0
LINE
  5
34
330
1E
100
AcDbEntity
  8
0
100
AcDbLine
 10
1.78
 20
212.135
 30
0.0
 11
6.224
 21
160.609
 31
0.0
  0
LINE
  5
35
330
1E
100
AcDbEntity
  8
0
100
AcDbLine
 10
0.8849999999999999
 20
315.5269999999999
 30
0.0
 11
2.961
 21
350.004
 31
0.0
  0
LINE
  5
36
330
1E
100
AcDbEntity
  8
0
100
AcDbLine
 10
2.961
 20
350.004
 30
0.0
 11
6.222999999999999
 21
384.389
 31
0.0
  0
LINE
  5
37
330
1E
100
AcDbEntity
  8
0
100
AcDbLine
 10
1.78
 20
212.135
 30
0.0
 11
6.224
 21
160.609
 31
0.0
  0
LINE
  5
38
330
1E
100
AcDbEntity
  8
0
100
AcDbLine
 10
0.0
 20
263.822
 30
0.0
 11
1.78
 21
212.135
 31
0.0
  0
LINE
  5
39
330
1E
100
AcDbEntity
  8
0
100
AcDbLine
 10
0.0
 20
263.822
 30
0.0
 11
0.8849999999999999
 21
315.5269999999999
 31
0.0
  0
LINE
  5
3A
330
1E
100
AcDbEntity
  8
0
100
AcDbLine
 10
6.222999999999999
 20
384.389
 30
0.0
 11
8.227999999999999
 21
392.583
 31
0.0
  0
LINE
  5
3B
330
1E
100
AcDbEntity
  8
0
100
AcDbLine
 10
21.116
 20
136.5709999999999
 30
0.0
 11
28.728
 21
132.9409999999999
 31
0.0
  0
LINE
  5
3C
330
1E
100
AcDbEntity
  8
0
100
AcDbLine
 10
8.227999999999999
 20
392.583
 30
0.0
 11
12.244
 21
400.0
 31
0.0
  0
LINE
  5
3D
330
1E
100
AcDbEntity
  8
0
100
AcDbLine
 10
12.244
 20
400.0
 30
0.0
 11
18.01099999999999
 21
406.158
 31
0.0
  0
LINE
  5
3E
330
1E
100
AcDbEntity
  8
0
100
AcDbLine
 10
9.817999999999999
 20
148.917
 30
0.0
 11
14.667
 21
142.0149999999999
 31
0.0
  0
LINE
  5
3F
330
1E
100
AcDbEntity
  8
0
100
AcDbLine
 10
7.479
 20
154.5939999999999
 30
0.0
 11
9.817999999999999
 21
148.917
 31
0.0
  0
LINE
  5
40
330
1E
100
AcDbEntity
  8
0
100
AcDbLine
 10
14.667
 20
142.0149999999999
 30
0.0
 11
21.116
 21
136.5709999999999
 31
0.0
  0
LINE
  5
41
330
1E
100
AcDbEntity
  8
0
100
AcDbLine
 10
6.224
 20
160.609
 30
0.0
 11
7.479
 21
154.5939999999999
 31
0.0
  0
LINE
  5
42
330
1E
100
AcDbEntity
  8
0
100
AcDbLine
 10
18.01099999999999
 20
406.158
 30
0.0
 11
25.146
 21
410.6499999999999
 31
0.0
  0
LINE
  5
43
330
1E
100
AcDbEntity
  8
0
100
AcDbLine
 10
25.146
 20
410.6499999999999
 30
0.0
 11
30.943
 21
412.7049999999999
 31
0.0
  0
LINE
  5
45
330
1E
100
AcDbEntity
  8
0
100
AcDbLine
 10
48.091
 20
219.9609999999999
 30
0.0
 11
48.2402
 21
219.812
 31
0.0
  0
LINE
  5
46
330
1E
100
AcDbEntity
  8
0
100
AcDbLine
 10
48.091
 20
219.9609999999999
 30
0.0
 11
48.9598
 21
220.7069999999999
 31
0.0
  0
LINE
  5
47
330
1E
100
AcDbEntity
  8
0
100
AcDbLine
 10
48.091
 20
209.9609999999999
 30
0.0
 11
48.2402
 21
209.812
 31
0.0
  0
LINE
  5
48
330
1E
100
AcDbEntity
  8
0
100
AcDbLine
 10
48.091
 20
209.9609999999999
 30
0.0
 11
48.9598
 21
210.7069999999999
 31
0.0
  0
LINE
  5
49
330
1E
100
AcDbEntity
  8
0
100
AcDbLine
 10
48.091
 20
199.9609999999999
 30
0.0
 11
48.2402
 21
199.812
 31
0.0
  0
LINE
  5
4A
330
1E
100
AcDbEntity
  8
0
100
AcDbLine
 10
48.091
 20
199.9609999999999
 30
0.0
 11
48.9598
 21
200.707
 31
0.0
  0
LINE
  5
4B
330
1E
100
AcDbEntity
  8
0
100
AcDbLine
 10
48.091
 20
239.961
 30
0.0
 11
48.2402
 21
239.812
 31
0.0
  0
LINE
  5
4C
330
1E
100
AcDbEntity
  8
0
100
AcDbLine
 10
48.091
 20
239.961
 30
0.0
 11
48.9598
 21
240.707
 31
0.0
  0
LINE
  5
4D
330
1E
100
AcDbEntity
  8
0
100
AcDbLine
 10
48.091
 20
229.9609999999999
 30
0.0
 11
48.2402
 21
229.812
 31
0.0
  0
LINE
  5
4E
330
1E
100
AcDbEntity
  8
0
100
AcDbLine
 10
48.091
 20
229.9609999999999
 30
0.0
 11
48.9598
 21
230.7069999999999
 31
0.0
  0
LINE
  5
4F
330
1E
100
AcDbEntity
  8
0
100
AcDbLine
 10
48.091
 20
249.961
 30
0.0
 11
48.2402
 21
249.812
 31
0.0
  0
LINE
  5
50
330
1E
100
AcDbEntity
  8
0
100
AcDbLine
 10
48.091
 20
249.961
 30
0.0
 11
48.9598
 21
250.707
 31
0.0
  0
LINE
  5
51
330
1E
100
AcDbEntity
  8
0
100
AcDbLine
 10
48.2068
 20
196.444
 30
0.0
 11
49.5232
 21
196.459
 31
0.0
  0
LINE
  5
52
330
1E
100
AcDbEntity
  8
0
100
AcDbLine
 10
48.2051
 20
216.6809999999999
 30
0.0
 11
48.2068
 21
216.444
 31
0.0
  0
LINE
  5
53
330
1E
100
AcDbEntity
  8
0
100
AcDbLine
 10
48.2051
 20
216.6809999999999
 30
0.0
 11
49.5303
 21
216.6809999999999
 31
0.0
  0
LINE
  5
54
330
1E
100
AcDbEntity
  8
0
100
AcDbLine
 10
48.2068
 20
216.444
 30
0.0
 11
49.5232
 21
216.459
 31
0.0
  0
LINE
  5
55
330
1E
100
AcDbEntity
  8
0
100
AcDbLine
 10
48.2068
 20
206.444
 30
0.0
 11
49.5232
 21
206.4589999999999
 31
0.0
  0
LINE
  5
56
330
1E
100
AcDbEntity
  8
0
100
AcDbLine
 10
48.2051
 20
206.6809999999999
 30
0.0
 11
48.2068
 21
206.444
 31
0.0
  0
LINE
  5
57
330
1E
100
AcDbEntity
  8
0
100
AcDbLine
 10
48.2051
 20
206.6809999999999
 30
0.0
 11
49.5303
 21
206.6809999999999
 31
0.0
  0
LINE
  5
58
330
1E
100
AcDbEntity
  8
0
100
AcDbLine
 10
48.2051
 20
196.6809999999999
 30
0.0
 11
48.2068
 21
196.444
 31
0.0
  0
LINE
  5
59
330
1E
100
AcDbEntity
  8
0
100
AcDbLine
 10
48.2051
 20
196.6809999999999
 30
0.0
 11
49.5303
 21
196.6809999999999
 31
0.0
  0
LINE
  5
5A
330
1E
100
AcDbEntity
  8
0
100
AcDbLine
 10
48.2068
 20
226.444
 30
0.0
 11
49.5232
 21
226.459
 31
0.0
  0
LINE
  5
5B
330
1E
100
AcDbEntity
  8
0
100
AcDbLine
 10
48.2068
 20
236.444
 30
0.0
 11
49.5232
 21
236.459
 31
0.0
  0
LINE
  5
5C
330
1E
100
AcDbEntity
  8
0
100
AcDbLine
 10
48.2051
 20
236.681
 30
0.0
 11
48.2068
 21
236.444
 31
0.0
  0
LINE
  5
5D
330
1E
100
AcDbEntity
  8
0
100
AcDbLine
 10
48.2051
 20
236.681
 30
0.0
 11
49.5303
 21
236.681
 31
0.0
  0
LINE
  5
5E
330
1E
100
AcDbEntity
  8
0
100
AcDbLine
 10
48.2051
 20
226.6809999999999
 30
0.0
 11
48.2068
 21
226.444
 31
0.0
  0
LINE
  5
5F
330
1E
100
AcDbEntity
  8
0
100
AcDbLine
 10
48.2051
 20
226.6809999999999
 30
0.0
 11
49.5303
 21
226.6809999999999
 31
0.0
  0
LINE
  5
60
330
1E
100
AcDbEntity
  8
0
100
AcDbLine
 10
48.2068
 20
246.444
 30
0.0
 11
49.5232
 21
246.459
 31
0.0
  0
LINE
  5
61
330
1E
100
AcDbEntity
  8
0
100
AcDbLine
 10
48.2051
 20
246.6809999999999
 30
0.0
 11
48.2068
 21
246.444
 31
0.0
  0
LINE
  5
62
330
1E
100
AcDbEntity
  8
0
100
AcDbLine
 10
48.2051
 20
246.6809999999999
 30
0.0
 11
49.5303
 21
246.6809999999999
 31
0.0
  0
LINE
  5
63
330
1E
100
AcDbEntity
  8
0
100
AcDbLine
 10
48.7492
 20
196.672
 30
0.0
 11
48.9598
 21
196.69
 31
0.0
  0
LINE
  5
64
330
1E
100
AcDbEntity
  8
0
100
AcDbLine
 10
48.7492
 20
196.672
 30
0.0
 11
48.7668
 21
200.3029999999999
 31
0.0
  0
LINE
  5
65
330
1E
100
AcDbEntity
  8
0
100
AcDbLine
 10
48.2402
 20
219.812
 30
0.0
 11
48.7668
 21
220.303
 31
0.0
  0
LINE
  5
66
330
1E
100
AcDbEntity
  8
0
100
AcDbLine
 10
48.7492
 20
216.672
 30
0.0
 11
48.9598
 21
216.69
 31
0.0
  0
LINE
  5
67
330
1E
100
AcDbEntity
  8
0
100
AcDbLine
 10
48.7492
 20
216.672
 30
0.0
 11
48.7668
 21
220.303
 31
0.0
  0
LINE
  5
68
330
1E
100
AcDbEntity
  8
0
100
AcDbLine
 10
48.7492
 20
206.672
 30
0.0
 11
48.9598
 21
206.6899999999999
 31
0.0
  0
LINE
  5
69
330
1E
100
AcDbEntity
  8
0
100
AcDbLine
 10
48.7492
 20
206.672
 30
0.0
 11
48.7668
 21
210.3029999999999
 31
0.0
  0
LINE
  5
6A
330
1E
100
AcDbEntity
  8
0
100
AcDbLine
 10
48.2402
 20
209.812
 30
0.0
 11
48.7668
 21
210.3029999999999
 31
0.0
  0
LINE
  5
6B
330
1E
100
AcDbEntity
  8
0
100
AcDbLine
 10
48.2402
 20
199.812
 30
0.0
 11
48.7668
 21
200.3029999999999
 31
0.0
  0
LINE
  5
6C
330
1E
100
AcDbEntity
  8
0
100
AcDbLine
 10
48.7492
 20
226.6719999999999
 30
0.0
 11
48.9598
 21
226.69
 31
0.0
  0
LINE
  5
6D
330
1E
100
AcDbEntity
  8
0
100
AcDbLine
 10
48.7492
 20
226.6719999999999
 30
0.0
 11
48.7668
 21
230.303
 31
0.0
  0
LINE
  5
6E
330
1E
100
AcDbEntity
  8
0
100
AcDbLine
 10
48.7492
 20
236.6719999999999
 30
0.0
 11
48.9598
 21
236.69
 31
0.0
  0
LINE
  5
6F
330
1E
100
AcDbEntity
  8
0
100
AcDbLine
 10
48.7492
 20
236.6719999999999
 30
0.0
 11
48.7668
 21
240.303
 31
0.0
  0
LINE
  5
70
330
1E
100
AcDbEntity
  8
0
100
AcDbLine
 10
48.2402
 20
239.812
 30
0.0
 11
48.7668
 21
240.303
 31
0.0
  0
LINE
  5
71
330
1E
100
AcDbEntity
  8
0
100
AcDbLine
 10
48.2402
 20
229.812
 30
0.0
 11
48.7668
 21
230.303
 31
0.0
  0
LINE
  5
72
330
1E
100
AcDbEntity
  8
0
100
AcDbLine
 10
48.7492
 20
246.672
 30
0.0
 11
48.9598
 21
246.6899999999999
 31
0.0
  0
LINE
  5
73
330
1E
100
AcDbEntity
  8
0
100
AcDbLine
 10
48.7492
 20
246.672
 30
0.0
 11
48.7668
 21
250.3029999999999
 31
0.0
  0
LINE
  5
74
330
1E
100
AcDbEntity
  8
0
100
AcDbLine
 10
48.2402
 20
249.812
 30
0.0
 11
48.7668
 21
250.3029999999999
 31
0.0
  0
LINE
  5
75
330
1E
100
AcDbEntity
  8
0
100
AcDbLine
 10
48.2068
 20
256.444
 30
0.0
 11
49.5232
 21
256.4589999999999
 31
0.0
  0
LINE
  5
76
330
1E
100
AcDbEntity
  8
0
100
AcDbLine
 10
48.2051
 20
256.6809999999999
 30
0.0
 11
48.2068
 21
256.444
 31
0.0
  0
LINE
  5
77
330
1E
100
AcDbEntity
  8
0
100
AcDbLine
 10
48.2051
 20
256.6809999999999
 30
0.0
 11
49.5303
 21
256.6809999999999
 31
0.0
  0
LINE
  5
78
330
1E
100
AcDbEntity
  8
0
100
AcDbLine
 10
48.7492
 20
256.672
 30
0.0
 11
48.9598
 21
256.6899999999999
 31
0.0
  0
LINE
  5
79
330
1E
100
AcDbEntity
  8
0
100
AcDbLine
 10
48.7492
 20
256.672
 30
0.0
 11
48.7668
 21
260.3029999999999
 31
0.0
  0
LINE
  5
7A
330
1E
100
AcDbEntity
  8
0
100
AcDbLine
 10
48.2402
 20
259.812
 30
0.0
 11
48.7668
 21
260.3029999999999
 31
0.0
  0
LINE
  5
7B
330
1E
100
AcDbEntity
  8
0
100
AcDbLine
 10
48.091
 20
259.961
 30
0.0
 11
48.2402
 21
259.812
 31
0.0
  0
LINE
  5
7C
330
1E
100
AcDbEntity
  8
0
100
AcDbLine
 10
48.091
 20
259.961
 30
0.0
 11
48.9598
 21
260.7069999999999
 31
0.0
  0
LINE
  5
7D
330
1E
100
AcDbEntity
  8
0
100
AcDbLine
 10
48.8086
 20
279.5759999999999
 30
0.0
 11
48.8789
 21
278.858
 31
0.0
  0
LINE
  5
7E
330
1E
100
AcDbEntity
  8
0
100
AcDbLine
 10
48.8086
 20
279.5759999999999
 30
0.0
 11
49.5653
 21
280.4359999999999
 31
0.0
  0
LINE
  5
7F
330
1E
100
AcDbEntity
  8
0
100
AcDbLine
 10
48.9598
 20
216.69
 30
0.0
 11
48.9598
 21
220.7069999999999
 31
0.0
  0
LINE
  5
80
330
1E
100
AcDbEntity
  8
0
100
AcDbLine
 10
48.9598
 20
206.6899999999999
 30
0.0
 11
48.9598
 21
210.7069999999999
 31
0.0
  0
LINE
  5
81
330
1E
100
AcDbEntity
  8
0
100
AcDbLine
 10
48.9598
 20
196.69
 30
0.0
 11
48.9598
 21
200.707
 31
0.0
  0
LINE
  5
82
330
1E
100
AcDbEntity
  8
0
100
AcDbLine
 10
48.9598
 20
236.69
 30
0.0
 11
48.9598
 21
240.707
 31
0.0
  0
LINE
  5
83
330
1E
100
AcDbEntity
  8
0
100
AcDbLine
 10
48.9598
 20
226.69
 30
0.0
 11
48.9598
 21
230.7069999999999
 31
0.0
  0
LINE
  5
84
330
1E
100
AcDbEntity
  8
0
100
AcDbLine
 10
48.9598
 20
246.6899999999999
 30
0.0
 11
48.9598
 21
250.707
 31
0.0
  0
LINE
  5
85
330
1E
100
AcDbEntity
  8
0
100
AcDbLine
 10
48.9598
 20
256.6899999999999
 30
0.0
 11
48.9598
 21
260.7069999999999
 31
0.0
  0
LINE
  5
86
330
1E
100
AcDbEntity
  8
0
100
AcDbLine
 10
48.909
 20
268.699
 30
0.0
 11
49.63969999999999
 21
267.918
 31
0.0
  0
LINE
  5
87
330
1E
100
AcDbEntity
  8
0
100
AcDbLine
 10
48.81669999999999
 20
277.51
 30
0.0
 11
49.3953
 21
278.125
 31
0.0
  0
LINE
  5
88
330
1E
100
AcDbEntity
  8
0
100
AcDbLine
 10
48.8789
 20
278.858
 30
0.0
 11
49.3953
 21
278.125
 31
0.0
  0
LINE
  5
89
330
1E
100
AcDbEntity
  8
0
100
AcDbLine
 10
48.9065
 20
269.56
 30
0.0
 11
49.6899
 21
270.394
 31
0.0
  0
LINE
  5
8A
330
1E
100
AcDbEntity
  8
0
100
AcDbLine
 10
48.9065
 20
269.56
 30
0.0
 11
48.909
 21
268.699
 31
0.0
  0
LINE
  5
8B
330
1E
100
AcDbEntity
  8
0
100
AcDbLine
 10
48.8086
 20
276.8949999999999
 30
0.0
 11
48.81669999999999
 21
277.51
 31
0.0
  0
LINE
  5
8C
330
1E
100
AcDbEntity
  8
0
100
AcDbLine
 10
48.8086
 20
276.8949999999999
 30
0.0
 11
49.5653
 21
276.035
 31
0.0
  0
LINE
  5
8D
330
1E
100
AcDbEntity
  8
0
100
AcDbLine
 10
49.0037
 20
296.86
 30
0.0
 11
49.0037
 21
298.906
 31
0.0
  0
LINE
  5
8E
330
1E
100
AcDbEntity
  8
0
100
AcDbLine
 10
49.0037
 20
296.86
 30
0.0
 11
49.7603
 21
296.0
 31
0.0
  0
LINE
  5
8F
330
1E
100
AcDbEntity
  8
0
100
AcDbLine
 10
49.0037
 20
298.906
 30
0.0
 11
50.4131
 21
300.4039999999999
 31
0.0
  0
LINE
  5
90
330
1E
100
AcDbEntity
  8
0
100
AcDbLine
 10
48.82439999999999
 20
326.69
 30
0.0
 11
49.5058
 21
325.978
 31
0.0
  0
LINE
  5
91
330
1E
100
AcDbEntity
  8
0
100
AcDbLine
 10
48.82439999999999
 20
326.69
 30
0.0
 11
49.1651
 21
326.954
 31
0.0
  0
LINE
  5
92
330
1E
100
AcDbEntity
  8
0
100
AcDbLine
 10
48.82439999999999
 20
329.674
 30
0.0
 11
49.1651
 21
329.41
 31
0.0
  0
LINE
  5
93
330
1E
100
AcDbEntity
  8
0
100
AcDbLine
 10
48.82439999999999
 20
329.674
 30
0.0
 11
49.5058
 21
330.3859999999999
 31
0.0
  0
LINE
  5
94
330
1E
100
AcDbEntity
  8
0
100
AcDbLine
 10
48.73689999999999
 20
317.4549999999999
 30
0.0
 11
51.0125
 21
320.4069999999999
 31
0.0
  0
LINE
  5
95
330
1E
100
AcDbEntity
  8
0
100
AcDbLine
 10
48.73689999999999
 20
317.4549999999999
 30
0.0
 11
51.71459999999999
 21
317.3939999999999
 31
0.0
  0
LINE
  5
96
330
1E
100
AcDbEntity
  8
0
100
AcDbLine
 10
48.90679999999999
 20
310.3809999999999
 30
0.0
 11
48.99589999999999
 21
308.5119999999999
 31
0.0
  0
LINE
  5
97
330
1E
100
AcDbEntity
  8
0
100
AcDbLine
 10
48.90679999999999
 20
310.3809999999999
 30
0.0
 11
51.9186
 21
310.3809999999999
 31
0.0
  0
LINE
  5
98
330
1E
100
AcDbEntity
  8
0
100
AcDbLine
 10
48.99589999999999
 20
308.5119999999999
 30
0.0
 11
51.1026
 21
308.483
 31
0.0
  0
LINE
  5
99
330
1E
100
AcDbEntity
  8
0
100
AcDbLine
 10
49.417
 20
268.944
 30
0.0
 11
49.4244
 21
269.4629999999999
 31
0.0
  0
LINE
  5
9A
330
1E
100
AcDbEntity
  8
0
100
AcDbLine
 10
49.417
 20
268.944
 30
0.0
 11
49.8841
 21
268.4039999999999
 31
0.0
  0
LINE
  5
9B
330
1E
100
AcDbEntity
  8
0
100
AcDbLine
 10
49.4244
 20
269.4629999999999
 30
0.0
 11
49.9801
 21
269.93
 31
0.0
  0
LINE
  5
9C
330
1E
100
AcDbEntity
  8
0
100
AcDbLine
 10
49.3354
 20
277.51
 30
0.0
 11
49.7296
 21
277.987
 31
0.0
  0
LINE
  5
9D
330
1E
100
AcDbEntity
  8
0
100
AcDbLine
 10
49.3279
 20
279.3979999999999
 30
0.0
 11
49.3354
 21
278.961
 31
0.0
  0
LINE
  5
9E
330
1E
100
AcDbEntity
  8
0
100
AcDbLine
 10
49.3279
 20
279.3979999999999
 30
0.0
 11
49.87680000000001
 21
279.991
 31
0.0
  0
LINE
  5
9F
330
1E
100
AcDbEntity
  8
0
100
AcDbLine
 10
49.3354
 20
278.961
 30
0.0
 11
49.748
 21
278.4359999999999
 31
0.0
  0
LINE
  5
A0
330
1E
100
AcDbEntity
  8
0
100
AcDbLine
 10
49.3953
 20
278.125
 30
0.0
 11
49.748
 21
278.4359999999999
 31
0.0
  0
LINE
  5
A1
330
1E
100
AcDbEntity
  8
0
100
AcDbLine
 10
49.3953
 20
278.125
 30
0.0
 11
49.7296
 21
277.987
 31
0.0
  0
LINE
  5
A2
330
1E
100
AcDbEntity
  8
0
100
AcDbLine
 10
49.3279
 20
277.0729999999999
 30
0.0
 11
49.3354
 21
277.51
 31
0.0
  0
LINE
  5
A3
330
1E
100
AcDbEntity
  8
0
100
AcDbLine
 10
49.3279
 20
277.0729999999999
 30
0.0
 11
49.87680000000001
 21
276.48
 31
0.0
  0
LINE
  5
A4
330
1E
100
AcDbEntity
  8
0
100
AcDbLine
 10
49.48409999999999
 20
290.3129999999999
 30
0.0
 11
52.4958
 21
290.372
 31
0.0
  0
LINE
  5
A5
330
1E
100
AcDbEntity
  8
0
100
AcDbLine
 10
49.4693
 20
289.8829999999999
 30
0.0
 11
49.48409999999999
 21
290.3129999999999
 31
0.0
  0
LINE
  5
A6
330
1E
100
AcDbEntity
  8
0
100
AcDbLine
 10
49.4693
 20
289.8829999999999
 30
0.0
 11
51.6798
 21
289.8979999999999
 31
0.0
  0
LINE
  5
A7
330
1E
100
AcDbEntity
  8
0
100
AcDbLine
 10
49.5081
 20
298.417
 30
0.0
 11
51.42199999999999
 21
298.4609999999999
 31
0.0
  0
LINE
  5
A8
330
1E
100
AcDbEntity
  8
0
100
AcDbLine
 10
49.49329999999999
 20
297.972
 30
0.0
 11
49.5081
 21
298.417
 31
0.0
  0
LINE
  5
A9
330
1E
100
AcDbEntity
  8
0
100
AcDbLine
 10
49.49329999999999
 20
297.972
 30
0.0
 11
51.1846
 21
297.972
 31
0.0
  0
LINE
  5
AA
330
1E
100
AcDbEntity
  8
0
100
AcDbLine
 10
49.5232
 20
216.459
 30
0.0
 11
49.5303
 21
216.6809999999999
 31
0.0
  0
LINE
  5
AB
330
1E
100
AcDbEntity
  8
0
100
AcDbLine
 10
49.5232
 20
206.4589999999999
 30
0.0
 11
49.5303
 21
206.6809999999999
 31
0.0
  0
LINE
  5
AC
330
1E
100
AcDbEntity
  8
0
100
AcDbLine
 10
49.5232
 20
196.459
 30
0.0
 11
49.5303
 21
196.6809999999999
 31
0.0
  0
LINE
  5
AD
330
1E
100
AcDbEntity
  8
0
100
AcDbLine
 10
49.5232
 20
236.459
 30
0.0
 11
49.5303
 21
236.681
 31
0.0
  0
LINE
  5
AE
330
1E
100
AcDbEntity
  8
0
100
AcDbLine
 10
49.5232
 20
226.459
 30
0.0
 11
49.5303
 21
226.6809999999999
 31
0.0
  0
LINE
  5
AF
330
1E
100
AcDbEntity
  8
0
100
AcDbLine
 10
49.5232
 20
246.459
 30
0.0
 11
49.5303
 21
246.6809999999999
 31
0.0
  0
LINE
  5
B0
330
1E
100
AcDbEntity
  8
0
100
AcDbLine
 10
49.5232
 20
256.4589999999999
 30
0.0
 11
49.5303
 21
256.6809999999999
 31
0.0
  0
LINE
  5
B1
330
1E
100
AcDbEntity
  8
0
100
AcDbLine
 10
49.5653
 20
280.4359999999999
 30
0.0
 11
51.2121
 21
280.4509999999999
 31
0.0
  0
LINE
  5
B2
330
1E
100
AcDbEntity
  8
0
100
AcDbLine
 10
49.7455
 20
265.9739999999999
 30
0.0
 11
50.6207
 21
265.961
 31
0.0
  0
LINE
  5
B3
330
1E
100
AcDbEntity
  8
0
100
AcDbLine
 10
49.63969999999999
 20
267.918
 30
0.0
 11
51.554
 21
267.9349999999999
 31
0.0
  0
LINE
  5
B4
330
1E
100
AcDbEntity
  8
0
100
AcDbLine
 10
49.748
 20
278.4359999999999
 30
0.0
 11
50.9895
 21
278.464
 31
0.0
  0
LINE
  5
B5
330
1E
100
AcDbEntity
  8
0
100
AcDbLine
 10
49.7296
 20
277.987
 30
0.0
 11
50.9895
 21
278.007
 31
0.0
  0
LINE
  5
B6
330
1E
100
AcDbEntity
  8
0
100
AcDbLine
 10
49.7296
 20
277.987
 30
0.0
 11
49.748
 21
278.4359999999999
 31
0.0
  0
LINE
  5
B7
330
1E
100
AcDbEntity
  8
0
100
AcDbLine
 10
49.6899
 20
270.394
 30
0.0
 11
51.33639999999999
 21
270.355
 31
0.0
  0
LINE
  5
B8
330
1E
100
AcDbEntity
  8
0
100
AcDbLine
 10
49.7368
 20
266.4039999999999
 30
0.0
 11
50.33039999999999
 21
266.41
 31
0.0
  0
LINE
  5
B9
330
1E
100
AcDbEntity
  8
0
100
AcDbLine
 10
49.7368
 20
266.4039999999999
 30
0.0
 11
49.7455
 21
265.9739999999999
 31
0.0
  0
LINE
  5
BA
330
1E
100
AcDbEntity
  8
0
100
AcDbLine
 10
49.5653
 20
276.035
 30
0.0
 11
51.2121
 21
276.0199999999999
 31
0.0
  0
LINE
  5
BB
330
1E
100
AcDbEntity
  8
0
100
AcDbLine
 10
49.7603
 20
296.0
 30
0.0
 11
51.4071
 21
295.985
 31
0.0
  0
LINE
  5
BC
330
1E
100
AcDbEntity
  8
0
100
AcDbLine
 10
49.5229
 20
297.038
 30
0.0
 11
49.55259999999999
 21
298.788
 31
0.0
  0
LINE
  5
BD
330
1E
100
AcDbEntity
  8
0
100
AcDbLine
 10
49.5229
 20
297.038
 30
0.0
 11
50.0719
 21
296.4449999999999
 31
0.0
  0
LINE
  5
BE
330
1E
100
AcDbEntity
  8
0
100
AcDbLine
 10
49.55259999999999
 20
298.788
 30
0.0
 11
50.7098
 21
299.9589999999999
 31
0.0
  0
LINE
  5
BF
330
1E
100
AcDbEntity
  8
0
100
AcDbLine
 10
49.8841
 20
268.4039999999999
 30
0.0
 11
51.5752
 21
268.379
 31
0.0
  0
LINE
  5
C0
330
1E
100
AcDbEntity
  8
0
100
AcDbLine
 10
49.87680000000001
 20
279.991
 30
0.0
 11
50.9154
 21
279.991
 31
0.0
  0
LINE
  5
C1
330
1E
100
AcDbEntity
  8
0
100
AcDbLine
 10
49.87680000000001
 20
276.48
 30
0.0
 11
50.9154
 21
276.48
 31
0.0
  0
LINE
  5
C2
330
1E
100
AcDbEntity
  8
0
100
AcDbLine
 10
49.9801
 20
269.93
 30
0.0
 11
51.0185
 21
269.915
 31
0.0
  0
LINE
  5
C3
330
1E
100
AcDbEntity
  8
0
100
AcDbLine
 10
50.6207
 20
265.961
 30
0.0
 11
52.0514
 21
267.439
 31
0.0
  0
LINE
  5
C4
330
1E
100
AcDbEntity
  8
0
100
AcDbLine
 10
50.33039999999999
 20
266.41
 30
0.0
 11
51.5042
 21
267.565
 31
0.0
  0
LINE
  5
C5
330
1E
100
AcDbEntity
  8
0
100
AcDbLine
 10
50.4484
 20
286.028
 30
0.0
 11
52.4958
 21
290.372
 31
0.0
  0
LINE
  5
C6
330
1E
100
AcDbEntity
  8
0
100
AcDbLine
 10
49.8847
 20
286.028
 30
0.0
 11
51.6798
 21
289.8979999999999
 31
0.0
  0
LINE
  5
C7
330
1E
100
AcDbEntity
  8
0
100
AcDbLine
 10
49.8847
 20
286.028
 30
0.0
 11
50.4484
 21
286.028
 31
0.0
  0
LINE
  5
C8
330
1E
100
AcDbEntity
  8
0
100
AcDbLine
 10
50.0719
 20
296.4449999999999
 30
0.0
 11
51.1104
 21
296.4449999999999
 31
0.0
  0
LINE
  5
C9
330
1E
100
AcDbEntity
  8
0
100
AcDbLine
 10
50.9154
 20
279.991
 30
0.0
 11
51.4643
 21
279.517
 31
0.0
  0
LINE
  5
CA
330
1E
100
AcDbEntity
  8
0
100
AcDbLine
 10
51.0061
 20
226.919
 30
0.0
 11
51.6875
 21
226.207
 31
0.0
  0
LINE
  5
CB
330
1E
100
AcDbEntity
  8
0
100
AcDbLine
 10
51.0061
 20
226.919
 30
0.0
 11
51.3468
 21
227.182
 31
0.0
  0
LINE
  5
CC
330
1E
100
AcDbEntity
  8
0
100
AcDbLine
 10
50.9186
 20
217.684
 30
0.0
 11
53.1942
 21
220.635
 31
0.0
  0
LINE
  5
CD
330
1E
100
AcDbEntity
  8
0
100
AcDbLine
 10
50.9186
 20
217.684
 30
0.0
 11
53.8963
 21
217.6229999999999
 31
0.0
  0
LINE
  5
CE
330
1E
100
AcDbEntity
  8
0
100
AcDbLine
 10
51.0061
 20
229.902
 30
0.0
 11
51.3468
 21
229.639
 31
0.0
  0
LINE
  5
CF
330
1E
100
AcDbEntity
  8
0
100
AcDbLine
 10
51.0061
 20
229.902
 30
0.0
 11
51.6875
 21
230.614
 31
0.0
  0
LINE
  5
D0
330
1E
100
AcDbEntity
  8
0
100
AcDbLine
 10
51.0185
 20
269.915
 30
0.0
 11
51.5589
 21
269.314
 31
0.0
  0
LINE
  5
D1
330
1E
100
AcDbEntity
  8
0
100
AcDbLine
 10
50.9895
 20
278.464
 30
0.0
 11
51.4643
 21
278.9979999999999
 31
0.0
  0
LINE
  5
D2
330
1E
100
AcDbEntity
  8
0
100
AcDbLine
 10
50.9895
 20
278.464
 30
0.0
 11
51.4516
 21
278.2149999999999
 31
0.0
  0
LINE
  5
D3
330
1E
100
AcDbEntity
  8
0
100
AcDbLine
 10
50.9895
 20
278.007
 30
0.0
 11
51.4516
 21
278.2149999999999
 31
0.0
  0
LINE
  5
D4
330
1E
100
AcDbEntity
  8
0
100
AcDbLine
 10
50.9895
 20
278.007
 30
0.0
 11
51.4643
 21
277.473
 31
0.0
  0
LINE
  5
D5
330
1E
100
AcDbEntity
  8
0
100
AcDbLine
 10
50.9895
 20
278.007
 30
0.0
 11
50.9895
 21
278.464
 31
0.0
  0
LINE
  5
D6
330
1E
100
AcDbEntity
  8
0
100
AcDbLine
 10
50.9154
 20
276.48
 30
0.0
 11
51.4643
 21
276.954
 31
0.0
  0
LINE
  5
D7
330
1E
100
AcDbEntity
  8
0
100
AcDbLine
 10
51.1104
 20
296.4449999999999
 30
0.0
 11
51.6593
 21
296.919
 31
0.0
  0
LINE
  5
D8
330
1E
100
AcDbEntity
  8
0
100
AcDbLine
 10
50.7098
 20
299.9589999999999
 30
0.0
 11
51.3033
 21
299.974
 31
0.0
  0
LINE
  5
D9
330
1E
100
AcDbEntity
  8
0
100
AcDbLine
 10
50.4131
 20
300.4039999999999
 30
0.0
 11
51.2884
 21
300.4039999999999
 31
0.0
  0
LINE
  5
DA
330
1E
100
AcDbEntity
  8
0
100
AcDbLine
 10
51.2121
 20
280.4509999999999
 30
0.0
 11
51.9836
 21
279.606
 31
0.0
  0
LINE
  5
DB
330
1E
100
AcDbEntity
  8
0
100
AcDbLine
 10
51.1929
 20
259.8349999999999
 30
0.0
 11
51.93719999999999
 21
260.653
 31
0.0
  0
LINE
  5
DC
330
1E
100
AcDbEntity
  8
0
100
AcDbLine
 10
51.1185
 20
257.0819999999999
 30
0.0
 11
51.1929
 21
259.8349999999999
 31
0.0
  0
LINE
  5
DD
330
1E
100
AcDbEntity
  8
0
100
AcDbLine
 10
51.1185
 20
257.0819999999999
 30
0.0
 11
52.0117
 21
256.264
 31
0.0
  0
LINE
  5
DE
330
1E
100
AcDbEntity
  8
0
100
AcDbLine
 10
51.2121
 20
276.0199999999999
 30
0.0
 11
51.9836
 21
276.865
 31
0.0
  0
LINE
  5
DF
330
1E
100
AcDbEntity
  8
0
100
AcDbLine
 10
51.1846
 20
297.972
 30
0.0
 11
51.6593
 21
297.438
 31
0.0
  0
LINE
  5
E0
330
1E
100
AcDbEntity
  8
0
100
AcDbLine
 10
54.0054
 20
196.27
 30
0.0
 11
54.77689999999999
 21
197.1159999999999
 31
0.0
  0
LINE
  5
E1
330
1E
100
AcDbEntity
  8
0
100
AcDbLine
 10
53.7087
 20
196.73
 30
0.0
 11
54.2576
 21
197.2039999999999
 31
0.0
  0
LINE
  5
E2
330
1E
100
AcDbEntity
  8
0
100
AcDbLine
 10
54.2576
 20
197.2039999999999
 30
0.0
 11
54.2576
 21
197.7229999999999
 31
0.0
  0
LINE
  5
E3
330
1E
100
AcDbEntity
  8
0
100
AcDbLine
 10
52.6702
 20
196.73
 30
0.0
 11
53.7087
 21
196.73
 31
0.0
  0
LINE
  5
E4
330
1E
100
AcDbEntity
  8
0
100
AcDbLine
 10
52.3586
 20
196.2849999999999
 30
0.0
 11
54.0054
 21
196.27
 31
0.0
  0
LINE
  5
E5
330
1E
100
AcDbEntity
  8
0
100
AcDbLine
 10
52.0916
 20
198.257
 30
0.0
 11
52.1064
 21
198.702
 31
0.0
  0
LINE
  5
E6
330
1E
100
AcDbEntity
  8
0
100
AcDbLine
 10
52.0916
 20
198.257
 30
0.0
 11
53.78289999999999
 21
198.257
 31
0.0
  0
LINE
  5
E7
330
1E
100
AcDbEntity
  8
0
100
AcDbLine
 10
53.78289999999999
 20
198.257
 30
0.0
 11
54.2576
 21
197.7229999999999
 31
0.0
  0
LINE
  5
E8
330
1E
100
AcDbEntity
  8
0
100
AcDbLine
 10
54.7621
 20
197.9759999999999
 30
0.0
 11
54.77689999999999
 21
197.1159999999999
 31
0.0
  0
LINE
  5
E9
330
1E
100
AcDbEntity
  8
0
100
AcDbLine
 10
52.1212
 20
197.3229999999999
 30
0.0
 11
52.1509
 21
199.0729999999999
 31
0.0
  0
LINE
  5
EA
330
1E
100
AcDbEntity
  8
0
100
AcDbLine
 10
52.1212
 20
197.3229999999999
 30
0.0
 11
52.6702
 21
196.73
 31
0.0
  0
LINE
  5
EB
330
1E
100
AcDbEntity
  8
0
100
AcDbLine
 10
51.60199999999999
 20
197.145
 30
0.0
 11
51.60199999999999
 21
199.1909999999999
 31
0.0
  0
LINE
  5
EC
330
1E
100
AcDbEntity
  8
0
100
AcDbLine
 10
51.60199999999999
 20
197.145
 30
0.0
 11
52.3586
 21
196.2849999999999
 31
0.0
  0
LINE
  5
ED
330
1E
100
AcDbEntity
  8
0
100
AcDbLine
 10
51.29319999999999
 20
237.914
 30
0.0
 11
51.3241
 21
236.289
 31
0.0
  0
LINE
  5
EE
330
1E
100
AcDbEntity
  8
0
100
AcDbLine
 10
51.29319999999999
 20
237.914
 30
0.0
 11
52.021
 21
238.641
 31
0.0
  0
LINE
  5
EF
330
1E
100
AcDbEntity
  8
0
100
AcDbLine
 10
51.3241
 20
236.289
 30
0.0
 11
54.2046
 21
236.289
 31
0.0
  0
LINE
  5
F0
330
1E
100
AcDbEntity
  8
0
100
AcDbLine
 10
51.3468
 20
227.182
 30
0.0
 11
51.9817
 21
226.594
 31
0.0
  0
LINE
  5
F1
330
1E
100
AcDbEntity
  8
0
100
AcDbLine
 10
51.38609999999999
 20
239.972
 30
0.0
 11
51.72679999999999
 21
239.7089999999999
 31
0.0
  0
LINE
  5
F2
330
1E
100
AcDbEntity
  8
0
100
AcDbLine
 10
51.38609999999999
 20
239.972
 30
0.0
 11
52.0675
 21
240.684
 31
0.0
  0
LINE
  5
F3
330
1E
100
AcDbEntity
  8
0
100
AcDbLine
 10
51.3468
 20
229.639
 30
0.0
 11
51.9817
 21
230.227
 31
0.0
  0
LINE
  5
F4
330
1E
100
AcDbEntity
  8
0
100
AcDbLine
 10
51.33639999999999
 20
270.355
 30
0.0
 11
52.0807
 21
269.484
 31
0.0
  0
LINE
  5
F5
330
1E
100
AcDbEntity
  8
0
100
AcDbLine
 10
51.4643
 20
278.9979999999999
 30
0.0
 11
51.4643
 21
279.517
 31
0.0
  0
LINE
  5
F6
330
1E
100
AcDbEntity
  8
0
100
AcDbLine
 10
51.4516
 20
278.2149999999999
 30
0.0
 11
51.9687
 21
277.725
 31
0.0
  0
LINE
  5
F7
330
1E
100
AcDbEntity
  8
0
100
AcDbLine
 10
51.4516
 20
278.2149999999999
 30
0.0
 11
51.9687
 21
278.7459999999999
 31
0.0
  0
LINE
  5
F8
330
1E
100
AcDbEntity
  8
0
100
AcDbLine
 10
51.5051
 20
210.666
 30
0.0
 11
51.5942
 21
208.7969999999999
 31
0.0
  0
LINE
  5
F9
330
1E
100
AcDbEntity
  8
0
100
AcDbLine
 10
51.5051
 20
210.666
 30
0.0
 11
54.5169
 21
210.666
 31
0.0
  0
LINE
  5
FA
330
1E
100
AcDbEntity
  8
0
100
AcDbLine
 10
51.5359
 20
217.9499999999999
 30
0.0
 11
53.0247
 21
220.055
 31
0.0
  0
LINE
  5
FB
330
1E
100
AcDbEntity
  8
0
100
AcDbLine
 10
51.5359
 20
217.9499999999999
 30
0.0
 11
53.87199999999999
 21
217.9499999999999
 31
0.0
  0
LINE
  5
FC
330
1E
100
AcDbEntity
  8
0
100
AcDbLine
 10
51.554
 20
267.9349999999999
 30
0.0
 11
51.5752
 21
268.379
 31
0.0
  0
LINE
  5
FD
330
1E
100
AcDbEntity
  8
0
100
AcDbLine
 10
51.5042
 20
267.565
 30
0.0
 11
51.5589
 21
269.314
 31
0.0
  0
LINE
  5
FE
330
1E
100
AcDbEntity
  8
0
100
AcDbLine
 10
51.5942
 20
208.7969999999999
 30
0.0
 11
53.7009
 21
208.768
 31
0.0
  0
LINE
  5
FF
330
1E
100
AcDbEntity
  8
0
100
AcDbLine
 10
52.1064
 20
198.702
 30
0.0
 11
54.02029999999999
 21
198.747
 31
0.0
  0
LINE
  5
100
330
1E
100
AcDbEntity
  8
0
100
AcDbLine
 10
52.4101
 20
206.203
 30
0.0
 11
53.98279999999999
 21
206.1729999999999
 31
0.0
  0
LINE
  5
101
330
1E
100
AcDbEntity
  8
0
100
AcDbLine
 10
52.0392
 20
210.1909999999999
 30
0.0
 11
52.0541
 21
209.301
 31
0.0
  0
LINE
  5
102
330
1E
100
AcDbEntity
  8
0
100
AcDbLine
 10
52.0392
 20
210.1909999999999
 30
0.0
 11
54.4575
 21
210.1909999999999
 31
0.0
  0
LINE
  5
103
330
1E
100
AcDbEntity
  8
0
100
AcDbLine
 10
52.0541
 20
209.301
 30
0.0
 11
53.98279999999999
 21
209.3159999999999
 31
0.0
  0
LINE
  5
104
330
1E
100
AcDbEntity
  8
0
100
AcDbLine
 10
52.0244
 20
207.241
 30
0.0
 11
52.5882
 21
206.647
 31
0.0
  0
LINE
  5
105
330
1E
100
AcDbEntity
  8
0
100
AcDbLine
 10
51.60899999999999
 20
206.944
 30
0.0
 11
52.0244
 21
207.241
 31
0.0
  0
LINE
  5
106
330
1E
100
AcDbEntity
  8
0
100
AcDbLine
 10
51.60899999999999
 20
206.944
 30
0.0
 11
52.4101
 21
206.203
 31
0.0
  0
LINE
  5
107
330
1E
100
AcDbEntity
  8
0
100
AcDbLine
 10
52.1509
 20
199.0729999999999
 30
0.0
 11
53.3081
 21
200.244
 31
0.0
  0
LINE
  5
108
330
1E
100
AcDbEntity
  8
0
100
AcDbLine
 10
51.60199999999999
 20
199.1909999999999
 30
0.0
 11
53.0114
 21
200.689
 31
0.0
  0
LINE
  5
109
330
1E
100
AcDbEntity
  8
0
100
AcDbLine
 10
51.9817
 20
226.594
 30
0.0
 11
53.0038
 21
226.594
 31
0.0
  0
LINE
  5
10A
330
1E
100
AcDbEntity
  8
0
100
AcDbLine
 10
51.6875
 20
226.207
 30
0.0
 11
53.2516
 21
226.2229999999999
 31
0.0
  0
LINE
  5
10B
330
1E
100
AcDbEntity
  8
0
100
AcDbLine
 10
52.5882
 20
206.647
 30
0.0
 11
53.7157
 21
206.647
 31
0.0
  0
LINE
  5
10C
330
1E
100
AcDbEntity
  8
0
100
AcDbLine
 10
52.42029999999999
 20
228.205
 30
0.0
 11
53.0503
 21
228.204
 31
0.0
  0
LINE
  5
10D
330
1E
100
AcDbEntity
  8
0
100
AcDbLine
 10
51.9817
 20
230.227
 30
0.0
 11
53.0038
 21
230.227
 31
0.0
  0
LINE
  5
10E
330
1E
100
AcDbEntity
  8
0
100
AcDbLine
 10
51.72679999999999
 20
239.7089999999999
 30
0.0
 11
52.3617
 21
240.2969999999999
 31
0.0
  0
LINE
  5
10F
330
1E
100
AcDbEntity
  8
0
100
AcDbLine
 10
51.7578
 20
237.7429999999999
 30
0.0
 11
52.33080000000001
 21
238.239
 31
0.0
  0
LINE
  5
110
330
1E
100
AcDbEntity
  8
0
100
AcDbLine
 10
52.33080000000001
 20
238.239
 30
0.0
 11
53.6161
 21
238.2849999999999
 31
0.0
  0
LINE
  5
111
330
1E
100
AcDbEntity
  8
0
100
AcDbLine
 10
52.09150000000001
 20
249.847
 30
0.0
 11
52.2407
 21
249.6979999999999
 31
0.0
  0
LINE
  5
112
330
1E
100
AcDbEntity
  8
0
100
AcDbLine
 10
52.09150000000001
 20
249.847
 30
0.0
 11
52.9603
 21
250.592
 31
0.0
  0
LINE
  5
113
330
1E
100
AcDbEntity
  8
0
100
AcDbLine
 10
52.2407
 20
249.6979999999999
 30
0.0
 11
52.7673
 21
250.189
 31
0.0
  0
LINE
  5
114
330
1E
100
AcDbEntity
  8
0
100
AcDbLine
 10
52.2074
 20
246.329
 30
0.0
 11
53.5237
 21
246.3449999999999
 31
0.0
  0
LINE
  5
115
330
1E
100
AcDbEntity
  8
0
100
AcDbLine
 10
52.20559999999999
 20
246.5659999999999
 30
0.0
 11
52.2074
 21
246.329
 31
0.0
  0
LINE
  5
116
330
1E
100
AcDbEntity
  8
0
100
AcDbLine
 10
52.20559999999999
 20
246.5659999999999
 30
0.0
 11
53.5308
 21
246.5659999999999
 31
0.0
  0
LINE
  5
117
330
1E
100
AcDbEntity
  8
0
100
AcDbLine
 10
52.3617
 20
240.2969999999999
 30
0.0
 11
53.3838
 21
240.2969999999999
 31
0.0
  0
LINE
  5
118
330
1E
100
AcDbEntity
  8
0
100
AcDbLine
 10
52.0675
 20
240.684
 30
0.0
 11
53.6316
 21
240.669
 31
0.0
  0
LINE
  5
119
330
1E
100
AcDbEntity
  8
0
100
AcDbLine
 10
52.021
 20
238.641
 30
0.0
 11
53.4303
 21
238.688
 31
0.0
  0
LINE
  5
11A
330
1E
100
AcDbEntity
  8
0
100
AcDbLine
 10
51.7578
 20
236.629
 30
0.0
 11
54.1891
 21
236.629
 31
0.0
  0
LINE
  5
11B
330
1E
100
AcDbEntity
  8
0
100
AcDbLine
 10
51.7578
 20
236.629
 30
0.0
 11
51.7578
 21
237.7429999999999
 31
0.0
  0
LINE
  5
11C
330
1E
100
AcDbEntity
  8
0
100
AcDbLine
 10
51.6875
 20
230.614
 30
0.0
 11
53.2516
 21
230.599
 31
0.0
  0
LINE
  5
11D
330
1E
100
AcDbEntity
  8
0
100
AcDbLine
 10
52.74969999999999
 20
246.558
 30
0.0
 11
52.9603
 21
246.5749999999999
 31
0.0
  0
LINE
  5
11E
330
1E
100
AcDbEntity
  8
0
100
AcDbLine
 10
52.74969999999999
 20
246.558
 30
0.0
 11
52.7673
 21
250.189
 31
0.0
  0
LINE
  5
11F
330
1E
100
AcDbEntity
  8
0
100
AcDbLine
 10
52.4351
 20
228.5609999999999
 30
0.0
 11
53.0503
 21
228.6179999999999
 31
0.0
  0
LINE
  5
120
330
1E
100
AcDbEntity
  8
0
100
AcDbLine
 10
52.42029999999999
 20
228.3679999999999
 30
0.0
 11
52.4351
 21
228.5609999999999
 31
0.0
  0
LINE
  5
121
330
1E
100
AcDbEntity
  8
0
100
AcDbLine
 10
52.42029999999999
 20
228.3679999999999
 30
0.0
 11
52.42029999999999
 21
228.205
 31
0.0
  0
LINE
  5
122
330
1E
100
AcDbEntity
  8
0
100
AcDbLine
 10
53.3081
 20
200.244
 30
0.0
 11
53.9016
 21
200.259
 31
0.0
  0
LINE
  5
123
330
1E
100
AcDbEntity
  8
0
100
AcDbLine
 10
53.0114
 20
200.689
 30
0.0
 11
53.8867
 21
200.689
 31
0.0
  0
LINE
  5
124
330
1E
100
AcDbEntity
  8
0
100
AcDbLine
 10
53.0038
 20
226.594
 30
0.0
 11
53.4065
 21
227.027
 31
0.0
  0
LINE
  5
125
330
1E
100
AcDbEntity
  8
0
100
AcDbLine
 10
53.0503
 20
228.204
 30
0.0
 11
53.4684
 21
227.662
 31
0.0
  0
LINE
  5
126
330
1E
100
AcDbEntity
  8
0
100
AcDbLine
 10
53.2516
 20
226.2229999999999
 30
0.0
 11
54.0105
 21
226.9499999999999
 31
0.0
  0
LINE
  5
127
330
1E
100
AcDbEntity
  8
0
100
AcDbLine
 10
53.4065
 20
227.027
 30
0.0
 11
53.4684
 21
227.662
 31
0.0
  0
LINE
  5
128
330
1E
100
AcDbEntity
  8
0
100
AcDbLine
 10
53.1942
 20
220.635
 30
0.0
 11
53.3274
 21
216.4009999999999
 31
0.0
  0
LINE
  5
129
330
1E
100
AcDbEntity
  8
0
100
AcDbLine
 10
53.0126
 20
216.4129999999999
 30
0.0
 11
53.3274
 21
216.4009999999999
 31
0.0
  0
LINE
  5
12A
330
1E
100
AcDbEntity
  8
0
100
AcDbLine
 10
53.0126
 20
216.4129999999999
 30
0.0
 11
53.0247
 21
220.055
 31
0.0
  0
LINE
  5
12B
330
1E
100
AcDbEntity
  8
0
100
AcDbLine
 10
53.7009
 20
208.768
 30
0.0
 11
54.1608
 21
208.279
 31
0.0
  0
LINE
  5
12C
330
1E
100
AcDbEntity
  8
0
100
AcDbLine
 10
53.7157
 20
206.647
 30
0.0
 11
54.1608
 21
207.122
 31
0.0
  0
LINE
  5
12D
330
1E
100
AcDbEntity
  8
0
100
AcDbLine
 10
53.98279999999999
 20
209.3159999999999
 30
0.0
 11
54.7691
 21
208.4859999999999
 31
0.0
  0
LINE
  5
12E
330
1E
100
AcDbEntity
  8
0
100
AcDbLine
 10
54.4575
 20
210.1909999999999
 30
0.0
 11
54.5169
 21
210.666
 31
0.0
  0
LINE
  5
12F
330
1E
100
AcDbEntity
  8
0
100
AcDbLine
 10
58.0
 20
217.5
 30
0.0
 11
138.0
 21
217.5
 31
0.0
  0
LINE
  5
130
330
1E
100
AcDbEntity
  8
0
100
AcDbLine
 10
58.0
 20
208.4999999999999
 30
0.0
 11
58.0
 21
207.5
 31
0.0
  0
LINE
  5
131
330
1E
100
AcDbEntity
  8
0
100
AcDbLine
 10
58.0
 20
208.4999999999999
 30
0.0
 11
138.0
 21
208.4999999999999
 31
0.0
  0
LINE
  5
132
330
1E
100
AcDbEntity
  8
0
100
AcDbLine
 10
58.0
 20
207.5
 30
0.0
 11
138.0
 21
207.5
 31
0.0
  0
LINE
  5
133
330
1E
100
AcDbEntity
  8
0
100
AcDbLine
 10
54.7691
 20
208.4859999999999
 30
0.0
 11
54.7691
 21
207.003
 31
0.0
  0
LINE
  5
134
330
1E
100
AcDbEntity
  8
0
100
AcDbLine
 10
54.1608
 20
207.122
 30
0.0
 11
54.1608
 21
208.279
 31
0.0
  0
LINE
  5
135
330
1E
100
AcDbEntity
  8
0
100
AcDbLine
 10
53.98279999999999
 20
206.1729999999999
 30
0.0
 11
54.7691
 21
207.003
 31
0.0
  0
LINE
  5
136
330
1E
100
AcDbEntity
  8
0
100
AcDbLine
 10
54.02029999999999
 20
198.747
 30
0.0
 11
54.7621
 21
197.9759999999999
 31
0.0
  0
LINE
  5
137
330
1E
100
AcDbEntity
  8
0
100
AcDbLine
 10
53.8867
 20
200.689
 30
0.0
 11
53.9016
 21
200.259
 31
0.0
  0
LINE
  5
138
330
1E
100
AcDbEntity
  8
0
100
AcDbLine
 10
58.0
 20
218.5
 30
0.0
 11
58.0
 21
217.5
 31
0.0
  0
LINE
  5
139
330
1E
100
AcDbEntity
  8
0
100
AcDbLine
 10
58.0
 20
218.5
 30
0.0
 11
138.0
 21
218.5
 31
0.0
  0
LINE
  5
13A
330
1E
100
AcDbEntity
  8
0
100
AcDbLine
 10
58.0
 20
228.5
 30
0.0
 11
58.0
 21
227.4999999999999
 31
0.0
  0
LINE
  5
13B
330
1E
100
AcDbEntity
  8
0
100
AcDbLine
 10
58.0
 20
228.5
 30
0.0
 11
138.0
 21
228.5
 31
0.0
  0
LINE
  5
13C
330
1E
100
AcDbEntity
  8
0
100
AcDbLine
 10
58.0
 20
227.4999999999999
 30
0.0
 11
138.0
 21
227.4999999999999
 31
0.0
  0
LINE
  5
13D
330
1E
100
AcDbEntity
  8
0
100
AcDbLine
 10
54.0105
 20
226.9499999999999
 30
0.0
 11
54.0414
 21
227.801
 31
0.0
  0
LINE
  5
13E
330
1E
100
AcDbEntity
  8
0
100
AcDbLine
 10
53.87199999999999
 20
217.9499999999999
 30
0.0
 11
53.8963
 21
217.6229999999999
 31
0.0
  0
LINE
  5
13F
330
1E
100
AcDbEntity
  8
0
100
AcDbLine
 10
53.5033
 20
228.3679999999999
 30
0.0
 11
54.0414
 21
229.02
 31
0.0
  0
LINE
  5
140
330
1E
100
AcDbEntity
  8
0
100
AcDbLine
 10
53.5033
 20
228.3679999999999
 30
0.0
 11
54.0414
 21
227.801
 31
0.0
  0
LINE
  5
141
330
1E
100
AcDbEntity
  8
0
100
AcDbLine
 10
52.9603
 20
246.5749999999999
 30
0.0
 11
52.9603
 21
250.592
 31
0.0
  0
LINE
  5
142
330
1E
100
AcDbEntity
  8
0
100
AcDbLine
 10
53.3838
 20
240.2969999999999
 30
0.0
 11
53.7865
 21
239.8639999999999
 31
0.0
  0
LINE
  5
143
330
1E
100
AcDbEntity
  8
0
100
AcDbLine
 10
53.2516
 20
230.599
 30
0.0
 11
54.0105
 21
229.8709999999999
 31
0.0
  0
LINE
  5
144
330
1E
100
AcDbEntity
  8
0
100
AcDbLine
 10
53.0038
 20
230.227
 30
0.0
 11
53.4065
 21
229.794
 31
0.0
  0
LINE
  5
145
330
1E
100
AcDbEntity
  8
0
100
AcDbLine
 10
53.6161
 20
238.2849999999999
 30
0.0
 11
54.4214
 21
239.09
 31
0.0
  0
LINE
  5
146
330
1E
100
AcDbEntity
  8
0
100
AcDbLine
 10
53.5237
 20
246.3449999999999
 30
0.0
 11
53.5308
 21
246.5659999999999
 31
0.0
  0
LINE
  5
147
330
1E
100
AcDbEntity
  8
0
100
AcDbLine
 10
53.6316
 20
240.669
 30
0.0
 11
54.3905
 21
239.9409999999999
 31
0.0
  0
LINE
  5
148
330
1E
100
AcDbEntity
  8
0
100
AcDbLine
 10
53.7865
 20
239.8639999999999
 30
0.0
 11
53.8484
 21
239.229
 31
0.0
  0
LINE
  5
149
330
1E
100
AcDbEntity
  8
0
100
AcDbLine
 10
53.4303
 20
238.688
 30
0.0
 11
53.8484
 21
239.229
 31
0.0
  0
LINE
  5
14A
330
1E
100
AcDbEntity
  8
0
100
AcDbLine
 10
58.0
 20
238.5
 30
0.0
 11
58.0
 21
237.5
 31
0.0
  0
LINE
  5
14B
330
1E
100
AcDbEntity
  8
0
100
AcDbLine
 10
58.0
 20
238.5
 30
0.0
 11
138.0
 21
238.5
 31
0.0
  0
LINE
  5
14C
330
1E
100
AcDbEntity
  8
0
100
AcDbLine
 10
58.0
 20
237.5
 30
0.0
 11
138.0
 21
237.5
 31
0.0
  0
LINE
  5
14D
330
1E
100
AcDbEntity
  8
0
100
AcDbLine
 10
58.0
 20
248.4999999999999
 30
0.0
 11
58.0
 21
247.5
 31
0.0
  0
LINE
  5
14E
330
1E
100
AcDbEntity
  8
0
100
AcDbLine
 10
58.0
 20
248.4999999999999
 30
0.0
 11
138.0
 21
248.4999999999999
 31
0.0
  0
LINE
  5
14F
330
1E
100
AcDbEntity
  8
0
100
AcDbLine
 10
58.0
 20
247.5
 30
0.0
 11
138.0
 21
247.5
 31
0.0
  0
LINE
  5
150
330
1E
100
AcDbEntity
  8
0
100
AcDbLine
 10
54.3905
 20
239.9409999999999
 30
0.0
 11
54.4214
 21
239.09
 31
0.0
  0
LINE
  5
151
330
1E
100
AcDbEntity
  8
0
100
AcDbLine
 10
54.1891
 20
236.629
 30
0.0
 11
54.2046
 21
236.289
 31
0.0
  0
LINE
  5
152
330
1E
100
AcDbEntity
  8
0
100
AcDbLine
 10
54.0105
 20
229.8709999999999
 30
0.0
 11
54.0414
 21
229.02
 31
0.0
  0
LINE
  5
153
330
1E
100
AcDbEntity
  8
0
100
AcDbLine
 10
53.4065
 20
229.794
 30
0.0
 11
53.4684
 21
229.159
 31
0.0
  0
LINE
  5
154
330
1E
100
AcDbEntity
  8
0
100
AcDbLine
 10
53.0503
 20
228.6179999999999
 30
0.0
 11
53.4684
 21
229.159
 31
0.0
  0
LINE
  5
155
330
1E
100
AcDbEntity
  8
0
100
AcDbLine
 10
52.9049
 20
256.264
 30
0.0
 11
53.7485
 21
257.033
 31
0.0
  0
LINE
  5
156
330
1E
100
AcDbEntity
  8
0
100
AcDbLine
 10
51.6643
 20
259.7599999999999
 30
0.0
 11
52.1854
 21
260.182
 31
0.0
  0
LINE
  5
157
330
1E
100
AcDbEntity
  8
0
100
AcDbLine
 10
52.0514
 20
267.439
 30
0.0
 11
52.0807
 21
269.484
 31
0.0
  0
LINE
  5
158
330
1E
100
AcDbEntity
  8
0
100
AcDbLine
 10
51.93719999999999
 20
260.653
 30
0.0
 11
52.9297
 21
260.653
 31
0.0
  0
LINE
  5
159
330
1E
100
AcDbEntity
  8
0
100
AcDbLine
 10
52.1854
 20
260.182
 30
0.0
 11
52.7064
 21
260.182
 31
0.0
  0
LINE
  5
15A
330
1E
100
AcDbEntity
  8
0
100
AcDbLine
 10
52.9297
 20
260.653
 30
0.0
 11
53.6988
 21
259.884
 31
0.0
  0
LINE
  5
15B
330
1E
100
AcDbEntity
  8
0
100
AcDbLine
 10
52.7064
 20
260.182
 30
0.0
 11
53.2522
 21
259.612
 31
0.0
  0
LINE
  5
15C
330
1E
100
AcDbEntity
  8
0
100
AcDbLine
 10
58.0
 20
258.4999999999999
 30
0.0
 11
58.0
 21
257.5
 31
0.0
  0
LINE
  5
15D
330
1E
100
AcDbEntity
  8
0
100
AcDbLine
 10
58.0
 20
258.4999999999999
 30
0.0
 11
138.0
 21
258.4999999999999
 31
0.0
  0
LINE
  5
15E
330
1E
100
AcDbEntity
  8
0
100
AcDbLine
 10
58.0
 20
257.5
 30
0.0
 11
138.0
 21
257.5
 31
0.0
  0
LINE
  5
15F
330
1E
100
AcDbEntity
  8
0
100
AcDbLine
 10
58.0
 20
277.4999999999999
 30
0.0
 11
138.0
 21
277.4999999999999
 31
0.0
  0
LINE
  5
160
330
1E
100
AcDbEntity
  8
0
100
AcDbLine
 10
58.0
 20
268.5
 30
0.0
 11
58.0
 21
267.5
 31
0.0
  0
LINE
  5
161
330
1E
100
AcDbEntity
  8
0
100
AcDbLine
 10
58.0
 20
268.5
 30
0.0
 11
138.0
 21
268.5
 31
0.0
  0
LINE
  5
162
330
1E
100
AcDbEntity
  8
0
100
AcDbLine
 10
58.0
 20
267.5
 30
0.0
 11
138.0
 21
267.5
 31
0.0
  0
LINE
  5
163
330
1E
100
AcDbEntity
  8
0
100
AcDbLine
 10
53.6988
 20
259.884
 30
0.0
 11
53.7485
 21
257.033
 31
0.0
  0
LINE
  5
164
330
1E
100
AcDbEntity
  8
0
100
AcDbLine
 10
53.2274
 20
257.132
 30
0.0
 11
53.2522
 21
259.612
 31
0.0
  0
LINE
  5
165
330
1E
100
AcDbEntity
  8
0
100
AcDbLine
 10
52.7312
 20
256.711
 30
0.0
 11
53.2274
 21
257.132
 31
0.0
  0
LINE
  5
166
330
1E
100
AcDbEntity
  8
0
100
AcDbLine
 10
52.1109
 20
256.6859999999999
 30
0.0
 11
52.7312
 21
256.711
 31
0.0
  0
LINE
  5
167
330
1E
100
AcDbEntity
  8
0
100
AcDbLine
 10
52.0117
 20
256.264
 30
0.0
 11
52.9049
 21
256.264
 31
0.0
  0
LINE
  5
168
330
1E
100
AcDbEntity
  8
0
100
AcDbLine
 10
51.5899
 20
257.107
 30
0.0
 11
51.6643
 21
259.7599999999999
 31
0.0
  0
LINE
  5
169
330
1E
100
AcDbEntity
  8
0
100
AcDbLine
 10
51.5899
 20
257.107
 30
0.0
 11
52.1109
 21
256.6859999999999
 31
0.0
  0
LINE
  5
16A
330
1E
100
AcDbEntity
  8
0
100
AcDbLine
 10
58.0
 20
278.5
 30
0.0
 11
58.0
 21
277.4999999999999
 31
0.0
  0
LINE
  5
16B
330
1E
100
AcDbEntity
  8
0
100
AcDbLine
 10
58.0
 20
278.5
 30
0.0
 11
138.0
 21
278.5
 31
0.0
  0
LINE
  5
16C
330
1E
100
AcDbEntity
  8
0
100
AcDbLine
 10
58.0
 20
288.5
 30
0.0
 11
58.0
 21
287.5
 31
0.0
  0
LINE
  5
16D
330
1E
100
AcDbEntity
  8
0
100
AcDbLine
 10
58.0
 20
288.5
 30
0.0
 11
138.0
 21
288.5
 31
0.0
  0
LINE
  5
16E
330
1E
100
AcDbEntity
  8
0
100
AcDbLine
 10
58.0
 20
287.5
 30
0.0
 11
138.0
 21
287.5
 31
0.0
  0
LINE
  5
16F
330
1E
100
AcDbEntity
  8
0
100
AcDbLine
 10
51.9687
 20
278.7459999999999
 30
0.0
 11
51.9836
 21
279.606
 31
0.0
  0
LINE
  5
170
330
1E
100
AcDbEntity
  8
0
100
AcDbLine
 10
51.9687
 20
277.725
 30
0.0
 11
51.9836
 21
276.865
 31
0.0
  0
LINE
  5
171
330
1E
100
AcDbEntity
  8
0
100
AcDbLine
 10
51.4643
 20
276.954
 30
0.0
 11
51.4643
 21
277.473
 31
0.0
  0
LINE
  5
172
330
1E
100
AcDbEntity
  8
0
100
AcDbLine
 10
58.0
 20
198.5
 30
0.0
 11
58.0
 21
197.5
 31
0.0
  0
LINE
  5
173
330
1E
100
AcDbEntity
  8
0
100
AcDbLine
 10
58.0
 20
198.5
 30
0.0
 11
138.0
 21
198.5
 31
0.0
  0
LINE
  5
174
330
1E
100
AcDbEntity
  8
0
100
AcDbLine
 10
66.5592
 20
183.398
 30
0.0
 11
69.19459999999999
 21
183.398
 31
0.0
  0
LINE
  5
175
330
1E
100
AcDbEntity
  8
0
100
AcDbLine
 10
66.5592
 20
183.398
 30
0.0
 11
66.5689
 21
183.671
 31
0.0
  0
LINE
  5
176
330
1E
100
AcDbEntity
  8
0
100
AcDbLine
 10
66.3639
 20
182.1979999999999
 30
0.0
 11
66.68600000000001
 21
182.217
 31
0.0
  0
LINE
  5
177
330
1E
100
AcDbEntity
  8
0
100
AcDbLine
 10
66.7056
 20
183.4859999999999
 30
0.0
 11
67.82810000000001
 21
185.895
 31
0.0
  0
LINE
  5
178
330
1E
100
AcDbEntity
  8
0
100
AcDbLine
 10
66.68600000000001
 20
182.217
 30
0.0
 11
66.7056
 21
183.4859999999999
 31
0.0
  0
LINE
  5
179
330
1E
100
AcDbEntity
  8
0
100
AcDbLine
 10
66.5689
 20
183.671
 30
0.0
 11
69.19459999999999
 21
183.6909999999999
 31
0.0
  0
LINE
  5
17A
330
1E
100
AcDbEntity
  8
0
100
AcDbLine
 10
66.34439999999999
 20
183.574
 30
0.0
 11
66.3639
 21
182.1979999999999
 31
0.0
  0
LINE
  5
17B
330
1E
100
AcDbEntity
  8
0
100
AcDbLine
 10
66.34439999999999
 20
183.574
 30
0.0
 11
67.8476
 21
186.4219999999999
 31
0.0
  0
LINE
  5
17C
330
1E
100
AcDbEntity
  8
0
100
AcDbLine
 10
68.99939999999999
 20
182.2079999999999
 30
0.0
 11
69.3605
 21
182.1879999999999
 31
0.0
  0
LINE
  5
17D
330
1E
100
AcDbEntity
  8
0
100
AcDbLine
 10
77.4032
 20
182.2479999999999
 30
0.0
 11
77.7461
 21
182.222
 31
0.0
  0
LINE
  5
17E
330
1E
100
AcDbEntity
  8
0
100
AcDbLine
 10
77.4032
 20
182.2479999999999
 30
0.0
 11
77.4296
 21
186.2149999999999
 31
0.0
  0
LINE
  5
17F
330
1E
100
AcDbEntity
  8
0
100
AcDbLine
 10
76.8889
 20
182.037
 30
0.0
 11
78.9856
 21
182.0509999999999
 31
0.0
  0
LINE
  5
180
330
1E
100
AcDbEntity
  8
0
100
AcDbLine
 10
69.19459999999999
 20
183.398
 30
0.0
 11
69.19459999999999
 21
183.6909999999999
 31
0.0
  0
LINE
  5
181
330
1E
100
AcDbEntity
  8
0
100
AcDbLine
 10
69.35080000000001
 20
183.564
 30
0.0
 11
69.3605
 21
182.1879999999999
 31
0.0
  0
LINE
  5
182
330
1E
100
AcDbEntity
  8
0
100
AcDbLine
 10
68.9701
 20
183.505
 30
0.0
 11
68.99939999999999
 21
182.2079999999999
 31
0.0
  0
LINE
  5
183
330
1E
100
AcDbEntity
  8
0
100
AcDbLine
 10
76.8757
 20
182.393
 30
0.0
 11
78.8933
 21
182.4199999999999
 31
0.0
  0
LINE
  5
184
330
1E
100
AcDbEntity
  8
0
100
AcDbLine
 10
76.8757
 20
182.393
 30
0.0
 11
76.8889
 21
182.037
 31
0.0
  0
LINE
  5
185
330
1E
100
AcDbEntity
  8
0
100
AcDbLine
 10
77.7461
 20
182.222
 30
0.0
 11
77.75929999999999
 21
186.2279999999999
 31
0.0
  0
LINE
  5
186
330
1E
100
AcDbEntity
  8
0
100
AcDbLine
 10
78.9856
 20
182.0509999999999
 30
0.0
 11
79.77689999999999
 21
182.8549999999999
 31
0.0
  0
LINE
  5
187
330
1E
100
AcDbEntity
  8
0
100
AcDbLine
 10
78.8933
 20
182.4199999999999
 30
0.0
 11
79.3813
 21
183.013
 31
0.0
  0
LINE
  5
188
330
1E
100
AcDbEntity
  8
0
100
AcDbLine
 10
87.13779999999999
 20
182.999
 30
0.0
 11
87.71799999999998
 21
182.4329999999999
 31
0.0
  0
LINE
  5
189
330
1E
100
AcDbEntity
  8
0
100
AcDbLine
 10
87.13779999999999
 20
182.999
 30
0.0
 11
87.15100000000001
 21
185.464
 31
0.0
  0
LINE
  5
18A
330
1E
100
AcDbEntity
  8
0
100
AcDbLine
 10
86.6894
 20
182.8149999999999
 30
0.0
 11
87.42789999999999
 21
182.037
 31
0.0
  0
LINE
  5
18B
330
1E
100
AcDbEntity
  8
0
100
AcDbLine
 10
86.6894
 20
182.8149999999999
 30
0.0
 11
86.6894
 21
185.5959999999999
 31
0.0
  0
LINE
  5
18C
330
1E
100
AcDbEntity
  8
0
100
AcDbLine
 10
87.71799999999998
 20
182.4329999999999
 30
0.0
 11
88.81249999999999
 21
182.4329999999999
 31
0.0
  0
LINE
  5
18D
330
1E
100
AcDbEntity
  8
0
100
AcDbLine
 10
87.42789999999999
 20
182.037
 30
0.0
 11
89.0103
 21
182.024
 31
0.0
  0
LINE
  5
18E
330
1E
100
AcDbEntity
  8
0
100
AcDbLine
 10
116.6039999999999
 20
181.984
 30
0.0
 11
116.6039999999999
 21
186.485
 31
0.0
  0
LINE
  5
18F
330
1E
100
AcDbEntity
  8
0
100
AcDbLine
 10
116.6039999999999
 20
181.984
 30
0.0
 11
117.192
 21
181.984
 31
0.0
  0
LINE
  5
190
330
1E
100
AcDbEntity
  8
0
100
AcDbLine
 10
106.604
 20
181.984
 30
0.0
 11
106.604
 21
186.485
 31
0.0
  0
LINE
  5
191
330
1E
100
AcDbEntity
  8
0
100
AcDbLine
 10
106.604
 20
181.984
 30
0.0
 11
109.582
 21
181.9659999999999
 31
0.0
  0
LINE
  5
192
330
1E
100
AcDbEntity
  8
0
100
AcDbLine
 10
96.8889
 20
182.037
 30
0.0
 11
98.98560000000001
 21
182.0509999999999
 31
0.0
  0
LINE
  5
193
330
1E
100
AcDbEntity
  8
0
100
AcDbLine
 10
127.428
 20
182.037
 30
0.0
 11
129.716
 21
182.0459999999999
 31
0.0
  0
LINE
  5
194
330
1E
100
AcDbEntity
  8
0
100
AcDbLine
 10
98.98560000000001
 20
182.0509999999999
 30
0.0
 11
99.7769
 21
182.8549999999999
 31
0.0
  0
LINE
  5
195
330
1E
100
AcDbEntity
  8
0
100
AcDbLine
 10
97.7461
 20
182.222
 30
0.0
 11
97.7593
 21
186.2279999999999
 31
0.0
  0
LINE
  5
196
330
1E
100
AcDbEntity
  8
0
100
AcDbLine
 10
96.8757
 20
182.393
 30
0.0
 11
98.89330000000001
 21
182.4199999999999
 31
0.0
  0
LINE
  5
197
330
1E
100
AcDbEntity
  8
0
100
AcDbLine
 10
96.8757
 20
182.393
 30
0.0
 11
96.8889
 21
182.037
 31
0.0
  0
LINE
  5
198
330
1E
100
AcDbEntity
  8
0
100
AcDbLine
 10
127.7179999999999
 20
182.4329999999999
 30
0.0
 11
129.37
 21
182.434
 31
0.0
  0
LINE
  5
199
330
1E
100
AcDbEntity
  8
0
100
AcDbLine
 10
129.37
 20
182.434
 30
0.0
 11
129.3839999999999
 21
184.053
 31
0.0
  0
LINE
  5
19A
330
1E
100
AcDbEntity
  8
0
100
AcDbLine
 10
107.192
 20
182.462
 30
0.0
 11
109.545
 21
182.462
 31
0.0
  0
LINE
  5
19B
330
1E
100
AcDbEntity
  8
0
100
AcDbLine
 10
127.1379999999999
 20
182.999
 30
0.0
 11
127.7179999999999
 21
182.4329999999999
 31
0.0
  0
LINE
  5
19C
330
1E
100
AcDbEntity
  8
0
100
AcDbLine
 10
127.1379999999999
 20
182.999
 30
0.0
 11
127.151
 21
185.464
 31
0.0
  0
LINE
  5
19D
330
1E
100
AcDbEntity
  8
0
100
AcDbLine
 10
126.6889999999999
 20
182.8149999999999
 30
0.0
 11
127.428
 21
182.037
 31
0.0
  0
LINE
  5
19E
330
1E
100
AcDbEntity
  8
0
100
AcDbLine
 10
126.6889999999999
 20
182.8149999999999
 30
0.0
 11
126.6889999999999
 21
185.5959999999999
 31
0.0
  0
LINE
  5
19F
330
1E
100
AcDbEntity
  8
0
100
AcDbLine
 10
109.545
 20
182.462
 30
0.0
 11
109.582
 21
181.9659999999999
 31
0.0
  0
LINE
  5
1A0
330
1E
100
AcDbEntity
  8
0
100
AcDbLine
 10
98.89330000000001
 20
182.4199999999999
 30
0.0
 11
99.38130000000001
 21
183.013
 31
0.0
  0
LINE
  5
1A1
330
1E
100
AcDbEntity
  8
0
100
AcDbLine
 10
97.4032
 20
182.2479999999999
 30
0.0
 11
97.7461
 21
182.222
 31
0.0
  0
LINE
  5
1A2
330
1E
100
AcDbEntity
  8
0
100
AcDbLine
 10
97.4032
 20
182.2479999999999
 30
0.0
 11
97.4296
 21
186.2149999999999
 31
0.0
  0
LINE
  5
1A3
330
1E
100
AcDbEntity
  8
0
100
AcDbLine
 10
89.4191
 20
183.013
 30
0.0
 11
89.72239999999999
 21
182.749
 31
0.0
  0
LINE
  5
1A4
330
1E
100
AcDbEntity
  8
0
100
AcDbLine
 10
89.0103
 20
182.024
 30
0.0
 11
89.72239999999999
 21
182.749
 31
0.0
  0
LINE
  5
1A5
330
1E
100
AcDbEntity
  8
0
100
AcDbLine
 10
88.81249999999999
 20
182.4329999999999
 30
0.0
 11
89.4191
 21
183.013
 31
0.0
  0
LINE
  5
1A6
330
1E
100
AcDbEntity
  8
0
100
AcDbLine
 10
118.259
 20
184.023
 30
0.0
 11
118.259
 21
184.409
 31
0.0
  0
LINE
  5
1A7
330
1E
100
AcDbEntity
  8
0
100
AcDbLine
 10
116.917
 20
184.0049999999999
 30
0.0
 11
118.259
 21
184.023
 31
0.0
  0
LINE
  5
1A8
330
1E
100
AcDbEntity
  8
0
100
AcDbLine
 10
128.899
 20
184.053
 30
0.0
 11
128.9129999999999
 21
184.4
 31
0.0
  0
LINE
  5
1A9
330
1E
100
AcDbEntity
  8
0
100
AcDbLine
 10
128.899
 20
184.053
 30
0.0
 11
129.3839999999999
 21
184.053
 31
0.0
  0
LINE
  5
1AA
330
1E
100
AcDbEntity
  8
0
100
AcDbLine
 10
108.2589999999999
 20
184.023
 30
0.0
 11
108.2589999999999
 21
184.409
 31
0.0
  0
LINE
  5
1AB
330
1E
100
AcDbEntity
  8
0
100
AcDbLine
 10
106.9169999999999
 20
184.0049999999999
 30
0.0
 11
108.2589999999999
 21
184.023
 31
0.0
  0
LINE
  5
1AC
330
1E
100
AcDbEntity
  8
0
100
AcDbLine
 10
79.7637
 20
183.6979999999999
 30
0.0
 11
79.77689999999999
 21
182.8549999999999
 31
0.0
  0
LINE
  5
1AD
330
1E
100
AcDbEntity
  8
0
100
AcDbLine
 10
79.3813
 20
183.013
 30
0.0
 11
79.3813
 21
183.4999999999999
 31
0.0
  0
LINE
  5
1AE
330
1E
100
AcDbEntity
  8
0
100
AcDbLine
 10
78.8142
 20
184.08
 30
0.0
 11
79.3813
 21
183.4999999999999
 31
0.0
  0
LINE
  5
1AF
330
1E
100
AcDbEntity
  8
0
100
AcDbLine
 10
77.5878
 20
184.08
 30
0.0
 11
78.8142
 21
184.08
 31
0.0
  0
LINE
  5
1B0
330
1E
100
AcDbEntity
  8
0
100
AcDbLine
 10
67.82810000000001
 20
185.895
 30
0.0
 11
68.9701
 21
183.505
 31
0.0
  0
LINE
  5
1B1
330
1E
100
AcDbEntity
  8
0
100
AcDbLine
 10
67.8476
 20
186.4219999999999
 30
0.0
 11
69.35080000000001
 21
183.564
 31
0.0
  0
LINE
  5
1B2
330
1E
100
AcDbEntity
  8
0
100
AcDbLine
 10
77.5
 20
188.0
 30
0.0
 11
77.5
 21
358.0
 31
0.0
  0
LINE
  5
1B3
330
1E
100
AcDbEntity
  8
0
100
AcDbLine
 10
77.5
 20
188.0
 30
0.0
 11
78.5
 21
188.0
 31
0.0
  0
LINE
  5
1B4
330
1E
100
AcDbEntity
  8
0
100
AcDbLine
 10
77.4296
 20
186.2149999999999
 30
0.0
 11
77.75929999999999
 21
186.2279999999999
 31
0.0
  0
LINE
  5
1B5
330
1E
100
AcDbEntity
  8
0
100
AcDbLine
 10
76.8592
 20
186.43
 30
0.0
 11
78.9559
 21
186.4449999999999
 31
0.0
  0
LINE
  5
1B6
330
1E
100
AcDbEntity
  8
0
100
AcDbLine
 10
76.85080000000001
 20
186.074
 30
0.0
 11
76.8592
 21
186.43
 31
0.0
  0
LINE
  5
1B7
330
1E
100
AcDbEntity
  8
0
100
AcDbLine
 10
76.85080000000001
 20
186.074
 30
0.0
 11
78.8686
 21
186.0749999999999
 31
0.0
  0
LINE
  5
1B8
330
1E
100
AcDbEntity
  8
0
100
AcDbLine
 10
78.9559
 20
186.4449999999999
 30
0.0
 11
79.7579
 21
185.652
 31
0.0
  0
LINE
  5
1B9
330
1E
100
AcDbEntity
  8
0
100
AcDbLine
 10
78.8686
 20
186.0749999999999
 30
0.0
 11
79.3645
 21
185.4879999999999
 31
0.0
  0
LINE
  5
1BA
330
1E
100
AcDbEntity
  8
0
100
AcDbLine
 10
78.81199999999999
 20
184.4129999999999
 30
0.0
 11
79.3711
 21
185.0009999999999
 31
0.0
  0
LINE
  5
1BB
330
1E
100
AcDbEntity
  8
0
100
AcDbLine
 10
77.5857
 20
184.3959999999999
 30
0.0
 11
78.81199999999999
 21
184.4129999999999
 31
0.0
  0
LINE
  5
1BC
330
1E
100
AcDbEntity
  8
0
100
AcDbLine
 10
128.9129999999999
 20
184.4
 30
0.0
 11
129.695
 21
184.4059999999999
 31
0.0
  0
LINE
  5
1BD
330
1E
100
AcDbEntity
  8
0
100
AcDbLine
 10
129.695
 20
184.4059999999999
 30
0.0
 11
129.716
 21
182.0459999999999
 31
0.0
  0
LINE
  5
1BE
330
1E
100
AcDbEntity
  8
0
100
AcDbLine
 10
116.917
 20
184.4459999999999
 30
0.0
 11
116.917
 21
184.0049999999999
 31
0.0
  0
LINE
  5
1BF
330
1E
100
AcDbEntity
  8
0
100
AcDbLine
 10
116.917
 20
184.4459999999999
 30
0.0
 11
118.259
 21
184.409
 31
0.0
  0
LINE
  5
1C0
330
1E
100
AcDbEntity
  8
0
100
AcDbLine
 10
127.151
 20
185.464
 30
0.0
 11
127.678
 21
186.004
 31
0.0
  0
LINE
  5
1C1
330
1E
100
AcDbEntity
  8
0
100
AcDbLine
 10
106.9169999999999
 20
184.4459999999999
 30
0.0
 11
106.9169999999999
 21
184.0049999999999
 31
0.0
  0
LINE
  5
1C2
330
1E
100
AcDbEntity
  8
0
100
AcDbLine
 10
106.9169999999999
 20
184.4459999999999
 30
0.0
 11
108.2589999999999
 21
184.409
 31
0.0
  0
LINE
  5
1C3
330
1E
100
AcDbEntity
  8
0
100
AcDbLine
 10
89.4059
 20
185.3979999999999
 30
0.0
 11
89.7488
 21
185.701
 31
0.0
  0
LINE
  5
1C4
330
1E
100
AcDbEntity
  8
0
100
AcDbLine
 10
99.3645
 20
185.4879999999999
 30
0.0
 11
99.38130000000001
 21
183.013
 31
0.0
  0
LINE
  5
1C5
330
1E
100
AcDbEntity
  8
0
100
AcDbLine
 10
87.15100000000001
 20
185.464
 30
0.0
 11
87.67839999999999
 21
186.004
 31
0.0
  0
LINE
  5
1C6
330
1E
100
AcDbEntity
  8
0
100
AcDbLine
 10
79.75620000000001
 20
184.8079999999999
 30
0.0
 11
79.7579
 21
185.652
 31
0.0
  0
LINE
  5
1C7
330
1E
100
AcDbEntity
  8
0
100
AcDbLine
 10
126.6889999999999
 20
185.5959999999999
 30
0.0
 11
127.415
 21
186.387
 31
0.0
  0
LINE
  5
1C8
330
1E
100
AcDbEntity
  8
0
100
AcDbLine
 10
117.192
 20
185.97
 30
0.0
 11
119.564
 21
185.934
 31
0.0
  0
LINE
  5
1C9
330
1E
100
AcDbEntity
  8
0
100
AcDbLine
 10
117.192
 20
185.97
 30
0.0
 11
117.192
 21
181.984
 31
0.0
  0
LINE
  5
1CA
330
1E
100
AcDbEntity
  8
0
100
AcDbLine
 10
107.192
 20
185.97
 30
0.0
 11
109.5639999999999
 21
185.934
 31
0.0
  0
LINE
  5
1CB
330
1E
100
AcDbEntity
  8
0
100
AcDbLine
 10
107.192
 20
185.97
 30
0.0
 11
107.192
 21
182.462
 31
0.0
  0
LINE
  5
1CC
330
1E
100
AcDbEntity
  8
0
100
AcDbLine
 10
99.75790000000001
 20
185.652
 30
0.0
 11
99.7769
 21
182.8549999999999
 31
0.0
  0
LINE
  5
1CD
330
1E
100
AcDbEntity
  8
0
100
AcDbLine
 10
96.85080000000001
 20
186.074
 30
0.0
 11
96.85920000000001
 21
186.43
 31
0.0
  0
LINE
  5
1CE
330
1E
100
AcDbEntity
  8
0
100
AcDbLine
 10
96.85080000000001
 20
186.074
 30
0.0
 11
98.8686
 21
186.0749999999999
 31
0.0
  0
LINE
  5
1CF
330
1E
100
AcDbEntity
  8
0
100
AcDbLine
 10
127.678
 20
186.004
 30
0.0
 11
129.5639999999999
 21
186.0059999999999
 31
0.0
  0
LINE
  5
1D0
330
1E
100
AcDbEntity
  8
0
100
AcDbLine
 10
127.415
 20
186.387
 30
0.0
 11
129.529
 21
186.393
 31
0.0
  0
LINE
  5
1D1
330
1E
100
AcDbEntity
  8
0
100
AcDbLine
 10
98.8686
 20
186.0749999999999
 30
0.0
 11
99.3645
 21
185.4879999999999
 31
0.0
  0
LINE
  5
1D2
330
1E
100
AcDbEntity
  8
0
100
AcDbLine
 10
97.4296
 20
186.2149999999999
 30
0.0
 11
97.7593
 21
186.2279999999999
 31
0.0
  0
LINE
  5
1D3
330
1E
100
AcDbEntity
  8
0
100
AcDbLine
 10
88.7861
 20
185.9909999999999
 30
0.0
 11
89.4059
 21
185.3979999999999
 31
0.0
  0
LINE
  5
1D4
330
1E
100
AcDbEntity
  8
0
100
AcDbLine
 10
87.67839999999999
 20
186.004
 30
0.0
 11
88.7861
 21
185.9909999999999
 31
0.0
  0
LINE
  5
1D5
330
1E
100
AcDbEntity
  8
0
100
AcDbLine
 10
87.5
 20
188.0
 30
0.0
 11
87.5
 21
358.0
 31
0.0
  0
LINE
  5
1D6
330
1E
100
AcDbEntity
  8
0
100
AcDbLine
 10
87.5
 20
188.0
 30
0.0
 11
88.49999999999999
 21
188.0
 31
0.0
  0
LINE
  5
1D7
330
1E
100
AcDbEntity
  8
0
100
AcDbLine
 10
129.529
 20
186.393
 30
0.0
 11
129.5639999999999
 21
186.0059999999999
 31
0.0
  0
LINE
  5
1D8
330
1E
100
AcDbEntity
  8
0
100
AcDbLine
 10
96.85920000000001
 20
186.43
 30
0.0
 11
98.9559
 21
186.4449999999999
 31
0.0
  0
LINE
  5
1D9
330
1E
100
AcDbEntity
  8
0
100
AcDbLine
 10
97.5
 20
188.0
 30
0.0
 11
97.5
 21
358.0
 31
0.0
  0
LINE
  5
1DA
330
1E
100
AcDbEntity
  8
0
100
AcDbLine
 10
97.5
 20
188.0
 30
0.0
 11
98.50000000000001
 21
188.0
 31
0.0
  0
LINE
  5
1DB
330
1E
100
AcDbEntity
  8
0
100
AcDbLine
 10
119.527
 20
186.4659999999999
 30
0.0
 11
119.564
 21
185.934
 31
0.0
  0
LINE
  5
1DC
330
1E
100
AcDbEntity
  8
0
100
AcDbLine
 10
107.4999999999999
 20
188.0
 30
0.0
 11
107.4999999999999
 21
358.0
 31
0.0
  0
LINE
  5
1DD
330
1E
100
AcDbEntity
  8
0
100
AcDbLine
 10
107.4999999999999
 20
188.0
 30
0.0
 11
108.4999999999999
 21
188.0
 31
0.0
  0
LINE
  5
1DE
330
1E
100
AcDbEntity
  8
0
100
AcDbLine
 10
117.5
 20
188.0
 30
0.0
 11
117.5
 21
358.0
 31
0.0
  0
LINE
  5
1DF
330
1E
100
AcDbEntity
  8
0
100
AcDbLine
 10
117.5
 20
188.0
 30
0.0
 11
118.5
 21
188.0
 31
0.0
  0
LINE
  5
1E0
330
1E
100
AcDbEntity
  8
0
100
AcDbLine
 10
127.5
 20
188.0
 30
0.0
 11
127.5
 21
358.0
 31
0.0
  0
LINE
  5
1E1
330
1E
100
AcDbEntity
  8
0
100
AcDbLine
 10
127.5
 20
188.0
 30
0.0
 11
128.4999999999999
 21
188.0
 31
0.0
  0
LINE
  5
1E2
330
1E
100
AcDbEntity
  8
0
100
AcDbLine
 10
116.6039999999999
 20
186.485
 30
0.0
 11
119.527
 21
186.4659999999999
 31
0.0
  0
LINE
  5
1E3
330
1E
100
AcDbEntity
  8
0
100
AcDbLine
 10
109.5269999999999
 20
186.4659999999999
 30
0.0
 11
109.5639999999999
 21
185.934
 31
0.0
  0
LINE
  5
1E4
330
1E
100
AcDbEntity
  8
0
100
AcDbLine
 10
106.604
 20
186.485
 30
0.0
 11
109.5269999999999
 21
186.4659999999999
 31
0.0
  0
LINE
  5
1E5
330
1E
100
AcDbEntity
  8
0
100
AcDbLine
 10
98.9559
 20
186.4449999999999
 30
0.0
 11
99.75790000000001
 21
185.652
 31
0.0
  0
LINE
  5
1E6
330
1E
100
AcDbEntity
  8
0
100
AcDbLine
 10
89.06299999999999
 20
186.4259999999999
 30
0.0
 11
89.7488
 21
185.701
 31
0.0
  0
LINE
  5
1E7
330
1E
100
AcDbEntity
  8
0
100
AcDbLine
 10
87.41469999999999
 20
186.387
 30
0.0
 11
89.06299999999999
 21
186.4259999999999
 31
0.0
  0
LINE
  5
1E8
330
1E
100
AcDbEntity
  8
0
100
AcDbLine
 10
86.6894
 20
185.5959999999999
 30
0.0
 11
87.41469999999999
 21
186.387
 31
0.0
  0
LINE
  5
1E9
330
1E
100
AcDbEntity
  8
0
100
AcDbLine
 10
79.3645
 20
185.4879999999999
 30
0.0
 11
79.3711
 21
185.0009999999999
 31
0.0
  0
LINE
  5
1EA
330
1E
100
AcDbEntity
  8
0
100
AcDbLine
 10
79.1703
 20
184.2649999999999
 30
0.0
 11
79.7637
 21
183.6979999999999
 31
0.0
  0
LINE
  5
1EB
330
1E
100
AcDbEntity
  8
0
100
AcDbLine
 10
79.1703
 20
184.2649999999999
 30
0.0
 11
79.75620000000001
 21
184.8079999999999
 31
0.0
  0
LINE
  5
1EC
330
1E
100
AcDbEntity
  8
0
100
AcDbLine
 10
77.56149999999999
 20
184.238
 30
0.0
 11
77.5878
 21
184.08
 31
0.0
  0
LINE
  5
1ED
330
1E
100
AcDbEntity
  8
0
100
AcDbLine
 10
77.56149999999999
 20
184.238
 30
0.0
 11
77.5857
 21
184.3959999999999
 31
0.0
  0
LINE
  5
1EE
330
1E
100
AcDbEntity
  8
0
100
AcDbLine
 10
67.5
 20
188.0
 30
0.0
 11
67.5
 21
358.0
 31
0.0
  0
LINE
  5
1EF
330
1E
100
AcDbEntity
  8
0
100
AcDbLine
 10
67.5
 20
188.0
 30
0.0
 11
68.5
 21
188.0
 31
0.0
  0
LINE
  5
1F0
330
1E
100
AcDbEntity
  8
0
100
AcDbLine
 10
138.0
 20
217.5
 30
0.0
 11
138.0
 21
218.5
 31
0.0
  0
LINE
  5
1F1
330
1E
100
AcDbEntity
  8
0
100
AcDbLine
 10
138.0
 20
237.5
 30
0.0
 11
138.0
 21
238.5
 31
0.0
  0
LINE
  5
1F2
330
1E
100
AcDbEntity
  8
0
100
AcDbLine
 10
138.0
 20
247.5
 30
0.0
 11
138.0
 21
248.4999999999999
 31
0.0
  0
LINE
  5
1F3
330
1E
100
AcDbEntity
  8
0
100
AcDbLine
 10
138.0
 20
277.4999999999999
 30
0.0
 11
138.0
 21
278.5
 31
0.0
  0
LINE
  5
1F4
330
1E
100
AcDbEntity
  8
0
100
AcDbLine
 10
138.0
 20
287.5
 30
0.0
 11
138.0
 21
288.5
 31
0.0
  0
LINE
  5
1F5
330
1E
100
AcDbEntity
  8
0
100
AcDbLine
 10
138.0
 20
267.5
 30
0.0
 11
138.0
 21
268.5
 31
0.0
  0
LINE
  5
1F6
330
1E
100
AcDbEntity
  8
0
100
AcDbLine
 10
138.0
 20
257.5
 30
0.0
 11
138.0
 21
258.4999999999999
 31
0.0
  0
LINE
  5
1F7
330
1E
100
AcDbEntity
  8
0
100
AcDbLine
 10
138.0
 20
227.4999999999999
 30
0.0
 11
138.0
 21
228.5
 31
0.0
  0
LINE
  5
1F8
330
1E
100
AcDbEntity
  8
0
100
AcDbLine
 10
138.0
 20
207.5
 30
0.0
 11
138.0
 21
208.4999999999999
 31
0.0
  0
LINE
  5
1F9
330
1E
100
AcDbEntity
  8
0
100
AcDbLine
 10
138.0
 20
197.5
 30
0.0
 11
138.0
 21
198.5
 31
0.0
  0
LINE
  5
1FA
330
1E
100
AcDbEntity
  8
0
100
AcDbLine
 10
58.0
 20
197.5
 30
0.0
 11
138.0
 21
197.5
 31
0.0
  0
LINE
  5
1FB
330
1E
100
AcDbEntity
  8
0
100
AcDbLine
 10
51.42199999999999
 20
298.4609999999999
 30
0.0
 11
52.1638
 21
297.69
 31
0.0
  0
LINE
  5
1FC
330
1E
100
AcDbEntity
  8
0
100
AcDbLine
 10
138.0
 20
297.5
 30
0.0
 11
138.0
 21
298.4999999999999
 31
0.0
  0
LINE
  5
1FD
330
1E
100
AcDbEntity
  8
0
100
AcDbLine
 10
58.0
 20
297.5
 30
0.0
 11
138.0
 21
297.5
 31
0.0
  0
LINE
  5
1FE
330
1E
100
AcDbEntity
  8
0
100
AcDbLine
 10
58.0
 20
298.4999999999999
 30
0.0
 11
58.0
 21
297.5
 31
0.0
  0
LINE
  5
1FF
330
1E
100
AcDbEntity
  8
0
100
AcDbLine
 10
58.0
 20
298.4999999999999
 30
0.0
 11
138.0
 21
298.4999999999999
 31
0.0
  0
LINE
  5
200
330
1E
100
AcDbEntity
  8
0
100
AcDbLine
 10
52.1638
 20
297.69
 30
0.0
 11
52.1786
 21
296.8309999999999
 31
0.0
  0
LINE
  5
201
330
1E
100
AcDbEntity
  8
0
100
AcDbLine
 10
51.6593
 20
296.919
 30
0.0
 11
51.6593
 21
297.438
 31
0.0
  0
LINE
  5
202
330
1E
100
AcDbEntity
  8
0
100
AcDbLine
 10
51.4071
 20
295.985
 30
0.0
 11
52.1786
 21
296.8309999999999
 31
0.0
  0
LINE
  5
203
330
1E
100
AcDbEntity
  8
0
100
AcDbLine
 10
51.2884
 20
300.4039999999999
 30
0.0
 11
51.3033
 21
299.974
 31
0.0
  0
LINE
  5
204
330
1E
100
AcDbEntity
  8
0
100
AcDbLine
 10
51.3845
 20
305.8879999999999
 30
0.0
 11
52.1708
 21
306.718
 31
0.0
  0
LINE
  5
205
330
1E
100
AcDbEntity
  8
0
100
AcDbLine
 10
51.11740000000001
 20
306.362
 30
0.0
 11
51.5625
 21
306.8369999999999
 31
0.0
  0
LINE
  5
206
330
1E
100
AcDbEntity
  8
0
100
AcDbLine
 10
51.5625
 20
306.8369999999999
 30
0.0
 11
51.5625
 21
307.993
 31
0.0
  0
LINE
  5
207
330
1E
100
AcDbEntity
  8
0
100
AcDbLine
 10
49.9899
 20
306.362
 30
0.0
 11
51.11740000000001
 21
306.362
 31
0.0
  0
LINE
  5
208
330
1E
100
AcDbEntity
  8
0
100
AcDbLine
 10
49.8119
 20
305.918
 30
0.0
 11
51.3845
 21
305.8879999999999
 31
0.0
  0
LINE
  5
209
330
1E
100
AcDbEntity
  8
0
100
AcDbLine
 10
49.1651
 20
326.954
 30
0.0
 11
49.8
 21
326.365
 31
0.0
  0
LINE
  5
20A
330
1E
100
AcDbEntity
  8
0
100
AcDbLine
 10
49.1651
 20
329.41
 30
0.0
 11
49.8
 21
329.999
 31
0.0
  0
LINE
  5
20B
330
1E
100
AcDbEntity
  8
0
100
AcDbLine
 10
49.3542
 20
317.721
 30
0.0
 11
50.843
 21
319.8259999999999
 31
0.0
  0
LINE
  5
20C
330
1E
100
AcDbEntity
  8
0
100
AcDbLine
 10
49.3542
 20
317.721
 30
0.0
 11
51.6903
 21
317.721
 31
0.0
  0
LINE
  5
20D
330
1E
100
AcDbEntity
  8
0
100
AcDbLine
 10
49.2044
 20
339.743
 30
0.0
 11
49.54509999999999
 21
339.48
 31
0.0
  0
LINE
  5
20E
330
1E
100
AcDbEntity
  8
0
100
AcDbLine
 10
49.2044
 20
339.743
 30
0.0
 11
49.8858
 21
340.4549999999999
 31
0.0
  0
LINE
  5
20F
330
1E
100
AcDbEntity
  8
0
100
AcDbLine
 10
49.1115
 20
337.685
 30
0.0
 11
49.1424
 21
336.06
 31
0.0
  0
LINE
  5
210
330
1E
100
AcDbEntity
  8
0
100
AcDbLine
 10
49.1115
 20
337.685
 30
0.0
 11
49.8393
 21
338.4119999999999
 31
0.0
  0
LINE
  5
211
330
1E
100
AcDbEntity
  8
0
100
AcDbLine
 10
49.1424
 20
336.06
 30
0.0
 11
52.0229
 21
336.06
 31
0.0
  0
LINE
  5
212
330
1E
100
AcDbEntity
  8
0
100
AcDbLine
 10
49.5058
 20
325.978
 30
0.0
 11
51.06989999999999
 21
325.994
 31
0.0
  0
LINE
  5
213
330
1E
100
AcDbEntity
  8
0
100
AcDbLine
 10
49.5058
 20
330.3859999999999
 30
0.0
 11
51.06989999999999
 21
330.37
 31
0.0
  0
LINE
  5
214
330
1E
100
AcDbEntity
  8
0
100
AcDbLine
 10
49.54509999999999
 20
339.48
 30
0.0
 11
50.18
 21
340.069
 31
0.0
  0
LINE
  5
215
330
1E
100
AcDbEntity
  8
0
100
AcDbLine
 10
49.576
 20
337.515
 30
0.0
 11
50.1491
 21
338.01
 31
0.0
  0
LINE
  5
216
330
1E
100
AcDbEntity
  8
0
100
AcDbLine
 10
49.8
 20
326.365
 30
0.0
 11
50.82209999999999
 21
326.365
 31
0.0
  0
LINE
  5
217
330
1E
100
AcDbEntity
  8
0
100
AcDbLine
 10
49.8
 20
329.999
 30
0.0
 11
50.82209999999999
 21
329.999
 31
0.0
  0
LINE
  5
218
330
1E
100
AcDbEntity
  8
0
100
AcDbLine
 10
50.82209999999999
 20
326.365
 30
0.0
 11
51.2248
 21
326.799
 31
0.0
  0
LINE
  5
219
330
1E
100
AcDbEntity
  8
0
100
AcDbLine
 10
50.8686
 20
327.975
 30
0.0
 11
51.2867
 21
327.4329999999999
 31
0.0
  0
LINE
  5
21A
330
1E
100
AcDbEntity
  8
0
100
AcDbLine
 10
50.23859999999999
 20
327.976
 30
0.0
 11
50.8686
 21
327.975
 31
0.0
  0
LINE
  5
21B
330
1E
100
AcDbEntity
  8
0
100
AcDbLine
 10
50.82209999999999
 20
329.999
 30
0.0
 11
51.2248
 21
329.565
 31
0.0
  0
LINE
  5
21C
330
1E
100
AcDbEntity
  8
0
100
AcDbLine
 10
50.8686
 20
328.3889999999999
 30
0.0
 11
51.2867
 21
328.9309999999999
 31
0.0
  0
LINE
  5
21D
330
1E
100
AcDbEntity
  8
0
100
AcDbLine
 10
50.25339999999999
 20
328.3319999999999
 30
0.0
 11
50.8686
 21
328.3889999999999
 31
0.0
  0
LINE
  5
21E
330
1E
100
AcDbEntity
  8
0
100
AcDbLine
 10
50.23859999999999
 20
328.139
 30
0.0
 11
50.25339999999999
 21
328.3319999999999
 31
0.0
  0
LINE
  5
21F
330
1E
100
AcDbEntity
  8
0
100
AcDbLine
 10
50.23859999999999
 20
328.139
 30
0.0
 11
50.23859999999999
 21
327.976
 31
0.0
  0
LINE
  5
220
330
1E
100
AcDbEntity
  8
0
100
AcDbLine
 10
51.06989999999999
 20
325.994
 30
0.0
 11
51.8288
 21
326.7209999999999
 31
0.0
  0
LINE
  5
221
330
1E
100
AcDbEntity
  8
0
100
AcDbLine
 10
51.2248
 20
326.799
 30
0.0
 11
51.2867
 21
327.4329999999999
 31
0.0
  0
LINE
  5
222
330
1E
100
AcDbEntity
  8
0
100
AcDbLine
 10
51.06989999999999
 20
330.37
 30
0.0
 11
51.8288
 21
329.643
 31
0.0
  0
LINE
  5
223
330
1E
100
AcDbEntity
  8
0
100
AcDbLine
 10
51.2248
 20
329.565
 30
0.0
 11
51.2867
 21
328.9309999999999
 31
0.0
  0
LINE
  5
224
330
1E
100
AcDbEntity
  8
0
100
AcDbLine
 10
51.32159999999999
 20
328.139
 30
0.0
 11
51.8597
 21
328.791
 31
0.0
  0
LINE
  5
225
330
1E
100
AcDbEntity
  8
0
100
AcDbLine
 10
51.32159999999999
 20
328.139
 30
0.0
 11
51.8597
 21
327.5729999999999
 31
0.0
  0
LINE
  5
226
330
1E
100
AcDbEntity
  8
0
100
AcDbLine
 10
51.0125
 20
320.4069999999999
 30
0.0
 11
51.1456
 21
316.1729999999999
 31
0.0
  0
LINE
  5
227
330
1E
100
AcDbEntity
  8
0
100
AcDbLine
 10
50.8309
 20
316.185
 30
0.0
 11
51.1456
 21
316.1729999999999
 31
0.0
  0
LINE
  5
228
330
1E
100
AcDbEntity
  8
0
100
AcDbLine
 10
50.8309
 20
316.185
 30
0.0
 11
50.843
 21
319.8259999999999
 31
0.0
  0
LINE
  5
229
330
1E
100
AcDbEntity
  8
0
100
AcDbLine
 10
50.1491
 20
338.01
 30
0.0
 11
51.4344
 21
338.056
 31
0.0
  0
LINE
  5
22A
330
1E
100
AcDbEntity
  8
0
100
AcDbLine
 10
50.18
 20
340.069
 30
0.0
 11
51.2021
 21
340.069
 31
0.0
  0
LINE
  5
22B
330
1E
100
AcDbEntity
  8
0
100
AcDbLine
 10
49.8858
 20
340.4549999999999
 30
0.0
 11
51.44989999999999
 21
340.4399999999999
 31
0.0
  0
LINE
  5
22C
330
1E
100
AcDbEntity
  8
0
100
AcDbLine
 10
51.2021
 20
340.069
 30
0.0
 11
51.60479999999999
 21
339.6349999999999
 31
0.0
  0
LINE
  5
22D
330
1E
100
AcDbEntity
  8
0
100
AcDbLine
 10
51.2486
 20
338.459
 30
0.0
 11
51.66669999999999
 21
339.0009999999999
 31
0.0
  0
LINE
  5
22E
330
1E
100
AcDbEntity
  8
0
100
AcDbLine
 10
49.8393
 20
338.4119999999999
 30
0.0
 11
51.2486
 21
338.459
 31
0.0
  0
LINE
  5
22F
330
1E
100
AcDbEntity
  8
0
100
AcDbLine
 10
49.576
 20
336.3999999999999
 30
0.0
 11
52.00739999999999
 21
336.3999999999999
 31
0.0
  0
LINE
  5
230
330
1E
100
AcDbEntity
  8
0
100
AcDbLine
 10
49.576
 20
336.3999999999999
 30
0.0
 11
49.576
 21
337.515
 31
0.0
  0
LINE
  5
231
330
1E
100
AcDbEntity
  8
0
100
AcDbLine
 10
50.568
 20
346.329
 30
0.0
 11
50.7786
 21
346.347
 31
0.0
  0
LINE
  5
232
330
1E
100
AcDbEntity
  8
0
100
AcDbLine
 10
50.568
 20
346.329
 30
0.0
 11
50.58559999999999
 21
349.96
 31
0.0
  0
LINE
  5
233
330
1E
100
AcDbEntity
  8
0
100
AcDbLine
 10
50.0257
 20
346.1009999999999
 30
0.0
 11
51.34199999999999
 21
346.116
 31
0.0
  0
LINE
  5
234
330
1E
100
AcDbEntity
  8
0
100
AcDbLine
 10
51.34199999999999
 20
346.116
 30
0.0
 11
51.3491
 21
346.338
 31
0.0
  0
LINE
  5
235
330
1E
100
AcDbEntity
  8
0
100
AcDbLine
 10
50.7786
 20
346.347
 30
0.0
 11
50.7786
 21
350.363
 31
0.0
  0
LINE
  5
236
330
1E
100
AcDbEntity
  8
0
100
AcDbLine
 10
50.059
 20
349.4689999999999
 30
0.0
 11
50.58559999999999
 21
349.96
 31
0.0
  0
LINE
  5
237
330
1E
100
AcDbEntity
  8
0
100
AcDbLine
 10
49.9099
 20
349.618
 30
0.0
 11
50.059
 21
349.4689999999999
 31
0.0
  0
LINE
  5
238
330
1E
100
AcDbEntity
  8
0
100
AcDbLine
 10
49.9099
 20
349.618
 30
0.0
 11
50.7786
 21
350.363
 31
0.0
  0
LINE
  5
239
330
1E
100
AcDbEntity
  8
0
100
AcDbLine
 10
50.0239
 20
346.338
 30
0.0
 11
50.0257
 21
346.1009999999999
 31
0.0
  0
LINE
  5
23A
330
1E
100
AcDbEntity
  8
0
100
AcDbLine
 10
50.0239
 20
346.338
 30
0.0
 11
51.3491
 21
346.338
 31
0.0
  0
LINE
  5
23B
330
1E
100
AcDbEntity
  8
0
100
AcDbLine
 10
49.4409
 20
309.906
 30
0.0
 11
49.4558
 21
309.017
 31
0.0
  0
LINE
  5
23C
330
1E
100
AcDbEntity
  8
0
100
AcDbLine
 10
49.4409
 20
309.906
 30
0.0
 11
51.8592
 21
309.906
 31
0.0
  0
LINE
  5
23D
330
1E
100
AcDbEntity
  8
0
100
AcDbLine
 10
49.4558
 20
309.017
 30
0.0
 11
51.3845
 21
309.031
 31
0.0
  0
LINE
  5
23E
330
1E
100
AcDbEntity
  8
0
100
AcDbLine
 10
51.8288
 20
326.7209999999999
 30
0.0
 11
51.8597
 21
327.5729999999999
 31
0.0
  0
LINE
  5
23F
330
1E
100
AcDbEntity
  8
0
100
AcDbLine
 10
51.8288
 20
329.643
 30
0.0
 11
51.8597
 21
328.791
 31
0.0
  0
LINE
  5
240
330
1E
100
AcDbEntity
  8
0
100
AcDbLine
 10
51.6903
 20
317.721
 30
0.0
 11
51.71459999999999
 21
317.3939999999999
 31
0.0
  0
LINE
  5
241
330
1E
100
AcDbEntity
  8
0
100
AcDbLine
 10
51.44989999999999
 20
340.4399999999999
 30
0.0
 11
52.2088
 21
339.713
 31
0.0
  0
LINE
  5
242
330
1E
100
AcDbEntity
  8
0
100
AcDbLine
 10
51.60479999999999
 20
339.6349999999999
 30
0.0
 11
51.66669999999999
 21
339.0009999999999
 31
0.0
  0
LINE
  5
243
330
1E
100
AcDbEntity
  8
0
100
AcDbLine
 10
51.4344
 20
338.056
 30
0.0
 11
52.2397
 21
338.8609999999999
 31
0.0
  0
LINE
  5
244
330
1E
100
AcDbEntity
  8
0
100
AcDbLine
 10
52.00739999999999
 20
336.3999999999999
 30
0.0
 11
52.0229
 21
336.06
 31
0.0
  0
LINE
  5
245
330
1E
100
AcDbEntity
  8
0
100
AcDbLine
 10
51.8592
 20
309.906
 30
0.0
 11
51.9186
 21
310.3809999999999
 31
0.0
  0
LINE
  5
246
330
1E
100
AcDbEntity
  8
0
100
AcDbLine
 10
51.3845
 20
309.031
 30
0.0
 11
52.1708
 21
308.2009999999999
 31
0.0
  0
LINE
  5
247
330
1E
100
AcDbEntity
  8
0
100
AcDbLine
 10
51.1026
 20
308.483
 30
0.0
 11
51.5625
 21
307.993
 31
0.0
  0
LINE
  5
248
330
1E
100
AcDbEntity
  8
0
100
AcDbLine
 10
58.0
 20
308.4999999999999
 30
0.0
 11
58.0
 21
307.5
 31
0.0
  0
LINE
  5
249
330
1E
100
AcDbEntity
  8
0
100
AcDbLine
 10
58.0
 20
308.4999999999999
 30
0.0
 11
138.0
 21
308.4999999999999
 31
0.0
  0
LINE
  5
24A
330
1E
100
AcDbEntity
  8
0
100
AcDbLine
 10
58.0
 20
307.5
 30
0.0
 11
138.0
 21
307.5
 31
0.0
  0
LINE
  5
24B
330
1E
100
AcDbEntity
  8
0
100
AcDbLine
 10
58.0
 20
338.5
 30
0.0
 11
58.0
 21
337.5
 31
0.0
  0
LINE
  5
24C
330
1E
100
AcDbEntity
  8
0
100
AcDbLine
 10
58.0
 20
338.5
 30
0.0
 11
138.0
 21
338.5
 31
0.0
  0
LINE
  5
24D
330
1E
100
AcDbEntity
  8
0
100
AcDbLine
 10
58.0
 20
337.5
 30
0.0
 11
138.0
 21
337.5
 31
0.0
  0
LINE
  5
24E
330
1E
100
AcDbEntity
  8
0
100
AcDbLine
 10
58.0
 20
328.5
 30
0.0
 11
58.0
 21
327.4999999999999
 31
0.0
  0
LINE
  5
24F
330
1E
100
AcDbEntity
  8
0
100
AcDbLine
 10
58.0
 20
328.5
 30
0.0
 11
138.0
 21
328.5
 31
0.0
  0
LINE
  5
250
330
1E
100
AcDbEntity
  8
0
100
AcDbLine
 10
58.0
 20
327.4999999999999
 30
0.0
 11
138.0
 21
327.4999999999999
 31
0.0
  0
LINE
  5
251
330
1E
100
AcDbEntity
  8
0
100
AcDbLine
 10
58.0
 20
318.5
 30
0.0
 11
58.0
 21
317.5
 31
0.0
  0
LINE
  5
252
330
1E
100
AcDbEntity
  8
0
100
AcDbLine
 10
58.0
 20
318.5
 30
0.0
 11
138.0
 21
318.5
 31
0.0
  0
LINE
  5
253
330
1E
100
AcDbEntity
  8
0
100
AcDbLine
 10
138.0
 20
307.5
 30
0.0
 11
138.0
 21
308.4999999999999
 31
0.0
  0
LINE
  5
254
330
1E
100
AcDbEntity
  8
0
100
AcDbLine
 10
138.0
 20
337.5
 30
0.0
 11
138.0
 21
338.5
 31
0.0
  0
LINE
  5
255
330
1E
100
AcDbEntity
  8
0
100
AcDbLine
 10
138.0
 20
327.4999999999999
 30
0.0
 11
138.0
 21
328.5
 31
0.0
  0
LINE
  5
256
330
1E
100
AcDbEntity
  8
0
100
AcDbLine
 10
138.0
 20
317.5
 30
0.0
 11
138.0
 21
318.5
 31
0.0
  0
LINE
  5
257
330
1E
100
AcDbEntity
  8
0
100
AcDbLine
 10
58.0
 20
317.5
 30
0.0
 11
138.0
 21
317.5
 31
0.0
  0
LINE
  5
258
330
1E
100
AcDbEntity
  8
0
100
AcDbLine
 10
58.0
 20
348.4999999999999
 30
0.0
 11
58.0
 21
347.5
 31
0.0
  0
LINE
  5
259
330
1E
100
AcDbEntity
  8
0
100
AcDbLine
 10
58.0
 20
348.4999999999999
 30
0.0
 11
138.0
 21
348.4999999999999
 31
0.0
  0
LINE
  5
25A
330
1E
100
AcDbEntity
  8
0
100
AcDbLine
 10
58.0
 20
347.5
 30
0.0
 11
138.0
 21
347.5
 31
0.0
  0
LINE
  5
25B
330
1E
100
AcDbEntity
  8
0
100
AcDbLine
 10
108.4999999999999
 20
358.0
 30
0.0
 11
108.4999999999999
 21
188.0
 31
0.0
  0
LINE
  5
25C
330
1E
100
AcDbEntity
  8
0
100
AcDbLine
 10
107.4999999999999
 20
358.0
 30
0.0
 11
108.4999999999999
 21
358.0
 31
0.0
  0
LINE
  5
25D
330
1E
100
AcDbEntity
  8
0
100
AcDbLine
 10
118.5
 20
358.0
 30
0.0
 11
118.5
 21
188.0
 31
0.0
  0
LINE
  5
25E
330
1E
100
AcDbEntity
  8
0
100
AcDbLine
 10
117.5
 20
358.0
 30
0.0
 11
118.5
 21
358.0
 31
0.0
  0
LINE
  5
25F
330
1E
100
AcDbEntity
  8
0
100
AcDbLine
 10
128.4999999999999
 20
358.0
 30
0.0
 11
128.4999999999999
 21
188.0
 31
0.0
  0
LINE
  5
260
330
1E
100
AcDbEntity
  8
0
100
AcDbLine
 10
127.5
 20
358.0
 30
0.0
 11
128.4999999999999
 21
358.0
 31
0.0
  0
LINE
  5
261
330
1E
100
AcDbEntity
  8
0
100
AcDbLine
 10
98.50000000000001
 20
358.0
 30
0.0
 11
98.50000000000001
 21
188.0
 31
0.0
  0
LINE
  5
262
330
1E
100
AcDbEntity
  8
0
100
AcDbLine
 10
97.5
 20
358.0
 30
0.0
 11
98.50000000000001
 21
358.0
 31
0.0
  0
LINE
  5
263
330
1E
100
AcDbEntity
  8
0
100
AcDbLine
 10
88.49999999999999
 20
358.0
 30
0.0
 11
88.49999999999999
 21
188.0
 31
0.0
  0
LINE
  5
264
330
1E
100
AcDbEntity
  8
0
100
AcDbLine
 10
87.5
 20
358.0
 30
0.0
 11
88.49999999999999
 21
358.0
 31
0.0
  0
LINE
  5
265
330
1E
100
AcDbEntity
  8
0
100
AcDbLine
 10
78.5
 20
358.0
 30
0.0
 11
78.5
 21
188.0
 31
0.0
  0
LINE
  5
266
330
1E
100
AcDbEntity
  8
0
100
AcDbLine
 10
77.5
 20
358.0
 30
0.0
 11
78.5
 21
358.0
 31
0.0
  0
LINE
  5
267
330
1E
100
AcDbEntity
  8
0
100
AcDbLine
 10
138.0
 20
347.5
 30
0.0
 11
138.0
 21
348.4999999999999
 31
0.0
  0
LINE
  5
268
330
1E
100
AcDbEntity
  8
0
100
AcDbLine
 10
68.5
 20
358.0
 30
0.0
 11
68.5
 21
188.0
 31
0.0
  0
LINE
  5
269
330
1E
100
AcDbEntity
  8
0
100
AcDbLine
 10
67.5
 20
358.0
 30
0.0
 11
68.5
 21
358.0
 31
0.0
  0
LINE
  5
26A
330
1E
100
AcDbEntity
  8
0
100
AcDbLine
 10
52.2088
 20
339.713
 30
0.0
 11
52.2397
 21
338.8609999999999
 31
0.0
  0
LINE
  5
26B
330
1E
100
AcDbEntity
  8
0
100
AcDbLine
 10
52.1708
 20
308.2009999999999
 30
0.0
 11
52.1708
 21
306.718
 31
0.0
  0
LINE
  5
26C
330
1E
100
AcDbEntity
  8
0
100
AcDbLine
 10
49.4261
 20
306.9559999999999
 30
0.0
 11
49.9899
 21
306.362
 31
0.0
  0
LINE
  5
26D
330
1E
100
AcDbEntity
  8
0
100
AcDbLine
 10
49.0107
 20
306.659
 30
0.0
 11
49.4261
 21
306.9559999999999
 31
0.0
  0
LINE
  5
26E
330
1E
100
AcDbEntity
  8
0
100
AcDbLine
 10
49.0107
 20
306.659
 30
0.0
 11
49.8119
 21
305.918
 31
0.0
  0
LINE
  5
273
330
1E
100
AcDbEntity
  8
0
100
AcDbLine
 10
37.013
 20
413.644
 30
0.0
 11
97.971
 21
415.5
 31
0.0
  0
LINE
  5
274
330
1E
100
AcDbEntity
  8
0
100
AcDbLine
 10
37.013
 20
413.644
 30
0.0
 11
97.971
 21
415.5
 31
0.0
  0
LINE
  5
275
330
1E
100
AcDbEntity
  8
0
100
AcDbLine
 10
130.055
 20
415.216
 30
0.0
 11
131.065
 21
415.8469999999999
 31
0.0
  0
LINE
  5
276
330
1E
100
AcDbEntity
  8
0
100
AcDbLine
 10
130.061
 20
415.2169999999999
 30
0.0
 11
131.065
 21
415.8469999999999
 31
0.0
  0
LINE
  5
277
330
1E
100
AcDbEntity
  8
0
100
AcDbLine
 10
128.896
 20
415.024
 30
0.0
 11
130.061
 21
415.2169999999999
 31
0.0
  0
LINE
  5
278
330
1E
100
AcDbEntity
  8
0
100
AcDbLine
 10
128.896
 20
415.024
 30
0.0
 11
130.055
 21
415.216
 31
0.0
  0
LINE
  5
27B
330
1E
100
AcDbEntity
  8
0
100
AcDbLine
 10
131.065
 20
415.8469999999999
 30
0.0
 11
131.866
 21
417.1959999999999
 31
0.0
  0
LINE
  5
27C
330
1E
100
AcDbEntity
  8
0
100
AcDbLine
 10
131.866
 20
417.1959999999999
 30
0.0
 11
136.654
 21
428.984
 31
0.0
  0
LINE
  5
27D
330
1E
100
AcDbEntity
  8
0
100
AcDbLine
 10
156.3989999999999
 20
449.12
 30
0.0
 11
163.6179999999999
 21
452.61
 31
0.0
  0
LINE
  5
27E
330
1E
100
AcDbEntity
  8
0
100
AcDbLine
 10
149.786
 20
444.58
 30
0.0
 11
156.3989999999999
 21
449.12
 31
0.0
  0
LINE
  5
27F
330
1E
100
AcDbEntity
  8
0
100
AcDbLine
 10
143.9379999999999
 20
439.095
 30
0.0
 11
149.786
 21
444.58
 31
0.0
  0
LINE
  5
280
330
1E
100
AcDbEntity
  8
0
100
AcDbLine
 10
163.6179999999999
 20
452.61
 30
0.0
 11
171.2849999999999
 21
454.9719999999999
 31
0.0
  0
LINE
  5
281
330
1E
100
AcDbEntity
  8
0
100
AcDbLine
 10
136.654
 20
428.984
 30
0.0
 11
143.9379999999999
 21
439.095
 31
0.0
  0
LINE
  5
282
330
1E
100
AcDbEntity
  8
0
100
AcDbLine
 10
97.971
 20
415.5
 30
0.0
 11
128.896
 21
415.024
 31
0.0
  0
LINE
  5
283
330
1E
100
AcDbEntity
  8
0
100
AcDbLine
 10
30.943
 20
412.7049999999999
 30
0.0
 11
37.013
 21
413.644
 31
0.0
  0
LINE
  5
287
330
1E
100
AcDbEntity
  8
0
100
AcDbLine
 10
167.9409999999999
 20
134.7529999999999
 30
0.0
 11
176.289
 21
139.37
 31
0.0
  0
LINE
  5
288
330
1E
100
AcDbEntity
  8
0
100
AcDbLine
 10
191.0829999999999
 20
9.117000000000009
 30
0.0
 11
285.6129999999999
 21
4.302000000000009
 31
0.0
  0
LINE
  5
289
330
1E
100
AcDbEntity
  8
0
100
AcDbLine
 10
180.8779999999999
 20
9.745000000000009
 30
0.0
 11
191.0829999999999
 21
9.117000000000009
 31
0.0
  0
LINE
  5
28A
330
1E
100
AcDbEntity
  8
0
100
AcDbLine
 10
176.669
 20
10.096
 30
0.0
 11
180.8779999999999
 21
9.745000000000009
 31
0.0
  0
LINE
  5
28B
330
1E
100
AcDbEntity
  8
0
100
AcDbLine
 10
175.895
 20
405.7909999999999
 30
0.0
 11
182.1379999999999
 21
399.539
 31
0.0
  0
LINE
  5
28C
330
1E
100
AcDbEntity
  8
0
100
AcDbLine
 10
182.1379999999999
 20
399.539
 30
0.0
 11
186.401
 21
391.7749999999999
 31
0.0
  0
LINE
  5
28D
330
1E
100
AcDbEntity
  8
0
100
AcDbLine
 10
182.172
 20
145.3079999999999
 30
0.0
 11
186.294
 21
152.606
 31
0.0
  0
LINE
  5
28E
330
1E
100
AcDbEntity
  8
0
100
AcDbLine
 10
176.289
 20
139.37
 30
0.0
 11
182.172
 21
145.3079999999999
 31
0.0
  0
LINE
  5
28F
330
1E
100
AcDbEntity
  8
0
100
AcDbLine
 10
493.013
 20
0.0000000000000084
 30
0.0
 11
563.556
 21
0.4950000000000081
 31
0.0
  0
LINE
  5
290
330
1E
100
AcDbEntity
  8
0
100
AcDbLine
 10
563.556
 20
0.4950000000000081
 30
0.0
 11
675.6339999999998
 21
3.335000000000009
 31
0.0
  0
LINE
  5
291
330
1E
100
AcDbEntity
  8
0
100
AcDbLine
 10
493.013
 20
0.0000000000000084
 30
0.0
 11
563.556
 21
0.4950000000000081
 31
0.0
  0
LINE
  5
292
330
1E
100
AcDbEntity
  8
0
100
AcDbLine
 10
380.202
 20
1.273000000000009
 30
0.0
 11
493.013
 21
0.0000000000000085
 31
0.0
  0
LINE
  5
293
330
1E
100
AcDbEntity
  8
0
100
AcDbLine
 10
380.202
 20
1.273000000000009
 30
0.0
 11
493.013
 21
0.0000000000000084
 31
0.0
  0
LINE
  5
294
330
1E
100
AcDbEntity
  8
0
100
AcDbLine
 10
563.556
 20
0.4950000000000081
 30
0.0
 11
675.6339999999998
 21
3.335000000000009
 31
0.0
  0
LINE
  5
295
330
1E
100
AcDbEntity
  8
0
100
AcDbLine
 10
675.6339999999998
 20
3.335000000000009
 30
0.0
 11
794.9329999999999
 21
9.11600000000001
 31
0.0
  0
LINE
  5
296
330
1E
100
AcDbEntity
  8
0
100
AcDbLine
 10
285.6129999999999
 20
4.302000000000009
 30
0.0
 11
380.202
 21
1.273000000000009
 31
0.0
  0
LINE
  5
297
330
1E
100
AcDbEntity
  8
0
100
AcDbLine
 10
794.9329999999999
 20
9.11600000000001
 30
0.0
 11
805.141
 21
9.742000000000009
 31
0.0
  0
LINE
  5
298
330
1E
100
AcDbEntity
  8
0
100
AcDbLine
 10
675.6339999999998
 20
3.335000000000009
 30
0.0
 11
794.936
 21
9.11600000000001
 31
0.0
  0
LINE
  5
299
330
1E
100
AcDbEntity
  8
0
100
AcDbLine
 10
809.3519999999999
 20
10.097
 30
0.0
 11
820.4789999999999
 21
12.675
 31
0.0
  0
LINE
  5
29A
330
1E
100
AcDbEntity
  8
0
100
AcDbLine
 10
820.4789999999999
 20
12.675
 30
0.0
 11
830.797
 21
17.585
 31
0.0
  0
LINE
  5
29B
330
1E
100
AcDbEntity
  8
0
100
AcDbLine
 10
830.797
 20
17.585
 30
0.0
 11
839.8189999999999
 21
24.58
 31
0.0
  0
LINE
  5
29C
330
1E
100
AcDbEntity
  8
0
100
AcDbLine
 10
839.8189999999999
 20
24.58
 30
0.0
 11
846.893
 21
32.991
 31
0.0
  0
LINE
  5
29D
330
1E
100
AcDbEntity
  8
0
100
AcDbLine
 10
846.893
 20
32.991
 30
0.0
 11
852.0850000000001
 21
42.678
 31
0.0
  0
LINE
  5
29E
330
1E
100
AcDbEntity
  8
0
100
AcDbLine
 10
852.0850000000001
 20
42.678
 30
0.0
 11
855.151
 21
53.224
 31
0.0
  0
LINE
  5
29F
330
1E
100
AcDbEntity
  8
0
100
AcDbLine
 10
805.141
 20
9.742000000000009
 30
0.0
 11
809.3519999999999
 21
10.097
 31
0.0
  0
LINE
  5
2A0
330
1E
100
AcDbEntity
  8
0
100
AcDbLine
 10
794.936
 20
9.11600000000001
 30
0.0
 11
805.141
 21
9.742000000000009
 31
0.0
  0
LINE
  5
2A1
330
1E
100
AcDbEntity
  8
0
100
AcDbLine
 10
463.316
 20
266.184
 30
0.0
 11
466.513
 21
262.5129999999999
 31
0.0
  0
LINE
  5
2A2
330
1E
100
AcDbEntity
  8
0
100
AcDbLine
 10
497.895
 20
251.895
 30
0.0
 11
502.671
 21
252.842
 31
0.0
  0
LINE
  5
2A3
330
1E
100
AcDbEntity
  8
0
100
AcDbLine
 10
493.0
 20
251.5
 30
0.0
 11
497.895
 21
251.895
 31
0.0
  0
LINE
  5
2A4
330
1E
100
AcDbEntity
  8
0
100
AcDbLine
 10
470.184
 20
259.3159999999999
 30
0.0
 11
474.329
 21
256.5129999999999
 31
0.0
  0
LINE
  5
2A5
330
1E
100
AcDbEntity
  8
0
100
AcDbLine
 10
474.329
 20
256.5129999999999
 30
0.0
 11
478.671
 21
254.421
 31
0.0
  0
LINE
  5
2A6
330
1E
100
AcDbEntity
  8
0
100
AcDbLine
 10
478.671
 20
254.421
 30
0.0
 11
483.3289999999999
 21
252.842
 31
0.0
  0
LINE
  5
2A7
330
1E
100
AcDbEntity
  8
0
100
AcDbLine
 10
519.4869999999999
 20
262.5129999999999
 30
0.0
 11
522.684
 21
266.184
 31
0.0
  0
LINE
  5
2A8
330
1E
100
AcDbEntity
  8
0
100
AcDbLine
 10
522.684
 20
266.184
 30
0.0
 11
525.4869999999999
 21
270.3289999999999
 31
0.0
  0
LINE
  5
2A9
330
1E
100
AcDbEntity
  8
0
100
AcDbLine
 10
525.4869999999999
 20
270.3289999999999
 30
0.0
 11
527.579
 21
274.6709999999999
 31
0.0
  0
LINE
  5
2AA
330
1E
100
AcDbEntity
  8
0
100
AcDbLine
 10
515.816
 20
259.3159999999999
 30
0.0
 11
519.4869999999999
 21
262.5129999999999
 31
0.0
  0
LINE
  5
2AB
330
1E
100
AcDbEntity
  8
0
100
AcDbLine
 10
511.671
 20
256.5129999999999
 30
0.0
 11
515.816
 21
259.3159999999999
 31
0.0
  0
LINE
  5
2AC
330
1E
100
AcDbEntity
  8
0
100
AcDbLine
 10
507.329
 20
254.421
 30
0.0
 11
511.671
 21
256.5129999999999
 31
0.0
  0
LINE
  5
2AD
330
1E
100
AcDbEntity
  8
0
100
AcDbLine
 10
502.671
 20
252.842
 30
0.0
 11
507.329
 21
254.421
 31
0.0
  0
LINE
  5
2AE
330
1E
100
AcDbEntity
  8
0
100
AcDbLine
 10
483.3289999999999
 20
252.842
 30
0.0
 11
488.105
 21
251.895
 31
0.0
  0
LINE
  5
2AF
330
1E
100
AcDbEntity
  8
0
100
AcDbLine
 10
488.105
 20
251.895
 30
0.0
 11
493.0
 21
251.5
 31
0.0
  0
LINE
  5
2B0
330
1E
100
AcDbEntity
  8
0
100
AcDbLine
 10
466.513
 20
262.5129999999999
 30
0.0
 11
470.184
 21
259.3159999999999
 31
0.0
  0
LINE
  5
2B1
330
1E
100
AcDbEntity
  8
0
100
AcDbLine
 10
527.579
 20
274.6709999999999
 30
0.0
 11
529.158
 21
279.329
 31
0.0
  0
LINE
  5
2B2
330
1E
100
AcDbEntity
  8
0
100
AcDbLine
 10
529.158
 20
279.329
 30
0.0
 11
530.105
 21
284.105
 31
0.0
  0
LINE
  5
2B3
330
1E
100
AcDbEntity
  8
0
100
AcDbLine
 10
460.513
 20
270.3289999999999
 30
0.0
 11
463.316
 21
266.184
 31
0.0
  0
LINE
  5
2B4
330
1E
100
AcDbEntity
  8
0
100
AcDbLine
 10
458.4209999999999
 20
274.6709999999999
 30
0.0
 11
460.513
 21
270.3289999999999
 31
0.0
  0
LINE
  5
2B5
330
1E
100
AcDbEntity
  8
0
100
AcDbLine
 10
530.105
 20
284.105
 30
0.0
 11
530.4999999999999
 21
289.0
 31
0.0
  0
LINE
  5
2B6
330
1E
100
AcDbEntity
  8
0
100
AcDbLine
 10
456.8419999999999
 20
279.329
 30
0.0
 11
458.4209999999999
 21
274.6709999999999
 31
0.0
  0
LINE
  5
2B7
330
1E
100
AcDbEntity
  8
0
100
AcDbLine
 10
455.895
 20
284.105
 30
0.0
 11
456.8419999999999
 21
279.329
 31
0.0
  0
LINE
  5
2B8
330
1E
100
AcDbEntity
  8
0
100
AcDbLine
 10
529.158
 20
298.671
 30
0.0
 11
530.105
 21
293.8949999999999
 31
0.0
  0
LINE
  5
2B9
330
1E
100
AcDbEntity
  8
0
100
AcDbLine
 10
530.105
 20
293.8949999999999
 30
0.0
 11
530.4999999999999
 21
289.0
 31
0.0
  0
LINE
  5
2BA
330
1E
100
AcDbEntity
  8
0
100
AcDbLine
 10
456.8419999999999
 20
298.671
 30
0.0
 11
458.4209999999999
 21
303.329
 31
0.0
  0
LINE
  5
2BB
330
1E
100
AcDbEntity
  8
0
100
AcDbLine
 10
455.895
 20
293.8949999999999
 30
0.0
 11
456.8419999999999
 21
298.671
 31
0.0
  0
LINE
  5
2BC
330
1E
100
AcDbEntity
  8
0
100
AcDbLine
 10
455.4999999999999
 20
289.0
 30
0.0
 11
455.895
 21
284.105
 31
0.0
  0
LINE
  5
2BD
330
1E
100
AcDbEntity
  8
0
100
AcDbLine
 10
455.4999999999999
 20
289.0
 30
0.0
 11
455.895
 21
293.8949999999999
 31
0.0
  0
LINE
  5
2BE
330
1E
100
AcDbEntity
  8
0
100
AcDbLine
 10
865.2469999999999
 20
184.0029999999999
 30
0.0
 11
866.0
 21
245.047
 31
0.0
  0
LINE
  5
2BF
330
1E
100
AcDbEntity
  8
0
100
AcDbLine
 10
862.0219999999999
 20
123.0439999999999
 30
0.0
 11
865.2469999999999
 21
184.0029999999999
 31
0.0
  0
LINE
  5
2C0
330
1E
100
AcDbEntity
  8
0
100
AcDbLine
 10
856.319
 20
62.26399999999999
 30
0.0
 11
862.0219999999999
 21
123.0439999999999
 31
0.0
  0
LINE
  5
2C1
330
1E
100
AcDbEntity
  8
0
100
AcDbLine
 10
855.151
 20
53.224
 30
0.0
 11
856.319
 21
62.26399999999999
 31
0.0
  0
LINE
  5
2C2
330
1E
100
AcDbEntity
  8
0
100
AcDbLine
 10
193.1899999999999
 20
217.434
 30
0.0
 11
194.731
 21
269.2359999999999
 31
0.0
  0
LINE
  5
2C3
330
1E
100
AcDbEntity
  8
0
100
AcDbLine
 10
463.316
 20
311.8159999999999
 30
0.0
 11
466.513
 21
315.487
 31
0.0
  0
LINE
  5
2C4
330
1E
100
AcDbEntity
  8
0
100
AcDbLine
 10
460.513
 20
307.6709999999999
 30
0.0
 11
463.316
 21
311.8159999999999
 31
0.0
  0
LINE
  5
2C5
330
1E
100
AcDbEntity
  8
0
100
AcDbLine
 10
458.4209999999999
 20
303.329
 30
0.0
 11
460.513
 21
307.6709999999999
 31
0.0
  0
LINE
  5
2C6
330
1E
100
AcDbEntity
  8
0
100
AcDbLine
 10
466.513
 20
315.487
 30
0.0
 11
470.184
 21
318.684
 31
0.0
  0
LINE
  5
2C7
330
1E
100
AcDbEntity
  8
0
100
AcDbLine
 10
470.184
 20
318.684
 30
0.0
 11
474.329
 21
321.487
 31
0.0
  0
LINE
  5
2C8
330
1E
100
AcDbEntity
  8
0
100
AcDbLine
 10
474.329
 20
321.487
 30
0.0
 11
478.671
 21
323.579
 31
0.0
  0
LINE
  5
2C9
330
1E
100
AcDbEntity
  8
0
100
AcDbLine
 10
478.671
 20
323.579
 30
0.0
 11
483.3289999999999
 21
325.158
 31
0.0
  0
LINE
  5
2CA
330
1E
100
AcDbEntity
  8
0
100
AcDbLine
 10
483.3289999999999
 20
325.158
 30
0.0
 11
488.105
 21
326.105
 31
0.0
  0
LINE
  5
2CB
330
1E
100
AcDbEntity
  8
0
100
AcDbLine
 10
515.816
 20
318.684
 30
0.0
 11
519.4869999999999
 21
315.487
 31
0.0
  0
LINE
  5
2CC
330
1E
100
AcDbEntity
  8
0
100
AcDbLine
 10
511.671
 20
321.487
 30
0.0
 11
515.816
 21
318.684
 31
0.0
  0
LINE
  5
2CD
330
1E
100
AcDbEntity
  8
0
100
AcDbLine
 10
507.329
 20
323.579
 30
0.0
 11
511.671
 21
321.487
 31
0.0
  0
LINE
  5
2CE
330
1E
100
AcDbEntity
  8
0
100
AcDbLine
 10
502.671
 20
325.158
 30
0.0
 11
507.329
 21
323.579
 31
0.0
  0
LINE
  5
2CF
330
1E
100
AcDbEntity
  8
0
100
AcDbLine
 10
497.895
 20
326.105
 30
0.0
 11
502.671
 21
325.158
 31
0.0
  0
LINE
  5
2D0
330
1E
100
AcDbEntity
  8
0
100
AcDbLine
 10
493.0
 20
326.5
 30
0.0
 11
497.895
 21
326.105
 31
0.0
  0
LINE
  5
2D1
330
1E
100
AcDbEntity
  8
0
100
AcDbLine
 10
519.4869999999999
 20
315.487
 30
0.0
 11
522.684
 21
311.8159999999999
 31
0.0
  0
LINE
  5
2D2
330
1E
100
AcDbEntity
  8
0
100
AcDbLine
 10
522.684
 20
311.8159999999999
 30
0.0
 11
525.4869999999999
 21
307.6709999999999
 31
0.0
  0
LINE
  5
2D3
330
1E
100
AcDbEntity
  8
0
100
AcDbLine
 10
525.4869999999999
 20
307.6709999999999
 30
0.0
 11
527.579
 21
303.329
 31
0.0
  0
LINE
  5
2D4
330
1E
100
AcDbEntity
  8
0
100
AcDbLine
 10
527.579
 20
303.329
 30
0.0
 11
529.158
 21
298.671
 31
0.0
  0
LINE
  5
2D5
330
1E
100
AcDbEntity
  8
0
100
AcDbLine
 10
488.105
 20
326.105
 30
0.0
 11
493.0
 21
326.5
 31
0.0
  0
LINE
  5
2D6
330
1E
100
AcDbEntity
  8
0
100
AcDbLine
 10
856.076
 20
405.7869999999999
 30
0.0
 11
861.1769999999999
 21
353.985
 31
0.0
  0
LINE
  5
2D7
330
1E
100
AcDbEntity
  8
0
100
AcDbLine
 10
864.2699999999999
 20
306.069
 30
0.0
 11
866.0
 21
245.047
 31
0.0
  0
LINE
  5
2D8
330
1E
100
AcDbEntity
  8
0
100
AcDbLine
 10
861.1769999999999
 20
353.985
 30
0.0
 11
864.2699999999999
 21
306.069
 31
0.0
  0
LINE
  5
2D9
330
1E
100
AcDbEntity
  8
0
100
AcDbLine
 10
194.3459999999999
 20
299.38
 30
0.0
 11
194.731
 21
269.2359999999999
 31
0.0
  0
LINE
  5
2DA
330
1E
100
AcDbEntity
  8
0
100
AcDbLine
 10
193.0189999999999
 20
329.466
 30
0.0
 11
194.3459999999999
 21
299.38
 31
0.0
  0
LINE
  5
2DB
330
1E
100
AcDbEntity
  8
0
100
AcDbLine
 10
182.648
 20
456.3649999999999
 30
0.0
 11
247.527
 21
459.9759999999999
 31
0.0
  0
LINE
  5
2DC
330
1E
100
AcDbEntity
  8
0
100
AcDbLine
 10
247.527
 20
459.9759999999999
 30
0.0
 11
368.733
 21
464.4569999999999
 31
0.0
  0
LINE
  5
2DD
330
1E
100
AcDbEntity
  8
0
100
AcDbLine
 10
171.2849999999999
 20
454.9719999999999
 30
0.0
 11
182.648
 21
456.3649999999999
 31
0.0
  0
LINE
  5
2E2
330
1E
100
AcDbEntity
  8
0
100
AcDbLine
 10
822.4060000000001
 20
452.611
 30
0.0
 11
829.62
 21
449.119
 31
0.0
  0
LINE
  5
2E3
330
1E
100
AcDbEntity
  8
0
100
AcDbLine
 10
814.741
 20
454.971
 30
0.0
 11
822.4060000000001
 21
452.611
 31
0.0
  0
LINE
  5
2E4
330
1E
100
AcDbEntity
  8
0
100
AcDbLine
 10
803.3749999999999
 20
456.367
 30
0.0
 11
814.741
 21
454.971
 31
0.0
  0
LINE
  5
2E5
330
1E
100
AcDbEntity
  8
0
100
AcDbLine
 10
842.082
 20
439.0929999999999
 30
0.0
 11
849.3630000000001
 21
428.9819999999999
 31
0.0
  0
LINE
  5
2E6
330
1E
100
AcDbEntity
  8
0
100
AcDbLine
 10
838.8710000000001
 20
442.3119999999999
 30
0.0
 11
842.082
 21
439.0929999999999
 31
0.0
  0
LINE
  5
2E7
330
1E
100
AcDbEntity
  8
0
100
AcDbLine
 10
829.62
 20
449.119
 30
0.0
 11
838.8710000000001
 21
442.3119999999999
 31
0.0
  0
LINE
  5
2E9
330
1E
100
AcDbEntity
  8
0
100
AcDbLine
 10
738.4999999999999
 20
459.9769999999999
 30
0.0
 11
803.3749999999999
 21
456.367
 31
0.0
  0
LINE
  5
2EA
330
1E
100
AcDbEntity
  8
0
100
AcDbLine
 10
617.2919999999999
 20
464.4559999999999
 30
0.0
 11
738.4999999999999
 21
459.9769999999999
 31
0.0
  0
LINE
  5
2EB
330
1E
100
AcDbEntity
  8
0
100
AcDbLine
 10
496.0109999999999
 20
466.0
 30
0.0
 11
617.2919999999999
 21
464.4559999999999
 31
0.0
  0
LINE
  5
2EE
330
1E
100
AcDbEntity
  8
0
100
AcDbLine
 10
368.733
 20
464.4569999999999
 30
0.0
 11
490.0109999999999
 21
466.0
 31
0.0
  0
LINE
  5
2EF
330
1E
100
AcDbEntity
  8
0
100
AcDbLine
 10
490.0109999999999
 20
466.0
 30
0.0
 11
496.0109999999999
 21
466.0
 31
0.0
  0
LINE
  5
2F0
330
1E
100
AcDbEntity
  8
0
100
AcDbLine
 10
854.0830000000001
 20
417.4559999999999
 30
0.0
 11
856.076
 21
405.7869999999999
 31
0.0
  0
LINE
  5
2F1
330
1E
100
AcDbEntity
  8
0
100
AcDbLine
 10
849.3630000000001
 20
428.9819999999999
 30
0.0
 11
854.0830000000001
 21
417.4559999999999
 31
0.0
  0
LINE
  5
2F5
330
1E
100
AcDbEntity
  8
0
100
AcDbLine
 10
169.972
 20
409.3049999999999
 30
0.0
 11
175.895
 21
405.7909999999999
 31
0.0
  0
LINE
  5
2FA
330
1E
100
AcDbEntity
  8
0
  6
Continuous
100
AcDbLine
 10
128.896
 20
415.024
 30
0.0
 11
147.9717860285895
 21
414.192745979784
 31
0.0
  0
LINE
  5
2FB
330
1E
100
AcDbEntity
  8
0
  6
Continuous
100
AcDbLine
 10
147.9717860285895
 20
414.192745979784
 30
0.0
 11
156.8865194717836
 21
413.1404388697547
 31
0.0
  0
LINE
  5
2FC
330
1E
100
AcDbEntity
  8
0
  6
Continuous
100
AcDbLine
 10
156.8865194717836
 20
413.1404388697547
 30
0.0
 11
163.4146322192427
 21
411.8776703377196
 31
0.0
  0
LINE
  5
2FD
330
1E
100
AcDbEntity
  8
0
  6
Continuous
100
AcDbLine
 10
163.4146322192427
 20
411.8776703377196
 30
0.0
 11
169.972
 21
409.3049999999999
 31
0.0
  0
LINE
  5
2FE
330
1E
100
AcDbEntity
  8
0
  6
Continuous
100
AcDbLine
 10
186.401
 20
391.7749999999999
 30
0.0
 11
190.0131336120366
 21
371.7874522082912
 31
0.0
  0
LINE
  5
2FF
330
1E
100
AcDbEntity
  8
0
  6
Continuous
100
AcDbLine
 10
190.0131336120366
 20
371.7874522082912
 30
0.0
 11
192.2344218436091
 21
351.1415299196295
 31
0.0
  0
LINE
  5
300
330
1E
100
AcDbEntity
  8
0
  6
Continuous
100
AcDbLine
 10
192.2344218436091
 20
351.1415299196295
 30
0.0
 11
193.0189999999999
 21
329.466
 31
0.0
  0
LINE
  5
301
330
1E
100
AcDbEntity
  8
0
  6
Continuous
100
AcDbLine
 10
193.1899999999999
 20
217.434
 30
0.0
 11
191.0982727135742
 21
186.2747794191501
 31
0.0
  0
LINE
  5
302
330
1E
100
AcDbEntity
  8
0
  6
Continuous
100
AcDbLine
 10
191.0982727135742
 20
186.2747794191501
 30
0.0
 11
188.7564791498398
 21
163.99722620626
 31
0.0
  0
LINE
  5
303
330
1E
100
AcDbEntity
  8
0
  6
Continuous
100
AcDbLine
 10
188.7564791498398
 20
163.99722620626
 30
0.0
 11
186.294
 21
152.606
 31
0.0
  0
LINE
  5
304
330
1E
100
AcDbEntity
  8
0
  6
Continuous
100
AcDbLine
 10
167.9409999999999
 20
134.7529999999999
 30
0.0
 11
158.8754100629808
 21
132.5985147082429
 31
0.0
  0
LINE
  5
305
330
1E
100
AcDbEntity
  8
0
  6
Continuous
100
AcDbLine
 10
158.8754100629808
 20
132.5985147082429
 30
0.0
 11
145.5376929176645
 21
131.6377099047171
 31
0.0
  0
LINE
  5
306
330
1E
100
AcDbEntity
  8
0
  6
Continuous
100
AcDbLine
 10
145.5376929176645
 20
131.6377099047171
 30
0.0
 11
120.6729999999999
 21
129.756
 31
0.0
  0
LINE
  5
330
330
1E
100
AcDbEntity
  8
0
100
AcDbLine
 10
182.6479999999999
 20
456.3649999999999
 30
0.0
 11
189.5910000000001
 21
458.3
 31
0.0
  0
LINE
  5
331
330
1E
100
AcDbEntity
  8
0
100
AcDbLine
 10
189.5910000000001
 20
458.3
 30
0.0
 11
194.113
 21
461.1559999999999
 31
0.0
  0
LINE
  5
332
330
1E
100
AcDbEntity
  8
0
100
AcDbLine
 10
194.113
 20
461.1559999999999
 30
0.0
 11
196.9190000000001
 21
463.98
 31
0.0
  0
LINE
  5
333
330
1E
100
AcDbEntity
  8
0
100
AcDbLine
 10
196.9190000000001
 20
463.98
 30
0.0
 11
200.651
 21
470.6159999999999
 31
0.0
  0
LINE
  5
334
330
1E
100
AcDbEntity
  8
0
100
AcDbLine
 10
200.651
 20
470.6159999999999
 30
0.0
 11
202.0
 21
478.4559999999999
 31
0.0
  0
LINE
  5
335
330
1E
100
AcDbEntity
  8
0
100
AcDbLine
 10
208.3270000000002
 20
503.0
 30
0.0
 11
657.382
 21
503.0
 31
0.0
  0
LINE
  5
336
330
1E
100
AcDbEntity
  8
0
100
AcDbLine
 10
202.0
 20
503.0
 30
0.0
 11
202.0
 21
478.4559999999999
 31
0.0
  0
LINE
  5
337
330
1E
100
AcDbEntity
  8
0
100
AcDbLine
 10
202.0
 20
478.4559999999999
 30
0.0
 11
202.0
 21
503.0
 31
0.0
  0
LINE
  5
338
330
1E
100
AcDbEntity
  8
0
100
AcDbLine
 10
204.526
 20
503.0
 30
0.0
 11
205.3290000000001
 21
503.0
 31
0.0
  0
LINE
  5
339
330
1E
100
AcDbEntity
  8
0
100
AcDbLine
 10
202.3310000000001
 20
503.0
 30
0.0
 11
204.526
 21
503.0
 31
0.0
  0
LINE
  5
33A
330
1E
100
AcDbEntity
  8
0
100
AcDbLine
 10
202.0
 20
503.0
 30
0.0
 11
202.3310000000001
 21
503.0
 31
0.0
  0
LINE
  5
33B
330
1E
100
AcDbEntity
  8
0
100
AcDbLine
 10
205.7340000000001
 20
503.0
 30
0.0
 11
206.8320000000001
 21
503.0
 31
0.0
  0
LINE
  5
33C
330
1E
100
AcDbEntity
  8
0
100
AcDbLine
 10
205.3290000000001
 20
503.0
 30
0.0
 11
205.7340000000001
 21
503.0
 31
0.0
  0
LINE
  5
33D
330
1E
100
AcDbEntity
  8
0
100
AcDbLine
 10
206.8320000000001
 20
503.0
 30
0.0
 11
208.3270000000002
 21
503.0
 31
0.0
  0
LINE
  5
33E
330
1E
100
AcDbEntity
  8
0
100
AcDbLine
 10
676.1210000000001
 20
464.3369999999999
 30
0.0
 11
684.4970000000003
 21
461.9725732047389
 31
0.0
  0
LINE
  5
33F
330
1E
100
AcDbEntity
  8
0
100
AcDbLine
 10
671.603
 20
467.189
 30
0.0
 11
676.1210000000001
 21
464.3369999999999
 31
0.0
  0
LINE
  5
340
330
1E
100
AcDbEntity
  8
0
100
AcDbLine
 10
663.7120000000002
 20
484.4999999999999
 30
0.0
 11
663.7120000000002
 21
503.0
 31
0.0
  0
LINE
  5
341
330
1E
100
AcDbEntity
  8
0
100
AcDbLine
 10
663.7120000000002
 20
503.0
 30
0.0
 11
663.7120000000002
 21
484.4999999999999
 31
0.0
  0
LINE
  5
342
330
1E
100
AcDbEntity
  8
0
100
AcDbLine
 10
663.7120000000002
 20
484.4999999999999
 30
0.0
 11
664.5999999999999
 21
478.1019999999999
 31
0.0
  0
LINE
  5
343
330
1E
100
AcDbEntity
  8
0
100
AcDbLine
 10
661.183
 20
503.0
 30
0.0
 11
663.3790000000001
 21
503.0
 31
0.0
  0
LINE
  5
344
330
1E
100
AcDbEntity
  8
0
100
AcDbLine
 10
660.383
 20
503.0
 30
0.0
 11
661.183
 21
503.0
 31
0.0
  0
LINE
  5
345
330
1E
100
AcDbEntity
  8
0
100
AcDbLine
 10
659.978
 20
503.0
 30
0.0
 11
660.383
 21
503.0
 31
0.0
  0
LINE
  5
346
330
1E
100
AcDbEntity
  8
0
100
AcDbLine
 10
657.382
 20
503.0
 30
0.0
 11
658.88
 21
503.0
 31
0.0
  0
LINE
  5
347
330
1E
100
AcDbEntity
  8
0
100
AcDbLine
 10
658.88
 20
503.0
 30
0.0
 11
659.978
 21
503.0
 31
0.0
  0
LINE
  5
348
330
1E
100
AcDbEntity
  8
0
100
AcDbLine
 10
663.3790000000001
 20
503.0
 30
0.0
 11
663.7120000000002
 21
503.0
 31
0.0
  0
LINE
  5
349
330
1E
100
AcDbEntity
  8
0
100
AcDbLine
 10
666.326
 20
473.7549999999999
 30
0.0
 11
671.603
 21
467.189
 31
0.0
  0
LINE
  5
34A
330
1E
100
AcDbEntity
  8
0
100
AcDbLine
 10
664.5999999999999
 20
478.1019999999999
 30
0.0
 11
666.326
 21
473.7549999999999
 31
0.0
  0
ENDSEC
  0
SECTION
  2
OBJECTS
  0
DICTIONARY
  5
C
330
0
100
AcDbDictionary
281
     1
  3
ACAD_GROUP
350
D
  3
ACAD_LAYOUT
350
19
  3
ACAD_MLINESTYLE
350
16
  3
ACAD_PLOTSETTINGS
350
18
  3
ACAD_PLOTSTYLENAME
350
E
  3
AcDbVariableDictionary
350
308
  0
DICTIONARY
  5
D
102
{ACAD_REACTORS
330
C
102
}
330
C
100
AcDbDictionary
281
     1
  0
DICTIONARY
  5
19
102
{ACAD_REACTORS
330
C
102
}
330
C
100
AcDbDictionary
281
     1
  3
Layout1
350
1D
  3
Model
350
21
  0
DICTIONARY
  5
16
102
{ACAD_REACTORS
330
C
102
}
330
C
100
AcDbDictionary
281
     1
  3
Standard
350
17
  0
DICTIONARY
  5
18
102
{ACAD_REACTORS
330
C
102
}
330
C
100
AcDbDictionary
281
     1
  0
ACDBDICTIONARYWDFLT
  5
E
102
{ACAD_REACTORS
330
C
102
}
330
C
100
AcDbDictionary
281
     1
  3
Normal
350
F
100
AcDbDictionaryWithDefault
340
F
  0
DICTIONARY
  5
308
102
{ACAD_REACTORS
330
C
102
}
330
C
100
AcDbDictionary
281
     1
  3
DIMASSOC
350
309
  0
LAYOUT
  5
1D
102
{ACAD_REACTORS
330
19
102
}
330
19
100
AcDbPlotSettings
  1

  2
C:\Programme\AutoCAD LT 2002 Deu\plotters\DWF ePlot (optimized for plotting).pc3
  4

  6

 40
0.0
 41
0.0
 42
0.0
 43
0.0
 44
0.0
 45
0.0
 46
0.0
 47
0.0
 48
0.0
 49
0.0
140
0.0
141
0.0
142
1.0
143
1.0
 70
   688
 72
     0
 73
     0
 74
     5
  7

 75
    16
147
1.0
148
0.0
149
0.0
100
AcDbLayout
  1
Layout1
 70
     1
 71
     1
 10
0.0
 20
0.0
 11
12.0
 21
9.0
 12
0.0
 22
0.0
 32
0.0
 14
1.000000000000000E+20
 24
1.000000000000000E+20
 34
1.000000000000000E+20
 15
-1.000000000000000E+20
 25
-1.000000000000000E+20
 35
-1.000000000000000E+20
146
0.0
 13
0.0
 23
0.0
 33
0.0
 16
1.0
 26
0.0
 36
0.0
 17
0.0
 27
1.0
 37
0.0
 76
     0
330
1A
  0
LAYOUT
  5
21
102
{ACAD_REACTORS
330
19
102
}
330
19
100
AcDbPlotSettings
  1

  2
C:\Programme\AutoCAD LT 2002 Deu\plotters\DWF ePlot (optimized for plotting).pc3
  4

  6

 40
0.0
 41
0.0
 42
0.0
 43
0.0
 44
0.0
 45
0.0
 46
0.0
 47
0.0
 48
0.0
 49
0.0
140
0.0
141
0.0
142
1.0
143
1.0
 70
  1712
 72
     0
 73
     0
 74
     0
  7

 75
     0
147
1.0
148
0.0
149
0.0
100
AcDbLayout
  1
Model
 70
     1
 71
     0
 10
0.0
 20
0.0
 11
12.0
 21
9.0
 12
0.0
 22
0.0
 32
0.0
 14
0.0
 24
0.0
 34
0.0
 15
0.0
 25
0.0
 35
0.0
146
0.0
 13
0.0
 23
0.0
 33
0.0
 16
1.0
 26
0.0
 36
0.0
 17
0.0
 27
1.0
 37
0.0
 76
     0
330
1E
  0
MLINESTYLE
  5
17
102
{ACAD_REACTORS
330
16
102
}
330
16
100
AcDbMlineStyle
  2
STANDARD
 70
     0
  3

 62
   256
 51
90.0
 52
90.0
 71
     2
 49
0.5
 62
   256
  6
BYLAYER
 49
-0.5
 62
   256
  6
BYLAYER
  0
ACDBPLACEHOLDER
  5
F
102
{ACAD_REACTORS
330
E
102
}
330
E
  0
DICTIONARYVAR
  5
309
102
{ACAD_REACTORS
330
308
102
}
330
308
100
DictionaryVariables
280
     0
  1
1
  0
ENDSEC
  0
EOF
