  0
SECTION
  2
HEADER
  9
$ACADVER
  1
AC1015
  9
$ACADMAINTVER
 70
    13
  9
$DWGCODEPAGE
  3
ANSI_1252
  9
$INSBASE
 10
0.0
 20
0.0
 30
0.0
  9
$EXTMIN
 10
0.0000000000000318
 20
-0.0000000000000142
 30
0.0
  9
$EXTMAX
 10
503.0
 20
169.4059999999999
 30
0.0
  9
$LIMMIN
 10
0.0
 20
0.0
  9
$LIMMAX
 10
12.0
 20
9.0
  9
$ORTHOMODE
 70
     0
  9
$REGENMODE
 70
     1
  9
$FILLMODE
 70
     1
  9
$QTEXTMODE
 70
     0
  9
$MIRRTEXT
 70
     1
  9
$LTSCALE
 40
1.0
  9
$ATTMODE
 70
     1
  9
$TEXTSIZE
 40
0.2
  9
$TRACEWID
 40
0.05
  9
$TEXTSTYLE
  7
Standard
  9
$CLAYER
  8
0
  9
$CELTYPE
  6
Continuous
  9
$CECOLOR
 62
   256
  9
$CELTSCALE
 40
1.0
  9
$DISPSILH
 70
     0
  9
$DIMSCALE
 40
1.0
  9
$DIMASZ
 40
0.18
  9
$DIMEXO
 40
0.0625
  9
$DIMDLI
 40
0.38
  9
$DIMRND
 40
0.0
  9
$DIMDLE
 40
0.0
  9
$DIMEXE
 40
0.18
  9
$DIMTP
 40
0.0
  9
$DIMTM
 40
0.0
  9
$DIMTXT
 40
0.18
  9
$DIMCEN
 40
0.09
  9
$DIMTSZ
 40
0.0
  9
$DIMTOL
 70
     0
  9
$DIMLIM
 70
     0
  9
$DIMTIH
 70
     1
  9
$DIMTOH
 70
     1
  9
$DIMSE1
 70
     0
  9
$DIMSE2
 70
     0
  9
$DIMTAD
 70
     0
  9
$DIMZIN
 70
     0
  9
$DIMBLK
  1

  9
$DIMASO
 70
     1
  9
$DIMSHO
 70
     1
  9
$DIMPOST
  1

  9
$DIMAPOST
  1

  9
$DIMALT
 70
     0
  9
$DIMALTD
 70
     2
  9
$DIMALTF
 40
25.4
  9
$DIMLFAC
 40
1.0
  9
$DIMTOFL
 70
     0
  9
$DIMTVP
 40
0.0
  9
$DIMTIX
 70
     0
  9
$DIMSOXD
 70
     0
  9
$DIMSAH
 70
     0
  9
$DIMBLK1
  1

  9
$DIMBLK2
  1

  9
$DIMSTYLE
  2
Standard
  9
$DIMCLRD
 70
     0
  9
$DIMCLRE
 70
     0
  9
$DIMCLRT
 70
     0
  9
$DIMTFAC
 40
1.0
  9
$DIMGAP
 40
0.09
  9
$DIMJUST
 70
     0
  9
$DIMSD1
 70
     0
  9
$DIMSD2
 70
     0
  9
$DIMTOLJ
 70
     1
  9
$DIMTZIN
 70
     0
  9
$DIMALTZ
 70
     0
  9
$DIMALTTZ
 70
     0
  9
$DIMUPT
 70
     0
  9
$DIMDEC
 70
     4
  9
$DIMTDEC
 70
     4
  9
$DIMALTU
 70
     2
  9
$DIMALTTD
 70
     2
  9
$DIMTXSTY
  7
Standard
  9
$DIMAUNIT
 70
     0
  9
$DIMADEC
 70
     0
  9
$DIMALTRND
 40
0.0
  9
$DIMAZIN
 70
     0
  9
$DIMDSEP
 70
    46
  9
$DIMATFIT
 70
     3
  9
$DIMFRAC
 70
     0
  9
$DIMLDRBLK
  1

  9
$DIMLUNIT
 70
     2
  9
$DIMLWD
 70
    -2
  9
$DIMLWE
 70
    -2
  9
$DIMTMOVE
 70
     0
  9
$LUNITS
 70
     2
  9
$LUPREC
 70
     4
  9
$SKETCHINC
 40
0.1
  9
$FILLETRAD
 40
0.0
  9
$AUNITS
 70
     0
  9
$AUPREC
 70
     0
  9
$MENU
  1
.
  9
$ELEVATION
 40
0.0
  9
$PELEVATION
 40
0.0
  9
$THICKNESS
 40
0.0
  9
$LIMCHECK
 70
     0
  9
$CHAMFERA
 40
0.0
  9
$CHAMFERB
 40
0.0
  9
$CHAMFERC
 40
0.0
  9
$CHAMFERD
 40
0.0
  9
$SKPOLY
 70
     0
  9
$TDCREATE
 40
2455508.871414745
  9
$TDUCREATE
 40
2455508.829748078
  9
$TDUPDATE
 40
2455508.873610567
  9
$TDUUPDATE
 40
2455508.831943900
  9
$TDINDWG
 40
0.0021959954
  9
$TDUSRTIMER
 40
0.0021959954
  9
$USRTIMER
 70
     1
  9
$ANGBASE
 50
0.0
  9
$ANGDIR
 70
     0
  9
$PDMODE
 70
     0
  9
$PDSIZE
 40
0.0
  9
$PLINEWID
 40
0.0
  9
$SPLFRAME
 70
     0
  9
$SPLINETYPE
 70
     6
  9
$SPLINESEGS
 70
     8
  9
$HANDSEED
  5
187
  9
$SURFTAB1
 70
     6
  9
$SURFTAB2
 70
     6
  9
$SURFTYPE
 70
     6
  9
$SURFU
 70
     6
  9
$SURFV
 70
     6
  9
$UCSBASE
  2

  9
$UCSNAME
  2

  9
$UCSORG
 10
0.0
 20
0.0
 30
0.0
  9
$UCSXDIR
 10
1.0
 20
0.0
 30
0.0
  9
$UCSYDIR
 10
0.0
 20
1.0
 30
0.0
  9
$UCSORTHOREF
  2

  9
$UCSORTHOVIEW
 70
     1
  9
$UCSORGTOP
 10
0.0
 20
0.0
 30
0.0
  9
$UCSORGBOTTOM
 10
0.0
 20
0.0
 30
0.0
  9
$UCSORGLEFT
 10
0.0
 20
0.0
 30
0.0
  9
$UCSORGRIGHT
 10
0.0
 20
0.0
 30
0.0
  9
$UCSORGFRONT
 10
0.0
 20
0.0
 30
0.0
  9
$UCSORGBACK
 10
0.0
 20
0.0
 30
0.0
  9
$PUCSBASE
  2

  9
$PUCSNAME
  2

  9
$PUCSORG
 10
0.0
 20
0.0
 30
0.0
  9
$PUCSXDIR
 10
1.0
 20
0.0
 30
0.0
  9
$PUCSYDIR
 10
0.0
 20
1.0
 30
0.0
  9
$PUCSORTHOREF
  2

  9
$PUCSORTHOVIEW
 70
     0
  9
$PUCSORGTOP
 10
0.0
 20
0.0
 30
0.0
  9
$PUCSORGBOTTOM
 10
0.0
 20
0.0
 30
0.0
  9
$PUCSORGLEFT
 10
0.0
 20
0.0
 30
0.0
  9
$PUCSORGRIGHT
 10
0.0
 20
0.0
 30
0.0
  9
$PUCSORGFRONT
 10
0.0
 20
0.0
 30
0.0
  9
$PUCSORGBACK
 10
0.0
 20
0.0
 30
0.0
  9
$USERI1
 70
     0
  9
$USERI2
 70
     0
  9
$USERI3
 70
     0
  9
$USERI4
 70
     0
  9
$USERI5
 70
     0
  9
$USERR1
 40
0.0
  9
$USERR2
 40
0.0
  9
$USERR3
 40
0.0
  9
$USERR4
 40
0.0
  9
$USERR5
 40
0.0
  9
$WORLDVIEW
 70
     1
  9
$SHADEDGE
 70
     3
  9
$SHADEDIF
 70
    70
  9
$TILEMODE
 70
     1
  9
$MAXACTVP
 70
    64
  9
$PINSBASE
 10
0.0
 20
0.0
 30
0.0
  9
$PLIMCHECK
 70
     0
  9
$PEXTMIN
 10
1.000000000000000E+20
 20
1.000000000000000E+20
 30
1.000000000000000E+20
  9
$PEXTMAX
 10
-1.000000000000000E+20
 20
-1.000000000000000E+20
 30
-1.000000000000000E+20
  9
$PLIMMIN
 10
0.0
 20
0.0
  9
$PLIMMAX
 10
12.0
 20
9.0
  9
$UNITMODE
 70
     0
  9
$VISRETAIN
 70
     1
  9
$PLINEGEN
 70
     0
  9
$PSLTSCALE
 70
     1
  9
$TREEDEPTH
 70
  3020
  9
$CMLSTYLE
  2
Standard
  9
$CMLJUST
 70
     0
  9
$CMLSCALE
 40
1.0
  9
$PROXYGRAPHICS
 70
     1
  9
$MEASUREMENT
 70
     0
  9
$CELWEIGHT
370
    -1
  9
$ENDCAPS
280
     0
  9
$JOINSTYLE
280
     0
  9
$LWDISPLAY
290
     0
  9
$INSUNITS
 70
     0
  9
$HYPERLINKBASE
  1

  9
$STYLESHEET
  1

  9
$XEDIT
290
     1
  9
$CEPSNTYPE
380
     0
  9
$PSTYLEMODE
290
     1
  9
$FINGERPRINTGUID
  2
{3E70D2A4-48C9-454D-B46E-52D04D8F9013}
  9
$VERSIONGUID
  2
{3C20C1AE-3B41-47F1-8DE2-F5DFF528919A}
  9
$EXTNAMES
290
     1
  9
$PSVPSCALE
 40
0.0
  9
$OLESTARTUP
290
     0
  0
ENDSEC
  0
SECTION
  2
CLASSES
  0
CLASS
  1
ACDBDICTIONARYWDFLT
  2
AcDbDictionaryWithDefault
  3
AutoCAD 2000
 90
        0
280
     0
281
     0
  0
CLASS
  1
ACDBPLACEHOLDER
  2
AcDbPlaceHolder
  3
AutoCAD 2000
 90
        0
280
     0
281
     0
  0
CLASS
  1
LAYOUT
  2
AcDbLayout
  3
AutoCAD 2000
 90
        0
280
     0
281
     0
  0
CLASS
  1
DICTIONARYVAR
  2
AcDbDictionaryVar
  3
AutoCAD 2000
 90
        0
280
     0
281
     0
  0
ENDSEC
  0
SECTION
  2
TABLES
  0
TABLE
  2
VPORT
  5
8
330
0
100
AcDbSymbolTable
 70
     4
  0
VPORT
  5
186
330
8
100
AcDbSymbolTableRecord
100
AcDbViewportTableRecord
  2
*Active
 70
     0
 10
0.0
 20
0.0
 11
1.0
 21
1.0
 12
251.5
 22
84.70299999999998
 13
0.0
 23
0.0
 14
1.0
 24
1.0
 15
0.0
 25
0.0
 16
0.0
 26
0.0
 36
1.0
 17
0.0
 27
0.0
 37
0.0
 40
243.3929308264467
 41
2.073363431151241
 42
50.0
 43
0.0
 44
0.0
 50
0.0
 51
0.0
 71
     0
 72
   100
 73
     1
 74
     3
 75
     0
 76
     0
 77
     0
 78
     0
281
     0
 65
     1
110
0.0
120
0.0
130
0.0
111
1.0
121
0.0
131
0.0
112
0.0
122
1.0
132
0.0
 79
     1
146
0.0
  0
ENDTAB
  0
TABLE
  2
LTYPE
  5
5
330
0
100
AcDbSymbolTable
 70
     1
  0
LTYPE
  5
13
330
5
100
AcDbSymbolTableRecord
100
AcDbLinetypeTableRecord
  2
ByBlock
 70
     0
  3

 72
    65
 73
     0
 40
0.0
  0
LTYPE
  5
14
330
5
100
AcDbSymbolTableRecord
100
AcDbLinetypeTableRecord
  2
ByLayer
 70
     0
  3

 72
    65
 73
     0
 40
0.0
  0
LTYPE
  5
15
330
5
100
AcDbSymbolTableRecord
100
AcDbLinetypeTableRecord
  2
Continuous
 70
     0
  3
Solid line
 72
    65
 73
     0
 40
0.0
  0
ENDTAB
  0
TABLE
  2
LAYER
  5
2
330
0
100
AcDbSymbolTable
 70
     1
  0
LAYER
  5
10
330
2
100
AcDbSymbolTableRecord
100
AcDbLayerTableRecord
  2
0
 70
     0
 62
     7
  6
Continuous
370
    -3
390
F
  0
ENDTAB
  0
TABLE
  2
STYLE
  5
3
330
0
100
AcDbSymbolTable
 70
     1
  0
STYLE
  5
11
330
3
100
AcDbSymbolTableRecord
100
AcDbTextStyleTableRecord
  2
Standard
 70
     0
 40
0.0
 41
1.0
 50
0.0
 71
     0
 42
0.2
  3
txt
  4

  0
ENDTAB
  0
TABLE
  2
VIEW
  5
6
330
0
100
AcDbSymbolTable
 70
     0
  0
ENDTAB
  0
TABLE
  2
UCS
  5
7
330
0
100
AcDbSymbolTable
 70
     0
  0
ENDTAB
  0
TABLE
  2
APPID
  5
9
330
0
100
AcDbSymbolTable
 70
     1
  0
APPID
  5
12
330
9
100
AcDbSymbolTableRecord
100
AcDbRegAppTableRecord
  2
ACAD
 70
     0
  0
ENDTAB
  0
TABLE
  2
DIMSTYLE
  5
A
330
0
100
AcDbSymbolTable
 70
     1
100
AcDbDimStyleTable
 71
     0
  0
DIMSTYLE
105
178
330
A
100
AcDbSymbolTableRecord
100
AcDbDimStyleTableRecord
  2
Standard
 70
     0
340
11
  0
ENDTAB
  0
TABLE
  2
BLOCK_RECORD
  5
1
330
0
100
AcDbSymbolTable
 70
     0
  0
BLOCK_RECORD
  5
1E
330
1
100
AcDbSymbolTableRecord
100
AcDbBlockTableRecord
  2
*Model_Space
340
21
  0
BLOCK_RECORD
  5
1A
330
1
100
AcDbSymbolTableRecord
100
AcDbBlockTableRecord
  2
*Paper_Space
340
1D
  0
ENDTAB
  0
ENDSEC
  0
SECTION
  2
BLOCKS
  0
BLOCK
  5
1F
330
1E
100
AcDbEntity
  8
0
100
AcDbBlockBegin
  2
*Model_Space
 70
     0
 10
0.0
 20
0.0
 30
0.0
  3
*Model_Space
  1

  0
ENDBLK
  5
20
330
1E
100
AcDbEntity
  8
0
100
AcDbBlockEnd
  0
BLOCK
  5
1B
330
1A
100
AcDbEntity
 67
     1
  8
0
100
AcDbBlockBegin
  2
*Paper_Space
 70
     0
 10
0.0
 20
0.0
 30
0.0
  3
*Paper_Space
  1

  0
ENDBLK
  5
1C
330
1A
100
AcDbEntity
 67
     1
  8
0
100
AcDbBlockEnd
  0
ENDSEC
  0
SECTION
  2
ENTITIES
  0
LINE
  5
22
330
1E
100
AcDbEntity
  8
0
100
AcDbLine
 10
0.0000000000000318
 20
50.02439999999999
 30
0.0
 11
0.4960000000000321
 21
50.02439999999999
 31
0.0
  0
LINE
  5
23
330
1E
100
AcDbEntity
  8
0
100
AcDbLine
 10
0.0000000000000318
 20
50.02439999999999
 30
0.0
 11
2.19900000000003
 21
98.32
 31
0.0
  0
LINE
  5
24
330
1E
100
AcDbEntity
  8
0
100
AcDbLine
 10
0.0000000000000318
 20
50.02439999999999
 30
0.0
 11
1.27100000000003
 21
50.02439999999999
 31
0.0
  0
LINE
  5
25
330
1E
100
AcDbEntity
  8
0
100
AcDbLine
 10
0.4960000000000321
 20
50.02439999999999
 30
0.0
 11
3.330000000000029
 21
50.02439999999999
 31
0.0
  0
LINE
  5
26
330
1E
100
AcDbEntity
  8
0
100
AcDbLine
 10
1.27100000000003
 20
50.02439999999999
 30
0.0
 11
4.30000000000003
 21
50.02439999999999
 31
0.0
  0
LINE
  5
27
330
1E
100
AcDbEntity
  8
0
100
AcDbLine
 10
0.0000000000000319
 20
50.02439999999999
 30
0.0
 11
1.27100000000003
 21
50.02439999999999
 31
0.0
  0
LINE
  5
28
330
1E
100
AcDbEntity
  8
0
100
AcDbLine
 10
0.0000000000000319
 20
50.02439999999999
 30
0.0
 11
0.4960000000000321
 21
50.02439999999999
 31
0.0
  0
LINE
  5
29
330
1E
100
AcDbEntity
  8
0
100
AcDbLine
 10
0.0000000000000319
 20
50.02439999999999
 30
0.0
 11
2.19900000000003
 21
98.32
 31
0.0
  0
LINE
  5
2A
330
1E
100
AcDbEntity
  8
0
100
AcDbLine
 10
0.4960000000000321
 20
50.02439999999999
 30
0.0
 11
3.330000000000029
 21
50.02439999999999
 31
0.0
  0
LINE
  5
2B
330
1E
100
AcDbEntity
  8
0
100
AcDbLine
 10
4.30000000000003
 20
50.02439999999999
 30
0.0
 11
9.119000000000029
 21
50.02439999999999
 31
0.0
  0
LINE
  5
2C
330
1E
100
AcDbEntity
  8
0
100
AcDbLine
 10
3.330000000000029
 20
50.02439999999999
 30
0.0
 11
9.116000000000029
 21
50.02439999999999
 31
0.0
  0
LINE
  5
2D
330
1E
100
AcDbEntity
  8
0
100
AcDbLine
 10
9.119000000000029
 20
50.02439999999999
 30
0.0
 11
9.744000000000029
 21
50.02439999999999
 31
0.0
  0
LINE
  5
2E
330
1E
100
AcDbEntity
  8
0
100
AcDbLine
 10
9.116000000000029
 20
50.02439999999999
 30
0.0
 11
9.742000000000029
 21
50.02439999999999
 31
0.0
  0
LINE
  5
2F
330
1E
100
AcDbEntity
  8
0
100
AcDbLine
 10
12.67599999999999
 20
50.02439999999999
 30
0.0
 11
17.579
 21
50.02439999999999
 31
0.0
  0
LINE
  5
30
330
1E
100
AcDbEntity
  8
0
100
AcDbLine
 10
12.67599999999999
 20
50.02439999999999
 30
0.0
 11
17.582
 21
50.02439999999999
 31
0.0
  0
LINE
  5
31
330
1E
100
AcDbEntity
  8
0
100
AcDbLine
 10
14.265
 20
50.02439999999999
 30
0.0
 11
20.32099999999999
 21
50.02439999999999
 31
0.0
  0
LINE
  5
32
330
1E
100
AcDbEntity
  8
0
100
AcDbLine
 10
11.645
 20
50.02439999999999
 30
0.0
 11
14.265
 21
50.02439999999999
 31
0.0
  0
LINE
  5
33
330
1E
100
AcDbEntity
  8
0
100
AcDbLine
 10
11.52799999999999
 20
50.02439999999999
 30
0.0
 11
11.645
 21
50.02439999999999
 31
0.0
  0
LINE
  5
34
330
1E
100
AcDbEntity
  8
0
100
AcDbLine
 10
22.21999999999999
 20
50.02439999999999
 30
0.0
 11
24.46699999999999
 21
50.02439999999999
 31
0.0
  0
LINE
  5
35
330
1E
100
AcDbEntity
  8
0
100
AcDbLine
 10
22.218
 20
50.02439999999999
 30
0.0
 11
24.46699999999999
 21
50.02439999999999
 31
0.0
  0
LINE
  5
36
330
1E
100
AcDbEntity
  8
0
100
AcDbLine
 10
32.989
 20
50.02439999999999
 30
0.0
 11
42.675
 21
50.02439999999999
 31
0.0
  0
LINE
  5
37
330
1E
100
AcDbEntity
  8
0
100
AcDbLine
 10
32.991
 20
50.02439999999999
 30
0.0
 11
42.675
 21
50.02439999999999
 31
0.0
  0
LINE
  5
38
330
1E
100
AcDbEntity
  8
0
100
AcDbLine
 10
24.46699999999999
 20
50.02439999999999
 30
0.0
 11
27.944
 21
50.02439999999999
 31
0.0
  0
LINE
  5
39
330
1E
100
AcDbEntity
  8
0
100
AcDbLine
 10
27.944
 20
50.02439999999999
 30
0.0
 11
33.579
 21
50.02439999999999
 31
0.0
  0
LINE
  5
3A
330
1E
100
AcDbEntity
  8
0
100
AcDbLine
 10
33.579
 20
50.02439999999999
 30
0.0
 11
40.556
 21
50.02439999999999
 31
0.0
  0
LINE
  5
3B
330
1E
100
AcDbEntity
  8
0
100
AcDbLine
 10
40.556
 20
50.02439999999999
 30
0.0
 11
48.562
 21
50.02439999999999
 31
0.0
  0
LINE
  5
3C
330
1E
100
AcDbEntity
  8
0
100
AcDbLine
 10
48.562
 20
50.02439999999999
 30
0.0
 11
60.99
 21
50.02439999999999
 31
0.0
  0
LINE
  5
3D
330
1E
100
AcDbEntity
  8
0
100
AcDbLine
 10
20.32099999999999
 20
50.02439999999999
 30
0.0
 11
20.86699999999999
 21
50.02439999999999
 31
0.0
  0
LINE
  5
3E
330
1E
100
AcDbEntity
  8
0
100
AcDbLine
 10
60.99
 20
50.02439999999999
 30
0.0
 11
62.26600000000001
 21
50.02439999999999
 31
0.0
  0
LINE
  5
3F
330
1E
100
AcDbEntity
  8
0
100
AcDbLine
 10
17.582
 20
50.02439999999999
 30
0.0
 11
24.579
 21
50.02439999999999
 31
0.0
  0
LINE
  5
40
330
1E
100
AcDbEntity
  8
0
100
AcDbLine
 10
17.579
 20
50.02439999999999
 30
0.0
 11
24.579
 21
50.02439999999999
 31
0.0
  0
LINE
  5
41
330
1E
100
AcDbEntity
  8
0
100
AcDbLine
 10
24.579
 20
50.02439999999999
 30
0.0
 11
32.991
 21
50.02439999999999
 31
0.0
  0
LINE
  5
42
330
1E
100
AcDbEntity
  8
0
100
AcDbLine
 10
24.579
 20
50.02439999999999
 30
0.0
 11
32.989
 21
50.02439999999999
 31
0.0
  0
LINE
  5
43
330
1E
100
AcDbEntity
  8
0
100
AcDbLine
 10
10.097
 20
50.02439999999999
 30
0.0
 11
12.67599999999999
 21
50.02439999999999
 31
0.0
  0
LINE
  5
44
330
1E
100
AcDbEntity
  8
0
100
AcDbLine
 10
42.675
 20
50.02439999999999
 30
0.0
 11
53.225
 21
50.02439999999999
 31
0.0
  0
LINE
  5
45
330
1E
100
AcDbEntity
  8
0
100
AcDbLine
 10
62.26600000000001
 20
50.02439999999999
 30
0.0
 11
123.0439999999999
 21
50.02439999999999
 31
0.0
  0
LINE
  5
46
330
1E
100
AcDbEntity
  8
0
100
AcDbLine
 10
60.99
 20
50.02439999999999
 30
0.0
 11
62.26600000000001
 21
50.02439999999999
 31
0.0
  0
LINE
  5
47
330
1E
100
AcDbEntity
  8
0
100
AcDbLine
 10
9.744000000000029
 20
50.02439999999999
 30
0.0
 11
10.097
 21
50.02439999999999
 31
0.0
  0
LINE
  5
48
330
1E
100
AcDbEntity
  8
0
100
AcDbLine
 10
9.742000000000029
 20
50.02439999999999
 30
0.0
 11
10.097
 21
50.02439999999999
 31
0.0
  0
LINE
  5
49
330
1E
100
AcDbEntity
  8
0
100
AcDbLine
 10
53.225
 20
50.02439999999999
 30
0.0
 11
62.26600000000001
 21
50.02439999999999
 31
0.0
  0
LINE
  5
4A
330
1E
100
AcDbEntity
  8
0
100
AcDbLine
 10
53.225
 20
50.02439999999999
 30
0.0
 11
60.99
 21
50.02439999999999
 31
0.0
  0
LINE
  5
4B
330
1E
100
AcDbEntity
  8
0
100
AcDbLine
 10
132.935
 20
50.02439999999999
 30
0.0
 11
136.5709999999999
 21
50.02439999999999
 31
0.0
  0
LINE
  5
4C
330
1E
100
AcDbEntity
  8
0
100
AcDbLine
 10
131.3539999999999
 20
50.02439999999999
 30
0.0
 11
132.935
 21
50.02439999999999
 31
0.0
  0
LINE
  5
4D
330
1E
100
AcDbEntity
  8
0
100
AcDbLine
 10
129.2649999999999
 20
50.02439999999999
 30
0.0
 11
129.757
 21
50.02439999999999
 31
0.0
  0
LINE
  5
4E
330
1E
100
AcDbEntity
  8
0
100
AcDbLine
 10
128.278
 20
50.02439999999999
 30
0.0
 11
129.2649999999999
 21
50.02439999999999
 31
0.0
  0
LINE
  5
4F
330
1E
100
AcDbEntity
  8
0
100
AcDbLine
 10
126.9759999999999
 20
50.02439999999999
 30
0.0
 11
128.278
 21
50.02439999999999
 31
0.0
  0
LINE
  5
50
330
1E
100
AcDbEntity
  8
0
100
AcDbLine
 10
138.9689999999999
 20
50.02439999999999
 30
0.0
 11
140.4519999999999
 21
50.02439999999999
 31
0.0
  0
LINE
  5
51
330
1E
100
AcDbEntity
  8
0
100
AcDbLine
 10
136.5709999999999
 20
50.02439999999999
 30
0.0
 11
142.0159999999999
 21
50.02439999999999
 31
0.0
  0
LINE
  5
52
330
1E
100
AcDbEntity
  8
0
100
AcDbLine
 10
136.141
 20
50.02439999999999
 30
0.0
 11
138.9689999999999
 21
50.02439999999999
 31
0.0
  0
LINE
  5
53
330
1E
100
AcDbEntity
  8
0
100
AcDbLine
 10
131.5039999999999
 20
50.02439999999999
 30
0.0
 11
136.141
 21
50.02439999999999
 31
0.0
  0
LINE
  5
54
330
1E
100
AcDbEntity
  8
0
100
AcDbLine
 10
142.0159999999999
 20
50.02439999999999
 30
0.0
 11
148.917
 21
50.02439999999999
 31
0.0
  0
LINE
  5
55
330
1E
100
AcDbEntity
  8
0
100
AcDbLine
 10
141.9289999999999
 20
50.02439999999999
 30
0.0
 11
142.521
 21
50.02439999999999
 31
0.0
  0
LINE
  5
56
330
1E
100
AcDbEntity
  8
0
100
AcDbLine
 10
141.9289999999999
 20
50.02439999999999
 30
0.0
 11
142.524
 21
50.02439999999999
 31
0.0
  0
LINE
  5
57
330
1E
100
AcDbEntity
  8
0
100
AcDbLine
 10
142.521
 20
50.02439999999999
 30
0.0
 11
146.5099999999999
 21
50.02439999999999
 31
0.0
  0
LINE
  5
58
330
1E
100
AcDbEntity
  8
0
100
AcDbLine
 10
141.232
 20
50.02439999999999
 30
0.0
 11
184.0049999999999
 21
50.02439999999999
 31
0.0
  0
LINE
  5
59
330
1E
100
AcDbEntity
  8
0
100
AcDbLine
 10
141.2309999999999
 20
50.02439999999999
 30
0.0
 11
184.0049999999999
 21
50.02439999999999
 31
0.0
  0
LINE
  5
5A
330
1E
100
AcDbEntity
  8
0
100
AcDbLine
 10
140.0979999999999
 20
50.02439999999999
 30
0.0
 11
141.9289999999999
 21
50.02439999999999
 31
0.0
  0
LINE
  5
5B
330
1E
100
AcDbEntity
  8
0
100
AcDbLine
 10
129.4999999999999
 20
50.02439999999999
 30
0.0
 11
131.3539999999999
 21
50.02439999999999
 31
0.0
  0
LINE
  5
5C
330
1E
100
AcDbEntity
  8
0
100
AcDbLine
 10
129.4999999999999
 20
50.02439999999999
 30
0.0
 11
129.757
 21
50.02439999999999
 31
0.0
  0
LINE
  5
5D
330
1E
100
AcDbEntity
  8
0
100
AcDbLine
 10
123.0439999999999
 20
50.02439999999999
 30
0.0
 11
141.2309999999999
 21
50.02439999999999
 31
0.0
  0
LINE
  5
5E
330
1E
100
AcDbEntity
  8
0
100
AcDbLine
 10
123.0439999999999
 20
50.02439999999999
 30
0.0
 11
131.5039999999999
 21
50.02439999999999
 31
0.0
  0
LINE
  5
5F
330
1E
100
AcDbEntity
  8
0
100
AcDbLine
 10
123.0439999999999
 20
50.02439999999999
 30
0.0
 11
126.9759999999999
 21
50.02439999999999
 31
0.0
  0
LINE
  5
60
330
1E
100
AcDbEntity
  8
0
100
AcDbLine
 10
123.0439999999999
 20
50.02439999999999
 30
0.0
 11
184.0049999999999
 21
50.02439999999999
 31
0.0
  0
LINE
  5
61
330
1E
100
AcDbEntity
  8
0
100
AcDbLine
 10
123.0439999999999
 20
50.02439999999999
 30
0.0
 11
141.232
 21
50.02439999999999
 31
0.0
  0
LINE
  5
62
330
1E
100
AcDbEntity
  8
0
100
AcDbLine
 10
2.769000000000029
 20
98.36200000000001
 30
0.0
 11
2.997000000000039
 21
146.6629999999999
 31
0.0
  0
LINE
  5
65
330
1E
100
AcDbEntity
  8
0
100
AcDbLine
 10
6.40600000000004
 20
149.6289999999999
 30
0.0
 11
6.52400000000004
 21
149.6299999999999
 31
0.0
  0
LINE
  5
66
330
1E
100
AcDbEntity
  8
0
100
AcDbLine
 10
6.40600000000004
 20
149.6289999999999
 30
0.0
 11
6.52348482605483
 21
149.629962990377
 31
0.0
  0
LINE
  5
67
330
1E
100
AcDbEntity
  8
0
100
AcDbLine
 10
2.19900000000003
 20
98.32
 30
0.0
 11
2.769000000000029
 21
98.36200000000001
 31
0.0
  0
LINE
  5
68
330
1E
100
AcDbEntity
  8
0
100
AcDbLine
 10
6.91100000000004
 20
149.641
 30
0.0
 11
7.56800000000004
 21
149.655
 31
0.0
  0
LINE
  5
69
330
1E
100
AcDbEntity
  8
0
100
AcDbLine
 10
6.56387822014055
 20
149.631030444965
 30
0.0
 11
6.91100000000004
 21
149.641
 31
0.0
  0
LINE
  5
6A
330
1E
100
AcDbEntity
  8
0
100
AcDbLine
 10
7.56800000000004
 20
149.655
 30
0.0
 11
8.48700000000004
 21
149.675
 31
0.0
  0
LINE
  5
6B
330
1E
100
AcDbEntity
  8
0
100
AcDbLine
 10
6.91200000000004
 20
149.6399999999999
 30
0.0
 11
7.56800000000004
 21
149.655
 31
0.0
  0
LINE
  5
6C
330
1E
100
AcDbEntity
  8
0
100
AcDbLine
 10
6.91100000000004
 20
149.6399999999999
 30
0.0
 11
7.56800000000004
 21
149.655
 31
0.0
  0
LINE
  5
6D
330
1E
100
AcDbEntity
  8
0
100
AcDbLine
 10
6.52400000000004
 20
149.6299999999999
 30
0.0
 11
6.91100000000004
 21
149.6399999999999
 31
0.0
  0
LINE
  5
6E
330
1E
100
AcDbEntity
  8
0
100
AcDbLine
 10
6.52400000000004
 20
149.6299999999999
 30
0.0
 11
6.91200000000004
 21
149.6399999999999
 31
0.0
  0
LINE
  5
6F
330
1E
100
AcDbEntity
  8
0
100
AcDbLine
 10
61.293
 20
149.6979999999999
 30
0.0
 11
119.9689999999999
 21
149.7079999999999
 31
0.0
  0
LINE
  5
70
330
1E
100
AcDbEntity
  8
0
100
AcDbLine
 10
61.293
 20
149.697
 30
0.0
 11
119.967
 21
149.7069999999999
 31
0.0
  0
LINE
  5
71
330
1E
100
AcDbEntity
  8
0
100
AcDbLine
 10
10.118
 20
149.6989999999999
 30
0.0
 11
12.995
 21
149.713
 31
0.0
  0
LINE
  5
73
330
1E
100
AcDbEntity
  8
0
100
AcDbLine
 10
119.967
 20
149.7069999999999
 30
0.0
 11
196.202
 21
149.7139999999999
 31
0.0
  0
LINE
  5
74
330
1E
100
AcDbEntity
  8
0
100
AcDbLine
 10
47.67199999999999
 20
149.704
 30
0.0
 11
61.293
 21
149.697
 31
0.0
  0
LINE
  5
75
330
1E
100
AcDbEntity
  8
0
100
AcDbLine
 10
36.17199999999999
 20
149.706
 30
0.0
 11
47.67199999999999
 21
149.704
 31
0.0
  0
LINE
  5
76
330
1E
100
AcDbEntity
  8
0
100
AcDbLine
 10
47.6779969181098
 20
149.70399691811
 30
0.0
 11
61.293
 21
149.6979999999999
 31
0.0
  0
LINE
  5
78
330
1E
100
AcDbEntity
  8
0
100
AcDbLine
 10
12.9969993493819
 20
149.713000650618
 30
0.0
 11
16.06799999999999
 21
149.7149999999999
 31
0.0
  0
LINE
  5
79
330
1E
100
AcDbEntity
  8
0
100
AcDbLine
 10
16.06799999999999
 20
149.7149999999999
 30
0.0
 11
17.112
 21
149.7179999999999
 31
0.0
  0
LINE
  5
7A
330
1E
100
AcDbEntity
  8
0
100
AcDbLine
 10
21.458
 20
149.7139999999999
 30
0.0
 11
36.17199999999999
 21
149.706
 31
0.0
  0
LINE
  5
7B
330
1E
100
AcDbEntity
  8
0
100
AcDbLine
 10
132.285943609891
 20
149.708131141933
 30
0.0
 11
132.497
 21
166.4129999999999
 31
0.0
  0
LINE
  5
81
330
1E
100
AcDbEntity
  8
0
100
AcDbLine
 10
134.097
 20
169.064
 30
0.0
 11
135.668
 21
169.4059999999999
 31
0.0
  0
LINE
  5
84
330
1E
100
AcDbEntity
  8
0
100
AcDbLine
 10
132.929
 20
167.96
 30
0.0
 11
134.097
 21
169.064
 31
0.0
  0
LINE
  5
8C
330
1E
100
AcDbEntity
  8
0
100
AcDbLine
 10
132.497
 20
166.4129999999999
 30
0.0
 11
132.929
 21
167.96
 31
0.0
  0
LINE
  5
8D
330
1E
100
AcDbEntity
  8
0
100
AcDbLine
 10
17.112
 20
149.7179999999999
 30
0.0
 11
21.459
 21
149.7139999999999
 31
0.0
  0
LINE
  5
8E
330
1E
100
AcDbEntity
  8
0
100
AcDbLine
 10
17.112
 20
149.717
 30
0.0
 11
21.458
 21
149.7139999999999
 31
0.0
  0
LINE
  5
8F
330
1E
100
AcDbEntity
  8
0
100
AcDbLine
 10
16.06799999999999
 20
149.7139999999999
 30
0.0
 11
17.112
 21
149.717
 31
0.0
  0
LINE
  5
90
330
1E
100
AcDbEntity
  8
0
100
AcDbLine
 10
12.995
 20
149.713
 30
0.0
 11
16.06799999999999
 21
149.7139999999999
 31
0.0
  0
LINE
  5
91
330
1E
100
AcDbEntity
  8
0
100
AcDbLine
 10
8.48700000000004
 20
149.675
 30
0.0
 11
10.118
 21
149.6989999999999
 31
0.0
  0
LINE
  5
92
330
1E
100
AcDbEntity
  8
0
100
AcDbLine
 10
20.86699999999999
 20
50.02439999999999
 30
0.0
 11
22.218
 21
50.02439999999999
 31
0.0
  0
LINE
  5
93
330
1E
100
AcDbEntity
  8
0
100
AcDbLine
 10
20.86699999999999
 20
50.02439999999999
 30
0.0
 11
22.21999999999999
 21
50.02439999999999
 31
0.0
  0
LINE
  5
94
330
1E
100
AcDbEntity
  8
0
100
AcDbLine
 10
272.1369999999999
 20
19.00929999999999
 30
0.0
 11
279.979
 21
19.00929999999999
 31
0.0
  0
LINE
  5
95
330
1E
100
AcDbEntity
  8
0
100
AcDbLine
 10
272.1369999999999
 20
19.00929999999999
 30
0.0
 11
279.978
 21
19.00929999999999
 31
0.0
  0
LINE
  5
96
330
1E
100
AcDbEntity
  8
0
100
AcDbLine
 10
279.978
 20
19.00929999999999
 30
0.0
 11
289.119
 21
19.00929999999999
 31
0.0
  0
LINE
  5
97
330
1E
100
AcDbEntity
  8
0
100
AcDbLine
 10
297.5709999999999
 20
19.00929999999999
 30
0.0
 11
304.654
 21
19.00929999999999
 31
0.0
  0
LINE
  5
98
330
1E
100
AcDbEntity
  8
0
100
AcDbLine
 10
304.654
 20
19.00929999999999
 30
0.0
 11
309.354
 21
19.00929999999999
 31
0.0
  0
LINE
  5
99
330
1E
100
AcDbEntity
  8
0
100
AcDbLine
 10
322.5849999999999
 20
19.00929999999999
 30
0.0
 11
335.4459999999999
 21
19.00929999999999
 31
0.0
  0
LINE
  5
9A
330
1E
100
AcDbEntity
  8
0
100
AcDbLine
 10
322.586
 20
19.00929999999999
 30
0.0
 11
335.4459999999999
 21
19.00929999999999
 31
0.0
  0
LINE
  5
9B
330
1E
100
AcDbEntity
  8
0
100
AcDbLine
 10
309.354
 20
19.00929999999999
 30
0.0
 11
310.999
 21
19.00929999999999
 31
0.0
  0
LINE
  5
9C
330
1E
100
AcDbEntity
  8
0
100
AcDbLine
 10
307.5099999999999
 20
19.00929999999999
 30
0.0
 11
322.586
 21
19.00929999999999
 31
0.0
  0
LINE
  5
9D
330
1E
100
AcDbEntity
  8
0
100
AcDbLine
 10
307.5099999999999
 20
19.00929999999999
 30
0.0
 11
322.5849999999999
 21
19.00929999999999
 31
0.0
  0
LINE
  5
9E
330
1E
100
AcDbEntity
  8
0
100
AcDbLine
 10
289.119
 20
19.00929999999999
 30
0.0
 11
297.5709999999999
 21
19.00929999999999
 31
0.0
  0
LINE
  5
9F
330
1E
100
AcDbEntity
  8
0
100
AcDbLine
 10
353.525
 20
19.00929999999999
 30
0.0
 11
354.354
 21
28.4909
 31
0.0
  0
LINE
  5
A0
330
1E
100
AcDbEntity
  8
0
100
AcDbLine
 10
351.428
 20
19.00929999999999
 30
0.0
 11
353.525
 21
19.00929999999999
 31
0.0
  0
LINE
  5
A1
330
1E
100
AcDbEntity
  8
0
100
AcDbLine
 10
345.27
 20
19.00929999999999
 30
0.0
 11
351.428
 21
19.00929999999999
 31
0.0
  0
LINE
  5
A2
330
1E
100
AcDbEntity
  8
0
100
AcDbLine
 10
335.4459999999999
 20
19.00929999999999
 30
0.0
 11
345.27
 21
19.00929999999999
 31
0.0
  0
LINE
  5
A3
330
1E
100
AcDbEntity
  8
0
100
AcDbLine
 10
289.1179999999999
 20
19.00929999999999
 30
0.0
 11
297.5709999999999
 21
19.00929999999999
 31
0.0
  0
LINE
  5
A4
330
1E
100
AcDbEntity
  8
0
100
AcDbLine
 10
291.185
 20
19.00929999999999
 30
0.0
 11
307.5099999999999
 21
19.00929999999999
 31
0.0
  0
LINE
  5
A5
330
1E
100
AcDbEntity
  8
0
100
AcDbLine
 10
279.979
 20
19.00929999999999
 30
0.0
 11
289.1179999999999
 21
19.00929999999999
 31
0.0
  0
LINE
  5
A6
330
1E
100
AcDbEntity
  8
0
100
AcDbLine
 10
229.3639999999999
 20
19.00929999999999
 30
0.0
 11
237.6329999999999
 21
19.00929999999999
 31
0.0
  0
LINE
  5
A7
330
1E
100
AcDbEntity
  8
0
100
AcDbLine
 10
222.4749999999999
 20
19.00929999999999
 30
0.0
 11
224.2209999999999
 21
19.00929999999999
 31
0.0
  0
LINE
  5
A8
330
1E
100
AcDbEntity
  8
0
100
AcDbLine
 10
224.2209999999999
 20
19.00929999999999
 30
0.0
 11
229.3649999999999
 21
19.00929999999999
 31
0.0
  0
LINE
  5
A9
330
1E
100
AcDbEntity
  8
0
100
AcDbLine
 10
224.2209999999999
 20
19.00929999999999
 30
0.0
 11
229.3639999999999
 21
19.00929999999999
 31
0.0
  0
LINE
  5
AA
330
1E
100
AcDbEntity
  8
0
100
AcDbLine
 10
229.3649999999999
 20
19.00929999999999
 30
0.0
 11
237.6329999999999
 21
19.00929999999999
 31
0.0
  0
LINE
  5
AB
330
1E
100
AcDbEntity
  8
0
100
AcDbLine
 10
237.6329999999999
 20
19.00929999999999
 30
0.0
 11
248.585
 21
19.00929999999999
 31
0.0
  0
LINE
  5
AC
330
1E
100
AcDbEntity
  8
0
100
AcDbLine
 10
248.585
 20
19.00929999999999
 30
0.0
 11
261.6369999999999
 21
19.00929999999999
 31
0.0
  0
LINE
  5
AD
330
1E
100
AcDbEntity
  8
0
100
AcDbLine
 10
222.319
 20
20.7932
 30
0.0
 11
222.4749999999999
 21
19.00929999999999
 31
0.0
  0
LINE
  5
AE
330
1E
100
AcDbEntity
  8
0
100
AcDbLine
 10
261.6369999999999
 20
19.00929999999999
 30
0.0
 11
276.094
 21
19.00929999999999
 31
0.0
  0
LINE
  5
AF
330
1E
100
AcDbEntity
  8
0
100
AcDbLine
 10
220.86
 20
27.2943
 30
0.0
 11
222.319
 21
20.7932
 31
0.0
  0
LINE
  5
B0
330
1E
100
AcDbEntity
  8
0
100
AcDbLine
 10
354.354
 20
28.4909
 30
0.0
 11
357.2869999999999
 21
38.2427
 31
0.0
  0
LINE
  5
B3
330
1E
100
AcDbEntity
  8
0
100
AcDbLine
 10
276.094
 20
19.00929999999999
 30
0.0
 11
291.185
 21
19.00929999999999
 31
0.0
  0
LINE
  5
BA
330
1E
100
AcDbEntity
  8
0
100
AcDbLine
 10
484.3632354077254
 20
9.183499999999989
 30
0.0
 11
485.203
 21
6.38909999999999
 31
0.0
  0
LINE
  5
BB
330
1E
100
AcDbEntity
  8
0
100
AcDbLine
 10
485.203
 20
6.38909999999999
 30
0.0
 11
485.853
 21
4.00189999999999
 31
0.0
  0
LINE
  5
BF
330
1E
100
AcDbEntity
  8
0
100
AcDbLine
 10
485.853
 20
4.00189999999999
 30
0.0
 11
486.796
 21
1.94389999999999
 31
0.0
  0
LINE
  5
C0
330
1E
100
AcDbEntity
  8
0
100
AcDbLine
 10
486.796
 20
1.94389999999999
 30
0.0
 11
488.548
 21
0.512199999999984
 31
0.0
  0
LINE
  5
C1
330
1E
100
AcDbEntity
  8
0
100
AcDbLine
 10
488.548
 20
0.512199999999984
 30
0.0
 11
490.7519999999999
 21
-0.0000000000000142
 31
0.0
  0
LINE
  5
C3
330
1E
100
AcDbEntity
  8
0
100
AcDbLine
 10
480.4195297479099
 20
17.1644059017124
 30
0.0
 11
480.462319037204
 21
17.09972057880859
 31
0.0
  0
LINE
  5
C5
330
1E
100
AcDbEntity
  8
0
100
AcDbLine
 10
480.4418257241139
 20
17.1369152508928
 30
0.0
 11
483.168126837345
 21
12.1887706798255
 31
0.0
  0
LINE
  5
C6
330
1E
100
AcDbEntity
  8
0
100
AcDbLine
 10
480.4418257241139
 20
17.1369152508928
 30
0.0
 11
483.168126837345
 21
12.1887706798255
 31
0.0
  0
LINE
  5
C7
330
1E
100
AcDbEntity
  8
0
100
AcDbLine
 10
480.4195297479099
 20
17.1644059017124
 30
0.0
 11
480.462319037204
 21
17.09972057880859
 31
0.0
  0
LINE
  5
CB
330
1E
100
AcDbEntity
  8
0
100
AcDbLine
 10
469.6309999999999
 20
26.4339
 30
0.0
 11
472.0769999999999
 21
25.45939999999999
 31
0.0
  0
LINE
  5
CF
330
1E
100
AcDbEntity
  8
0
100
AcDbLine
 10
477.783
 20
21.03829999999999
 30
0.0
 11
478.1269999999999
 21
20.6691
 31
0.0
  0
LINE
  5
D0
330
1E
100
AcDbEntity
  8
0
100
AcDbLine
 10
478.1269999999999
 20
20.6691
 30
0.0
 11
480.4195297479099
 21
17.1644059017124
 31
0.0
  0
LINE
  5
D1
330
1E
100
AcDbEntity
  8
0
100
AcDbLine
 10
472.0769999999999
 20
25.45939999999999
 30
0.0
 11
477.783
 21
21.03829999999999
 31
0.0
  0
LINE
  5
D3
330
1E
100
AcDbEntity
  8
0
100
AcDbLine
 10
466.198
 20
27.6355
 30
0.0
 11
469.6309999999999
 21
26.4339
 31
0.0
  0
LINE
  5
D5
330
1E
100
AcDbEntity
  8
0
100
AcDbLine
 10
462.993
 20
28.4569
 30
0.0
 11
466.198
 21
27.6355
 31
0.0
  0
LINE
  5
D7
330
1E
100
AcDbEntity
  8
0
100
AcDbLine
 10
207.491
 20
41.5043
 30
0.0
 11
213.5275377252619
 21
37.653819206936
 31
0.0
  0
LINE
  5
D8
330
1E
100
AcDbEntity
  8
0
100
AcDbLine
 10
207.491
 20
41.5043
 30
0.0
 11
213.5275377252619
 21
37.653819206936
 31
0.0
  0
LINE
  5
D9
330
1E
100
AcDbEntity
  8
0
100
AcDbLine
 10
213.5275377252619
 20
37.653819206936
 30
0.0
 11
217.4633711242699
 21
33.47105860410049
 31
0.0
  0
LINE
  5
DB
330
1E
100
AcDbEntity
  8
0
100
AcDbLine
 10
447.468
 20
32.84499999999999
 30
0.0
 11
456.0619999999999
 21
29.7685
 31
0.0
  0
LINE
  5
DC
330
1E
100
AcDbEntity
  8
0
100
AcDbLine
 10
217.9343409800019
 20
32.8091016549595
 30
0.0
 11
220.86
 21
27.2943
 31
0.0
  0
LINE
  5
DE
330
1E
100
AcDbEntity
  8
0
100
AcDbLine
 10
456.0619999999999
 20
29.7685
 30
0.0
 11
459.3069999999999
 21
29.07519999999999
 31
0.0
  0
LINE
  5
DF
330
1E
100
AcDbEntity
  8
0
100
AcDbLine
 10
459.3069999999999
 20
29.07519999999999
 30
0.0
 11
461.3579999999999
 21
28.8521
 31
0.0
  0
LINE
  5
E2
330
1E
100
AcDbEntity
  8
0
100
AcDbLine
 10
441.979544514923
 20
35.231079903152
 30
0.0
 11
447.468
 21
32.84499999999999
 31
0.0
  0
LINE
  5
E4
330
1E
100
AcDbEntity
  8
0
100
AcDbLine
 10
357.2869999999999
 20
38.2427
 30
0.0
 11
363.863
 21
46.0175
 31
0.0
  0
LINE
  5
EA
330
1E
100
AcDbEntity
  8
0
100
AcDbLine
 10
217.4633711242699
 20
33.47105860410049
 30
0.0
 11
217.9343409800019
 21
32.8091016549595
 31
0.0
  0
LINE
  5
EC
330
1E
100
AcDbEntity
  8
0
100
AcDbLine
 10
461.3579999999999
 20
28.8521
 30
0.0
 11
462.993
 21
28.4569
 31
0.0
  0
LINE
  5
ED
330
1E
100
AcDbEntity
  8
0
100
AcDbLine
 10
503.0
 20
6.81929999999998
 30
0.0
 11
503.0
 21
1.766899999999989
 31
0.0
  0
LINE
  5
EE
330
1E
100
AcDbEntity
  8
0
100
AcDbLine
 10
503.0
 20
6.81929999999998
 30
0.0
 11
503.0
 21
14.44209999999999
 31
0.0
  0
LINE
  5
EF
330
1E
100
AcDbEntity
  8
0
100
AcDbLine
 10
503.0
 20
1.766899999999989
 30
0.0
 11
503.0
 21
-0.0000000000000142
 31
0.0
  0
LINE
  5
F0
330
1E
100
AcDbEntity
  8
0
100
AcDbLine
 10
503.0
 20
1.766899999999989
 30
0.0
 11
503.0
 21
6.81929999999998
 31
0.0
  0
LINE
  5
F1
330
1E
100
AcDbEntity
  8
0
100
AcDbLine
 10
503.0
 20
38.4708
 30
0.0
 11
503.0
 21
14.44209999999999
 31
0.0
  0
LINE
  5
F2
330
1E
100
AcDbEntity
  8
0
100
AcDbLine
 10
503.0
 20
38.4708
 30
0.0
 11
503.0
 21
42.4237
 31
0.0
  0
LINE
  5
F3
330
1E
100
AcDbEntity
  8
0
100
AcDbLine
 10
503.0
 20
14.44209999999999
 30
0.0
 11
503.0
 21
6.81929999999998
 31
0.0
  0
LINE
  5
F4
330
1E
100
AcDbEntity
  8
0
100
AcDbLine
 10
503.0
 20
14.44209999999999
 30
0.0
 11
503.0
 21
38.4708
 31
0.0
  0
LINE
  5
F5
330
1E
100
AcDbEntity
  8
0
100
AcDbLine
 10
503.0
 20
42.4237
 30
0.0
 11
503.0
 21
38.4708
 31
0.0
  0
LINE
  5
F6
330
1E
100
AcDbEntity
  8
0
100
AcDbLine
 10
503.0
 20
42.4237
 30
0.0
 11
503.0
 21
45.70829999999999
 31
0.0
  0
LINE
  5
F7
330
1E
100
AcDbEntity
  8
0
100
AcDbLine
 10
503.0
 20
-0.0000000000000142
 30
0.0
 11
503.0
 21
1.766899999999989
 31
0.0
  0
LINE
  5
F8
330
1E
100
AcDbEntity
  8
0
100
AcDbLine
 10
490.7519999999999
 20
-0.0000000000000142
 30
0.0
 11
503.0
 21
-0.0000000000000142
 31
0.0
  0
LINE
  5
F9
330
1E
100
AcDbEntity
  8
0
100
AcDbLine
 10
363.863
 20
46.0175
 30
0.0
 11
368.7717749195339
 21
50.02439999999999
 31
0.0
  0
LINE
  5
FF
330
1E
100
AcDbEntity
  8
0
100
AcDbLine
 10
442.3119999999999
 20
50.02439999999999
 30
0.0
 11
449.119
 21
50.02439999999999
 31
0.0
  0
LINE
  5
100
330
1E
100
AcDbEntity
  8
0
100
AcDbLine
 10
439.0909999999999
 20
50.02439999999999
 30
0.0
 11
442.3119999999999
 21
50.02439999999999
 31
0.0
  0
LINE
  5
101
330
1E
100
AcDbEntity
  8
0
100
AcDbLine
 10
428.981
 20
50.02439999999999
 30
0.0
 11
439.0909999999999
 21
50.02439999999999
 31
0.0
  0
LINE
  5
105
330
1E
100
AcDbEntity
  8
0
100
AcDbLine
 10
417.453
 20
50.02439999999999
 30
0.0
 11
428.981
 21
50.02439999999999
 31
0.0
  0
LINE
  5
10B
330
1E
100
AcDbEntity
  8
0
100
AcDbLine
 10
451.1099999999999
 20
50.02439999999999
 30
0.0
 11
464.3369999999999
 21
50.02439999999999
 31
0.0
  0
LINE
  5
10C
330
1E
100
AcDbEntity
  8
0
100
AcDbLine
 10
456.3649999999999
 20
50.02439999999999
 30
0.0
 11
462.331
 21
50.02439999999999
 31
0.0
  0
LINE
  5
10D
330
1E
100
AcDbEntity
  8
0
100
AcDbLine
 10
462.331
 20
50.02439999999999
 30
0.0
 11
464.3369999999999
 21
50.02439999999999
 31
0.0
  0
LINE
  5
10E
330
1E
100
AcDbEntity
  8
0
100
AcDbLine
 10
454.97
 20
50.02439999999999
 30
0.0
 11
456.3649999999999
 21
50.02439999999999
 31
0.0
  0
LINE
  5
10F
330
1E
100
AcDbEntity
  8
0
100
AcDbLine
 10
452.611
 20
50.02439999999999
 30
0.0
 11
454.97
 21
50.02439999999999
 31
0.0
  0
LINE
  5
110
330
1E
100
AcDbEntity
  8
0
100
AcDbLine
 10
449.119
 20
50.02439999999999
 30
0.0
 11
452.611
 21
50.02439999999999
 31
0.0
  0
LINE
  5
111
330
1E
100
AcDbEntity
  8
0
100
AcDbLine
 10
405.783
 20
50.02439999999999
 30
0.0
 11
417.453
 21
50.02439999999999
 31
0.0
  0
LINE
  5
112
330
1E
100
AcDbEntity
  8
0
100
AcDbLine
 10
484.4999999999999
 20
45.7073
 30
0.0
 11
503.0
 21
45.70829999999999
 31
0.0
  0
LINE
  5
113
330
1E
100
AcDbEntity
  8
0
100
AcDbLine
 10
503.0
 20
45.70829999999999
 30
0.0
 11
503.0
 21
42.4237
 31
0.0
  0
LINE
  5
114
330
1E
100
AcDbEntity
  8
0
100
AcDbLine
 10
503.0
 20
45.70829999999999
 30
0.0
 11
503.0
 21
50.02439999999999
 31
0.0
  0
LINE
  5
115
330
1E
100
AcDbEntity
  8
0
100
AcDbLine
 10
473.7549999999999
 20
47.4602
 30
0.0
 11
478.1019999999999
 21
46.3716
 31
0.0
  0
LINE
  5
116
330
1E
100
AcDbEntity
  8
0
100
AcDbLine
 10
467.189
 20
49.5062
 30
0.0
 11
473.7549999999999
 21
47.4602
 31
0.0
  0
LINE
  5
117
330
1E
100
AcDbEntity
  8
0
100
AcDbLine
 10
478.1019999999999
 20
46.3716
 30
0.0
 11
484.4999999999999
 21
45.7073
 31
0.0
  0
LINE
  5
118
330
1E
100
AcDbEntity
  8
0
100
AcDbLine
 10
464.3369999999999
 20
50.02439999999999
 30
0.0
 11
467.189
 21
49.5062
 31
0.0
  0
LINE
  5
119
330
1E
100
AcDbEntity
  8
0
100
AcDbLine
 10
153.5079999999999
 20
50.02439999999999
 30
0.0
 11
161.793
 21
50.02439999999999
 31
0.0
  0
LINE
  5
11A
330
1E
100
AcDbEntity
  8
0
100
AcDbLine
 10
148.917
 20
50.02439999999999
 30
0.0
 11
154.596
 21
50.02439999999999
 31
0.0
  0
LINE
  5
11B
330
1E
100
AcDbEntity
  8
0
100
AcDbLine
 10
146.5099999999999
 20
50.02439999999999
 30
0.0
 11
153.5079999999999
 21
50.02439999999999
 31
0.0
  0
LINE
  5
11C
330
1E
100
AcDbEntity
  8
0
100
AcDbLine
 10
160.61
 20
50.02439999999999
 30
0.0
 11
184.0049999999999
 21
50.02439999999999
 31
0.0
  0
LINE
  5
11D
330
1E
100
AcDbEntity
  8
0
100
AcDbLine
 10
161.793
 20
50.02439999999999
 30
0.0
 11
184.0049999999999
 21
50.02439999999999
 31
0.0
  0
LINE
  5
11E
330
1E
100
AcDbEntity
  8
0
100
AcDbLine
 10
154.596
 20
50.02439999999999
 30
0.0
 11
160.61
 21
50.02439999999999
 31
0.0
  0
LINE
  5
11F
330
1E
100
AcDbEntity
  8
0
100
AcDbLine
 10
184.0049999999999
 20
50.02439999999999
 30
0.0
 11
245.046
 21
50.02439999999999
 31
0.0
  0
LINE
  5
120
330
1E
100
AcDbEntity
  8
0
100
AcDbLine
 10
245.046
 20
50.02439999999999
 30
0.0
 11
306.068
 21
50.02439999999999
 31
0.0
  0
LINE
  5
121
330
1E
100
AcDbEntity
  8
0
100
AcDbLine
 10
263.612
 20
149.716
 30
0.0
 11
305.7599999999999
 21
149.721
 31
0.0
  0
LINE
  5
122
330
1E
100
AcDbEntity
  8
0
100
AcDbLine
 10
196.202
 20
149.7139999999999
 30
0.0
 11
263.612
 21
149.716
 31
0.0
  0
LINE
  5
123
330
1E
100
AcDbEntity
  8
0
100
AcDbLine
 10
135.668
 20
169.4059999999999
 30
0.0
 11
221.214
 21
169.335
 31
0.0
  0
LINE
  5
127
330
1E
100
AcDbEntity
  8
0
100
AcDbLine
 10
221.214
 20
169.335
 30
0.0
 11
272.4979999999999
 21
169.335
 31
0.0
  0
LINE
  5
128
330
1E
100
AcDbEntity
  8
0
100
AcDbLine
 10
272.4979999999999
 20
169.335
 30
0.0
 11
323.787
 21
169.335
 31
0.0
  0
LINE
  5
129
330
1E
100
AcDbEntity
  8
0
100
AcDbLine
 10
305.7599999999999
 20
149.721
 30
0.0
 11
384.3339999999999
 21
149.828
 31
0.0
  0
LINE
  5
12A
330
1E
100
AcDbEntity
  8
0
100
AcDbLine
 10
189.5612100204029
 20
50.02439999999999
 30
0.0
 11
207.491
 21
41.5043
 31
0.0
  0
LINE
  5
137
330
1E
100
AcDbEntity
  8
0
100
AcDbLine
 10
460.616
 20
149.3319999999999
 30
0.0
 11
461.385
 21
149.058
 31
0.0
  0
LINE
  5
138
330
1E
100
AcDbEntity
  8
0
100
AcDbLine
 10
461.385
 20
149.058
 30
0.0
 11
462.0519999999999
 21
148.587
 31
0.0
  0
LINE
  5
139
330
1E
100
AcDbEntity
  8
0
100
AcDbLine
 10
462.0519999999999
 20
148.587
 30
0.0
 11
462.5659999999999
 21
147.953
 31
0.0
  0
LINE
  5
13A
330
1E
100
AcDbEntity
  8
0
100
AcDbLine
 10
462.5659999999999
 20
147.953
 30
0.0
 11
462.9249999999999
 21
147.076
 31
0.0
  0
LINE
  5
141
330
1E
100
AcDbEntity
  8
0
100
AcDbLine
 10
384.3339999999999
 20
149.828
 30
0.0
 11
460.616
 21
149.3319999999999
 31
0.0
  0
LINE
  5
146
330
1E
100
AcDbEntity
  8
0
100
AcDbLine
 10
465.666362057207
 20
140.4945674578689
 30
0.0
 11
470.400198631891
 21
135.120941848619
 31
0.0
  0
LINE
  5
147
330
1E
100
AcDbEntity
  8
0
100
AcDbLine
 10
465.666362057207
 20
140.4945674578689
 30
0.0
 11
470.400198631891
 21
135.120941848619
 31
0.0
  0
LINE
  5
148
330
1E
100
AcDbEntity
  8
0
100
AcDbLine
 10
462.9249999999999
 20
147.076
 30
0.0
 11
465.666362057207
 21
140.4945674578689
 31
0.0
  0
LINE
  5
14A
330
1E
100
AcDbEntity
  8
0
100
AcDbLine
 10
323.787
 20
169.335
 30
0.0
 11
409.332
 21
169.4059999999999
 31
0.0
  0
LINE
  5
14E
330
1E
100
AcDbEntity
  8
0
100
AcDbLine
 10
412.503
 20
166.414
 30
0.0
 11
412.7148682803389
 21
149.9088035674905
 31
0.0
  0
LINE
  5
15B
330
1E
100
AcDbEntity
  8
0
100
AcDbLine
 10
409.332
 20
169.4059999999999
 30
0.0
 11
410.903
 21
169.064
 31
0.0
  0
LINE
  5
15C
330
1E
100
AcDbEntity
  8
0
100
AcDbLine
 10
410.903
 20
169.064
 30
0.0
 11
412.0709999999999
 21
167.96
 31
0.0
  0
LINE
  5
15F
330
1E
100
AcDbEntity
  8
0
100
AcDbLine
 10
412.0709999999999
 20
167.96
 30
0.0
 11
412.503
 21
166.414
 31
0.0
  0
LINE
  5
165
330
1E
100
AcDbEntity
  8
0
100
AcDbLine
 10
484.35
 20
130.064
 30
0.0
 11
503.0
 21
130.064
 31
0.0
  0
LINE
  5
166
330
1E
100
AcDbEntity
  8
0
100
AcDbLine
 10
503.0
 20
130.064
 30
0.0
 11
503.0
 21
129.662
 31
0.0
  0
LINE
  5
167
330
1E
100
AcDbEntity
  8
0
100
AcDbLine
 10
503.0
 20
129.662
 30
0.0
 11
503.0
 21
128.5679999999999
 31
0.0
  0
LINE
  5
168
330
1E
100
AcDbEntity
  8
0
100
AcDbLine
 10
503.0
 20
129.662
 30
0.0
 11
503.0
 21
130.064
 31
0.0
  0
LINE
  5
169
330
1E
100
AcDbEntity
  8
0
100
AcDbLine
 10
503.0
 20
128.5679999999999
 30
0.0
 11
503.0
 21
127.0699999999999
 31
0.0
  0
LINE
  5
16A
330
1E
100
AcDbEntity
  8
0
100
AcDbLine
 10
503.0
 20
128.5679999999999
 30
0.0
 11
503.0
 21
129.662
 31
0.0
  0
LINE
  5
16B
330
1E
100
AcDbEntity
  8
0
100
AcDbLine
 10
503.0
 20
88.521
 30
0.0
 11
503.0
 21
127.0699999999999
 31
0.0
  0
LINE
  5
16C
330
1E
100
AcDbEntity
  8
0
100
AcDbLine
 10
503.0
 20
88.521
 30
0.0
 11
503.0
 21
50.02439999999999
 31
0.0
  0
LINE
  5
16D
330
1E
100
AcDbEntity
  8
0
100
AcDbLine
 10
472.996656532227
 20
133.54601262623
 30
0.0
 11
476.407496281676
 21
131.614693005776
 31
0.0
  0
LINE
  5
16E
330
1E
100
AcDbEntity
  8
0
100
AcDbLine
 10
472.996656532227
 20
133.54601262623
 30
0.0
 11
476.407496281676
 21
131.614693005776
 31
0.0
  0
LINE
  5
16F
330
1E
100
AcDbEntity
  8
0
100
AcDbLine
 10
476.407496281676
 20
131.614693005776
 30
0.0
 11
484.35
 21
130.064
 31
0.0
  0
LINE
  5
170
330
1E
100
AcDbEntity
  8
0
100
AcDbLine
 10
470.400198631891
 20
135.120941848619
 30
0.0
 11
472.996656532227
 21
133.54601262623
 31
0.0
  0
LINE
  5
171
330
1E
100
AcDbEntity
  8
0
100
AcDbLine
 10
353.9819999999999
 20
50.02439999999999
 30
0.0
 11
405.783
 21
50.02439999999999
 31
0.0
  0
LINE
  5
172
330
1E
100
AcDbEntity
  8
0
100
AcDbLine
 10
306.068
 20
50.02439999999999
 30
0.0
 11
353.9819999999999
 21
50.02439999999999
 31
0.0
  0
LINE
  5
173
330
1E
100
AcDbEntity
  8
0
100
AcDbLine
 10
503.0
 20
50.02439999999999
 30
0.0
 11
503.0
 21
45.70829999999999
 31
0.0
  0
LINE
  5
174
330
1E
100
AcDbEntity
  8
0
100
AcDbLine
 10
503.0
 20
50.02439999999999
 30
0.0
 11
503.0
 21
88.521
 31
0.0
  0
LINE
  5
175
330
1E
100
AcDbEntity
  8
0
100
AcDbLine
 10
503.0
 20
127.0699999999999
 30
0.0
 11
503.0
 21
88.521
 31
0.0
  0
LINE
  5
176
330
1E
100
AcDbEntity
  8
0
100
AcDbLine
 10
503.0
 20
127.0699999999999
 30
0.0
 11
503.0
 21
128.5679999999999
 31
0.0
  0
LINE
  5
177
330
1E
100
AcDbEntity
  8
0
100
AcDbLine
 10
142.524
 20
50.02439999999999
 30
0.0
 11
146.5099999999999
 21
50.02439999999999
 31
0.0
  0
LINE
  5
17C
330
1E
100
AcDbEntity
  8
0
  6
Continuous
100
AcDbLine
 10
2.997000000000039
 20
146.6629999999999
 30
0.0
 11
3.271808429904808
 21
147.8700098721547
 31
0.0
  0
LINE
  5
17D
330
1E
100
AcDbEntity
  8
0
  6
Continuous
100
AcDbLine
 10
3.271808429904808
 20
147.8700098721547
 30
0.0
 11
4.176771788517953
 21
148.9668788100577
 31
0.0
  0
LINE
  5
17E
330
1E
100
AcDbEntity
  8
0
  6
Continuous
100
AcDbLine
 10
4.176771788517953
 20
148.9668788100577
 30
0.0
 11
5.389808804816652
 21
149.4672049823171
 31
0.0
  0
LINE
  5
17F
330
1E
100
AcDbEntity
  8
0
  6
Continuous
100
AcDbLine
 10
5.389808804816652
 20
149.4672049823171
 30
0.0
 11
6.40600000000004
 21
149.6289999999999
 31
0.0
  0
LINE
  5
180
330
1E
100
AcDbEntity
  8
0
  6
Continuous
100
AcDbLine
 10
483.168126837345
 20
12.1887706798255
 30
0.0
 11
484.3632354077254
 21
9.183499999999989
 31
0.0
  0
LINE
  5
181
330
1E
100
AcDbEntity
  8
0
  6
Continuous
100
AcDbLine
 10
441.979544514923
 20
35.231079903152
 30
0.0
 11
420.299208173879
 21
50.02439999999999
 31
0.0
  0
ENDSEC
  0
SECTION
  2
OBJECTS
  0
DICTIONARY
  5
C
330
0
100
AcDbDictionary
281
     1
  3
ACAD_GROUP
350
D
  3
ACAD_LAYOUT
350
19
  3
ACAD_MLINESTYLE
350
16
  3
ACAD_PLOTSETTINGS
350
18
  3
ACAD_PLOTSTYLENAME
350
E
  3
AcDbVariableDictionary
350
183
  0
DICTIONARY
  5
D
102
{ACAD_REACTORS
330
C
102
}
330
C
100
AcDbDictionary
281
     1
  0
DICTIONARY
  5
19
102
{ACAD_REACTORS
330
C
102
}
330
C
100
AcDbDictionary
281
     1
  3
Layout1
350
1D
  3
Model
350
21
  0
DICTIONARY
  5
16
102
{ACAD_REACTORS
330
C
102
}
330
C
100
AcDbDictionary
281
     1
  3
Standard
350
17
  0
DICTIONARY
  5
18
102
{ACAD_REACTORS
330
C
102
}
330
C
100
AcDbDictionary
281
     1
  0
ACDBDICTIONARYWDFLT
  5
E
102
{ACAD_REACTORS
330
C
102
}
330
C
100
AcDbDictionary
281
     1
  3
Normal
350
F
100
AcDbDictionaryWithDefault
340
F
  0
DICTIONARY
  5
183
102
{ACAD_REACTORS
330
C
102
}
330
C
100
AcDbDictionary
281
     1
  3
DIMASSOC
350
184
  0
LAYOUT
  5
1D
102
{ACAD_REACTORS
330
19
102
}
330
19
100
AcDbPlotSettings
  1

  2
C:\Programme\AutoCAD LT 2002 Deu\plotters\DWF ePlot (optimized for plotting).pc3
  4

  6

 40
0.0
 41
0.0
 42
0.0
 43
0.0
 44
0.0
 45
0.0
 46
0.0
 47
0.0
 48
0.0
 49
0.0
140
0.0
141
0.0
142
1.0
143
1.0
 70
   688
 72
     0
 73
     0
 74
     5
  7

 75
    16
147
1.0
148
0.0
149
0.0
100
AcDbLayout
  1
Layout1
 70
     1
 71
     1
 10
0.0
 20
0.0
 11
12.0
 21
9.0
 12
0.0
 22
0.0
 32
0.0
 14
1.000000000000000E+20
 24
1.000000000000000E+20
 34
1.000000000000000E+20
 15
-1.000000000000000E+20
 25
-1.000000000000000E+20
 35
-1.000000000000000E+20
146
0.0
 13
0.0
 23
0.0
 33
0.0
 16
1.0
 26
0.0
 36
0.0
 17
0.0
 27
1.0
 37
0.0
 76
     0
330
1A
  0
LAYOUT
  5
21
102
{ACAD_REACTORS
330
19
102
}
330
19
100
AcDbPlotSettings
  1

  2
C:\Programme\AutoCAD LT 2002 Deu\plotters\DWF ePlot (optimized for plotting).pc3
  4

  6

 40
0.0
 41
0.0
 42
0.0
 43
0.0
 44
0.0
 45
0.0
 46
0.0
 47
0.0
 48
0.0
 49
0.0
140
0.0
141
0.0
142
1.0
143
1.0
 70
  1712
 72
     0
 73
     0
 74
     0
  7

 75
     0
147
1.0
148
0.0
149
0.0
100
AcDbLayout
  1
Model
 70
     1
 71
     0
 10
0.0
 20
0.0
 11
12.0
 21
9.0
 12
0.0
 22
0.0
 32
0.0
 14
0.0
 24
0.0
 34
0.0
 15
0.0
 25
0.0
 35
0.0
146
0.0
 13
0.0
 23
0.0
 33
0.0
 16
1.0
 26
0.0
 36
0.0
 17
0.0
 27
1.0
 37
0.0
 76
     0
330
1E
  0
MLINESTYLE
  5
17
102
{ACAD_REACTORS
330
16
102
}
330
16
100
AcDbMlineStyle
  2
STANDARD
 70
     0
  3

 62
   256
 51
90.0
 52
90.0
 71
     2
 49
0.5
 62
   256
  6
BYLAYER
 49
-0.5
 62
   256
  6
BYLAYER
  0
ACDBPLACEHOLDER
  5
F
102
{ACAD_REACTORS
330
E
102
}
330
E
  0
DICTIONARYVAR
  5
184
102
{ACAD_REACTORS
330
183
102
}
330
183
100
DictionaryVariables
280
     0
  1
1
  0
ENDSEC
  0
EOF
