  0
SECTION
  2
HEADER
  9
$ACADVER
  1
AC1015
  9
$ACADMAINTVER
 70
    13
  9
$DWGCODEPAGE
  3
ANSI_1252
  9
$INSBASE
 10
0.0
 20
0.0
 30
0.0
  9
$EXTMIN
 10
0.0
 20
-0.0000000000000126
 30
0.0
  9
$EXTMAX
 10
866.0
 20
150.336
 30
0.0
  9
$LIMMIN
 10
0.0
 20
0.0
  9
$LIMMAX
 10
12.0
 20
9.0
  9
$ORTHOMODE
 70
     0
  9
$REGENMODE
 70
     1
  9
$FILLMODE
 70
     1
  9
$QTEXTMODE
 70
     0
  9
$MIRRTEXT
 70
     1
  9
$LTSCALE
 40
1.0
  9
$ATTMODE
 70
     1
  9
$TEXTSIZE
 40
0.2
  9
$TRACEWID
 40
0.05
  9
$TEXTSTYLE
  7
Standard
  9
$CLAYER
  8
0
  9
$CELTYPE
  6
Continuous
  9
$CECOLOR
 62
   256
  9
$CELTSCALE
 40
1.0
  9
$DISPSILH
 70
     0
  9
$DIMSCALE
 40
1.0
  9
$DIMASZ
 40
0.18
  9
$DIMEXO
 40
0.0625
  9
$DIMDLI
 40
0.38
  9
$DIMRND
 40
0.0
  9
$DIMDLE
 40
0.0
  9
$DIMEXE
 40
0.18
  9
$DIMTP
 40
0.0
  9
$DIMTM
 40
0.0
  9
$DIMTXT
 40
0.18
  9
$DIMCEN
 40
0.09
  9
$DIMTSZ
 40
0.0
  9
$DIMTOL
 70
     0
  9
$DIMLIM
 70
     0
  9
$DIMTIH
 70
     1
  9
$DIMTOH
 70
     1
  9
$DIMSE1
 70
     0
  9
$DIMSE2
 70
     0
  9
$DIMTAD
 70
     0
  9
$DIMZIN
 70
     0
  9
$DIMBLK
  1

  9
$DIMASO
 70
     1
  9
$DIMSHO
 70
     1
  9
$DIMPOST
  1

  9
$DIMAPOST
  1

  9
$DIMALT
 70
     0
  9
$DIMALTD
 70
     2
  9
$DIMALTF
 40
25.4
  9
$DIMLFAC
 40
1.0
  9
$DIMTOFL
 70
     0
  9
$DIMTVP
 40
0.0
  9
$DIMTIX
 70
     0
  9
$DIMSOXD
 70
     0
  9
$DIMSAH
 70
     0
  9
$DIMBLK1
  1

  9
$DIMBLK2
  1

  9
$DIMSTYLE
  2
Standard
  9
$DIMCLRD
 70
     0
  9
$DIMCLRE
 70
     0
  9
$DIMCLRT
 70
     0
  9
$DIMTFAC
 40
1.0
  9
$DIMGAP
 40
0.09
  9
$DIMJUST
 70
     0
  9
$DIMSD1
 70
     0
  9
$DIMSD2
 70
     0
  9
$DIMTOLJ
 70
     1
  9
$DIMTZIN
 70
     0
  9
$DIMALTZ
 70
     0
  9
$DIMALTTZ
 70
     0
  9
$DIMUPT
 70
     0
  9
$DIMDEC
 70
     4
  9
$DIMTDEC
 70
     4
  9
$DIMALTU
 70
     2
  9
$DIMALTTD
 70
     2
  9
$DIMTXSTY
  7
Standard
  9
$DIMAUNIT
 70
     0
  9
$DIMADEC
 70
     0
  9
$DIMALTRND
 40
0.0
  9
$DIMAZIN
 70
     0
  9
$DIMDSEP
 70
    46
  9
$DIMATFIT
 70
     3
  9
$DIMFRAC
 70
     0
  9
$DIMLDRBLK
  1

  9
$DIMLUNIT
 70
     2
  9
$DIMLWD
 70
    -2
  9
$DIMLWE
 70
    -2
  9
$DIMTMOVE
 70
     0
  9
$LUNITS
 70
     2
  9
$LUPREC
 70
     4
  9
$SKETCHINC
 40
0.1
  9
$FILLETRAD
 40
0.0
  9
$AUNITS
 70
     0
  9
$AUPREC
 70
     0
  9
$MENU
  1
.
  9
$ELEVATION
 40
0.0
  9
$PELEVATION
 40
0.0
  9
$THICKNESS
 40
0.0
  9
$LIMCHECK
 70
     0
  9
$CHAMFERA
 40
0.0
  9
$CHAMFERB
 40
0.0
  9
$CHAMFERC
 40
0.0
  9
$CHAMFERD
 40
0.0
  9
$SKPOLY
 70
     0
  9
$TDCREATE
 40
2455508.854838680
  9
$TDUCREATE
 40
2455508.813172014
  9
$TDUPDATE
 40
2455508.857639791
  9
$TDUUPDATE
 40
2455508.815973125
  9
$TDINDWG
 40
0.0028012847
  9
$TDUSRTIMER
 40
0.0028012847
  9
$USRTIMER
 70
     1
  9
$ANGBASE
 50
0.0
  9
$ANGDIR
 70
     0
  9
$PDMODE
 70
     0
  9
$PDSIZE
 40
0.0
  9
$PLINEWID
 40
0.0
  9
$SPLFRAME
 70
     0
  9
$SPLINETYPE
 70
     6
  9
$SPLINESEGS
 70
     8
  9
$HANDSEED
  5
1B1
  9
$SURFTAB1
 70
     6
  9
$SURFTAB2
 70
     6
  9
$SURFTYPE
 70
     6
  9
$SURFU
 70
     6
  9
$SURFV
 70
     6
  9
$UCSBASE
  2

  9
$UCSNAME
  2

  9
$UCSORG
 10
0.0
 20
0.0
 30
0.0
  9
$UCSXDIR
 10
1.0
 20
0.0
 30
0.0
  9
$UCSYDIR
 10
0.0
 20
1.0
 30
0.0
  9
$UCSORTHOREF
  2

  9
$UCSORTHOVIEW
 70
     1
  9
$UCSORGTOP
 10
0.0
 20
0.0
 30
0.0
  9
$UCSORGBOTTOM
 10
0.0
 20
0.0
 30
0.0
  9
$UCSORGLEFT
 10
0.0
 20
0.0
 30
0.0
  9
$UCSORGRIGHT
 10
0.0
 20
0.0
 30
0.0
  9
$UCSORGFRONT
 10
0.0
 20
0.0
 30
0.0
  9
$UCSORGBACK
 10
0.0
 20
0.0
 30
0.0
  9
$PUCSBASE
  2

  9
$PUCSNAME
  2

  9
$PUCSORG
 10
0.0
 20
0.0
 30
0.0
  9
$PUCSXDIR
 10
1.0
 20
0.0
 30
0.0
  9
$PUCSYDIR
 10
0.0
 20
1.0
 30
0.0
  9
$PUCSORTHOREF
  2

  9
$PUCSORTHOVIEW
 70
     0
  9
$PUCSORGTOP
 10
0.0
 20
0.0
 30
0.0
  9
$PUCSORGBOTTOM
 10
0.0
 20
0.0
 30
0.0
  9
$PUCSORGLEFT
 10
0.0
 20
0.0
 30
0.0
  9
$PUCSORGRIGHT
 10
0.0
 20
0.0
 30
0.0
  9
$PUCSORGFRONT
 10
0.0
 20
0.0
 30
0.0
  9
$PUCSORGBACK
 10
0.0
 20
0.0
 30
0.0
  9
$USERI1
 70
     0
  9
$USERI2
 70
     0
  9
$USERI3
 70
     0
  9
$USERI4
 70
     0
  9
$USERI5
 70
     0
  9
$USERR1
 40
0.0
  9
$USERR2
 40
0.0
  9
$USERR3
 40
0.0
  9
$USERR4
 40
0.0
  9
$USERR5
 40
0.0
  9
$WORLDVIEW
 70
     1
  9
$SHADEDGE
 70
     3
  9
$SHADEDIF
 70
    70
  9
$TILEMODE
 70
     1
  9
$MAXACTVP
 70
    64
  9
$PINSBASE
 10
0.0
 20
0.0
 30
0.0
  9
$PLIMCHECK
 70
     0
  9
$PEXTMIN
 10
1.000000000000000E+20
 20
1.000000000000000E+20
 30
1.000000000000000E+20
  9
$PEXTMAX
 10
-1.000000000000000E+20
 20
-1.000000000000000E+20
 30
-1.000000000000000E+20
  9
$PLIMMIN
 10
0.0
 20
0.0
  9
$PLIMMAX
 10
12.0
 20
9.0
  9
$UNITMODE
 70
     0
  9
$VISRETAIN
 70
     1
  9
$PLINEGEN
 70
     0
  9
$PSLTSCALE
 70
     1
  9
$TREEDEPTH
 70
  3020
  9
$CMLSTYLE
  2
Standard
  9
$CMLJUST
 70
     0
  9
$CMLSCALE
 40
1.0
  9
$PROXYGRAPHICS
 70
     1
  9
$MEASUREMENT
 70
     0
  9
$CELWEIGHT
370
    -1
  9
$ENDCAPS
280
     0
  9
$JOINSTYLE
280
     0
  9
$LWDISPLAY
290
     0
  9
$INSUNITS
 70
     0
  9
$HYPERLINKBASE
  1

  9
$STYLESHEET
  1

  9
$XEDIT
290
     1
  9
$CEPSNTYPE
380
     0
  9
$PSTYLEMODE
290
     1
  9
$FINGERPRINTGUID
  2
{1231E534-0550-4D63-BFD1-CC18F672E473}
  9
$VERSIONGUID
  2
{0529517A-C7E7-45DC-A23A-25D2979A0902}
  9
$EXTNAMES
290
     1
  9
$PSVPSCALE
 40
0.0
  9
$OLESTARTUP
290
     0
  0
ENDSEC
  0
SECTION
  2
CLASSES
  0
CLASS
  1
ACDBDICTIONARYWDFLT
  2
AcDbDictionaryWithDefault
  3
AutoCAD 2000
 90
        0
280
     0
281
     0
  0
CLASS
  1
ACDBPLACEHOLDER
  2
AcDbPlaceHolder
  3
AutoCAD 2000
 90
        0
280
     0
281
     0
  0
CLASS
  1
LAYOUT
  2
AcDbLayout
  3
AutoCAD 2000
 90
        0
280
     0
281
     0
  0
CLASS
  1
DICTIONARYVAR
  2
AcDbDictionaryVar
  3
AutoCAD 2000
 90
        0
280
     0
281
     0
  0
ENDSEC
  0
SECTION
  2
TABLES
  0
TABLE
  2
VPORT
  5
8
330
0
100
AcDbSymbolTable
 70
     4
  0
VPORT
  5
1B0
330
8
100
AcDbSymbolTableRecord
100
AcDbViewportTableRecord
  2
*Active
 70
     0
 10
0.0
 20
0.0
 11
1.0
 21
1.0
 12
433.0
 22
75.16799999999999
 13
0.0
 23
0.0
 14
1.0
 24
1.0
 15
0.0
 25
0.0
 16
0.0
 26
0.0
 36
1.0
 17
0.0
 27
0.0
 37
0.0
 40
419.0423023771431
 41
2.073363431151241
 42
50.0
 43
0.0
 44
0.0
 50
0.0
 51
0.0
 71
     0
 72
   100
 73
     1
 74
     3
 75
     0
 76
     0
 77
     0
 78
     0
281
     0
 65
     1
110
0.0
120
0.0
130
0.0
111
1.0
121
0.0
131
0.0
112
0.0
122
1.0
132
0.0
 79
     1
146
0.0
  0
ENDTAB
  0
TABLE
  2
LTYPE
  5
5
330
0
100
AcDbSymbolTable
 70
     1
  0
LTYPE
  5
13
330
5
100
AcDbSymbolTableRecord
100
AcDbLinetypeTableRecord
  2
ByBlock
 70
     0
  3

 72
    65
 73
     0
 40
0.0
  0
LTYPE
  5
14
330
5
100
AcDbSymbolTableRecord
100
AcDbLinetypeTableRecord
  2
ByLayer
 70
     0
  3

 72
    65
 73
     0
 40
0.0
  0
LTYPE
  5
15
330
5
100
AcDbSymbolTableRecord
100
AcDbLinetypeTableRecord
  2
Continuous
 70
     0
  3
Solid line
 72
    65
 73
     0
 40
0.0
  0
ENDTAB
  0
TABLE
  2
LAYER
  5
2
330
0
100
AcDbSymbolTable
 70
     1
  0
LAYER
  5
10
330
2
100
AcDbSymbolTableRecord
100
AcDbLayerTableRecord
  2
0
 70
     0
 62
     7
  6
Continuous
370
    -3
390
F
  0
ENDTAB
  0
TABLE
  2
STYLE
  5
3
330
0
100
AcDbSymbolTable
 70
     1
  0
STYLE
  5
11
330
3
100
AcDbSymbolTableRecord
100
AcDbTextStyleTableRecord
  2
Standard
 70
     0
 40
0.0
 41
1.0
 50
0.0
 71
     0
 42
0.2
  3
txt
  4

  0
ENDTAB
  0
TABLE
  2
VIEW
  5
6
330
0
100
AcDbSymbolTable
 70
     0
  0
ENDTAB
  0
TABLE
  2
UCS
  5
7
330
0
100
AcDbSymbolTable
 70
     0
  0
ENDTAB
  0
TABLE
  2
APPID
  5
9
330
0
100
AcDbSymbolTable
 70
     1
  0
APPID
  5
12
330
9
100
AcDbSymbolTableRecord
100
AcDbRegAppTableRecord
  2
ACAD
 70
     0
  0
ENDTAB
  0
TABLE
  2
DIMSTYLE
  5
A
330
0
100
AcDbSymbolTable
 70
     1
100
AcDbDimStyleTable
 71
     0
  0
DIMSTYLE
105
1A6
330
A
100
AcDbSymbolTableRecord
100
AcDbDimStyleTableRecord
  2
Standard
 70
     0
340
11
  0
ENDTAB
  0
TABLE
  2
BLOCK_RECORD
  5
1
330
0
100
AcDbSymbolTable
 70
     0
  0
BLOCK_RECORD
  5
1E
330
1
100
AcDbSymbolTableRecord
100
AcDbBlockTableRecord
  2
*Model_Space
340
21
  0
BLOCK_RECORD
  5
1A
330
1
100
AcDbSymbolTableRecord
100
AcDbBlockTableRecord
  2
*Paper_Space
340
1D
  0
ENDTAB
  0
ENDSEC
  0
SECTION
  2
BLOCKS
  0
BLOCK
  5
1F
330
1E
100
AcDbEntity
  8
0
100
AcDbBlockBegin
  2
*Model_Space
 70
     0
 10
0.0
 20
0.0
 30
0.0
  3
*Model_Space
  1

  0
ENDBLK
  5
20
330
1E
100
AcDbEntity
  8
0
100
AcDbBlockEnd
  0
BLOCK
  5
1B
330
1A
100
AcDbEntity
 67
     1
  8
0
100
AcDbBlockBegin
  2
*Paper_Space
 70
     0
 10
0.0
 20
0.0
 30
0.0
  3
*Paper_Space
  1

  0
ENDBLK
  5
1C
330
1A
100
AcDbEntity
 67
     1
  8
0
100
AcDbBlockEnd
  0
ENDSEC
  0
SECTION
  2
ENTITIES
  0
LINE
  5
22
330
1E
100
AcDbEntity
  8
0
100
AcDbLine
 10
0.8849999999999999
 20
103.055
 30
0.0
 11
2.961
 21
103.055
 31
0.0
  0
LINE
  5
23
330
1E
100
AcDbEntity
  8
0
100
AcDbLine
 10
1.78
 20
103.055
 30
0.0
 11
6.224
 21
103.055
 31
0.0
  0
LINE
  5
24
330
1E
100
AcDbEntity
  8
0
100
AcDbLine
 10
1.78
 20
103.055
 30
0.0
 11
6.224
 21
103.055
 31
0.0
  0
LINE
  5
25
330
1E
100
AcDbEntity
  8
0
100
AcDbLine
 10
0.0
 20
103.055
 30
0.0
 11
1.78
 21
103.055
 31
0.0
  0
LINE
  5
26
330
1E
100
AcDbEntity
  8
0
100
AcDbLine
 10
0.0
 20
103.055
 30
0.0
 11
0.8849999999999999
 21
103.055
 31
0.0
  0
LINE
  5
27
330
1E
100
AcDbEntity
  8
0
100
AcDbLine
 10
2.961
 20
103.055
 30
0.0
 11
6.222999999999999
 21
103.055
 31
0.0
  0
LINE
  5
28
330
1E
100
AcDbEntity
  8
0
100
AcDbLine
 10
6.222999999999999
 20
103.055
 30
0.0
 11
8.227999999999999
 21
103.055
 31
0.0
  0
LINE
  5
29
330
1E
100
AcDbEntity
  8
0
100
AcDbLine
 10
7.479
 20
103.055
 30
0.0
 11
9.817999999999999
 21
103.055
 31
0.0
  0
LINE
  5
2A
330
1E
100
AcDbEntity
  8
0
100
AcDbLine
 10
6.224
 20
103.055
 30
0.0
 11
7.479
 21
103.055
 31
0.0
  0
LINE
  5
2B
330
1E
100
AcDbEntity
  8
0
100
AcDbLine
 10
3.478
 20
149.1179999999999
 30
0.0
 11
4.86
 21
150.21
 31
0.0
  0
LINE
  5
2C
330
1E
100
AcDbEntity
  8
0
100
AcDbLine
 10
4.86
 20
150.21
 30
0.0
 11
6.617999999999999
 21
150.336
 31
0.0
  0
LINE
  5
2D
330
1E
100
AcDbEntity
  8
0
100
AcDbLine
 10
2.944999999999999
 20
147.4389999999999
 30
0.0
 11
3.478
 21
149.1179999999999
 31
0.0
  0
LINE
  5
2E
330
1E
100
AcDbEntity
  8
0
100
AcDbLine
 10
6.617999999999999
 20
150.336
 30
0.0
 11
188.0059999999999
 21
150.336
 31
0.0
  0
LINE
  5
2F
330
1E
100
AcDbEntity
  8
0
100
AcDbLine
 10
8.227999999999999
 20
103.055
 30
0.0
 11
12.244
 21
103.055
 31
0.0
  0
LINE
  5
30
330
1E
100
AcDbEntity
  8
0
100
AcDbLine
 10
12.244
 20
103.055
 30
0.0
 11
18.01099999999999
 21
103.055
 31
0.0
  0
LINE
  5
31
330
1E
100
AcDbEntity
  8
0
100
AcDbLine
 10
9.817999999999999
 20
103.055
 30
0.0
 11
14.667
 21
103.055
 31
0.0
  0
LINE
  5
32
330
1E
100
AcDbEntity
  8
0
100
AcDbLine
 10
13.015
 20
103.055
 30
0.0
 11
14.786
 21
103.055
 31
0.0
  0
LINE
  5
33
330
1E
100
AcDbEntity
  8
0
100
AcDbLine
 10
18.01099999999999
 20
103.055
 30
0.0
 11
25.146
 21
103.055
 31
0.0
  0
LINE
  5
34
330
1E
100
AcDbEntity
  8
0
100
AcDbLine
 10
14.667
 20
103.055
 30
0.0
 11
21.116
 21
103.055
 31
0.0
  0
LINE
  5
35
330
1E
100
AcDbEntity
  8
0
100
AcDbLine
 10
30.943
 20
103.055
 30
0.0
 11
37.013
 21
103.055
 31
0.0
  0
LINE
  5
36
330
1E
100
AcDbEntity
  8
0
100
AcDbLine
 10
25.146
 20
103.055
 30
0.0
 11
30.943
 21
103.055
 31
0.0
  0
LINE
  5
37
330
1E
100
AcDbEntity
  8
0
100
AcDbLine
 10
37.013
 20
103.055
 30
0.0
 11
97.971
 21
103.055
 31
0.0
  0
LINE
  5
38
330
1E
100
AcDbEntity
  8
0
100
AcDbLine
 10
37.013
 20
103.055
 30
0.0
 11
97.971
 21
103.055
 31
0.0
  0
LINE
  5
39
330
1E
100
AcDbEntity
  8
0
100
AcDbLine
 10
97.971
 20
103.055
 30
0.0
 11
128.896
 21
103.055
 31
0.0
  0
LINE
  5
3A
330
1E
100
AcDbEntity
  8
0
100
AcDbLine
 10
130.055
 20
103.055
 30
0.0
 11
131.065
 21
103.055
 31
0.0
  0
LINE
  5
3B
330
1E
100
AcDbEntity
  8
0
100
AcDbLine
 10
131.065
 20
103.055
 30
0.0
 11
131.866
 21
103.055
 31
0.0
  0
LINE
  5
3C
330
1E
100
AcDbEntity
  8
0
100
AcDbLine
 10
131.866
 20
103.055
 30
0.0
 11
136.654
 21
103.055
 31
0.0
  0
LINE
  5
3D
330
1E
100
AcDbEntity
  8
0
100
AcDbLine
 10
130.061
 20
103.055
 30
0.0
 11
131.065
 21
103.055
 31
0.0
  0
LINE
  5
3E
330
1E
100
AcDbEntity
  8
0
100
AcDbLine
 10
128.896
 20
103.055
 30
0.0
 11
130.061
 21
103.055
 31
0.0
  0
LINE
  5
3F
330
1E
100
AcDbEntity
  8
0
100
AcDbLine
 10
128.896
 20
103.055
 30
0.0
 11
130.055
 21
103.055
 31
0.0
  0
LINE
  5
40
330
1E
100
AcDbEntity
  8
0
100
AcDbLine
 10
138.4099999999999
 20
103.055
 30
0.0
 11
141.023
 21
103.055
 31
0.0
  0
LINE
  5
41
330
1E
100
AcDbEntity
  8
0
100
AcDbLine
 10
136.6559999999999
 20
103.055
 30
0.0
 11
138.4099999999999
 21
103.055
 31
0.0
  0
LINE
  5
42
330
1E
100
AcDbEntity
  8
0
100
AcDbLine
 10
141.023
 20
103.055
 30
0.0
 11
143.146
 21
103.055
 31
0.0
  0
LINE
  5
43
330
1E
100
AcDbEntity
  8
0
100
AcDbLine
 10
143.146
 20
103.055
 30
0.0
 11
143.651
 21
103.055
 31
0.0
  0
LINE
  5
44
330
1E
100
AcDbEntity
  8
0
100
AcDbLine
 10
136.654
 20
103.055
 30
0.0
 11
143.9379999999999
 21
103.055
 31
0.0
  0
LINE
  5
45
330
1E
100
AcDbEntity
  8
0
100
AcDbLine
 10
132.299
 20
103.055
 30
0.0
 11
134.442
 21
103.055
 31
0.0
  0
LINE
  5
46
330
1E
100
AcDbEntity
  8
0
100
AcDbLine
 10
129.5169999999999
 20
103.055
 30
0.0
 11
132.299
 21
103.055
 31
0.0
  0
LINE
  5
47
330
1E
100
AcDbEntity
  8
0
100
AcDbLine
 10
97.971
 20
103.055
 30
0.0
 11
129.5169999999999
 21
103.055
 31
0.0
  0
LINE
  5
48
330
1E
100
AcDbEntity
  8
0
100
AcDbLine
 10
37.80599999999999
 20
103.055
 30
0.0
 11
97.971
 21
103.055
 31
0.0
  0
LINE
  5
49
330
1E
100
AcDbEntity
  8
0
100
AcDbLine
 10
31.29699999999999
 20
103.055
 30
0.0
 11
37.80599999999999
 21
103.055
 31
0.0
  0
LINE
  5
4A
330
1E
100
AcDbEntity
  8
0
100
AcDbLine
 10
21.244
 20
103.055
 30
0.0
 11
25.653
 21
103.055
 31
0.0
  0
LINE
  5
4B
330
1E
100
AcDbEntity
  8
0
100
AcDbLine
 10
19.16
 20
103.055
 30
0.0
 11
21.244
 21
103.055
 31
0.0
  0
LINE
  5
4C
330
1E
100
AcDbEntity
  8
0
100
AcDbLine
 10
14.786
 20
103.055
 30
0.0
 11
19.16
 21
103.055
 31
0.0
  0
LINE
  5
4D
330
1E
100
AcDbEntity
  8
0
100
AcDbLine
 10
14.284
 20
103.055
 30
0.0
 11
19.16
 21
103.055
 31
0.0
  0
LINE
  5
4E
330
1E
100
AcDbEntity
  8
0
100
AcDbLine
 10
37.013
 20
103.055
 30
0.0
 11
97.97200000000001
 21
103.055
 31
0.0
  0
LINE
  5
4F
330
1E
100
AcDbEntity
  8
0
100
AcDbLine
 10
21.116
 20
103.055
 30
0.0
 11
28.728
 21
103.055
 31
0.0
  0
LINE
  5
50
330
1E
100
AcDbEntity
  8
0
100
AcDbLine
 10
37.013
 20
103.055
 30
0.0
 11
97.97200000000001
 21
103.055
 31
0.0
  0
LINE
  5
51
330
1E
100
AcDbEntity
  8
0
100
AcDbLine
 10
97.97200000000001
 20
103.055
 30
0.0
 11
120.6729999999999
 21
103.055
 31
0.0
  0
LINE
  5
52
330
1E
100
AcDbEntity
  8
0
100
AcDbLine
 10
120.6729999999999
 20
103.055
 30
0.0
 11
122.3779999999999
 21
103.055
 31
0.0
  0
LINE
  5
53
330
1E
100
AcDbEntity
  8
0
100
AcDbLine
 10
123.3129999999999
 20
103.055
 30
0.0
 11
123.7119999999999
 21
103.055
 31
0.0
  0
LINE
  5
54
330
1E
100
AcDbEntity
  8
0
100
AcDbLine
 10
122.3779999999999
 20
103.055
 30
0.0
 11
123.3129999999999
 21
103.055
 31
0.0
  0
LINE
  5
55
330
1E
100
AcDbEntity
  8
0
100
AcDbLine
 10
28.728
 20
103.055
 30
0.0
 11
37.013
 21
103.055
 31
0.0
  0
LINE
  5
56
330
1E
100
AcDbEntity
  8
0
100
AcDbLine
 10
130.866
 20
103.055
 30
0.0
 11
133.9429999999999
 21
103.055
 31
0.0
  0
LINE
  5
57
330
1E
100
AcDbEntity
  8
0
100
AcDbLine
 10
133.9429999999999
 20
103.055
 30
0.0
 11
139.127
 21
103.055
 31
0.0
  0
LINE
  5
58
330
1E
100
AcDbEntity
  8
0
100
AcDbLine
 10
129.706
 20
103.055
 30
0.0
 11
130.866
 21
103.055
 31
0.0
  0
LINE
  5
59
330
1E
100
AcDbEntity
  8
0
100
AcDbLine
 10
123.7119999999999
 20
103.055
 30
0.0
 11
129.706
 21
103.055
 31
0.0
  0
LINE
  5
5A
330
1E
100
AcDbEntity
  8
0
100
AcDbLine
 10
139.127
 20
103.055
 30
0.0
 11
146.203
 21
103.055
 31
0.0
  0
LINE
  5
5B
330
1E
100
AcDbEntity
  8
0
100
AcDbLine
 10
142.622
 20
103.055
 30
0.0
 11
143.414
 21
103.055
 31
0.0
  0
LINE
  5
5C
330
1E
100
AcDbEntity
  8
0
100
AcDbLine
 10
141.549
 20
103.055
 30
0.0
 11
142.622
 21
103.055
 31
0.0
  0
LINE
  5
5D
330
1E
100
AcDbEntity
  8
0
100
AcDbLine
 10
137.793
 20
103.055
 30
0.0
 11
138.5229999999999
 21
103.055
 31
0.0
  0
LINE
  5
5E
330
1E
100
AcDbEntity
  8
0
100
AcDbLine
 10
97.97200000000001
 20
103.055
 30
0.0
 11
136.6559999999999
 21
103.055
 31
0.0
  0
LINE
  5
5F
330
1E
100
AcDbEntity
  8
0
100
AcDbLine
 10
143.9379999999999
 20
103.055
 30
0.0
 11
149.786
 21
103.055
 31
0.0
  0
LINE
  5
60
330
1E
100
AcDbEntity
  8
0
100
AcDbLine
 10
143.651
 20
103.055
 30
0.0
 11
143.887
 21
103.055
 31
0.0
  0
LINE
  5
61
330
1E
100
AcDbEntity
  8
0
100
AcDbLine
 10
146.203
 20
103.055
 30
0.0
 11
155.2259999999999
 21
103.055
 31
0.0
  0
LINE
  5
62
330
1E
100
AcDbEntity
  8
0
100
AcDbLine
 10
144.537
 20
103.055
 30
0.0
 11
144.8679999999999
 21
103.055
 31
0.0
  0
LINE
  5
63
330
1E
100
AcDbEntity
  8
0
100
AcDbLine
 10
148.8189999999999
 20
103.055
 30
0.0
 11
155.662
 21
103.055
 31
0.0
  0
LINE
  5
64
330
1E
100
AcDbEntity
  8
0
100
AcDbLine
 10
143.414
 20
103.055
 30
0.0
 11
143.7969999999999
 21
103.055
 31
0.0
  0
LINE
  5
65
330
1E
100
AcDbEntity
  8
0
100
AcDbLine
 10
145.3829999999999
 20
103.055
 30
0.0
 11
148.8189999999999
 21
103.055
 31
0.0
  0
LINE
  5
66
330
1E
100
AcDbEntity
  8
0
100
AcDbLine
 10
156.3989999999999
 20
103.055
 30
0.0
 11
163.6179999999999
 21
103.055
 31
0.0
  0
LINE
  5
67
330
1E
100
AcDbEntity
  8
0
100
AcDbLine
 10
155.2259999999999
 20
103.055
 30
0.0
 11
165.5379999999999
 21
103.055
 31
0.0
  0
LINE
  5
68
330
1E
100
AcDbEntity
  8
0
100
AcDbLine
 10
149.786
 20
103.055
 30
0.0
 11
156.3989999999999
 21
103.055
 31
0.0
  0
LINE
  5
69
330
1E
100
AcDbEntity
  8
0
100
AcDbLine
 10
148.8189999999999
 20
103.055
 30
0.0
 11
154.335
 21
103.055
 31
0.0
  0
LINE
  5
6A
330
1E
100
AcDbEntity
  8
0
100
AcDbLine
 10
136.148
 20
130.6979999999999
 30
0.0
 11
138.769
 21
130.705
 31
0.0
  0
LINE
  5
6B
330
1E
100
AcDbEntity
  8
0
100
AcDbLine
 10
144.549
 20
130.7069999999999
 30
0.0
 11
151.964
 21
130.71
 31
0.0
  0
LINE
  5
6C
330
1E
100
AcDbEntity
  8
0
100
AcDbLine
 10
151.964
 20
130.71
 30
0.0
 11
161.081
 21
130.715
 31
0.0
  0
LINE
  5
6D
330
1E
100
AcDbEntity
  8
0
100
AcDbLine
 10
138.769
 20
130.705
 30
0.0
 11
144.549
 21
130.7069999999999
 31
0.0
  0
LINE
  5
6E
330
1E
100
AcDbEntity
  8
0
100
AcDbLine
 10
130.5339999999999
 20
130.71
 30
0.0
 11
136.148
 21
130.6979999999999
 31
0.0
  0
LINE
  5
6F
330
1E
100
AcDbEntity
  8
0
100
AcDbLine
 10
129.836
 20
130.71
 30
0.0
 11
130.5339999999999
 21
130.71
 31
0.0
  0
LINE
  5
70
330
1E
100
AcDbEntity
  8
0
100
AcDbLine
 10
154.335
 20
103.055
 30
0.0
 11
161.597
 21
103.055
 31
0.0
  0
LINE
  5
71
330
1E
100
AcDbEntity
  8
0
100
AcDbLine
 10
163.6179999999999
 20
103.055
 30
0.0
 11
171.2849999999999
 21
103.055
 31
0.0
  0
LINE
  5
72
330
1E
100
AcDbEntity
  8
0
100
AcDbLine
 10
165.5379999999999
 20
103.055
 30
0.0
 11
176.669
 21
103.055
 31
0.0
  0
LINE
  5
73
330
1E
100
AcDbEntity
  8
0
100
AcDbLine
 10
171.2849999999999
 20
103.055
 30
0.0
 11
182.648
 21
103.055
 31
0.0
  0
LINE
  5
74
330
1E
100
AcDbEntity
  8
0
100
AcDbLine
 10
180.8779999999999
 20
103.055
 30
0.0
 11
191.0829999999999
 21
103.055
 31
0.0
  0
LINE
  5
75
330
1E
100
AcDbEntity
  8
0
100
AcDbLine
 10
176.669
 20
103.055
 30
0.0
 11
180.8779999999999
 21
103.055
 31
0.0
  0
LINE
  5
76
330
1E
100
AcDbEntity
  8
0
100
AcDbLine
 10
171.995
 20
103.055
 30
0.0
 11
177.567
 21
103.055
 31
0.0
  0
LINE
  5
77
330
1E
100
AcDbEntity
  8
0
100
AcDbLine
 10
161.597
 20
103.055
 30
0.0
 11
171.995
 21
103.055
 31
0.0
  0
LINE
  5
78
330
1E
100
AcDbEntity
  8
0
100
AcDbLine
 10
161.081
 20
130.715
 30
0.0
 11
172.909
 21
130.719
 31
0.0
  0
LINE
  5
79
330
1E
100
AcDbEntity
  8
0
100
AcDbLine
 10
172.909
 20
130.719
 30
0.0
 11
181.074
 21
130.715
 31
0.0
  0
LINE
  5
7A
330
1E
100
AcDbEntity
  8
0
100
AcDbLine
 10
182.648
 20
103.055
 30
0.0
 11
206.342518004426
 21
103.055
 31
0.0
  0
LINE
  5
7B
330
1E
100
AcDbEntity
  8
0
100
AcDbLine
 10
181.074
 20
130.715
 30
0.0
 11
234.878
 21
130.715
 31
0.0
  0
LINE
  5
A5
330
1E
100
AcDbEntity
  8
0
100
AcDbLine
 10
188.0059999999999
 20
150.336
 30
0.0
 11
189.3259999999999
 21
150.336
 31
0.0
  0
LINE
  5
A6
330
1E
100
AcDbEntity
  8
0
100
AcDbLine
 10
191.0829999999999
 20
103.055
 30
0.0
 11
285.6129999999999
 21
103.055
 31
0.0
  0
LINE
  5
A7
330
1E
100
AcDbEntity
  8
0
100
AcDbLine
 10
430.712
 20
-0.0000000000000126
 30
0.0
 11
437.7149999999999
 21
-0.0000000000000126
 31
0.0
  0
LINE
  5
A8
330
1E
100
AcDbEntity
  8
0
100
AcDbLine
 10
437.7149999999999
 20
-0.0000000000000126
 30
0.0
 11
448.186
 21
-0.0000000000000126
 31
0.0
  0
LINE
  5
A9
330
1E
100
AcDbEntity
  8
0
100
AcDbLine
 10
461.469
 20
-0.0000000000000126
 30
0.0
 11
476.729
 21
-0.0000000000000126
 31
0.0
  0
LINE
  5
AA
330
1E
100
AcDbEntity
  8
0
100
AcDbLine
 10
476.729
 20
-0.0000000000000126
 30
0.0
 11
493.01
 21
-0.0000000000000126
 31
0.0
  0
LINE
  5
AB
330
1E
100
AcDbEntity
  8
0
100
AcDbLine
 10
448.186
 20
-0.0000000000000126
 30
0.0
 11
461.469
 21
-0.0000000000000126
 31
0.0
  0
LINE
  5
AC
330
1E
100
AcDbEntity
  8
0
100
AcDbLine
 10
428.826
 20
-0.0000000000000084
 30
0.0
 11
430.712
 21
-0.0000000000000126
 31
0.0
  0
LINE
  5
AD
330
1E
100
AcDbEntity
  8
0
100
AcDbLine
 10
440.5549999999999
 20
-0.0000000000000084
 30
0.0
 11
449.509
 21
-0.0000000000000042
 31
0.0
  0
LINE
  5
AE
330
1E
100
AcDbEntity
  8
0
100
AcDbLine
 10
435.5339999999999
 20
-0.0000000000000084
 30
0.0
 11
440.5549999999999
 21
-0.0000000000000084
 31
0.0
  0
LINE
  5
AF
330
1E
100
AcDbEntity
  8
0
100
AcDbLine
 10
431.6709999999999
 20
-0.0000000000000084
 30
0.0
 11
435.5339999999999
 21
-0.0000000000000084
 31
0.0
  0
LINE
  5
B0
330
1E
100
AcDbEntity
  8
0
100
AcDbLine
 10
428.505
 20
-0.0000000000000084
 30
0.0
 11
431.6709999999999
 21
-0.0000000000000084
 31
0.0
  0
LINE
  5
B1
330
1E
100
AcDbEntity
  8
0
100
AcDbLine
 10
427.448
 20
-0.0000000000000084
 30
0.0
 11
428.505
 21
-0.0000000000000084
 31
0.0
  0
LINE
  5
B2
330
1E
100
AcDbEntity
  8
0
100
AcDbLine
 10
427.448
 20
-0.0000000000000084
 30
0.0
 11
428.826
 21
-0.0000000000000084
 31
0.0
  0
LINE
  5
B3
330
1E
100
AcDbEntity
  8
0
100
AcDbLine
 10
476.355
 20
-0.0000000000000084
 30
0.0
 11
483.9509999999999
 21
-0.0000000000000084
 31
0.0
  0
LINE
  5
B4
330
1E
100
AcDbEntity
  8
0
100
AcDbLine
 10
471.453
 20
-0.0000000000000084
 30
0.0
 11
476.355
 21
-0.0000000000000084
 31
0.0
  0
LINE
  5
B5
330
1E
100
AcDbEntity
  8
0
100
AcDbLine
 10
470.0369999999999
 20
-0.0000000000000084
 30
0.0
 11
472.095
 21
-0.0000000000000084
 31
0.0
  0
LINE
  5
B6
330
1E
100
AcDbEntity
  8
0
100
AcDbLine
 10
470.0369999999999
 20
-0.0000000000000084
 30
0.0
 11
471.453
 21
-0.0000000000000084
 31
0.0
  0
LINE
  5
B7
330
1E
100
AcDbEntity
  8
0
100
AcDbLine
 10
472.095
 20
-0.0000000000000084
 30
0.0
 11
477.1459999999999
 21
-0.0000000000000084
 31
0.0
  0
LINE
  5
B8
330
1E
100
AcDbEntity
  8
0
100
AcDbLine
 10
483.9509999999999
 20
-0.0000000000000084
 30
0.0
 11
493.01
 21
-0.0000000000000084
 31
0.0
  0
LINE
  5
B9
330
1E
100
AcDbEntity
  8
0
100
AcDbLine
 10
477.1459999999999
 20
-0.0000000000000084
 30
0.0
 11
484.4669999999999
 21
-0.0000000000000126
 31
0.0
  0
LINE
  5
BA
330
1E
100
AcDbEntity
  8
0
100
AcDbLine
 10
484.4669999999999
 20
-0.0000000000000126
 30
0.0
 11
493.01
 21
-0.0000000000000126
 31
0.0
  0
LINE
  5
BB
330
1E
100
AcDbEntity
  8
0
100
AcDbLine
 10
501.555
 20
-0.0000000000000126
 30
0.0
 11
508.8759999999999
 21
-0.0000000000000084
 31
0.0
  0
LINE
  5
BC
330
1E
100
AcDbEntity
  8
0
100
AcDbLine
 10
493.01
 20
-0.0000000000000126
 30
0.0
 11
501.555
 21
-0.0000000000000126
 31
0.0
  0
LINE
  5
BD
330
1E
100
AcDbEntity
  8
0
100
AcDbLine
 10
493.01
 20
-0.0000000000000126
 30
0.0
 11
509.2929999999999
 21
-0.0000000000000126
 31
0.0
  0
LINE
  5
BE
330
1E
100
AcDbEntity
  8
0
100
AcDbLine
 10
493.01
 20
-0.0000000000000084
 30
0.0
 11
502.0719999999999
 21
-0.0000000000000084
 31
0.0
  0
LINE
  5
BF
330
1E
100
AcDbEntity
  8
0
100
AcDbLine
 10
509.2929999999999
 20
-0.0000000000000126
 30
0.0
 11
524.554
 21
-0.0000000000000126
 31
0.0
  0
LINE
  5
C0
330
1E
100
AcDbEntity
  8
0
100
AcDbLine
 10
513.927
 20
-0.0000000000000084
 30
0.0
 11
515.986
 21
-0.0000000000000084
 31
0.0
  0
LINE
  5
C1
330
1E
100
AcDbEntity
  8
0
100
AcDbLine
 10
508.8759999999999
 20
-0.0000000000000084
 30
0.0
 11
513.927
 21
-0.0000000000000084
 31
0.0
  0
LINE
  5
C2
330
1E
100
AcDbEntity
  8
0
100
AcDbLine
 10
502.0719999999999
 20
-0.0000000000000084
 30
0.0
 11
509.6669999999999
 21
-0.0000000000000084
 31
0.0
  0
LINE
  5
C3
330
1E
100
AcDbEntity
  8
0
100
AcDbLine
 10
449.509
 20
-0.0000000000000042
 30
0.0
 11
462.5519999999999
 21
-0.0000000000000042
 31
0.0
  0
LINE
  5
C4
330
1E
100
AcDbEntity
  8
0
100
AcDbLine
 10
424.455
 20
9.64119999999999
 30
0.0
 11
427.448
 21
-0.0000000000000084
 31
0.0
  0
LINE
  5
C5
330
1E
100
AcDbEntity
  8
0
100
AcDbLine
 10
418.433
 20
17.7435
 30
0.0
 11
424.455
 21
9.64119999999999
 31
0.0
  0
LINE
  5
C6
330
1E
100
AcDbEntity
  8
0
100
AcDbLine
 10
462.5519999999999
 20
-0.0000000000000042
 30
0.0
 11
471.0329999999999
 21
-0.0000000000000042
 31
0.0
  0
LINE
  5
C7
330
1E
100
AcDbEntity
  8
0
100
AcDbLine
 10
471.0329999999999
 20
-0.0000000000000042
 30
0.0
 11
486.47
 21
-0.0000000000000042
 31
0.0
  0
LINE
  5
C8
330
1E
100
AcDbEntity
  8
0
100
AcDbLine
 10
493.0159999999999
 20
-0.0000000000000042
 30
0.0
 11
502.174
 21
-0.0000000000000042
 31
0.0
  0
LINE
  5
C9
330
1E
100
AcDbEntity
  8
0
100
AcDbLine
 10
502.174
 20
-0.0000000000000042
 30
0.0
 11
517.4640000000001
 21
-0.0000000000000042
 31
0.0
  0
LINE
  5
CA
330
1E
100
AcDbEntity
  8
0
100
AcDbLine
 10
486.47
 20
-0.0000000000000042
 30
0.0
 11
493.0159999999999
 21
-0.0000000000000042
 31
0.0
  0
LINE
  5
CB
330
1E
100
AcDbEntity
  8
0
100
AcDbLine
 10
509.6669999999999
 20
-0.0000000000000084
 30
0.0
 11
514.569
 21
-0.0000000000000084
 31
0.0
  0
LINE
  5
CC
330
1E
100
AcDbEntity
  8
0
100
AcDbLine
 10
537.834
 20
-0.0000000000000126
 30
0.0
 11
548.306
 21
-0.0000000000000126
 31
0.0
  0
LINE
  5
CD
330
1E
100
AcDbEntity
  8
0
100
AcDbLine
 10
548.306
 20
-0.0000000000000126
 30
0.0
 11
555.3099999999999
 21
-0.0000000000000126
 31
0.0
  0
LINE
  5
CE
330
1E
100
AcDbEntity
  8
0
100
AcDbLine
 10
555.3099999999999
 20
-0.0000000000000126
 30
0.0
 11
557.464
 21
-0.0000000000000084
 31
0.0
  0
LINE
  5
CF
330
1E
100
AcDbEntity
  8
0
100
AcDbLine
 10
542.131
 20
-0.0000000000000084
 30
0.0
 11
551.1099999999999
 21
-0.0000000000000084
 31
0.0
  0
LINE
  5
D0
330
1E
100
AcDbEntity
  8
0
100
AcDbLine
 10
517.4640000000001
 20
-0.0000000000000042
 30
0.0
 11
531.346
 21
-0.0000000000000042
 31
0.0
  0
LINE
  5
D1
330
1E
100
AcDbEntity
  8
0
100
AcDbLine
 10
531.346
 20
-0.0000000000000042
 30
0.0
 11
542.131
 21
-0.0000000000000084
 31
0.0
  0
LINE
  5
D2
330
1E
100
AcDbEntity
  8
0
100
AcDbLine
 10
551.1099999999999
 20
-0.0000000000000084
 30
0.0
 11
556.5339999999999
 21
-0.0000000000000084
 31
0.0
  0
LINE
  5
D3
330
1E
100
AcDbEntity
  8
0
100
AcDbLine
 10
558.572
 20
-0.0000000000000084
 30
0.0
 11
561.567
 21
9.64119999999999
 31
0.0
  0
LINE
  5
D4
330
1E
100
AcDbEntity
  8
0
100
AcDbLine
 10
557.464
 20
-0.0000000000000084
 30
0.0
 11
558.572
 21
-0.0000000000000084
 31
0.0
  0
LINE
  5
D5
330
1E
100
AcDbEntity
  8
0
100
AcDbLine
 10
556.5339999999999
 20
-0.0000000000000084
 30
0.0
 11
558.572
 21
-0.0000000000000084
 31
0.0
  0
LINE
  5
D6
330
1E
100
AcDbEntity
  8
0
100
AcDbLine
 10
524.554
 20
-0.0000000000000126
 30
0.0
 11
537.834
 21
-0.0000000000000126
 31
0.0
  0
LINE
  5
D7
330
1E
100
AcDbEntity
  8
0
100
AcDbLine
 10
561.567
 20
9.64119999999999
 30
0.0
 11
567.59
 21
17.7435
 31
0.0
  0
LINE
  5
D8
330
1E
100
AcDbEntity
  8
0
100
AcDbLine
 10
567.59
 20
17.7435
 30
0.0
 11
575.8893728963069
 21
23.34252728791349
 31
0.0
  0
LINE
  5
D9
330
1E
100
AcDbEntity
  8
0
100
AcDbLine
 10
514.569
 20
-0.0000000000000084
 30
0.0
 11
515.986
 21
-0.0000000000000084
 31
0.0
  0
LINE
  5
DA
330
1E
100
AcDbEntity
  8
0
100
AcDbLine
 10
274.3259999999999
 20
75.04000000000001
 30
0.0
 11
276.2169999999999
 21
75.04000000000001
 31
0.0
  0
LINE
  5
DB
330
1E
100
AcDbEntity
  8
0
100
AcDbLine
 10
275.903
 20
75.04000000000001
 30
0.0
 11
280.429
 21
75.04000000000001
 31
0.0
  0
LINE
  5
DD
330
1E
100
AcDbEntity
  8
0
100
AcDbLine
 10
271.341
 20
76.074
 30
0.0
 11
274.3259999999999
 21
75.04000000000001
 31
0.0
  0
LINE
  5
DF
330
1E
100
AcDbEntity
  8
0
100
AcDbLine
 10
285.052
 20
75.04000000000001
 30
0.0
 11
286.172
 21
75.04000000000001
 31
0.0
  0
LINE
  5
E0
330
1E
100
AcDbEntity
  8
0
100
AcDbLine
 10
280.429
 20
75.04000000000001
 30
0.0
 11
286.8
 21
75.04000000000001
 31
0.0
  0
LINE
  5
E1
330
1E
100
AcDbEntity
  8
0
100
AcDbLine
 10
287.848
 20
75.04000000000001
 30
0.0
 11
289.5649999999999
 21
75.04000000000001
 31
0.0
  0
LINE
  5
E8
330
1E
100
AcDbEntity
  8
0
100
AcDbLine
 10
320.176
 20
66.31
 30
0.0
 11
326.0480747873929
 21
64.0250038320612
 31
0.0
  0
LINE
  5
E9
330
1E
100
AcDbEntity
  8
0
100
AcDbLine
 10
309.1979999999999
 20
71.03399999999999
 30
0.0
 11
320.176
 21
66.31
 31
0.0
  0
LINE
  5
EE
330
1E
100
AcDbEntity
  8
0
100
AcDbLine
 10
290.799
 20
75.04000000000001
 30
0.0
 11
291.154
 21
75.04000000000001
 31
0.0
  0
LINE
  5
EF
330
1E
100
AcDbEntity
  8
0
100
AcDbLine
 10
289.5649999999999
 20
75.04000000000001
 30
0.0
 11
290.799
 21
75.04000000000001
 31
0.0
  0
LINE
  5
F0
330
1E
100
AcDbEntity
  8
0
100
AcDbLine
 10
289.809
 20
75.04000000000001
 30
0.0
 11
290.9299999999999
 21
75.04000000000001
 31
0.0
  0
LINE
  5
F1
330
1E
100
AcDbEntity
  8
0
100
AcDbLine
 10
286.172
 20
75.04000000000001
 30
0.0
 11
287.848
 21
75.04000000000001
 31
0.0
  0
LINE
  5
F2
330
1E
100
AcDbEntity
  8
0
100
AcDbLine
 10
286.8
 20
75.04000000000001
 30
0.0
 11
299.979720165674
 21
75.04000000000001
 31
0.0
  0
LINE
  5
F3
330
1E
100
AcDbEntity
  8
0
100
AcDbLine
 10
326.0480747873929
 20
64.0250038320612
 30
0.0
 11
418.433
 21
17.7435
 31
0.0
  0
LINE
  5
F4
330
1E
100
AcDbEntity
  8
0
100
AcDbLine
 10
286.415
 20
75.04000000000001
 30
0.0
 11
288.1349999999999
 21
75.04000000000001
 31
0.0
  0
LINE
  5
F5
330
1E
100
AcDbEntity
  8
0
100
AcDbLine
 10
285.181
 20
75.04000000000001
 30
0.0
 11
286.415
 21
75.04000000000001
 31
0.0
  0
LINE
  5
F6
330
1E
100
AcDbEntity
  8
0
100
AcDbLine
 10
285.182
 20
75.04000000000001
 30
0.0
 11
286.416
 21
75.04000000000001
 31
0.0
  0
LINE
  5
F7
330
1E
100
AcDbEntity
  8
0
100
AcDbLine
 10
286.416
 20
75.04000000000001
 30
0.0
 11
288.1349999999999
 21
75.04000000000001
 31
0.0
  0
LINE
  5
F8
330
1E
100
AcDbEntity
  8
0
100
AcDbLine
 10
284.8269999999999
 20
75.04000000000001
 30
0.0
 11
285.053
 21
75.04000000000001
 31
0.0
  0
LINE
  5
F9
330
1E
100
AcDbEntity
  8
0
100
AcDbLine
 10
284.8269999999999
 20
75.04000000000001
 30
0.0
 11
285.182
 21
75.04000000000001
 31
0.0
  0
LINE
  5
FA
330
1E
100
AcDbEntity
  8
0
100
AcDbLine
 10
285.053
 20
75.04000000000001
 30
0.0
 11
286.172
 21
75.04000000000001
 31
0.0
  0
LINE
  5
FB
330
1E
100
AcDbEntity
  8
0
100
AcDbLine
 10
300.3287734124039
 20
75.04000000000001
 30
0.0
 11
309.1979999999999
 21
71.03399999999999
 31
0.0
  0
LINE
  5
FC
330
1E
100
AcDbEntity
  8
0
100
AcDbLine
 10
290.799
 20
75.04000000000001
 30
0.0
 11
291.154
 21
75.04000000000001
 31
0.0
  0
LINE
  5
FD
330
1E
100
AcDbEntity
  8
0
100
AcDbLine
 10
289.5649999999999
 20
75.04000000000001
 30
0.0
 11
290.799
 21
75.04000000000001
 31
0.0
  0
LINE
  5
FE
330
1E
100
AcDbEntity
  8
0
100
AcDbLine
 10
289.809
 20
75.04000000000001
 30
0.0
 11
290.929
 21
75.04000000000001
 31
0.0
  0
LINE
  5
FF
330
1E
100
AcDbEntity
  8
0
100
AcDbLine
 10
287.8469999999999
 20
75.04000000000001
 30
0.0
 11
289.5649999999999
 21
75.04000000000001
 31
0.0
  0
LINE
  5
100
330
1E
100
AcDbEntity
  8
0
100
AcDbLine
 10
288.634
 20
75.04000000000001
 30
0.0
 11
295.532
 21
75.04000000000001
 31
0.0
  0
LINE
  5
101
330
1E
100
AcDbEntity
  8
0
100
AcDbLine
 10
284.8269999999999
 20
75.04000000000001
 30
0.0
 11
285.181
 21
75.04000000000001
 31
0.0
  0
LINE
  5
103
330
1E
100
AcDbEntity
  8
0
100
AcDbLine
 10
238.759
 20
95.631
 30
0.0
 11
251.3799999999999
 21
91.69999999999999
 31
0.0
  0
LINE
  5
104
330
1E
100
AcDbEntity
  8
0
100
AcDbLine
 10
209.132
 20
102.498
 30
0.0
 11
222.33
 21
99.62000000000001
 31
0.0
  0
LINE
  5
105
330
1E
100
AcDbEntity
  8
0
100
AcDbLine
 10
222.33
 20
99.62000000000001
 30
0.0
 11
238.759
 21
95.631
 31
0.0
  0
LINE
  5
106
330
1E
100
AcDbEntity
  8
0
100
AcDbLine
 10
206.342518004426
 20
103.055
 30
0.0
 11
209.132
 21
102.498
 31
0.0
  0
LINE
  5
107
330
1E
100
AcDbEntity
  8
0
100
AcDbLine
 10
251.3799999999999
 20
91.69999999999999
 30
0.0
 11
264.0059999999999
 21
87.68
 31
0.0
  0
LINE
  5
108
330
1E
100
AcDbEntity
  8
0
100
AcDbLine
 10
264.0059999999999
 20
87.68
 30
0.0
 11
267.463127609627
 21
86.55961802564769
 31
0.0
  0
LINE
  5
109
330
1E
100
AcDbEntity
  8
0
100
AcDbLine
 10
263.947
 20
99.646
 30
0.0
 11
269.562
 21
78.748
 31
0.0
  0
LINE
  5
10A
330
1E
100
AcDbEntity
  8
0
100
AcDbLine
 10
262.178281434408
 20
103.055
 30
0.0
 11
263.947
 21
99.646
 31
0.0
  0
LINE
  5
10B
330
1E
100
AcDbEntity
  8
0
100
AcDbLine
 10
192.998
 20
147.4389999999999
 30
0.0
 11
193.415304292662
 21
130.715
 31
0.0
  0
LINE
  5
10C
330
1E
100
AcDbEntity
  8
0
100
AcDbLine
 10
234.878
 20
130.715
 30
0.0
 11
298.897
 21
130.6999999999999
 31
0.0
  0
LINE
  5
10E
330
1E
100
AcDbEntity
  8
0
100
AcDbLine
 10
195.9279999999999
 20
103.055
 30
0.0
 11
321.425
 21
103.055
 31
0.0
  0
LINE
  5
10F
330
1E
100
AcDbEntity
  8
0
100
AcDbLine
 10
380.202
 20
103.055
 30
0.0
 11
493.013
 21
103.055
 31
0.0
  0
LINE
  5
110
330
1E
100
AcDbEntity
  8
0
100
AcDbLine
 10
285.6129999999999
 20
103.055
 30
0.0
 11
380.202
 21
103.055
 31
0.0
  0
LINE
  5
111
330
1E
100
AcDbEntity
  8
0
100
AcDbLine
 10
493.013
 20
103.055
 30
0.0
 11
563.556
 21
103.055
 31
0.0
  0
LINE
  5
112
330
1E
100
AcDbEntity
  8
0
100
AcDbLine
 10
447.032
 20
103.055
 30
0.0
 11
493.013
 21
103.055
 31
0.0
  0
LINE
  5
113
330
1E
100
AcDbEntity
  8
0
100
AcDbLine
 10
458.378
 20
130.632
 30
0.0
 11
493.0109999999999
 21
130.631
 31
0.0
  0
LINE
  5
114
330
1E
100
AcDbEntity
  8
0
100
AcDbLine
 10
421.2909999999999
 20
130.6429999999999
 30
0.0
 11
458.378
 21
130.632
 31
0.0
  0
LINE
  5
115
330
1E
100
AcDbEntity
  8
0
100
AcDbLine
 10
384.36
 20
130.6579999999999
 30
0.0
 11
421.2909999999999
 21
130.6429999999999
 31
0.0
  0
LINE
  5
116
330
1E
100
AcDbEntity
  8
0
100
AcDbLine
 10
347.6219999999999
 20
130.676
 30
0.0
 11
384.36
 21
130.6579999999999
 31
0.0
  0
LINE
  5
117
330
1E
100
AcDbEntity
  8
0
100
AcDbLine
 10
298.897
 20
130.6999999999999
 30
0.0
 11
347.6219999999999
 21
130.676
 31
0.0
  0
LINE
  5
118
330
1E
100
AcDbEntity
  8
0
100
AcDbLine
 10
493.0109999999999
 20
130.631
 30
0.0
 11
527.644
 21
130.632
 31
0.0
  0
LINE
  5
119
330
1E
100
AcDbEntity
  8
0
100
AcDbLine
 10
321.425
 20
103.055
 30
0.0
 11
447.032
 21
103.055
 31
0.0
  0
LINE
  5
11A
330
1E
100
AcDbEntity
  8
0
100
AcDbLine
 10
269.562
 20
78.748
 30
0.0
 11
271.341
 21
76.074
 31
0.0
  0
LINE
  5
11E
330
1E
100
AcDbEntity
  8
0
100
AcDbLine
 10
576.5589999999999
 20
23.59669999999999
 30
0.0
 11
582.613
 21
26.5442
 31
0.0
  0
LINE
  5
121
330
1E
100
AcDbEntity
  8
0
100
AcDbLine
 10
617.79
 20
43.71139999999999
 30
0.0
 11
690.49
 21
75.04000000000001
 31
0.0
  0
LINE
  5
122
330
1E
100
AcDbEntity
  8
0
100
AcDbLine
 10
609.57
 20
39.3911
 30
0.0
 11
617.79
 21
43.71139999999999
 31
0.0
  0
LINE
  5
123
330
1E
100
AcDbEntity
  8
0
100
AcDbLine
 10
601.5549999999999
 20
35.5861
 30
0.0
 11
609.57
 21
39.3911
 31
0.0
  0
LINE
  5
124
330
1E
100
AcDbEntity
  8
0
100
AcDbLine
 10
582.613
 20
26.5442
 30
0.0
 11
601.5549999999999
 21
35.5861
 31
0.0
  0
LINE
  5
129
330
1E
100
AcDbEntity
  8
0
100
AcDbLine
 10
695.093
 20
75.04000000000001
 30
0.0
 11
696.2130000000001
 21
75.04000000000001
 31
0.0
  0
LINE
  5
12A
330
1E
100
AcDbEntity
  8
0
100
AcDbLine
 10
694.868
 20
75.04000000000001
 30
0.0
 11
695.2230000000001
 21
75.04000000000001
 31
0.0
  0
LINE
  5
12B
330
1E
100
AcDbEntity
  8
0
100
AcDbLine
 10
694.868
 20
75.04000000000001
 30
0.0
 11
695.093
 21
75.04000000000001
 31
0.0
  0
LINE
  5
12C
330
1E
100
AcDbEntity
  8
0
100
AcDbLine
 10
695.2230000000001
 20
75.04000000000001
 30
0.0
 11
696.457
 21
75.04000000000001
 31
0.0
  0
LINE
  5
12E
330
1E
100
AcDbEntity
  8
0
100
AcDbLine
 10
575.668
 20
23.2585
 30
0.0
 11
576.5589999999999
 21
23.59669999999999
 31
0.0
  0
LINE
  5
12F
330
1E
100
AcDbEntity
  8
0
100
AcDbLine
 10
694.868
 20
75.04000000000001
 30
0.0
 11
695.2230000000001
 21
75.04000000000001
 31
0.0
  0
LINE
  5
130
330
1E
100
AcDbEntity
  8
0
100
AcDbLine
 10
695.093
 20
75.04000000000001
 30
0.0
 11
696.2130000000001
 21
75.04000000000001
 31
0.0
  0
LINE
  5
131
330
1E
100
AcDbEntity
  8
0
100
AcDbLine
 10
690.49
 20
75.04000000000001
 30
0.0
 11
697.388
 21
75.04000000000001
 31
0.0
  0
LINE
  5
132
330
1E
100
AcDbEntity
  8
0
100
AcDbLine
 10
695.2230000000001
 20
75.04000000000001
 30
0.0
 11
696.457
 21
75.04000000000001
 31
0.0
  0
LINE
  5
133
330
1E
100
AcDbEntity
  8
0
100
AcDbLine
 10
696.2130000000001
 20
75.04000000000001
 30
0.0
 11
697.8869999999999
 21
75.04000000000001
 31
0.0
  0
LINE
  5
134
330
1E
100
AcDbEntity
  8
0
100
AcDbLine
 10
696.457
 20
75.04000000000001
 30
0.0
 11
698.1749999999999
 21
75.04000000000001
 31
0.0
  0
LINE
  5
135
330
1E
100
AcDbEntity
  8
0
100
AcDbLine
 10
696.457
 20
75.04000000000001
 30
0.0
 11
698.1749999999999
 21
75.04000000000001
 31
0.0
  0
LINE
  5
136
330
1E
100
AcDbEntity
  8
0
100
AcDbLine
 10
696.2130000000001
 20
75.04000000000001
 30
0.0
 11
697.8869999999999
 21
75.04000000000001
 31
0.0
  0
LINE
  5
137
330
1E
100
AcDbEntity
  8
0
100
AcDbLine
 10
697.8869999999999
 20
75.04000000000001
 30
0.0
 11
699.605
 21
75.04000000000001
 31
0.0
  0
LINE
  5
138
330
1E
100
AcDbEntity
  8
0
100
AcDbLine
 10
699.605
 20
75.04000000000001
 30
0.0
 11
700.84
 21
75.04000000000001
 31
0.0
  0
LINE
  5
139
330
1E
100
AcDbEntity
  8
0
100
AcDbLine
 10
699.221
 20
75.04000000000001
 30
0.0
 11
705.593
 21
75.04000000000001
 31
0.0
  0
LINE
  5
13A
330
1E
100
AcDbEntity
  8
0
100
AcDbLine
 10
700.84
 20
75.04000000000001
 30
0.0
 11
701.195
 21
75.04000000000001
 31
0.0
  0
LINE
  5
13B
330
1E
100
AcDbEntity
  8
0
100
AcDbLine
 10
699.8499999999999
 20
75.04000000000001
 30
0.0
 11
700.97
 21
75.04000000000001
 31
0.0
  0
LINE
  5
13C
330
1E
100
AcDbEntity
  8
0
100
AcDbLine
 10
699.8499999999999
 20
75.04000000000001
 30
0.0
 11
700.9689999999999
 21
75.04000000000001
 31
0.0
  0
LINE
  5
13D
330
1E
100
AcDbEntity
  8
0
100
AcDbLine
 10
705.593
 20
75.04000000000001
 30
0.0
 11
710.1189999999999
 21
75.04000000000001
 31
0.0
  0
LINE
  5
13E
330
1E
100
AcDbEntity
  8
0
100
AcDbLine
 10
700.84
 20
75.04000000000001
 30
0.0
 11
701.195
 21
75.04000000000001
 31
0.0
  0
LINE
  5
13F
330
1E
100
AcDbEntity
  8
0
100
AcDbLine
 10
699.605
 20
75.04000000000001
 30
0.0
 11
700.84
 21
75.04000000000001
 31
0.0
  0
LINE
  5
140
330
1E
100
AcDbEntity
  8
0
100
AcDbLine
 10
697.8869999999999
 20
75.04000000000001
 30
0.0
 11
699.605
 21
75.04000000000001
 31
0.0
  0
LINE
  5
141
330
1E
100
AcDbEntity
  8
0
100
AcDbLine
 10
704.468
 20
75.04000000000001
 30
0.0
 11
709.7310000000001
 21
75.04000000000001
 31
0.0
  0
LINE
  5
142
330
1E
100
AcDbEntity
  8
0
100
AcDbLine
 10
697.388
 20
75.04000000000001
 30
0.0
 11
704.468
 21
75.04000000000001
 31
0.0
  0
LINE
  5
143
330
1E
100
AcDbEntity
  8
0
100
AcDbLine
 10
700.9689999999999
 20
75.04000000000001
 30
0.0
 11
701.195
 21
75.04000000000001
 31
0.0
  0
LINE
  5
144
330
1E
100
AcDbEntity
  8
0
100
AcDbLine
 10
709.7310000000001
 20
75.04000000000001
 30
0.0
 11
711.696
 21
75.04000000000001
 31
0.0
  0
LINE
  5
145
330
1E
100
AcDbEntity
  8
0
100
AcDbLine
 10
711.696
 20
75.04000000000001
 30
0.0
 11
714.681
 21
76.074
 31
0.0
  0
LINE
  5
146
330
1E
100
AcDbEntity
  8
0
100
AcDbLine
 10
710.1189999999999
 20
75.04000000000001
 30
0.0
 11
711.695
 21
75.04000000000001
 31
0.0
  0
LINE
  5
148
330
1E
100
AcDbEntity
  8
0
100
AcDbLine
 10
714.681
 20
76.074
 30
0.0
 11
716.46
 21
78.748
 31
0.0
  0
LINE
  5
14A
330
1E
100
AcDbEntity
  8
0
100
AcDbLine
 10
718.572436870071
 20
86.61010253085242
 30
0.0
 11
722.015
 21
87.68
 31
0.0
  0
LINE
  5
14B
330
1E
100
AcDbEntity
  8
0
100
AcDbLine
 10
716.46
 20
78.748
 30
0.0
 11
722.075
 21
99.646
 31
0.0
  0
LINE
  5
14C
330
1E
100
AcDbEntity
  8
0
100
AcDbLine
 10
722.015
 20
87.68
 30
0.0
 11
734.6439999999999
 21
91.69999999999999
 31
0.0
  0
LINE
  5
14D
330
1E
100
AcDbEntity
  8
0
100
AcDbLine
 10
763.694
 20
99.62100000000001
 30
0.0
 11
776.888
 21
102.498
 31
0.0
  0
LINE
  5
14E
330
1E
100
AcDbEntity
  8
0
100
AcDbLine
 10
747.263
 20
95.631
 30
0.0
 11
763.694
 21
99.62100000000001
 31
0.0
  0
LINE
  5
14F
330
1E
100
AcDbEntity
  8
0
100
AcDbLine
 10
734.6439999999999
 20
91.69999999999999
 30
0.0
 11
747.263
 21
95.631
 31
0.0
  0
LINE
  5
150
330
1E
100
AcDbEntity
  8
0
100
AcDbLine
 10
779.638418046358
 20
103.055
 30
0.0
 11
803.3749999999999
 21
103.055
 31
0.0
  0
LINE
  5
151
330
1E
100
AcDbEntity
  8
0
100
AcDbLine
 10
790.096
 20
103.055
 30
0.0
 11
794.4869999999999
 21
103.055
 31
0.0
  0
LINE
  5
152
330
1E
100
AcDbEntity
  8
0
100
AcDbLine
 10
803.3749999999999
 20
103.055
 30
0.0
 11
814.741
 21
103.055
 31
0.0
  0
LINE
  5
153
330
1E
100
AcDbEntity
  8
0
100
AcDbLine
 10
794.4869999999999
 20
103.055
 30
0.0
 11
797.802
 21
103.055
 31
0.0
  0
LINE
  5
154
330
1E
100
AcDbEntity
  8
0
100
AcDbLine
 10
776.888
 20
102.498
 30
0.0
 11
779.5313456834531
 21
103.055
 31
0.0
  0
LINE
  5
155
330
1E
100
AcDbEntity
  8
0
100
AcDbLine
 10
722.075
 20
99.646
 30
0.0
 11
723.843718565592
 21
103.055
 31
0.0
  0
LINE
  5
158
330
1E
100
AcDbEntity
  8
0
100
AcDbLine
 10
563.556
 20
103.055
 30
0.0
 11
675.6339999999998
 21
103.055
 31
0.0
  0
LINE
  5
159
330
1E
100
AcDbEntity
  8
0
100
AcDbLine
 10
790.096
 20
103.055
 30
0.0
 11
794.4839999999999
 21
103.055
 31
0.0
  0
LINE
  5
15A
330
1E
100
AcDbEntity
  8
0
100
AcDbLine
 10
797.7999999999999
 20
103.055
 30
0.0
 11
806.6939999999998
 21
103.055
 31
0.0
  0
LINE
  5
15B
330
1E
100
AcDbEntity
  8
0
100
AcDbLine
 10
794.4839999999999
 20
103.055
 30
0.0
 11
797.7999999999999
 21
103.055
 31
0.0
  0
LINE
  5
15C
330
1E
100
AcDbEntity
  8
0
100
AcDbLine
 10
805.141
 20
103.055
 30
0.0
 11
809.3519999999999
 21
103.055
 31
0.0
  0
LINE
  5
15D
330
1E
100
AcDbEntity
  8
0
100
AcDbLine
 10
794.9329999999999
 20
103.055
 30
0.0
 11
805.141
 21
103.055
 31
0.0
  0
LINE
  5
15E
330
1E
100
AcDbEntity
  8
0
100
AcDbLine
 10
675.6339999999998
 20
103.055
 30
0.0
 11
794.936
 21
103.055
 31
0.0
  0
LINE
  5
15F
330
1E
100
AcDbEntity
  8
0
100
AcDbLine
 10
675.6339999999998
 20
103.055
 30
0.0
 11
794.9329999999999
 21
103.055
 31
0.0
  0
LINE
  5
160
330
1E
100
AcDbEntity
  8
0
100
AcDbLine
 10
794.936
 20
103.055
 30
0.0
 11
805.141
 21
103.055
 31
0.0
  0
LINE
  5
161
330
1E
100
AcDbEntity
  8
0
100
AcDbLine
 10
538.9909999999999
 20
103.055
 30
0.0
 11
664.597
 21
103.055
 31
0.0
  0
LINE
  5
162
330
1E
100
AcDbEntity
  8
0
100
AcDbLine
 10
797.802
 20
103.055
 30
0.0
 11
809.7460000000001
 21
103.055
 31
0.0
  0
LINE
  5
163
330
1E
100
AcDbEntity
  8
0
100
AcDbLine
 10
822.4060000000001
 20
103.055
 30
0.0
 11
829.62
 21
103.055
 31
0.0
  0
LINE
  5
164
330
1E
100
AcDbEntity
  8
0
100
AcDbLine
 10
814.741
 20
103.055
 30
0.0
 11
822.4060000000001
 21
103.055
 31
0.0
  0
LINE
  5
165
330
1E
100
AcDbEntity
  8
0
100
AcDbLine
 10
809.3519999999999
 20
103.055
 30
0.0
 11
820.4789999999999
 21
103.055
 31
0.0
  0
LINE
  5
166
330
1E
100
AcDbEntity
  8
0
100
AcDbLine
 10
820.4789999999999
 20
103.055
 30
0.0
 11
830.797
 21
103.055
 31
0.0
  0
LINE
  5
167
330
1E
100
AcDbEntity
  8
0
100
AcDbLine
 10
830.797
 20
103.055
 30
0.0
 11
839.8189999999999
 21
103.055
 31
0.0
  0
LINE
  5
168
330
1E
100
AcDbEntity
  8
0
100
AcDbLine
 10
829.62
 20
103.055
 30
0.0
 11
838.8710000000001
 21
103.055
 31
0.0
  0
LINE
  5
169
330
1E
100
AcDbEntity
  8
0
100
AcDbLine
 10
838.8710000000001
 20
103.055
 30
0.0
 11
842.082
 21
103.055
 31
0.0
  0
LINE
  5
16A
330
1E
100
AcDbEntity
  8
0
100
AcDbLine
 10
839.8189999999999
 20
103.055
 30
0.0
 11
846.893
 21
103.055
 31
0.0
  0
LINE
  5
16B
330
1E
100
AcDbEntity
  8
0
100
AcDbLine
 10
837.7469999999998
 20
103.055
 30
0.0
 11
840.906
 21
103.055
 31
0.0
  0
LINE
  5
16C
330
1E
100
AcDbEntity
  8
0
100
AcDbLine
 10
832.29
 20
103.055
 30
0.0
 11
837.1779999999999
 21
103.055
 31
0.0
  0
LINE
  5
16D
330
1E
100
AcDbEntity
  8
0
100
AcDbLine
 10
818.481
 20
103.055
 30
0.0
 11
825.947
 21
103.055
 31
0.0
  0
LINE
  5
16E
330
1E
100
AcDbEntity
  8
0
100
AcDbLine
 10
842.082
 20
103.055
 30
0.0
 11
849.3630000000001
 21
103.055
 31
0.0
  0
LINE
  5
16F
330
1E
100
AcDbEntity
  8
0
100
AcDbLine
 10
849.3630000000001
 20
103.055
 30
0.0
 11
854.0830000000001
 21
103.055
 31
0.0
  0
LINE
  5
170
330
1E
100
AcDbEntity
  8
0
100
AcDbLine
 10
854.0830000000001
 20
103.055
 30
0.0
 11
856.076
 21
103.055
 31
0.0
  0
LINE
  5
171
330
1E
100
AcDbEntity
  8
0
100
AcDbLine
 10
850.3769999999999
 20
103.055
 30
0.0
 11
852.777
 21
103.055
 31
0.0
  0
LINE
  5
172
330
1E
100
AcDbEntity
  8
0
100
AcDbLine
 10
856.076
 20
103.055
 30
0.0
 11
861.1769999999999
 21
103.055
 31
0.0
  0
LINE
  5
173
330
1E
100
AcDbEntity
  8
0
100
AcDbLine
 10
846.893
 20
103.055
 30
0.0
 11
852.0850000000001
 21
103.055
 31
0.0
  0
LINE
  5
174
330
1E
100
AcDbEntity
  8
0
100
AcDbLine
 10
852.0850000000001
 20
103.055
 30
0.0
 11
855.151
 21
103.055
 31
0.0
  0
LINE
  5
175
330
1E
100
AcDbEntity
  8
0
100
AcDbLine
 10
843.4029999999999
 20
103.055
 30
0.0
 11
844.4739999999999
 21
103.055
 31
0.0
  0
LINE
  5
176
330
1E
100
AcDbEntity
  8
0
100
AcDbLine
 10
844.4739999999999
 20
103.055
 30
0.0
 11
850.3769999999999
 21
103.055
 31
0.0
  0
LINE
  5
177
330
1E
100
AcDbEntity
  8
0
100
AcDbLine
 10
862.0219999999999
 20
103.055
 30
0.0
 11
865.2469999999999
 21
103.055
 31
0.0
  0
LINE
  5
178
330
1E
100
AcDbEntity
  8
0
100
AcDbLine
 10
856.319
 20
103.055
 30
0.0
 11
862.0219999999999
 21
103.055
 31
0.0
  0
LINE
  5
179
330
1E
100
AcDbEntity
  8
0
100
AcDbLine
 10
855.151
 20
103.055
 30
0.0
 11
856.319
 21
103.055
 31
0.0
  0
LINE
  5
17A
330
1E
100
AcDbEntity
  8
0
100
AcDbLine
 10
861.1769999999999
 20
103.055
 30
0.0
 11
864.2699999999999
 21
103.055
 31
0.0
  0
LINE
  5
17B
330
1E
100
AcDbEntity
  8
0
100
AcDbLine
 10
841.0909999999999
 20
103.055
 30
0.0
 11
842.6119999999999
 21
103.055
 31
0.0
  0
LINE
  5
17C
330
1E
100
AcDbEntity
  8
0
100
AcDbLine
 10
837.1779999999999
 20
103.055
 30
0.0
 11
841.0909999999999
 21
103.055
 31
0.0
  0
LINE
  5
17D
330
1E
100
AcDbEntity
  8
0
100
AcDbLine
 10
806.6939999999998
 20
103.055
 30
0.0
 11
818.481
 21
103.055
 31
0.0
  0
LINE
  5
17E
330
1E
100
AcDbEntity
  8
0
100
AcDbLine
 10
687.1199999999999
 20
130.6989999999999
 30
0.0
 11
855.4910000000001
 21
130.709
 31
0.0
  0
LINE
  5
180
330
1E
100
AcDbEntity
  8
0
100
AcDbLine
 10
638.4009999999999
 20
130.675
 30
0.0
 11
687.1199999999999
 21
130.6989999999999
 31
0.0
  0
LINE
  5
181
330
1E
100
AcDbEntity
  8
0
100
AcDbLine
 10
601.6599999999999
 20
130.657
 30
0.0
 11
638.4009999999999
 21
130.675
 31
0.0
  0
LINE
  5
182
330
1E
100
AcDbEntity
  8
0
100
AcDbLine
 10
564.7330000000001
 20
130.6419999999999
 30
0.0
 11
601.6599999999999
 21
130.657
 31
0.0
  0
LINE
  5
183
330
1E
100
AcDbEntity
  8
0
100
AcDbLine
 10
861.376
 20
130.4449999999999
 30
0.0
 11
862.601
 21
129.3679999999999
 31
0.0
  0
LINE
  5
184
330
1E
100
AcDbEntity
  8
0
100
AcDbLine
 10
865.2469999999999
 20
103.055
 30
0.0
 11
866.0
 21
103.055
 31
0.0
  0
LINE
  5
188
330
1E
100
AcDbEntity
  8
0
100
AcDbLine
 10
864.2699999999999
 20
103.055
 30
0.0
 11
866.0
 21
103.055
 31
0.0
  0
LINE
  5
189
330
1E
100
AcDbEntity
  8
0
100
AcDbLine
 10
862.601
 20
129.3679999999999
 30
0.0
 11
863.0869999999999
 21
127.8079999999999
 31
0.0
  0
LINE
  5
191
330
1E
100
AcDbEntity
  8
0
100
AcDbLine
 10
855.4910000000001
 20
130.709
 30
0.0
 11
859.3099999999999
 21
130.7139999999999
 31
0.0
  0
LINE
  5
192
330
1E
100
AcDbEntity
  8
0
100
AcDbLine
 10
859.36473628987
 20
130.706873154901
 30
0.0
 11
859.45
 21
130.717
 31
0.0
  0
LINE
  5
197
330
1E
100
AcDbEntity
  8
0
100
AcDbLine
 10
859.45
 20
130.717
 30
0.0
 11
861.376
 21
130.4449999999999
 31
0.0
  0
LINE
  5
198
330
1E
100
AcDbEntity
  8
0
100
AcDbLine
 10
859.3099999999999
 20
130.7139999999999
 30
0.0
 11
859.45
 21
130.717
 31
0.0
  0
LINE
  5
199
330
1E
100
AcDbEntity
  8
0
100
AcDbLine
 10
857.9960000000001
 20
130.722
 30
0.0
 11
859.45
 21
130.717
 31
0.0
  0
LINE
  5
1A0
330
1E
100
AcDbEntity
  8
0
100
AcDbLine
 10
527.644
 20
130.632
 30
0.0
 11
564.7330000000001
 21
130.6419999999999
 31
0.0
  0
LINE
  5
1A1
330
1E
100
AcDbEntity
  8
0
100
AcDbLine
 10
192.4649999999999
 20
149.1179999999999
 30
0.0
 11
192.998
 21
147.4389999999999
 31
0.0
  0
LINE
  5
1A2
330
1E
100
AcDbEntity
  8
0
100
AcDbLine
 10
191.0829999999999
 20
150.21
 30
0.0
 11
192.4649999999999
 21
149.1179999999999
 31
0.0
  0
LINE
  5
1A3
330
1E
100
AcDbEntity
  8
0
100
AcDbLine
 10
189.3259999999999
 20
150.336
 30
0.0
 11
191.0829999999999
 21
150.21
 31
0.0
  0
LINE
  5
1AA
330
1E
100
AcDbEntity
  8
0
  6
Continuous
100
AcDbLine
 10
0.0
 20
103.055
 30
0.0
 11
2.944999999999999
 21
147.4389999999999
 31
0.0
  0
LINE
  5
1AB
330
1E
100
AcDbEntity
  8
0
  6
Continuous
100
AcDbLine
 10
866.0
 20
103.055
 30
0.0
 11
863.0869999999999
 21
127.8079999999999
 31
0.0
  0
ENDSEC
  0
SECTION
  2
OBJECTS
  0
DICTIONARY
  5
C
330
0
100
AcDbDictionary
281
     1
  3
ACAD_GROUP
350
D
  3
ACAD_LAYOUT
350
19
  3
ACAD_MLINESTYLE
350
16
  3
ACAD_PLOTSETTINGS
350
18
  3
ACAD_PLOTSTYLENAME
350
E
  3
AcDbVariableDictionary
350
1AD
  0
DICTIONARY
  5
D
102
{ACAD_REACTORS
330
C
102
}
330
C
100
AcDbDictionary
281
     1
  0
DICTIONARY
  5
19
102
{ACAD_REACTORS
330
C
102
}
330
C
100
AcDbDictionary
281
     1
  3
Layout1
350
1D
  3
Model
350
21
  0
DICTIONARY
  5
16
102
{ACAD_REACTORS
330
C
102
}
330
C
100
AcDbDictionary
281
     1
  3
Standard
350
17
  0
DICTIONARY
  5
18
102
{ACAD_REACTORS
330
C
102
}
330
C
100
AcDbDictionary
281
     1
  0
ACDBDICTIONARYWDFLT
  5
E
102
{ACAD_REACTORS
330
C
102
}
330
C
100
AcDbDictionary
281
     1
  3
Normal
350
F
100
AcDbDictionaryWithDefault
340
F
  0
DICTIONARY
  5
1AD
102
{ACAD_REACTORS
330
C
102
}
330
C
100
AcDbDictionary
281
     1
  3
DIMASSOC
350
1AE
  0
LAYOUT
  5
1D
102
{ACAD_REACTORS
330
19
102
}
330
19
100
AcDbPlotSettings
  1

  2
C:\Programme\AutoCAD LT 2002 Deu\plotters\DWF ePlot (optimized for plotting).pc3
  4

  6

 40
0.0
 41
0.0
 42
0.0
 43
0.0
 44
0.0
 45
0.0
 46
0.0
 47
0.0
 48
0.0
 49
0.0
140
0.0
141
0.0
142
1.0
143
1.0
 70
   688
 72
     0
 73
     0
 74
     5
  7

 75
    16
147
1.0
148
0.0
149
0.0
100
AcDbLayout
  1
Layout1
 70
     1
 71
     1
 10
0.0
 20
0.0
 11
12.0
 21
9.0
 12
0.0
 22
0.0
 32
0.0
 14
1.000000000000000E+20
 24
1.000000000000000E+20
 34
1.000000000000000E+20
 15
-1.000000000000000E+20
 25
-1.000000000000000E+20
 35
-1.000000000000000E+20
146
0.0
 13
0.0
 23
0.0
 33
0.0
 16
1.0
 26
0.0
 36
0.0
 17
0.0
 27
1.0
 37
0.0
 76
     0
330
1A
  0
LAYOUT
  5
21
102
{ACAD_REACTORS
330
19
102
}
330
19
100
AcDbPlotSettings
  1

  2
C:\Programme\AutoCAD LT 2002 Deu\plotters\DWF ePlot (optimized for plotting).pc3
  4

  6

 40
0.0
 41
0.0
 42
0.0
 43
0.0
 44
0.0
 45
0.0
 46
0.0
 47
0.0
 48
0.0
 49
0.0
140
0.0
141
0.0
142
1.0
143
1.0
 70
  1712
 72
     0
 73
     0
 74
     0
  7

 75
     0
147
1.0
148
0.0
149
0.0
100
AcDbLayout
  1
Model
 70
     1
 71
     0
 10
0.0
 20
0.0
 11
12.0
 21
9.0
 12
0.0
 22
0.0
 32
0.0
 14
0.0
 24
0.0
 34
0.0
 15
0.0
 25
0.0
 35
0.0
146
0.0
 13
0.0
 23
0.0
 33
0.0
 16
1.0
 26
0.0
 36
0.0
 17
0.0
 27
1.0
 37
0.0
 76
     0
330
1E
  0
MLINESTYLE
  5
17
102
{ACAD_REACTORS
330
16
102
}
330
16
100
AcDbMlineStyle
  2
STANDARD
 70
     0
  3

 62
   256
 51
90.0
 52
90.0
 71
     2
 49
0.5
 62
   256
  6
BYLAYER
 49
-0.5
 62
   256
  6
BYLAYER
  0
ACDBPLACEHOLDER
  5
F
102
{ACAD_REACTORS
330
E
102
}
330
E
  0
DICTIONARYVAR
  5
1AE
102
{ACAD_REACTORS
330
1AD
102
}
330
1AD
100
DictionaryVariables
280
     0
  1
1
  0
ENDSEC
  0
EOF
