  0
SECTION
  2
HEADER
  9
$ACADVER
  1
AC1015
  9
$ACADMAINTVER
 70
    13
  9
$DWGCODEPAGE
  3
ANSI_1252
  9
$INSBASE
 10
0.0
 20
0.0
 30
0.0
  9
$EXTMIN
 10
0.0
 20
-0.0000000000000167
 30
0.0
  9
$EXTMAX
 10
666.0
 20
200.0
 30
0.0
  9
$LIMMIN
 10
0.0
 20
0.0
  9
$LIMMAX
 10
12.0
 20
9.0
  9
$ORTHOMODE
 70
     0
  9
$REGENMODE
 70
     1
  9
$FILLMODE
 70
     1
  9
$QTEXTMODE
 70
     0
  9
$MIRRTEXT
 70
     1
  9
$LTSCALE
 40
1.0
  9
$ATTMODE
 70
     1
  9
$TEXTSIZE
 40
0.2
  9
$TRACEWID
 40
0.05
  9
$TEXTSTYLE
  7
Standard
  9
$CLAYER
  8
0
  9
$CELTYPE
  6
Continuous
  9
$CECOLOR
 62
   256
  9
$CELTSCALE
 40
1.0
  9
$DISPSILH
 70
     0
  9
$DIMSCALE
 40
1.0
  9
$DIMASZ
 40
0.18
  9
$DIMEXO
 40
0.0625
  9
$DIMDLI
 40
0.38
  9
$DIMRND
 40
0.0
  9
$DIMDLE
 40
0.0
  9
$DIMEXE
 40
0.18
  9
$DIMTP
 40
0.0
  9
$DIMTM
 40
0.0
  9
$DIMTXT
 40
0.18
  9
$DIMCEN
 40
0.09
  9
$DIMTSZ
 40
0.0
  9
$DIMTOL
 70
     0
  9
$DIMLIM
 70
     0
  9
$DIMTIH
 70
     1
  9
$DIMTOH
 70
     1
  9
$DIMSE1
 70
     0
  9
$DIMSE2
 70
     0
  9
$DIMTAD
 70
     0
  9
$DIMZIN
 70
     0
  9
$DIMBLK
  1

  9
$DIMASO
 70
     1
  9
$DIMSHO
 70
     1
  9
$DIMPOST
  1

  9
$DIMAPOST
  1

  9
$DIMALT
 70
     0
  9
$DIMALTD
 70
     2
  9
$DIMALTF
 40
25.4
  9
$DIMLFAC
 40
1.0
  9
$DIMTOFL
 70
     0
  9
$DIMTVP
 40
0.0
  9
$DIMTIX
 70
     0
  9
$DIMSOXD
 70
     0
  9
$DIMSAH
 70
     0
  9
$DIMBLK1
  1

  9
$DIMBLK2
  1

  9
$DIMSTYLE
  2
Standard
  9
$DIMCLRD
 70
     0
  9
$DIMCLRE
 70
     0
  9
$DIMCLRT
 70
     0
  9
$DIMTFAC
 40
1.0
  9
$DIMGAP
 40
0.09
  9
$DIMJUST
 70
     0
  9
$DIMSD1
 70
     0
  9
$DIMSD2
 70
     0
  9
$DIMTOLJ
 70
     1
  9
$DIMTZIN
 70
     0
  9
$DIMALTZ
 70
     0
  9
$DIMALTTZ
 70
     0
  9
$DIMUPT
 70
     0
  9
$DIMDEC
 70
     4
  9
$DIMTDEC
 70
     4
  9
$DIMALTU
 70
     2
  9
$DIMALTTD
 70
     2
  9
$DIMTXSTY
  7
Standard
  9
$DIMAUNIT
 70
     0
  9
$DIMADEC
 70
     0
  9
$DIMALTRND
 40
0.0
  9
$DIMAZIN
 70
     0
  9
$DIMDSEP
 70
    46
  9
$DIMATFIT
 70
     3
  9
$DIMFRAC
 70
     0
  9
$DIMLDRBLK
  1

  9
$DIMLUNIT
 70
     2
  9
$DIMLWD
 70
    -2
  9
$DIMLWE
 70
    -2
  9
$DIMTMOVE
 70
     0
  9
$LUNITS
 70
     2
  9
$LUPREC
 70
     4
  9
$SKETCHINC
 40
0.1
  9
$FILLETRAD
 40
0.0
  9
$AUNITS
 70
     0
  9
$AUPREC
 70
     0
  9
$MENU
  1
.
  9
$ELEVATION
 40
0.0
  9
$PELEVATION
 40
0.0
  9
$THICKNESS
 40
0.0
  9
$LIMCHECK
 70
     0
  9
$CHAMFERA
 40
0.0
  9
$CHAMFERB
 40
0.0
  9
$CHAMFERC
 40
0.0
  9
$CHAMFERD
 40
0.0
  9
$SKPOLY
 70
     0
  9
$TDCREATE
 40
2455508.414062673
  9
$TDUCREATE
 40
2455508.372396006
  9
$TDUPDATE
 40
2455508.424393808
  9
$TDUUPDATE
 40
2455508.382727141
  9
$TDINDWG
 40
0.0057461806
  9
$TDUSRTIMER
 40
0.0057461806
  9
$USRTIMER
 70
     1
  9
$ANGBASE
 50
0.0
  9
$ANGDIR
 70
     0
  9
$PDMODE
 70
     0
  9
$PDSIZE
 40
0.0
  9
$PLINEWID
 40
0.0
  9
$SPLFRAME
 70
     0
  9
$SPLINETYPE
 70
     6
  9
$SPLINESEGS
 70
     8
  9
$HANDSEED
  5
1DD
  9
$SURFTAB1
 70
     6
  9
$SURFTAB2
 70
     6
  9
$SURFTYPE
 70
     6
  9
$SURFU
 70
     6
  9
$SURFV
 70
     6
  9
$UCSBASE
  2

  9
$UCSNAME
  2

  9
$UCSORG
 10
0.0
 20
0.0
 30
0.0
  9
$UCSXDIR
 10
1.0
 20
0.0
 30
0.0
  9
$UCSYDIR
 10
0.0
 20
1.0
 30
0.0
  9
$UCSORTHOREF
  2

  9
$UCSORTHOVIEW
 70
     1
  9
$UCSORGTOP
 10
0.0
 20
0.0
 30
0.0
  9
$UCSORGBOTTOM
 10
0.0
 20
0.0
 30
0.0
  9
$UCSORGLEFT
 10
0.0
 20
0.0
 30
0.0
  9
$UCSORGRIGHT
 10
0.0
 20
0.0
 30
0.0
  9
$UCSORGFRONT
 10
0.0
 20
0.0
 30
0.0
  9
$UCSORGBACK
 10
0.0
 20
0.0
 30
0.0
  9
$PUCSBASE
  2

  9
$PUCSNAME
  2

  9
$PUCSORG
 10
0.0
 20
0.0
 30
0.0
  9
$PUCSXDIR
 10
1.0
 20
0.0
 30
0.0
  9
$PUCSYDIR
 10
0.0
 20
1.0
 30
0.0
  9
$PUCSORTHOREF
  2

  9
$PUCSORTHOVIEW
 70
     0
  9
$PUCSORGTOP
 10
0.0
 20
0.0
 30
0.0
  9
$PUCSORGBOTTOM
 10
0.0
 20
0.0
 30
0.0
  9
$PUCSORGLEFT
 10
0.0
 20
0.0
 30
0.0
  9
$PUCSORGRIGHT
 10
0.0
 20
0.0
 30
0.0
  9
$PUCSORGFRONT
 10
0.0
 20
0.0
 30
0.0
  9
$PUCSORGBACK
 10
0.0
 20
0.0
 30
0.0
  9
$USERI1
 70
     0
  9
$USERI2
 70
     0
  9
$USERI3
 70
     0
  9
$USERI4
 70
     0
  9
$USERI5
 70
     0
  9
$USERR1
 40
0.0
  9
$USERR2
 40
0.0
  9
$USERR3
 40
0.0
  9
$USERR4
 40
0.0
  9
$USERR5
 40
0.0
  9
$WORLDVIEW
 70
     1
  9
$SHADEDGE
 70
     3
  9
$SHADEDIF
 70
    70
  9
$TILEMODE
 70
     1
  9
$MAXACTVP
 70
    64
  9
$PINSBASE
 10
0.0
 20
0.0
 30
0.0
  9
$PLIMCHECK
 70
     0
  9
$PEXTMIN
 10
1.000000000000000E+20
 20
1.000000000000000E+20
 30
1.000000000000000E+20
  9
$PEXTMAX
 10
-1.000000000000000E+20
 20
-1.000000000000000E+20
 30
-1.000000000000000E+20
  9
$PLIMMIN
 10
0.0
 20
0.0
  9
$PLIMMAX
 10
12.0
 20
9.0
  9
$UNITMODE
 70
     0
  9
$VISRETAIN
 70
     1
  9
$PLINEGEN
 70
     0
  9
$PSLTSCALE
 70
     1
  9
$TREEDEPTH
 70
  3020
  9
$CMLSTYLE
  2
Standard
  9
$CMLJUST
 70
     0
  9
$CMLSCALE
 40
1.0
  9
$PROXYGRAPHICS
 70
     1
  9
$MEASUREMENT
 70
     0
  9
$CELWEIGHT
370
    -1
  9
$ENDCAPS
280
     0
  9
$JOINSTYLE
280
     0
  9
$LWDISPLAY
290
     0
  9
$INSUNITS
 70
     0
  9
$HYPERLINKBASE
  1

  9
$STYLESHEET
  1

  9
$XEDIT
290
     1
  9
$CEPSNTYPE
380
     0
  9
$PSTYLEMODE
290
     1
  9
$FINGERPRINTGUID
  2
{F4978F2E-9BBE-4206-A539-9C4C982A3EA1}
  9
$VERSIONGUID
  2
{F90E9E91-2442-454B-BD79-5E76CBBFA758}
  9
$EXTNAMES
290
     1
  9
$PSVPSCALE
 40
0.0
  9
$OLESTARTUP
290
     0
  0
ENDSEC
  0
SECTION
  2
CLASSES
  0
CLASS
  1
ACDBDICTIONARYWDFLT
  2
AcDbDictionaryWithDefault
  3
AutoCAD 2000
 90
        0
280
     0
281
     0
  0
CLASS
  1
ACDBPLACEHOLDER
  2
AcDbPlaceHolder
  3
AutoCAD 2000
 90
        0
280
     0
281
     0
  0
CLASS
  1
LAYOUT
  2
AcDbLayout
  3
AutoCAD 2000
 90
        0
280
     0
281
     0
  0
CLASS
  1
DICTIONARYVAR
  2
AcDbDictionaryVar
  3
AutoCAD 2000
 90
        0
280
     0
281
     0
  0
ENDSEC
  0
SECTION
  2
TABLES
  0
TABLE
  2
VPORT
  5
8
330
0
100
AcDbSymbolTable
 70
     2
  0
VPORT
  5
1DC
330
8
100
AcDbSymbolTableRecord
100
AcDbViewportTableRecord
  2
*Active
 70
     0
 10
0.0
 20
0.0
 11
1.0
 21
1.0
 12
333.0
 22
100.0
 13
0.0
 23
0.0
 14
1.0
 24
1.0
 15
0.0
 25
0.0
 16
0.0
 26
0.0
 36
1.0
 17
0.0
 27
0.0
 37
0.0
 40
322.2657891260707
 41
2.073363431151241
 42
50.0
 43
0.0
 44
0.0
 50
0.0
 51
0.0
 71
     0
 72
   100
 73
     1
 74
     3
 75
     0
 76
     0
 77
     0
 78
     0
281
     0
 65
     1
110
0.0
120
0.0
130
0.0
111
1.0
121
0.0
131
0.0
112
0.0
122
1.0
132
0.0
 79
     1
146
0.0
  0
ENDTAB
  0
TABLE
  2
LTYPE
  5
5
330
0
100
AcDbSymbolTable
 70
     1
  0
LTYPE
  5
13
330
5
100
AcDbSymbolTableRecord
100
AcDbLinetypeTableRecord
  2
ByBlock
 70
     0
  3

 72
    65
 73
     0
 40
0.0
  0
LTYPE
  5
14
330
5
100
AcDbSymbolTableRecord
100
AcDbLinetypeTableRecord
  2
ByLayer
 70
     0
  3

 72
    65
 73
     0
 40
0.0
  0
LTYPE
  5
15
330
5
100
AcDbSymbolTableRecord
100
AcDbLinetypeTableRecord
  2
Continuous
 70
     0
  3
Solid line
 72
    65
 73
     0
 40
0.0
  0
ENDTAB
  0
TABLE
  2
LAYER
  5
2
330
0
100
AcDbSymbolTable
 70
     1
  0
LAYER
  5
10
330
2
100
AcDbSymbolTableRecord
100
AcDbLayerTableRecord
  2
0
 70
     0
 62
     7
  6
Continuous
370
    -3
390
F
  0
ENDTAB
  0
TABLE
  2
STYLE
  5
3
330
0
100
AcDbSymbolTable
 70
     1
  0
STYLE
  5
11
330
3
100
AcDbSymbolTableRecord
100
AcDbTextStyleTableRecord
  2
Standard
 70
     0
 40
0.0
 41
1.0
 50
0.0
 71
     0
 42
0.2
  3
txt
  4

  0
ENDTAB
  0
TABLE
  2
VIEW
  5
6
330
0
100
AcDbSymbolTable
 70
     0
  0
ENDTAB
  0
TABLE
  2
UCS
  5
7
330
0
100
AcDbSymbolTable
 70
     0
  0
ENDTAB
  0
TABLE
  2
APPID
  5
9
330
0
100
AcDbSymbolTable
 70
     1
  0
APPID
  5
12
330
9
100
AcDbSymbolTableRecord
100
AcDbRegAppTableRecord
  2
ACAD
 70
     0
  0
ENDTAB
  0
TABLE
  2
DIMSTYLE
  5
A
330
0
100
AcDbSymbolTable
 70
     1
100
AcDbDimStyleTable
 71
     0
  0
DIMSTYLE
105
1CF
330
A
100
AcDbSymbolTableRecord
100
AcDbDimStyleTableRecord
  2
Standard
 70
     0
340
11
  0
ENDTAB
  0
TABLE
  2
BLOCK_RECORD
  5
1
330
0
100
AcDbSymbolTable
 70
     0
  0
BLOCK_RECORD
  5
1E
330
1
100
AcDbSymbolTableRecord
100
AcDbBlockTableRecord
  2
*Model_Space
340
21
  0
BLOCK_RECORD
  5
1A
330
1
100
AcDbSymbolTableRecord
100
AcDbBlockTableRecord
  2
*Paper_Space
340
1D
  0
ENDTAB
  0
ENDSEC
  0
SECTION
  2
BLOCKS
  0
BLOCK
  5
1F
330
1E
100
AcDbEntity
  8
0
100
AcDbBlockBegin
  2
*Model_Space
 70
     0
 10
0.0
 20
0.0
 30
0.0
  3
*Model_Space
  1

  0
ENDBLK
  5
20
330
1E
100
AcDbEntity
  8
0
100
AcDbBlockEnd
  0
BLOCK
  5
1B
330
1A
100
AcDbEntity
 67
     1
  8
0
100
AcDbBlockBegin
  2
*Paper_Space
 70
     0
 10
0.0
 20
0.0
 30
0.0
  3
*Paper_Space
  1

  0
ENDBLK
  5
1C
330
1A
100
AcDbEntity
 67
     1
  8
0
100
AcDbBlockEnd
  0
ENDSEC
  0
SECTION
  2
ENTITIES
  0
LINE
  5
22
330
1E
100
AcDbEntity
  8
0
100
AcDbLine
 10
139.744
 20
0.9993999999999839
 30
0.0
 11
142.3239999999999
 21
0.393199999999982
 31
0.0
  0
LINE
  5
23
330
1E
100
AcDbEntity
  8
0
100
AcDbLine
 10
138.306
 20
1.465599999999979
 30
0.0
 11
139.744
 21
0.9993999999999839
 31
0.0
  0
LINE
  5
24
330
1E
100
AcDbEntity
  8
0
100
AcDbLine
 10
146.7389999999999
 20
-0.0000000000000167
 30
0.0
 11
529.259
 21
-0.0000000000000167
 31
0.0
  0
LINE
  5
25
330
1E
100
AcDbEntity
  8
0
100
AcDbLine
 10
143.7579999999999
 20
0.178099999999981
 30
0.0
 11
146.7389999999999
 21
-0.0000000000000167
 31
0.0
  0
LINE
  5
26
330
1E
100
AcDbEntity
  8
0
100
AcDbLine
 10
142.3239999999999
 20
0.393199999999982
 30
0.0
 11
143.7579999999999
 21
0.178099999999981
 31
0.0
  0
LINE
  5
29
330
1E
100
AcDbEntity
  8
0
100
AcDbLine
 10
132.8559999999999
 20
4.210699999999979
 30
0.0
 11
133.304
 21
3.917599999999979
 31
0.0
  0
LINE
  5
2B
330
1E
100
AcDbEntity
  8
0
100
AcDbLine
 10
133.304
 20
3.917599999999979
 30
0.0
 11
134.904
 21
2.980199999999979
 31
0.0
  0
LINE
  5
2D
330
1E
100
AcDbEntity
  8
0
100
AcDbLine
 10
134.904
 20
2.980199999999979
 30
0.0
 11
138.306
 21
1.465599999999979
 31
0.0
  0
LINE
  5
30
330
1E
100
AcDbEntity
  8
0
100
AcDbLine
 10
146.7389999999999
 20
-0.0000000000000167
 30
0.0
 11
529.259
 21
-0.0000000000000167
 31
0.0
  0
LINE
  5
35
330
1E
100
AcDbEntity
  8
0
100
AcDbLine
 10
131.955
 20
4.84189999999998
 30
0.0
 11
132.8559999999999
 21
4.210699999999979
 31
0.0
  0
LINE
  5
38
330
1E
100
AcDbEntity
  8
0
100
AcDbLine
 10
127.943
 20
8.519409999999981
 30
0.0
 11
128.426
 21
7.98518999999999
 31
0.0
  0
LINE
  5
3A
330
1E
100
AcDbEntity
  8
0
100
AcDbLine
 10
125.16
 20
12.38199999999999
 30
0.0
 11
127.943
 21
8.519409999999981
 31
0.0
  0
LINE
  5
3C
330
1E
100
AcDbEntity
  8
0
100
AcDbLine
 10
131.176
 20
5.43716999999998
 30
0.0
 11
131.955
 21
4.84189999999998
 31
0.0
  0
LINE
  5
3D
330
1E
100
AcDbEntity
  8
0
100
AcDbLine
 10
130.112
 20
6.33352999999999
 30
0.0
 11
131.013
 21
5.56822999999999
 31
0.0
  0
LINE
  5
3E
330
1E
100
AcDbEntity
  8
0
100
AcDbLine
 10
131.013
 20
5.56822999999999
 30
0.0
 11
131.176
 21
5.43716999999999
 31
0.0
  0
LINE
  5
42
330
1E
100
AcDbEntity
  8
0
100
AcDbLine
 10
128.426
 20
7.98518999999999
 30
0.0
 11
130.112
 21
6.33352999999999
 31
0.0
  0
LINE
  5
43
330
1E
100
AcDbEntity
  8
0
100
AcDbLine
 10
124.0809999999999
 20
14.4408
 30
0.0
 11
125.16
 21
12.38199999999999
 31
0.0
  0
LINE
  5
45
330
1E
100
AcDbEntity
  8
0
100
AcDbLine
 10
229.154
 20
16.0064
 30
0.0
 11
240.2359999999999
 21
16.0064
 31
0.0
  0
LINE
  5
46
330
1E
100
AcDbEntity
  8
0
100
AcDbLine
 10
219.9879999999999
 20
16.0064
 30
0.0
 11
229.154
 21
16.0064
 31
0.0
  0
LINE
  5
47
330
1E
100
AcDbEntity
  8
0
100
AcDbLine
 10
213.1369999999999
 20
16.0064
 30
0.0
 11
219.9879999999999
 21
16.0064
 31
0.0
  0
LINE
  5
48
330
1E
100
AcDbEntity
  8
0
100
AcDbLine
 10
208.9049999999999
 20
16.0064
 30
0.0
 11
213.1369999999999
 21
16.0064
 31
0.0
  0
LINE
  5
49
330
1E
100
AcDbEntity
  8
0
100
AcDbLine
 10
208.9049999999999
 20
16.0064
 30
0.0
 11
213.1369999999999
 21
16.0064
 31
0.0
  0
LINE
  5
4A
330
1E
100
AcDbEntity
  8
0
100
AcDbLine
 10
240.2359999999999
 20
16.0064
 30
0.0
 11
252.7499999999999
 21
16.0064
 31
0.0
  0
LINE
  5
4D
330
1E
100
AcDbEntity
  8
0
100
AcDbLine
 10
250.9889999999999
 20
16.0064
 30
0.0
 11
254.1949999999999
 21
16.0064
 31
0.0
  0
LINE
  5
4E
330
1E
100
AcDbEntity
  8
0
100
AcDbLine
 10
252.7499999999999
 20
16.0064
 30
0.0
 11
266.149
 21
16.0064
 31
0.0
  0
LINE
  5
4F
330
1E
100
AcDbEntity
  8
0
100
AcDbLine
 10
254.1949999999999
 20
16.0064
 30
0.0
 11
259.297
 21
16.0064
 31
0.0
  0
LINE
  5
50
330
1E
100
AcDbEntity
  8
0
100
AcDbLine
 10
251.2669999999999
 20
16.0064
 30
0.0
 11
254.59
 21
16.0064
 31
0.0
  0
LINE
  5
51
330
1E
100
AcDbEntity
  8
0
100
AcDbLine
 10
254.59
 20
16.0064
 30
0.0
 11
259.661
 21
16.0064
 31
0.0
  0
LINE
  5
52
330
1E
100
AcDbEntity
  8
0
100
AcDbLine
 10
259.661
 20
16.0064
 30
0.0
 11
265.997
 21
16.0064
 31
0.0
  0
LINE
  5
53
330
1E
100
AcDbEntity
  8
0
100
AcDbLine
 10
265.997
 20
16.0064
 30
0.0
 11
272.9979999999999
 21
16.0064
 31
0.0
  0
LINE
  5
54
330
1E
100
AcDbEntity
  8
0
100
AcDbLine
 10
250.0049999999999
 20
16.0064
 30
0.0
 11
251.2669999999999
 21
16.0064
 31
0.0
  0
LINE
  5
55
330
1E
100
AcDbEntity
  8
0
100
AcDbLine
 10
250.0049999999999
 20
16.0064
 30
0.0
 11
250.9889999999999
 21
16.0064
 31
0.0
  0
LINE
  5
58
330
1E
100
AcDbEntity
  8
0
100
AcDbLine
 10
191.5506588689549
 20
41.9779587546373
 30
0.0
 11
197.5459999999999
 21
37.77109999999999
 31
0.0
  0
LINE
  5
59
330
1E
100
AcDbEntity
  8
0
100
AcDbLine
 10
0.291
 20
50.02
 30
0.0
 11
1.716
 21
50.02
 31
0.0
  0
LINE
  5
5A
330
1E
100
AcDbEntity
  8
0
100
AcDbLine
 10
0.447
 20
50.02
 30
0.0
 11
1.564999999999999
 21
50.02
 31
0.0
  0
LINE
  5
5B
330
1E
100
AcDbEntity
  8
0
100
AcDbLine
 10
1.564999999999999
 20
50.02
 30
0.0
 11
3.556999999999999
 21
50.02
 31
0.0
  0
LINE
  5
5C
330
1E
100
AcDbEntity
  8
0
100
AcDbLine
 10
0.447
 20
50.02
 30
0.0
 11
1.564999999999999
 21
50.02
 31
0.0
  0
LINE
  5
5D
330
1E
100
AcDbEntity
  8
0
100
AcDbLine
 10
0.291
 20
50.02
 30
0.0
 11
1.716
 21
50.02
 31
0.0
  0
LINE
  5
5E
330
1E
100
AcDbEntity
  8
0
100
AcDbLine
 10
0.0
 20
50.02
 30
0.0
 11
2.233
 21
98.34430000000001
 31
0.0
  0
LINE
  5
5F
330
1E
100
AcDbEntity
  8
0
100
AcDbLine
 10
0.0
 20
50.02
 30
0.0
 11
0.447
 21
50.02
 31
0.0
  0
LINE
  5
60
330
1E
100
AcDbEntity
  8
0
100
AcDbLine
 10
0.0
 20
50.02
 30
0.0
 11
0.291
 21
50.02
 31
0.0
  0
LINE
  5
61
330
1E
100
AcDbEntity
  8
0
100
AcDbLine
 10
1.716
 20
50.02
 30
0.0
 11
3.516
 21
50.02
 31
0.0
  0
LINE
  5
62
330
1E
100
AcDbEntity
  8
0
100
AcDbLine
 10
2.233
 20
98.34430000000001
 30
0.0
 11
2.995
 21
146.7079999999999
 31
0.0
  0
LINE
  5
63
330
1E
100
AcDbEntity
  8
0
100
AcDbLine
 10
2.995
 20
146.7079999999999
 30
0.0
 11
3.458999999999999
 21
148.307
 31
0.0
  0
LINE
  5
64
330
1E
100
AcDbEntity
  8
0
100
AcDbLine
 10
3.556999999999999
 20
50.02
 30
0.0
 11
7.98
 21
50.02
 31
0.0
  0
LINE
  5
65
330
1E
100
AcDbEntity
  8
0
100
AcDbLine
 10
10.955
 20
50.02
 30
0.0
 11
14.982
 21
50.02
 31
0.0
  0
LINE
  5
66
330
1E
100
AcDbEntity
  8
0
100
AcDbLine
 10
8.545999999999999
 20
50.02
 30
0.0
 11
10.955
 21
50.02
 31
0.0
  0
LINE
  5
67
330
1E
100
AcDbEntity
  8
0
100
AcDbLine
 10
7.98
 20
50.02
 30
0.0
 11
8.545999999999999
 21
50.02
 31
0.0
  0
LINE
  5
68
330
1E
100
AcDbEntity
  8
0
100
AcDbLine
 10
28.91199999999999
 20
50.02
 30
0.0
 11
33.668
 21
50.02
 31
0.0
  0
LINE
  5
69
330
1E
100
AcDbEntity
  8
0
100
AcDbLine
 10
24.524
 20
50.02
 30
0.0
 11
28.91199999999999
 21
50.02
 31
0.0
  0
LINE
  5
6A
330
1E
100
AcDbEntity
  8
0
100
AcDbLine
 10
44.08399999999999
 20
50.02
 30
0.0
 11
49.613
 21
50.02
 31
0.0
  0
LINE
  5
6B
330
1E
100
AcDbEntity
  8
0
100
AcDbLine
 10
49.613
 20
50.02
 30
0.0
 11
55.276
 21
50.02
 31
0.0
  0
LINE
  5
6C
330
1E
100
AcDbEntity
  8
0
100
AcDbLine
 10
33.668
 20
50.02
 30
0.0
 11
38.746
 21
50.02
 31
0.0
  0
LINE
  5
6D
330
1E
100
AcDbEntity
  8
0
100
AcDbLine
 10
20.497
 20
50.02
 30
0.0
 11
24.524
 21
50.02
 31
0.0
  0
LINE
  5
6E
330
1E
100
AcDbEntity
  8
0
100
AcDbLine
 10
14.982
 20
50.02
 30
0.0
 11
20.497
 21
50.02
 31
0.0
  0
LINE
  5
6F
330
1E
100
AcDbEntity
  8
0
100
AcDbLine
 10
38.746
 20
50.02
 30
0.0
 11
44.08399999999999
 21
50.02
 31
0.0
  0
LINE
  5
70
330
1E
100
AcDbEntity
  8
0
100
AcDbLine
 10
13.87199999999999
 20
50.02
 30
0.0
 11
16.25
 21
50.02
 31
0.0
  0
LINE
  5
71
330
1E
100
AcDbEntity
  8
0
100
AcDbLine
 10
13.87199999999999
 20
50.02
 30
0.0
 11
14.073
 21
50.02
 31
0.0
  0
LINE
  5
72
330
1E
100
AcDbEntity
  8
0
100
AcDbLine
 10
3.516
 20
50.02
 30
0.0
 11
7.79
 21
50.02
 31
0.0
  0
LINE
  5
73
330
1E
100
AcDbEntity
  8
0
100
AcDbLine
 10
16.25
 20
50.02
 30
0.0
 11
21.138
 21
50.02
 31
0.0
  0
LINE
  5
74
330
1E
100
AcDbEntity
  8
0
100
AcDbLine
 10
7.79
 20
50.02
 30
0.0
 11
9.003999999999999
 21
50.02
 31
0.0
  0
LINE
  5
75
330
1E
100
AcDbEntity
  8
0
100
AcDbLine
 10
11.534
 20
50.02
 30
0.0
 11
15.96499999999999
 21
50.02
 31
0.0
  0
LINE
  5
76
330
1E
100
AcDbEntity
  8
0
100
AcDbLine
 10
20.736
 20
50.02
 30
0.0
 11
27.397
 21
50.02
 31
0.0
  0
LINE
  5
77
330
1E
100
AcDbEntity
  8
0
100
AcDbLine
 10
15.96499999999999
 20
50.02
 30
0.0
 11
20.736
 21
50.02
 31
0.0
  0
LINE
  5
78
330
1E
100
AcDbEntity
  8
0
100
AcDbLine
 10
9.003999999999999
 20
50.02
 30
0.0
 11
11.534
 21
50.02
 31
0.0
  0
LINE
  5
79
330
1E
100
AcDbEntity
  8
0
100
AcDbLine
 10
34.43999999999999
 20
50.02
 30
0.0
 11
40.844
 21
50.02
 31
0.0
  0
LINE
  5
7A
330
1E
100
AcDbEntity
  8
0
100
AcDbLine
 10
27.397
 20
50.02
 30
0.0
 11
34.43999999999999
 21
50.02
 31
0.0
  0
LINE
  5
7B
330
1E
100
AcDbEntity
  8
0
100
AcDbLine
 10
40.844
 20
50.02
 30
0.0
 11
47.613
 21
50.02
 31
0.0
  0
LINE
  5
7C
330
1E
100
AcDbEntity
  8
0
100
AcDbLine
 10
47.613
 20
50.02
 30
0.0
 11
56.474
 21
50.02
 31
0.0
  0
LINE
  5
7D
330
1E
100
AcDbEntity
  8
0
100
AcDbLine
 10
44.431
 20
50.02
 30
0.0
 11
53.302
 21
50.02
 31
0.0
  0
LINE
  5
7E
330
1E
100
AcDbEntity
  8
0
100
AcDbLine
 10
36.476
 20
50.02
 30
0.0
 11
44.431
 21
50.02
 31
0.0
  0
LINE
  5
7F
330
1E
100
AcDbEntity
  8
0
100
AcDbLine
 10
29.888
 20
50.02
 30
0.0
 11
36.476
 21
50.02
 31
0.0
  0
LINE
  5
80
330
1E
100
AcDbEntity
  8
0
100
AcDbLine
 10
26.294
 20
50.02
 30
0.0
 11
29.888
 21
50.02
 31
0.0
  0
LINE
  5
81
330
1E
100
AcDbEntity
  8
0
100
AcDbLine
 10
35.369
 20
50.02
 30
0.0
 11
41.648
 21
50.02
 31
0.0
  0
LINE
  5
82
330
1E
100
AcDbEntity
  8
0
100
AcDbLine
 10
3.458999999999999
 20
148.307
 30
0.0
 11
4.703
 21
149.413
 31
0.0
  0
LINE
  5
8E
330
1E
100
AcDbEntity
  8
0
100
AcDbLine
 10
6.347
 20
149.6829999999999
 30
0.0
 11
6.792
 21
149.6839999999999
 31
0.0
  0
LINE
  5
8F
330
1E
100
AcDbEntity
  8
0
100
AcDbLine
 10
6.347
 20
149.6829999999999
 30
0.0
 11
7.137
 21
149.6829999999999
 31
0.0
  0
LINE
  5
90
330
1E
100
AcDbEntity
  8
0
100
AcDbLine
 10
4.703
 20
149.413
 30
0.0
 11
6.347
 21
149.6829999999999
 31
0.0
  0
LINE
  5
91
330
1E
100
AcDbEntity
  8
0
100
AcDbLine
 10
55.276
 20
50.02
 30
0.0
 11
64.847
 21
50.02
 31
0.0
  0
LINE
  5
94
330
1E
100
AcDbEntity
  8
0
100
AcDbLine
 10
92.42600000000001
 20
50.02
 30
0.0
 11
96.59500000000001
 21
50.02
 31
0.0
  0
LINE
  5
95
330
1E
100
AcDbEntity
  8
0
100
AcDbLine
 10
96.59500000000001
 20
50.02
 30
0.0
 11
100.2839999999999
 21
50.02
 31
0.0
  0
LINE
  5
96
330
1E
100
AcDbEntity
  8
0
100
AcDbLine
 10
100.2839999999999
 20
50.02
 30
0.0
 11
104.312
 21
50.02
 31
0.0
  0
LINE
  5
98
330
1E
100
AcDbEntity
  8
0
100
AcDbLine
 10
107.032
 20
49.2147
 30
0.0
 11
107.854
 21
48.5484
 31
0.0
  0
LINE
  5
9B
330
1E
100
AcDbEntity
  8
0
100
AcDbLine
 10
86.35099999999999
 20
50.02
 30
0.0
 11
92.42600000000001
 21
50.02
 31
0.0
  0
LINE
  5
9C
330
1E
100
AcDbEntity
  8
0
100
AcDbLine
 10
107.854
 20
48.5484
 30
0.0
 11
108.8429999999999
 21
47.13189999999999
 31
0.0
  0
LINE
  5
A2
330
1E
100
AcDbEntity
  8
0
100
AcDbLine
 10
63.893
 20
50.02
 30
0.0
 11
160.365
 21
50.02
 31
0.0
  0
LINE
  5
A3
330
1E
100
AcDbEntity
  8
0
100
AcDbLine
 10
104.312
 20
50.02
 30
0.0
 11
107.032
 21
49.2147
 31
0.0
  0
LINE
  5
A6
330
1E
100
AcDbEntity
  8
0
100
AcDbLine
 10
66.90000000000001
 20
50.02
 30
0.0
 11
170.644
 21
50.02
 31
0.0
  0
LINE
  5
A7
330
1E
100
AcDbEntity
  8
0
100
AcDbLine
 10
64.847
 20
50.02
 30
0.0
 11
86.35099999999999
 21
50.02
 31
0.0
  0
LINE
  5
A8
330
1E
100
AcDbEntity
  8
0
100
AcDbLine
 10
56.474
 20
50.02
 30
0.0
 11
66.90000000000001
 21
50.02
 31
0.0
  0
LINE
  5
AC
330
1E
100
AcDbEntity
  8
0
100
AcDbLine
 10
7.137
 20
149.6829999999999
 30
0.0
 11
206.4109999999999
 21
149.608
 31
0.0
  0
LINE
  5
AD
330
1E
100
AcDbEntity
  8
0
100
AcDbLine
 10
63.893
 20
50.02
 30
0.0
 11
160.365
 21
50.02
 31
0.0
  0
LINE
  5
B7
330
1E
100
AcDbEntity
  8
0
100
AcDbLine
 10
170.644
 20
50.02
 30
0.0
 11
272.9979999999999
 21
50.02
 31
0.0
  0
LINE
  5
B8
330
1E
100
AcDbEntity
  8
0
100
AcDbLine
 10
160.365
 20
50.02
 30
0.0
 11
256.8859999999999
 21
50.02
 31
0.0
  0
LINE
  5
B9
330
1E
100
AcDbEntity
  8
0
100
AcDbLine
 10
170.255613254264
 20
149.629878259614
 30
0.0
 11
171.1739999999999
 21
149.865
 31
0.0
  0
LINE
  5
BA
330
1E
100
AcDbEntity
  8
0
100
AcDbLine
 10
177.3909999999999
 20
50.02
 30
0.0
 11
189.1619999999999
 21
43.3063
 31
0.0
  0
LINE
  5
BB
330
1E
100
AcDbEntity
  8
0
100
AcDbLine
 10
172.6949999999999
 20
152.3979999999999
 30
0.0
 11
173.1659999999999
 21
196.41
 31
0.0
  0
LINE
  5
BC
330
1E
100
AcDbEntity
  8
0
100
AcDbLine
 10
175.0729999999999
 20
199.202
 30
0.0
 11
176.8359999999999
 21
199.3309999999999
 31
0.0
  0
LINE
  5
BD
330
1E
100
AcDbEntity
  8
0
100
AcDbLine
 10
173.689
 20
198.1
 30
0.0
 11
175.0729999999999
 21
199.202
 31
0.0
  0
LINE
  5
BE
330
1E
100
AcDbEntity
  8
0
100
AcDbLine
 10
173.1659999999999
 20
196.41
 30
0.0
 11
173.689
 21
198.1
 31
0.0
  0
LINE
  5
C1
330
1E
100
AcDbEntity
  8
0
100
AcDbLine
 10
172.278
 20
150.931
 30
0.0
 11
172.6949999999999
 21
152.3979999999999
 31
0.0
  0
LINE
  5
C2
330
1E
100
AcDbEntity
  8
0
100
AcDbLine
 10
171.1739999999999
 20
149.865
 30
0.0
 11
172.278
 21
150.931
 31
0.0
  0
LINE
  5
C3
330
1E
100
AcDbEntity
  8
0
100
AcDbLine
 10
176.8359999999999
 20
199.3309999999999
 30
0.0
 11
590.1369999999999
 21
200.0
 31
0.0
  0
LINE
  5
C4
330
1E
100
AcDbEntity
  8
0
100
AcDbLine
 10
189.1619999999999
 20
43.3063
 30
0.0
 11
191.4649999999999
 21
42.0358
 31
0.0
  0
LINE
  5
D4
330
1E
100
AcDbEntity
  8
0
100
AcDbLine
 10
191.5506588689549
 20
41.9779587546373
 30
0.0
 11
197.5459999999999
 21
37.77109999999999
 31
0.0
  0
LINE
  5
D8
330
1E
100
AcDbEntity
  8
0
100
AcDbLine
 10
197.5459999999999
 20
37.77109999999999
 30
0.0
 11
202.404
 21
32.11679999999999
 31
0.0
  0
LINE
  5
D9
330
1E
100
AcDbEntity
  8
0
100
AcDbLine
 10
202.404
 20
32.11679999999999
 30
0.0
 11
205.719
 21
25.43919999999999
 31
0.0
  0
LINE
  5
DA
330
1E
100
AcDbEntity
  8
0
100
AcDbLine
 10
213.1369999999999
 20
16.0064
 30
0.0
 11
219.9879999999999
 21
16.0064
 31
0.0
  0
LINE
  5
DB
330
1E
100
AcDbEntity
  8
0
100
AcDbLine
 10
219.9879999999999
 20
16.0064
 30
0.0
 11
229.1529999999999
 21
16.0064
 31
0.0
  0
LINE
  5
DC
330
1E
100
AcDbEntity
  8
0
100
AcDbLine
 10
240.235
 20
16.0064
 30
0.0
 11
252.7499999999999
 21
16.0064
 31
0.0
  0
LINE
  5
DD
330
1E
100
AcDbEntity
  8
0
100
AcDbLine
 10
252.7499999999999
 20
16.0064
 30
0.0
 11
266.149
 21
16.0064
 31
0.0
  0
LINE
  5
DE
330
1E
100
AcDbEntity
  8
0
100
AcDbLine
 10
229.1529999999999
 20
16.0064
 30
0.0
 11
240.235
 21
16.0064
 31
0.0
  0
LINE
  5
DF
330
1E
100
AcDbEntity
  8
0
100
AcDbLine
 10
266.149
 20
16.0064
 30
0.0
 11
279.848
 21
16.0064
 31
0.0
  0
LINE
  5
E0
330
1E
100
AcDbEntity
  8
0
100
AcDbLine
 10
265.7839999999999
 20
16.0064
 30
0.0
 11
272.997
 21
16.0064
 31
0.0
  0
LINE
  5
E1
330
1E
100
AcDbEntity
  8
0
100
AcDbLine
 10
259.297
 20
16.0064
 30
0.0
 11
265.7839999999999
 21
16.0064
 31
0.0
  0
LINE
  5
E2
330
1E
100
AcDbEntity
  8
0
100
AcDbLine
 10
206.4109999999999
 20
149.608
 30
0.0
 11
272.999
 21
149.594
 31
0.0
  0
LINE
  5
E3
330
1E
100
AcDbEntity
  8
0
100
AcDbLine
 10
207.2859999999999
 20
18.1503
 30
0.0
 11
207.472
 21
16.0064
 31
0.0
  0
LINE
  5
E5
330
1E
100
AcDbEntity
  8
0
100
AcDbLine
 10
256.8859999999999
 20
50.02
 30
0.0
 11
272.9979999999999
 21
50.02
 31
0.0
  0
LINE
  5
E7
330
1E
100
AcDbEntity
  8
0
100
AcDbLine
 10
205.719
 20
25.43919999999999
 30
0.0
 11
207.2859999999999
 21
18.1503
 31
0.0
  0
LINE
  5
E8
330
1E
100
AcDbEntity
  8
0
100
AcDbLine
 10
207.472
 20
16.0064
 30
0.0
 11
208.9049999999999
 21
16.0064
 31
0.0
  0
LINE
  5
E9
330
1E
100
AcDbEntity
  8
0
100
AcDbLine
 10
279.848
 20
16.0064
 30
0.0
 11
293.247
 21
16.0064
 31
0.0
  0
LINE
  5
EA
330
1E
100
AcDbEntity
  8
0
100
AcDbLine
 10
293.247
 20
16.0064
 30
0.0
 11
305.762
 21
16.0064
 31
0.0
  0
LINE
  5
EB
330
1E
100
AcDbEntity
  8
0
100
AcDbLine
 10
291.8029999999999
 20
16.0064
 30
0.0
 11
295.0079999999999
 21
16.0064
 31
0.0
  0
LINE
  5
EC
330
1E
100
AcDbEntity
  8
0
100
AcDbLine
 10
291.4069999999999
 20
16.0064
 30
0.0
 11
294.73
 21
16.0064
 31
0.0
  0
LINE
  5
ED
330
1E
100
AcDbEntity
  8
0
100
AcDbLine
 10
286.336
 20
16.0064
 30
0.0
 11
291.4069999999999
 21
16.0064
 31
0.0
  0
LINE
  5
EE
330
1E
100
AcDbEntity
  8
0
100
AcDbLine
 10
279.999
 20
16.0064
 30
0.0
 11
286.336
 21
16.0064
 31
0.0
  0
LINE
  5
EF
330
1E
100
AcDbEntity
  8
0
100
AcDbLine
 10
272.9979999999999
 20
16.0064
 30
0.0
 11
279.999
 21
16.0064
 31
0.0
  0
LINE
  5
F0
330
1E
100
AcDbEntity
  8
0
100
AcDbLine
 10
305.762
 20
16.0064
 30
0.0
 11
316.843
 21
16.0064
 31
0.0
  0
LINE
  5
F1
330
1E
100
AcDbEntity
  8
0
100
AcDbLine
 10
316.843
 20
16.0064
 30
0.0
 11
326.009
 21
16.0064
 31
0.0
  0
LINE
  5
F2
330
1E
100
AcDbEntity
  8
0
100
AcDbLine
 10
332.859
 20
16.0064
 30
0.0
 11
337.093
 21
16.0064
 31
0.0
  0
LINE
  5
F3
330
1E
100
AcDbEntity
  8
0
100
AcDbLine
 10
326.009
 20
16.0064
 30
0.0
 11
332.859
 21
16.0064
 31
0.0
  0
LINE
  5
F4
330
1E
100
AcDbEntity
  8
0
100
AcDbLine
 10
294.73
 20
16.0064
 30
0.0
 11
295.992
 21
16.0064
 31
0.0
  0
LINE
  5
F5
330
1E
100
AcDbEntity
  8
0
100
AcDbLine
 10
316.843
 20
16.0064
 30
0.0
 11
326.009
 21
16.0064
 31
0.0
  0
LINE
  5
F6
330
1E
100
AcDbEntity
  8
0
100
AcDbLine
 10
332.86
 20
16.0064
 30
0.0
 11
337.093
 21
16.0064
 31
0.0
  0
LINE
  5
F7
330
1E
100
AcDbEntity
  8
0
100
AcDbLine
 10
280.2129999999999
 20
16.0064
 30
0.0
 11
286.699
 21
16.0064
 31
0.0
  0
LINE
  5
F8
330
1E
100
AcDbEntity
  8
0
100
AcDbLine
 10
286.699
 20
16.0064
 30
0.0
 11
291.8029999999999
 21
16.0064
 31
0.0
  0
LINE
  5
F9
330
1E
100
AcDbEntity
  8
0
100
AcDbLine
 10
272.997
 20
16.0064
 30
0.0
 11
280.2129999999999
 21
16.0064
 31
0.0
  0
LINE
  5
FA
330
1E
100
AcDbEntity
  8
0
100
AcDbLine
 10
295.0079999999999
 20
16.0064
 30
0.0
 11
295.992
 21
16.0064
 31
0.0
  0
LINE
  5
FE
330
1E
100
AcDbEntity
  8
0
100
AcDbLine
 10
532.3419999999999
 20
0.191099999999983
 30
0.0
 11
537.21
 21
1.29849999999998
 31
0.0
  0
LINE
  5
101
330
1E
100
AcDbEntity
  8
0
100
AcDbLine
 10
540.193
 20
2.51899999999998
 30
0.0
 11
542.691
 21
3.916599999999979
 31
0.0
  0
LINE
  5
104
330
1E
100
AcDbEntity
  8
0
100
AcDbLine
 10
542.691
 20
3.916599999999979
 30
0.0
 11
543.158
 21
4.221699999999979
 31
0.0
  0
LINE
  5
105
330
1E
100
AcDbEntity
  8
0
100
AcDbLine
 10
543.158
 20
4.221699999999979
 30
0.0
 11
544.1659999999999
 21
4.93199999999999
 31
0.0
  0
LINE
  5
106
330
1E
100
AcDbEntity
  8
0
100
AcDbLine
 10
537.21
 20
1.29849999999998
 30
0.0
 11
540.193
 21
2.51899999999998
 31
0.0
  0
LINE
  5
107
330
1E
100
AcDbEntity
  8
0
100
AcDbLine
 10
547.9911169302599
 20
8.46459239518429
 30
0.0
 11
548.055
 21
8.519409999999981
 31
0.0
  0
LINE
  5
108
330
1E
100
AcDbEntity
  8
0
100
AcDbLine
 10
547.9911169302599
 20
8.46459239518429
 30
0.0
 11
548.055
 21
8.519409999999981
 31
0.0
  0
LINE
  5
109
330
1E
100
AcDbEntity
  8
0
100
AcDbLine
 10
548.055
 20
8.519409999999981
 30
0.0
 11
548.1759999999999
 21
8.65845999999998
 31
0.0
  0
LINE
  5
10A
330
1E
100
AcDbEntity
  8
0
100
AcDbLine
 10
546.474
 20
6.87374999999999
 30
0.0
 11
548.1759999999999
 21
8.65845999999998
 31
0.0
  0
LINE
  5
10B
330
1E
100
AcDbEntity
  8
0
100
AcDbLine
 10
548.1759999999999
 20
8.65845999999998
 30
0.0
 11
551.039
 21
12.73109999999999
 31
0.0
  0
LINE
  5
10C
330
1E
100
AcDbEntity
  8
0
100
AcDbLine
 10
338.524
 20
16.0064
 30
0.0
 11
338.7119999999999
 21
18.1503
 31
0.0
  0
LINE
  5
10D
330
1E
100
AcDbEntity
  8
0
100
AcDbLine
 10
544.8369999999999
 20
5.44917999999999
 30
0.0
 11
546.474
 21
6.87374999999999
 31
0.0
  0
LINE
  5
110
330
1E
100
AcDbEntity
  8
0
100
AcDbLine
 10
551.039
 20
12.73109999999999
 30
0.0
 11
567.1549999999999
 21
47.13189999999999
 31
0.0
  0
LINE
  5
111
330
1E
100
AcDbEntity
  8
0
100
AcDbLine
 10
544.1659999999999
 20
4.93199999999999
 30
0.0
 11
544.8369999999999
 21
5.44917999999999
 31
0.0
  0
LINE
  5
112
330
1E
100
AcDbEntity
  8
0
100
AcDbLine
 10
337.093
 20
16.0064
 30
0.0
 11
338.524
 21
16.0064
 31
0.0
  0
LINE
  5
113
330
1E
100
AcDbEntity
  8
0
100
AcDbLine
 10
272.999
 20
149.594
 30
0.0
 11
339.5849999999999
 21
149.608
 31
0.0
  0
LINE
  5
114
330
1E
100
AcDbEntity
  8
0
100
AcDbLine
 10
272.9979999999999
 20
50.02
 30
0.0
 11
375.3509999999999
 21
50.02
 31
0.0
  0
LINE
  5
115
330
1E
100
AcDbEntity
  8
0
100
AcDbLine
 10
293.247
 20
16.0064
 30
0.0
 11
305.7609999999999
 21
16.0064
 31
0.0
  0
LINE
  5
116
330
1E
100
AcDbEntity
  8
0
100
AcDbLine
 10
305.7609999999999
 20
16.0064
 30
0.0
 11
316.843
 21
16.0064
 31
0.0
  0
LINE
  5
117
330
1E
100
AcDbEntity
  8
0
100
AcDbLine
 10
338.7119999999999
 20
18.1503
 30
0.0
 11
340.278
 21
25.43919999999999
 31
0.0
  0
LINE
  5
119
330
1E
100
AcDbEntity
  8
0
100
AcDbLine
 10
340.278
 20
25.43919999999999
 30
0.0
 11
343.593
 21
32.11679999999999
 31
0.0
  0
LINE
  5
11A
330
1E
100
AcDbEntity
  8
0
100
AcDbLine
 10
339.5849999999999
 20
149.608
 30
0.0
 11
432.1309999999999
 21
149.6649999999999
 31
0.0
  0
LINE
  5
11E
330
1E
100
AcDbEntity
  8
0
100
AcDbLine
 10
354.553
 20
42.0528
 30
0.0
 11
356.8349999999999
 21
43.3063
 31
0.0
  0
LINE
  5
11F
330
1E
100
AcDbEntity
  8
0
100
AcDbLine
 10
375.3509999999999
 20
50.02
 30
0.0
 11
477.662
 21
50.02
 31
0.0
  0
LINE
  5
120
330
1E
100
AcDbEntity
  8
0
100
AcDbLine
 10
356.8349999999999
 20
43.3063
 30
0.0
 11
368.6059999999999
 21
50.02
 31
0.0
  0
LINE
  5
121
330
1E
100
AcDbEntity
  8
0
100
AcDbLine
 10
477.662
 20
50.02
 30
0.0
 11
483.384
 21
50.02
 31
0.0
  0
LINE
  5
122
330
1E
100
AcDbEntity
  8
0
100
AcDbLine
 10
483.384
 20
50.02
 30
0.0
 11
494.898
 21
50.02
 31
0.0
  0
LINE
  5
123
330
1E
100
AcDbEntity
  8
0
100
AcDbLine
 10
505.158
 20
50.02
 30
0.0
 11
511.561
 21
50.02
 31
0.0
  0
LINE
  5
124
330
1E
100
AcDbEntity
  8
0
100
AcDbLine
 10
494.898
 20
50.02
 30
0.0
 11
505.158
 21
50.02
 31
0.0
  0
LINE
  5
125
330
1E
100
AcDbEntity
  8
0
100
AcDbLine
 10
524.5379999999999
 20
50.02
 30
0.0
 11
528.181
 21
50.02
 31
0.0
  0
LINE
  5
126
330
1E
100
AcDbEntity
  8
0
100
AcDbLine
 10
522.67
 20
50.02
 30
0.0
 11
524.5379999999999
 21
50.02
 31
0.0
  0
LINE
  5
127
330
1E
100
AcDbEntity
  8
0
100
AcDbLine
 10
567.1549999999999
 20
47.13189999999999
 30
0.0
 11
568.8919999999999
 21
49.1657
 31
0.0
  0
LINE
  5
128
330
1E
100
AcDbEntity
  8
0
100
AcDbLine
 10
571.686
 20
50.02
 30
0.0
 11
574.344
 21
50.02
 31
0.0
  0
LINE
  5
129
330
1E
100
AcDbEntity
  8
0
100
AcDbLine
 10
574.344
 20
50.02
 30
0.0
 11
577.7280000000001
 21
50.02
 31
0.0
  0
LINE
  5
12A
330
1E
100
AcDbEntity
  8
0
100
AcDbLine
 10
568.8919999999999
 20
49.1657
 30
0.0
 11
571.686
 21
50.02
 31
0.0
  0
LINE
  5
12B
330
1E
100
AcDbEntity
  8
0
100
AcDbLine
 10
568.843523348991
 20
49.1089401768443
 30
0.0
 11
568.965350488667
 21
49.1881278176336
 31
0.0
  0
LINE
  5
12C
330
1E
100
AcDbEntity
  8
0
100
AcDbLine
 10
580.08
 20
50.02
 30
0.0
 11
580.961
 21
50.02
 31
0.0
  0
LINE
  5
12D
330
1E
100
AcDbEntity
  8
0
100
AcDbLine
 10
582.098
 20
50.02
 30
0.0
 11
582.728
 21
50.02
 31
0.0
  0
LINE
  5
12E
330
1E
100
AcDbEntity
  8
0
100
AcDbLine
 10
577.7280000000001
 20
50.02
 30
0.0
 11
582.549
 21
50.02
 31
0.0
  0
LINE
  5
130
330
1E
100
AcDbEntity
  8
0
100
AcDbLine
 10
583.848
 20
50.02
 30
0.0
 11
591.08
 21
50.02
 31
0.0
  0
LINE
  5
131
330
1E
100
AcDbEntity
  8
0
100
AcDbLine
 10
596.9759999999999
 20
50.02
 30
0.0
 11
601.149
 21
50.02
 31
0.0
  0
LINE
  5
132
330
1E
100
AcDbEntity
  8
0
100
AcDbLine
 10
601.149
 20
50.02
 30
0.0
 11
603.326
 21
50.02
 31
0.0
  0
LINE
  5
133
330
1E
100
AcDbEntity
  8
0
100
AcDbLine
 10
591.08
 20
50.02
 30
0.0
 11
596.9759999999999
 21
50.02
 31
0.0
  0
LINE
  5
134
330
1E
100
AcDbEntity
  8
0
100
AcDbLine
 10
603.326
 20
50.02
 30
0.0
 11
605.7369999999999
 21
50.02
 31
0.0
  0
LINE
  5
135
330
1E
100
AcDbEntity
  8
0
100
AcDbLine
 10
582.549
 20
50.02
 30
0.0
 11
583.848
 21
50.02
 31
0.0
  0
LINE
  5
136
330
1E
100
AcDbEntity
  8
0
100
AcDbLine
 10
581.864
 20
50.02
 30
0.0
 11
582.728
 21
50.02
 31
0.0
  0
LINE
  5
137
330
1E
100
AcDbEntity
  8
0
100
AcDbLine
 10
563.003
 20
50.02
 30
0.0
 11
595.5429999999999
 21
50.02
 31
0.0
  0
LINE
  5
138
330
1E
100
AcDbEntity
  8
0
100
AcDbLine
 10
595.5429999999999
 20
50.02
 30
0.0
 11
629.374
 21
50.02
 31
0.0
  0
LINE
  5
139
330
1E
100
AcDbEntity
  8
0
100
AcDbLine
 10
535.436
 20
50.02
 30
0.0
 11
538.501
 21
50.02
 31
0.0
  0
LINE
  5
13A
330
1E
100
AcDbEntity
  8
0
100
AcDbLine
 10
606.745
 20
50.02
 30
0.0
 11
608.4919999999999
 21
50.02
 31
0.0
  0
LINE
  5
13B
330
1E
100
AcDbEntity
  8
0
100
AcDbLine
 10
605.888
 20
50.02
 30
0.0
 11
606.745
 21
50.02
 31
0.0
  0
LINE
  5
13C
330
1E
100
AcDbEntity
  8
0
100
AcDbLine
 10
630.2709999999999
 20
50.02
 30
0.0
 11
636.4069999999999
 21
50.02
 31
0.0
  0
LINE
  5
13D
330
1E
100
AcDbEntity
  8
0
100
AcDbLine
 10
629.374
 20
50.02
 30
0.0
 11
632.413
 21
50.02
 31
0.0
  0
LINE
  5
13E
330
1E
100
AcDbEntity
  8
0
100
AcDbLine
 10
608.4919999999999
 20
50.02
 30
0.0
 11
630.2709999999999
 21
50.02
 31
0.0
  0
LINE
  5
13F
330
1E
100
AcDbEntity
  8
0
100
AcDbLine
 10
605.635
 20
50.02
 30
0.0
 11
605.888
 21
50.02
 31
0.0
  0
LINE
  5
140
330
1E
100
AcDbEntity
  8
0
100
AcDbLine
 10
605.635
 20
50.02
 30
0.0
 11
605.7369999999999
 21
50.02
 31
0.0
  0
LINE
  5
141
330
1E
100
AcDbEntity
  8
0
100
AcDbLine
 10
576.053
 20
50.02
 30
0.0
 11
578.388
 21
50.02
 31
0.0
  0
LINE
  5
142
330
1E
100
AcDbEntity
  8
0
100
AcDbLine
 10
636.4069999999999
 20
50.02
 30
0.0
 11
642.2469999999999
 21
50.02
 31
0.0
  0
LINE
  5
143
330
1E
100
AcDbEntity
  8
0
100
AcDbLine
 10
642.2469999999999
 20
50.02
 30
0.0
 11
649.3369999999999
 21
50.02
 31
0.0
  0
LINE
  5
144
330
1E
100
AcDbEntity
  8
0
100
AcDbLine
 10
637.134
 20
50.02
 30
0.0
 11
641.5700000000001
 21
50.02
 31
0.0
  0
LINE
  5
145
330
1E
100
AcDbEntity
  8
0
100
AcDbLine
 10
641.8719999999999
 20
50.02
 30
0.0
 11
645.177
 21
50.02
 31
0.0
  0
LINE
  5
146
330
1E
100
AcDbEntity
  8
0
100
AcDbLine
 10
649.3369999999999
 20
50.02
 30
0.0
 11
655.0369999999999
 21
50.02
 31
0.0
  0
LINE
  5
147
330
1E
100
AcDbEntity
  8
0
100
AcDbLine
 10
647.6169999999999
 20
50.02
 30
0.0
 11
651.061
 21
50.02
 31
0.0
  0
LINE
  5
148
330
1E
100
AcDbEntity
  8
0
100
AcDbLine
 10
646.7959999999999
 20
50.02
 30
0.0
 11
647.6169999999999
 21
50.02
 31
0.0
  0
LINE
  5
149
330
1E
100
AcDbEntity
  8
0
100
AcDbLine
 10
652.5439999999999
 20
50.02
 30
0.0
 11
657.352
 21
50.02
 31
0.0
  0
LINE
  5
14A
330
1E
100
AcDbEntity
  8
0
100
AcDbLine
 10
655.0369999999999
 20
50.02
 30
0.0
 11
658.9780000000001
 21
50.02
 31
0.0
  0
LINE
  5
14B
330
1E
100
AcDbEntity
  8
0
100
AcDbLine
 10
660.888
 20
50.02
 30
0.0
 11
664.776
 21
50.02
 31
0.0
  0
LINE
  5
14C
330
1E
100
AcDbEntity
  8
0
100
AcDbLine
 10
664.776
 20
50.02
 30
0.0
 11
666.0
 21
50.02
 31
0.0
  0
LINE
  5
14D
330
1E
100
AcDbEntity
  8
0
100
AcDbLine
 10
660.8889999999998
 20
50.02
 30
0.0
 11
664.557
 21
50.02
 31
0.0
  0
LINE
  5
14E
330
1E
100
AcDbEntity
  8
0
100
AcDbLine
 10
658.9780000000001
 20
50.02
 30
0.0
 11
660.8889999999998
 21
50.02
 31
0.0
  0
LINE
  5
14F
330
1E
100
AcDbEntity
  8
0
100
AcDbLine
 10
659.6829999999999
 20
50.02
 30
0.0
 11
660.888
 21
50.02
 31
0.0
  0
LINE
  5
150
330
1E
100
AcDbEntity
  8
0
100
AcDbLine
 10
657.352
 20
50.02
 30
0.0
 11
659.6829999999999
 21
50.02
 31
0.0
  0
LINE
  5
151
330
1E
100
AcDbEntity
  8
0
100
AcDbLine
 10
664.557
 20
50.02
 30
0.0
 11
666.0
 21
50.02
 31
0.0
  0
LINE
  5
152
330
1E
100
AcDbEntity
  8
0
100
AcDbLine
 10
651.061
 20
50.02
 30
0.0
 11
652.6259999999999
 21
50.02
 31
0.0
  0
LINE
  5
153
330
1E
100
AcDbEntity
  8
0
100
AcDbLine
 10
648.669
 20
50.02
 30
0.0
 11
651.833
 21
50.02
 31
0.0
  0
LINE
  5
154
330
1E
100
AcDbEntity
  8
0
100
AcDbLine
 10
645.177
 20
50.02
 30
0.0
 11
646.7959999999999
 21
50.02
 31
0.0
  0
LINE
  5
155
330
1E
100
AcDbEntity
  8
0
100
AcDbLine
 10
637.5049999999999
 20
50.02
 30
0.0
 11
641.8719999999999
 21
50.02
 31
0.0
  0
LINE
  5
156
330
1E
100
AcDbEntity
  8
0
100
AcDbLine
 10
632.413
 20
50.02
 30
0.0
 11
637.5049999999999
 21
50.02
 31
0.0
  0
LINE
  5
157
330
1E
100
AcDbEntity
  8
0
100
AcDbLine
 10
537.993
 20
50.02
 30
0.0
 11
539.578
 21
50.02
 31
0.0
  0
LINE
  5
158
330
1E
100
AcDbEntity
  8
0
100
AcDbLine
 10
539.578
 20
50.02
 30
0.0
 11
543.552
 21
50.02
 31
0.0
  0
LINE
  5
159
330
1E
100
AcDbEntity
  8
0
100
AcDbLine
 10
543.552
 20
50.02
 30
0.0
 11
543.9479999999999
 21
50.02
 31
0.0
  0
LINE
  5
15A
330
1E
100
AcDbEntity
  8
0
100
AcDbLine
 10
543.9479999999999
 20
50.02
 30
0.0
 11
544.883
 21
50.02
 31
0.0
  0
LINE
  5
15B
330
1E
100
AcDbEntity
  8
0
100
AcDbLine
 10
544.883
 20
50.02
 30
0.0
 11
546.6009999999999
 21
50.02
 31
0.0
  0
LINE
  5
15C
330
1E
100
AcDbEntity
  8
0
100
AcDbLine
 10
596.654
 20
50.02
 30
0.0
 11
630.2709999999999
 21
50.02
 31
0.0
  0
LINE
  5
15D
330
1E
100
AcDbEntity
  8
0
100
AcDbLine
 10
563.003
 20
50.02
 30
0.0
 11
596.654
 21
50.02
 31
0.0
  0
LINE
  5
15E
330
1E
100
AcDbEntity
  8
0
100
AcDbLine
 10
630.2709999999999
 20
50.02
 30
0.0
 11
638.5449999999999
 21
50.02
 31
0.0
  0
LINE
  5
15F
330
1E
100
AcDbEntity
  8
0
100
AcDbLine
 10
646.135
 20
50.02
 30
0.0
 11
652.5439999999999
 21
50.02
 31
0.0
  0
LINE
  5
160
330
1E
100
AcDbEntity
  8
0
100
AcDbLine
 10
638.5449999999999
 20
50.02
 30
0.0
 11
646.135
 21
50.02
 31
0.0
  0
LINE
  5
161
330
1E
100
AcDbEntity
  8
0
100
AcDbLine
 10
546.6009999999999
 20
50.02
 30
0.0
 11
563.003
 21
50.02
 31
0.0
  0
LINE
  5
162
330
1E
100
AcDbEntity
  8
0
100
AcDbLine
 10
538.501
 20
50.02
 30
0.0
 11
563.003
 21
50.02
 31
0.0
  0
LINE
  5
163
330
1E
100
AcDbEntity
  8
0
100
AcDbLine
 10
533.206
 20
50.02
 30
0.0
 11
535.436
 21
50.02
 31
0.0
  0
LINE
  5
164
330
1E
100
AcDbEntity
  8
0
100
AcDbLine
 10
531.2409999999999
 20
50.02
 30
0.0
 11
533.206
 21
50.02
 31
0.0
  0
LINE
  5
165
330
1E
100
AcDbEntity
  8
0
100
AcDbLine
 10
530.396
 20
50.02
 30
0.0
 11
531.2409999999999
 21
50.02
 31
0.0
  0
LINE
  5
166
330
1E
100
AcDbEntity
  8
0
100
AcDbLine
 10
518.5999999999999
 20
50.02
 30
0.0
 11
525.259
 21
50.02
 31
0.0
  0
LINE
  5
167
330
1E
100
AcDbEntity
  8
0
100
AcDbLine
 10
532.3319999999999
 20
50.02
 30
0.0
 11
536.199
 21
50.02
 31
0.0
  0
LINE
  5
168
330
1E
100
AcDbEntity
  8
0
100
AcDbLine
 10
526.52
 20
50.02
 30
0.0
 11
532.3319999999999
 21
50.02
 31
0.0
  0
LINE
  5
169
330
1E
100
AcDbEntity
  8
0
100
AcDbLine
 10
525.259
 20
50.02
 30
0.0
 11
526.52
 21
50.02
 31
0.0
  0
LINE
  5
16A
330
1E
100
AcDbEntity
  8
0
100
AcDbLine
 10
536.199
 20
50.02
 30
0.0
 11
537.993
 21
50.02
 31
0.0
  0
LINE
  5
16B
330
1E
100
AcDbEntity
  8
0
100
AcDbLine
 10
511.561
 20
50.02
 30
0.0
 11
518.5999999999999
 21
50.02
 31
0.0
  0
LINE
  5
16C
330
1E
100
AcDbEntity
  8
0
100
AcDbLine
 10
528.181
 20
50.02
 30
0.0
 11
530.396
 21
50.02
 31
0.0
  0
LINE
  5
16D
330
1E
100
AcDbEntity
  8
0
100
AcDbLine
 10
507.3409999999999
 20
50.02
 30
0.0
 11
513.931
 21
50.02
 31
0.0
  0
LINE
  5
16E
330
1E
100
AcDbEntity
  8
0
100
AcDbLine
 10
500.2519999999999
 20
50.02
 30
0.0
 11
507.3409999999999
 21
50.02
 31
0.0
  0
LINE
  5
16F
330
1E
100
AcDbEntity
  8
0
100
AcDbLine
 10
492.525
 20
50.02
 30
0.0
 11
500.2519999999999
 21
50.02
 31
0.0
  0
LINE
  5
170
330
1E
100
AcDbEntity
  8
0
100
AcDbLine
 10
663.796
 20
108.301
 30
0.0
 11
666.0
 21
50.02
 31
0.0
  0
LINE
  5
171
330
1E
100
AcDbEntity
  8
0
100
AcDbLine
 10
481.881
 20
50.02
 30
0.0
 11
492.525
 21
50.02
 31
0.0
  0
LINE
  5
172
330
1E
100
AcDbEntity
  8
0
100
AcDbLine
 10
382.4959999999999
 20
50.02
 30
0.0
 11
481.881
 21
50.02
 31
0.0
  0
LINE
  5
175
330
1E
100
AcDbEntity
  8
0
100
AcDbLine
 10
493.592
 20
149.687
 30
0.0
 11
499.7209999999999
 21
149.6879999999999
 31
0.0
  0
LINE
  5
176
330
1E
100
AcDbEntity
  8
0
100
AcDbLine
 10
483.952
 20
149.675
 30
0.0
 11
493.592
 21
149.687
 31
0.0
  0
LINE
  5
177
330
1E
100
AcDbEntity
  8
0
100
AcDbLine
 10
432.1309999999999
 20
149.6649999999999
 30
0.0
 11
483.952
 21
149.675
 31
0.0
  0
LINE
  5
178
330
1E
100
AcDbEntity
  8
0
100
AcDbLine
 10
499.7209999999999
 20
149.6879999999999
 30
0.0
 11
505.628
 21
149.6879999999999
 31
0.0
  0
LINE
  5
179
330
1E
100
AcDbEntity
  8
0
100
AcDbLine
 10
505.628
 20
149.6879999999999
 30
0.0
 11
511.1349999999999
 21
149.6879999999999
 31
0.0
  0
LINE
  5
17A
330
1E
100
AcDbEntity
  8
0
100
AcDbLine
 10
524.591
 20
149.686
 30
0.0
 11
529.4690000000001
 21
149.686
 31
0.0
  0
LINE
  5
17D
330
1E
100
AcDbEntity
  8
0
100
AcDbLine
 10
536.598
 20
149.685
 30
0.0
 11
537.3719999999999
 21
149.685
 31
0.0
  0
LINE
  5
17E
330
1E
100
AcDbEntity
  8
0
100
AcDbLine
 10
531.7359999999999
 20
149.6829999999999
 30
0.0
 11
536.598
 21
149.685
 31
0.0
  0
LINE
  5
17F
330
1E
100
AcDbEntity
  8
0
100
AcDbLine
 10
529.4690000000001
 20
149.686
 30
0.0
 11
531.7359999999999
 21
149.6829999999999
 31
0.0
  0
LINE
  5
180
330
1E
100
AcDbEntity
  8
0
100
AcDbLine
 10
518.611
 20
149.6879999999999
 30
0.0
 11
524.591
 21
149.686
 31
0.0
  0
LINE
  5
181
330
1E
100
AcDbEntity
  8
0
100
AcDbLine
 10
511.1349999999999
 20
149.6879999999999
 30
0.0
 11
518.611
 21
149.6879999999999
 31
0.0
  0
LINE
  5
182
330
1E
100
AcDbEntity
  8
0
100
AcDbLine
 10
463.025
 20
166.4
 30
0.0
 11
463.546
 21
168.089
 31
0.0
  0
LINE
  5
183
330
1E
100
AcDbEntity
  8
0
100
AcDbLine
 10
463.546
 20
168.089
 30
0.0
 11
464.93
 21
169.1899999999999
 31
0.0
  0
LINE
  5
184
330
1E
100
AcDbEntity
  8
0
100
AcDbLine
 10
464.93
 20
169.1899999999999
 30
0.0
 11
466.694
 21
169.32
 31
0.0
  0
LINE
  5
185
330
1E
100
AcDbEntity
  8
0
100
AcDbLine
 10
466.694
 20
169.32
 30
0.0
 11
467.8949999999999
 21
169.32
 31
0.0
  0
LINE
  5
195
330
1E
100
AcDbEntity
  8
0
100
AcDbLine
 10
467.8949999999999
 20
169.32
 30
0.0
 11
469.651585365854
 21
169.32
 31
0.0
  0
LINE
  5
198
330
1E
100
AcDbEntity
  8
0
100
AcDbLine
 10
469.651585365854
 20
169.32
 30
0.0
 11
656.3504146341459
 21
169.32
 31
0.0
  0
LINE
  5
199
330
1E
100
AcDbEntity
  8
0
100
AcDbLine
 10
602.8330000000001
 20
196.41
 30
0.0
 11
603.1734881625759
 21
170.2956654995019
 31
0.0
  0
LINE
  5
19A
330
1E
100
AcDbEntity
  8
0
100
AcDbLine
 10
602.8330000000001
 20
196.41
 30
0.0
 11
603.1734881625759
 21
170.2956654995019
 31
0.0
  0
LINE
  5
19B
330
1E
100
AcDbEntity
  8
0
100
AcDbLine
 10
603.1734881625759
 20
170.2956654995019
 30
0.0
 11
603.678
 21
169.793
 31
0.0
  0
LINE
  5
19E
330
1E
100
AcDbEntity
  8
0
100
AcDbLine
 10
603.678
 20
169.793
 30
0.0
 11
605.1669999999999
 21
169.395
 31
0.0
  0
LINE
  5
19F
330
1E
100
AcDbEntity
  8
0
100
AcDbLine
 10
602.3099999999999
 20
198.1
 30
0.0
 11
602.8330000000001
 21
196.41
 31
0.0
  0
LINE
  5
1A1
330
1E
100
AcDbEntity
  8
0
100
AcDbLine
 10
600.9259999999999
 20
199.202
 30
0.0
 11
602.3099999999999
 21
198.1
 31
0.0
  0
LINE
  5
1A6
330
1E
100
AcDbEntity
  8
0
100
AcDbLine
 10
663.0049999999999
 20
166.399
 30
0.0
 11
663.796
 21
108.301
 31
0.0
  0
LINE
  5
1AE
330
1E
100
AcDbEntity
  8
0
100
AcDbLine
 10
656.3504146341459
 20
169.32
 30
0.0
 11
658.2739999999999
 21
169.32
 31
0.0
  0
LINE
  5
1AF
330
1E
100
AcDbEntity
  8
0
100
AcDbLine
 10
662.481
 20
168.089
 30
0.0
 11
663.0049999999999
 21
166.399
 31
0.0
  0
LINE
  5
1B0
330
1E
100
AcDbEntity
  8
0
100
AcDbLine
 10
661.096
 20
169.1899999999999
 30
0.0
 11
662.481
 21
168.089
 31
0.0
  0
LINE
  5
1B1
330
1E
100
AcDbEntity
  8
0
100
AcDbLine
 10
659.332
 20
169.32
 30
0.0
 11
661.096
 21
169.1899999999999
 31
0.0
  0
LINE
  5
1B2
330
1E
100
AcDbEntity
  8
0
100
AcDbLine
 10
658.2739999999999
 20
169.32
 30
0.0
 11
659.332
 21
169.32
 31
0.0
  0
LINE
  5
1C6
330
1E
100
AcDbEntity
  8
0
100
AcDbLine
 10
590.1369999999999
 20
200.0
 30
0.0
 11
600.9259999999999
 21
199.202
 31
0.0
  0
LINE
  5
1CA
330
1E
100
AcDbEntity
  8
0
100
AcDbLine
 10
348.4509999999999
 20
37.77109999999999
 30
0.0
 11
354.553
 21
42.0528
 31
0.0
  0
LINE
  5
1CB
330
1E
100
AcDbEntity
  8
0
100
AcDbLine
 10
343.593
 20
32.11679999999999
 30
0.0
 11
348.4509999999999
 21
37.77109999999999
 31
0.0
  0
LINE
  5
1CC
330
1E
100
AcDbEntity
  8
0
100
AcDbLine
 10
279.848
 20
16.0064
 30
0.0
 11
293.247
 21
16.0064
 31
0.0
  0
LINE
  5
1CD
330
1E
100
AcDbEntity
  8
0
100
AcDbLine
 10
326.009
 20
16.0064
 30
0.0
 11
332.86
 21
16.0064
 31
0.0
  0
LINE
  5
1CE
330
1E
100
AcDbEntity
  8
0
100
AcDbLine
 10
266.149
 20
16.0064
 30
0.0
 11
279.848
 21
16.0064
 31
0.0
  0
LINE
  5
1D3
330
1E
100
AcDbEntity
  8
0
100
AcDbLine
 10
463.025
 20
166.4
 30
0.0
 11
463.025
 21
149.6709616757685
 31
0.0
  0
LINE
  5
1D4
330
1E
100
AcDbEntity
  8
0
100
AcDbLine
 10
529.259
 20
-0.0000000000000167
 30
0.0
 11
532.3419999999999
 21
0.191099999999983
 31
0.0
  0
LINE
  5
1D5
330
1E
100
AcDbEntity
  8
0
100
AcDbLine
 10
108.8429999999999
 20
47.13189999999999
 30
0.0
 11
124.0809999999999
 21
14.4408
 31
0.0
  0
ENDSEC
  0
SECTION
  2
OBJECTS
  0
DICTIONARY
  5
C
330
0
100
AcDbDictionary
281
     1
  3
ACAD_GROUP
350
D
  3
ACAD_LAYOUT
350
19
  3
ACAD_MLINESTYLE
350
16
  3
ACAD_PLOTSETTINGS
350
18
  3
ACAD_PLOTSTYLENAME
350
E
  3
AcDbVariableDictionary
350
1D7
  0
DICTIONARY
  5
D
102
{ACAD_REACTORS
330
C
102
}
330
C
100
AcDbDictionary
281
     1
  0
DICTIONARY
  5
19
102
{ACAD_REACTORS
330
C
102
}
330
C
100
AcDbDictionary
281
     1
  3
Layout1
350
1D
  3
Model
350
21
  0
DICTIONARY
  5
16
102
{ACAD_REACTORS
330
C
102
}
330
C
100
AcDbDictionary
281
     1
  3
Standard
350
17
  0
DICTIONARY
  5
18
102
{ACAD_REACTORS
330
C
102
}
330
C
100
AcDbDictionary
281
     1
  0
ACDBDICTIONARYWDFLT
  5
E
102
{ACAD_REACTORS
330
C
102
}
330
C
100
AcDbDictionary
281
     1
  3
Normal
350
F
100
AcDbDictionaryWithDefault
340
F
  0
DICTIONARY
  5
1D7
102
{ACAD_REACTORS
330
C
102
}
330
C
100
AcDbDictionary
281
     1
  3
DIMASSOC
350
1D8
  0
LAYOUT
  5
1D
102
{ACAD_REACTORS
330
19
102
}
330
19
100
AcDbPlotSettings
  1

  2
C:\Programme\AutoCAD LT 2002 Deu\plotters\DWF ePlot (optimized for plotting).pc3
  4

  6

 40
0.0
 41
0.0
 42
0.0
 43
0.0
 44
0.0
 45
0.0
 46
0.0
 47
0.0
 48
0.0
 49
0.0
140
0.0
141
0.0
142
1.0
143
1.0
 70
   688
 72
     0
 73
     0
 74
     5
  7

 75
    16
147
1.0
148
0.0
149
0.0
100
AcDbLayout
  1
Layout1
 70
     1
 71
     1
 10
0.0
 20
0.0
 11
12.0
 21
9.0
 12
0.0
 22
0.0
 32
0.0
 14
1.000000000000000E+20
 24
1.000000000000000E+20
 34
1.000000000000000E+20
 15
-1.000000000000000E+20
 25
-1.000000000000000E+20
 35
-1.000000000000000E+20
146
0.0
 13
0.0
 23
0.0
 33
0.0
 16
1.0
 26
0.0
 36
0.0
 17
0.0
 27
1.0
 37
0.0
 76
     0
330
1A
  0
LAYOUT
  5
21
102
{ACAD_REACTORS
330
19
102
}
330
19
100
AcDbPlotSettings
  1

  2
C:\Programme\AutoCAD LT 2002 Deu\plotters\DWF ePlot (optimized for plotting).pc3
  4

  6

 40
0.0
 41
0.0
 42
0.0
 43
0.0
 44
0.0
 45
0.0
 46
0.0
 47
0.0
 48
0.0
 49
0.0
140
0.0
141
0.0
142
1.0
143
1.0
 70
  1712
 72
     0
 73
     0
 74
     0
  7

 75
     0
147
1.0
148
0.0
149
0.0
100
AcDbLayout
  1
Model
 70
     1
 71
     0
 10
0.0
 20
0.0
 11
12.0
 21
9.0
 12
0.0
 22
0.0
 32
0.0
 14
0.0
 24
0.0
 34
0.0
 15
0.0
 25
0.0
 35
0.0
146
0.0
 13
0.0
 23
0.0
 33
0.0
 16
1.0
 26
0.0
 36
0.0
 17
0.0
 27
1.0
 37
0.0
 76
     0
330
1E
  0
MLINESTYLE
  5
17
102
{ACAD_REACTORS
330
16
102
}
330
16
100
AcDbMlineStyle
  2
STANDARD
 70
     0
  3

 62
   256
 51
90.0
 52
90.0
 71
     2
 49
0.5
 62
   256
  6
BYLAYER
 49
-0.5
 62
   256
  6
BYLAYER
  0
ACDBPLACEHOLDER
  5
F
102
{ACAD_REACTORS
330
E
102
}
330
E
  0
DICTIONARYVAR
  5
1D8
102
{ACAD_REACTORS
330
1D7
102
}
330
1D7
100
DictionaryVariables
280
     0
  1
1
  0
ENDSEC
  0
EOF
