  0
SECTION
  2
HEADER
  9
$ACADVER
  1
AC1015
  9
$ACADMAINTVER
 70
    13
  9
$DWGCODEPAGE
  3
ANSI_1252
  9
$INSBASE
 10
0.0
 20
0.0
 30
0.0
  9
$EXTMIN
 10
0.0
 20
0.0000000000000065
 30
0.0
  9
$EXTMAX
 10
666.0
 20
480.0
 30
0.0
  9
$LIMMIN
 10
0.0
 20
0.0
  9
$LIMMAX
 10
12.0
 20
9.0
  9
$ORTHOMODE
 70
     0
  9
$REGENMODE
 70
     1
  9
$FILLMODE
 70
     1
  9
$QTEXTMODE
 70
     0
  9
$MIRRTEXT
 70
     1
  9
$LTSCALE
 40
1.0
  9
$ATTMODE
 70
     1
  9
$TEXTSIZE
 40
0.2
  9
$TRACEWID
 40
0.05
  9
$TEXTSTYLE
  7
Standard
  9
$CLAYER
  8
0
  9
$CELTYPE
  6
Continuous
  9
$CECOLOR
 62
   256
  9
$CELTSCALE
 40
1.0
  9
$DISPSILH
 70
     0
  9
$DIMSCALE
 40
1.0
  9
$DIMASZ
 40
0.18
  9
$DIMEXO
 40
0.0625
  9
$DIMDLI
 40
0.38
  9
$DIMRND
 40
0.0
  9
$DIMDLE
 40
0.0
  9
$DIMEXE
 40
0.18
  9
$DIMTP
 40
0.0
  9
$DIMTM
 40
0.0
  9
$DIMTXT
 40
0.18
  9
$DIMCEN
 40
0.09
  9
$DIMTSZ
 40
0.0
  9
$DIMTOL
 70
     0
  9
$DIMLIM
 70
     0
  9
$DIMTIH
 70
     1
  9
$DIMTOH
 70
     1
  9
$DIMSE1
 70
     0
  9
$DIMSE2
 70
     0
  9
$DIMTAD
 70
     0
  9
$DIMZIN
 70
     0
  9
$DIMBLK
  1

  9
$DIMASO
 70
     1
  9
$DIMSHO
 70
     1
  9
$DIMPOST
  1

  9
$DIMAPOST
  1

  9
$DIMALT
 70
     0
  9
$DIMALTD
 70
     2
  9
$DIMALTF
 40
25.4
  9
$DIMLFAC
 40
1.0
  9
$DIMTOFL
 70
     0
  9
$DIMTVP
 40
0.0
  9
$DIMTIX
 70
     0
  9
$DIMSOXD
 70
     0
  9
$DIMSAH
 70
     0
  9
$DIMBLK1
  1

  9
$DIMBLK2
  1

  9
$DIMSTYLE
  2
Standard
  9
$DIMCLRD
 70
     0
  9
$DIMCLRE
 70
     0
  9
$DIMCLRT
 70
     0
  9
$DIMTFAC
 40
1.0
  9
$DIMGAP
 40
0.09
  9
$DIMJUST
 70
     0
  9
$DIMSD1
 70
     0
  9
$DIMSD2
 70
     0
  9
$DIMTOLJ
 70
     1
  9
$DIMTZIN
 70
     0
  9
$DIMALTZ
 70
     0
  9
$DIMALTTZ
 70
     0
  9
$DIMUPT
 70
     0
  9
$DIMDEC
 70
     4
  9
$DIMTDEC
 70
     4
  9
$DIMALTU
 70
     2
  9
$DIMALTTD
 70
     2
  9
$DIMTXSTY
  7
Standard
  9
$DIMAUNIT
 70
     0
  9
$DIMADEC
 70
     0
  9
$DIMALTRND
 40
0.0
  9
$DIMAZIN
 70
     0
  9
$DIMDSEP
 70
    46
  9
$DIMATFIT
 70
     3
  9
$DIMFRAC
 70
     0
  9
$DIMLDRBLK
  1

  9
$DIMLUNIT
 70
     2
  9
$DIMLWD
 70
    -2
  9
$DIMLWE
 70
    -2
  9
$DIMTMOVE
 70
     0
  9
$LUNITS
 70
     2
  9
$LUPREC
 70
     4
  9
$SKETCHINC
 40
0.1
  9
$FILLETRAD
 40
0.0
  9
$AUNITS
 70
     0
  9
$AUPREC
 70
     0
  9
$MENU
  1
.
  9
$ELEVATION
 40
0.0
  9
$PELEVATION
 40
0.0
  9
$THICKNESS
 40
0.0
  9
$LIMCHECK
 70
     0
  9
$CHAMFERA
 40
0.0
  9
$CHAMFERB
 40
0.0
  9
$CHAMFERC
 40
0.0
  9
$CHAMFERD
 40
0.0
  9
$SKPOLY
 70
     0
  9
$TDCREATE
 40
2455508.389087812
  9
$TDUCREATE
 40
2455508.347421146
  9
$TDUPDATE
 40
2455508.406126481
  9
$TDUUPDATE
 40
2455508.364459815
  9
$TDINDWG
 40
0.0070153356
  9
$TDUSRTIMER
 40
0.0070153356
  9
$USRTIMER
 70
     1
  9
$ANGBASE
 50
0.0
  9
$ANGDIR
 70
     0
  9
$PDMODE
 70
     0
  9
$PDSIZE
 40
0.0
  9
$PLINEWID
 40
0.0
  9
$SPLFRAME
 70
     0
  9
$SPLINETYPE
 70
     6
  9
$SPLINESEGS
 70
     8
  9
$HANDSEED
  5
693
  9
$SURFTAB1
 70
     6
  9
$SURFTAB2
 70
     6
  9
$SURFTYPE
 70
     6
  9
$SURFU
 70
     6
  9
$SURFV
 70
     6
  9
$UCSBASE
  2

  9
$UCSNAME
  2

  9
$UCSORG
 10
0.0
 20
0.0
 30
0.0
  9
$UCSXDIR
 10
1.0
 20
0.0
 30
0.0
  9
$UCSYDIR
 10
0.0
 20
1.0
 30
0.0
  9
$UCSORTHOREF
  2

  9
$UCSORTHOVIEW
 70
     1
  9
$UCSORGTOP
 10
0.0
 20
0.0
 30
0.0
  9
$UCSORGBOTTOM
 10
0.0
 20
0.0
 30
0.0
  9
$UCSORGLEFT
 10
0.0
 20
0.0
 30
0.0
  9
$UCSORGRIGHT
 10
0.0
 20
0.0
 30
0.0
  9
$UCSORGFRONT
 10
0.0
 20
0.0
 30
0.0
  9
$UCSORGBACK
 10
0.0
 20
0.0
 30
0.0
  9
$PUCSBASE
  2

  9
$PUCSNAME
  2

  9
$PUCSORG
 10
0.0
 20
0.0
 30
0.0
  9
$PUCSXDIR
 10
1.0
 20
0.0
 30
0.0
  9
$PUCSYDIR
 10
0.0
 20
1.0
 30
0.0
  9
$PUCSORTHOREF
  2

  9
$PUCSORTHOVIEW
 70
     0
  9
$PUCSORGTOP
 10
0.0
 20
0.0
 30
0.0
  9
$PUCSORGBOTTOM
 10
0.0
 20
0.0
 30
0.0
  9
$PUCSORGLEFT
 10
0.0
 20
0.0
 30
0.0
  9
$PUCSORGRIGHT
 10
0.0
 20
0.0
 30
0.0
  9
$PUCSORGFRONT
 10
0.0
 20
0.0
 30
0.0
  9
$PUCSORGBACK
 10
0.0
 20
0.0
 30
0.0
  9
$USERI1
 70
     0
  9
$USERI2
 70
     0
  9
$USERI3
 70
     0
  9
$USERI4
 70
     0
  9
$USERI5
 70
     0
  9
$USERR1
 40
0.0
  9
$USERR2
 40
0.0
  9
$USERR3
 40
0.0
  9
$USERR4
 40
0.0
  9
$USERR5
 40
0.0
  9
$WORLDVIEW
 70
     1
  9
$SHADEDGE
 70
     3
  9
$SHADEDIF
 70
    70
  9
$TILEMODE
 70
     1
  9
$MAXACTVP
 70
    64
  9
$PINSBASE
 10
0.0
 20
0.0
 30
0.0
  9
$PLIMCHECK
 70
     0
  9
$PEXTMIN
 10
1.000000000000000E+20
 20
1.000000000000000E+20
 30
1.000000000000000E+20
  9
$PEXTMAX
 10
-1.000000000000000E+20
 20
-1.000000000000000E+20
 30
-1.000000000000000E+20
  9
$PLIMMIN
 10
0.0
 20
0.0
  9
$PLIMMAX
 10
12.0
 20
9.0
  9
$UNITMODE
 70
     0
  9
$VISRETAIN
 70
     1
  9
$PLINEGEN
 70
     0
  9
$PSLTSCALE
 70
     1
  9
$TREEDEPTH
 70
  3020
  9
$CMLSTYLE
  2
Standard
  9
$CMLJUST
 70
     0
  9
$CMLSCALE
 40
1.0
  9
$PROXYGRAPHICS
 70
     1
  9
$MEASUREMENT
 70
     0
  9
$CELWEIGHT
370
    -1
  9
$ENDCAPS
280
     0
  9
$JOINSTYLE
280
     0
  9
$LWDISPLAY
290
     0
  9
$INSUNITS
 70
     0
  9
$HYPERLINKBASE
  1

  9
$STYLESHEET
  1

  9
$XEDIT
290
     1
  9
$CEPSNTYPE
380
     0
  9
$PSTYLEMODE
290
     1
  9
$FINGERPRINTGUID
  2
{730C29F2-D4A1-404C-90E3-4E3B0FEC7072}
  9
$VERSIONGUID
  2
{0CA2E831-54EA-4008-9029-7518420F5452}
  9
$EXTNAMES
290
     1
  9
$PSVPSCALE
 40
0.0
  9
$OLESTARTUP
290
     0
  0
ENDSEC
  0
SECTION
  2
CLASSES
  0
CLASS
  1
ACDBDICTIONARYWDFLT
  2
AcDbDictionaryWithDefault
  3
AutoCAD 2000
 90
        0
280
     0
281
     0
  0
CLASS
  1
ACDBPLACEHOLDER
  2
AcDbPlaceHolder
  3
AutoCAD 2000
 90
        0
280
     0
281
     0
  0
CLASS
  1
LAYOUT
  2
AcDbLayout
  3
AutoCAD 2000
 90
        0
280
     0
281
     0
  0
CLASS
  1
DICTIONARYVAR
  2
AcDbDictionaryVar
  3
AutoCAD 2000
 90
        0
280
     0
281
     0
  0
ENDSEC
  0
SECTION
  2
TABLES
  0
TABLE
  2
VPORT
  5
8
330
0
100
AcDbSymbolTable
 70
     3
  0
VPORT
  5
692
330
8
100
AcDbSymbolTableRecord
100
AcDbViewportTableRecord
  2
*Active
 70
     0
 10
0.0
 20
0.0
 11
1.0
 21
1.0
 12
333.0
 22
240.0
 13
0.0
 23
0.0
 14
1.0
 24
1.0
 15
0.0
 25
0.0
 16
0.0
 26
0.0
 36
1.0
 17
0.0
 27
0.0
 37
0.0
 40
483.2468996617812
 41
2.073363431151241
 42
50.0
 43
0.0
 44
0.0
 50
0.0
 51
0.0
 71
     0
 72
   100
 73
     1
 74
     3
 75
     0
 76
     0
 77
     0
 78
     0
281
     0
 65
     1
110
0.0
120
0.0
130
0.0
111
1.0
121
0.0
131
0.0
112
0.0
122
1.0
132
0.0
 79
     1
146
0.0
  0
ENDTAB
  0
TABLE
  2
LTYPE
  5
5
330
0
100
AcDbSymbolTable
 70
     1
  0
LTYPE
  5
13
330
5
100
AcDbSymbolTableRecord
100
AcDbLinetypeTableRecord
  2
ByBlock
 70
     0
  3

 72
    65
 73
     0
 40
0.0
  0
LTYPE
  5
14
330
5
100
AcDbSymbolTableRecord
100
AcDbLinetypeTableRecord
  2
ByLayer
 70
     0
  3

 72
    65
 73
     0
 40
0.0
  0
LTYPE
  5
15
330
5
100
AcDbSymbolTableRecord
100
AcDbLinetypeTableRecord
  2
Continuous
 70
     0
  3
Solid line
 72
    65
 73
     0
 40
0.0
  0
ENDTAB
  0
TABLE
  2
LAYER
  5
2
330
0
100
AcDbSymbolTable
 70
     1
  0
LAYER
  5
10
330
2
100
AcDbSymbolTableRecord
100
AcDbLayerTableRecord
  2
0
 70
     0
 62
     7
  6
Continuous
370
    -3
390
F
  0
ENDTAB
  0
TABLE
  2
STYLE
  5
3
330
0
100
AcDbSymbolTable
 70
     1
  0
STYLE
  5
11
330
3
100
AcDbSymbolTableRecord
100
AcDbTextStyleTableRecord
  2
Standard
 70
     0
 40
0.0
 41
1.0
 50
0.0
 71
     0
 42
0.2
  3
txt
  4

  0
ENDTAB
  0
TABLE
  2
VIEW
  5
6
330
0
100
AcDbSymbolTable
 70
     0
  0
ENDTAB
  0
TABLE
  2
UCS
  5
7
330
0
100
AcDbSymbolTable
 70
     0
  0
ENDTAB
  0
TABLE
  2
APPID
  5
9
330
0
100
AcDbSymbolTable
 70
     1
  0
APPID
  5
12
330
9
100
AcDbSymbolTableRecord
100
AcDbRegAppTableRecord
  2
ACAD
 70
     0
  0
ENDTAB
  0
TABLE
  2
DIMSTYLE
  5
A
330
0
100
AcDbSymbolTable
 70
     1
100
AcDbDimStyleTable
 71
     0
  0
DIMSTYLE
105
66B
330
A
100
AcDbSymbolTableRecord
100
AcDbDimStyleTableRecord
  2
Standard
 70
     0
340
11
  0
ENDTAB
  0
TABLE
  2
BLOCK_RECORD
  5
1
330
0
100
AcDbSymbolTable
 70
     0
  0
BLOCK_RECORD
  5
1E
330
1
100
AcDbSymbolTableRecord
100
AcDbBlockTableRecord
  2
*Model_Space
340
21
  0
BLOCK_RECORD
  5
1A
330
1
100
AcDbSymbolTableRecord
100
AcDbBlockTableRecord
  2
*Paper_Space
340
1D
  0
ENDTAB
  0
ENDSEC
  0
SECTION
  2
BLOCKS
  0
BLOCK
  5
1F
330
1E
100
AcDbEntity
  8
0
100
AcDbBlockBegin
  2
*Model_Space
 70
     0
 10
0.0
 20
0.0
 30
0.0
  3
*Model_Space
  1

  0
ENDBLK
  5
20
330
1E
100
AcDbEntity
  8
0
100
AcDbBlockEnd
  0
BLOCK
  5
1B
330
1A
100
AcDbEntity
 67
     1
  8
0
100
AcDbBlockBegin
  2
*Paper_Space
 70
     0
 10
0.0
 20
0.0
 30
0.0
  3
*Paper_Space
  1

  0
ENDBLK
  5
1C
330
1A
100
AcDbEntity
 67
     1
  8
0
100
AcDbBlockEnd
  0
ENDSEC
  0
SECTION
  2
ENTITIES
  0
LINE
  5
22
330
1E
100
AcDbEntity
  8
0
100
AcDbLine
 10
7.783999999999999
 20
55.20399999999999
 30
0.0
 11
9.003999999999999
 21
46.459
 31
0.0
  0
LINE
  5
23
330
1E
100
AcDbEntity
  8
0
100
AcDbLine
 10
4.421
 20
92.916
 30
0.0
 11
7.783999999999999
 21
55.20399999999999
 31
0.0
  0
LINE
  5
24
330
1E
100
AcDbEntity
  8
0
100
AcDbLine
 10
0.291
 20
178.363
 30
0.0
 11
1.32
 21
145.1049999999999
 31
0.0
  0
LINE
  5
25
330
1E
100
AcDbEntity
  8
0
100
AcDbLine
 10
1.32
 20
145.1049999999999
 30
0.0
 11
4.421
 21
92.916
 31
0.0
  0
LINE
  5
26
330
1E
100
AcDbEntity
  8
0
100
AcDbLine
 10
1.32
 20
145.1049999999999
 30
0.0
 11
4.421
 21
92.916
 31
0.0
  0
LINE
  5
27
330
1E
100
AcDbEntity
  8
0
100
AcDbLine
 10
0.447
 20
244.896
 30
0.0
 11
2.314999999999999
 21
291.7559999999999
 31
0.0
  0
LINE
  5
28
330
1E
100
AcDbEntity
  8
0
100
AcDbLine
 10
2.314999999999999
 20
291.7559999999999
 30
0.0
 11
5.182
 21
333.1069999999999
 31
0.0
  0
LINE
  5
29
330
1E
100
AcDbEntity
  8
0
100
AcDbLine
 10
5.182
 20
333.1069999999999
 30
0.0
 11
7.98
 21
363.086
 31
0.0
  0
LINE
  5
2A
330
1E
100
AcDbEntity
  8
0
100
AcDbLine
 10
2.314999999999999
 20
291.7559999999999
 30
0.0
 11
5.182
 21
333.1069999999999
 31
0.0
  0
LINE
  5
2B
330
1E
100
AcDbEntity
  8
0
100
AcDbLine
 10
0.447
 20
244.896
 30
0.0
 11
2.314999999999999
 21
291.7559999999999
 31
0.0
  0
LINE
  5
2C
330
1E
100
AcDbEntity
  8
0
100
AcDbLine
 10
0.291
 20
178.363
 30
0.0
 11
1.32
 21
145.1049999999999
 31
0.0
  0
LINE
  5
2D
330
1E
100
AcDbEntity
  8
0
100
AcDbLine
 10
0.0
 20
211.629
 30
0.0
 11
0.447
 21
244.896
 31
0.0
  0
LINE
  5
2E
330
1E
100
AcDbEntity
  8
0
100
AcDbLine
 10
0.0
 20
211.629
 30
0.0
 11
0.291
 21
178.363
 31
0.0
  0
LINE
  5
31
330
1E
100
AcDbEntity
  8
0
100
AcDbLine
 10
9.003999999999999
 20
46.459
 30
0.0
 11
11.53499999999999
 21
38.098
 31
0.0
  0
LINE
  5
33
330
1E
100
AcDbEntity
  8
0
100
AcDbLine
 10
7.98
 20
363.086
 30
0.0
 11
8.545999999999999
 21
367.535
 31
0.0
  0
LINE
  5
34
330
1E
100
AcDbEntity
  8
0
100
AcDbLine
 10
8.545999999999999
 20
367.535
 30
0.0
 11
10.92999999999999
 21
376.717
 31
0.0
  0
LINE
  5
35
330
1E
100
AcDbEntity
  8
0
100
AcDbLine
 10
68.333
 20
4.189000000000009
 30
0.0
 11
170.644
 21
1.05000000000001
 31
0.0
  0
LINE
  5
36
330
1E
100
AcDbEntity
  8
0
100
AcDbLine
 10
57.466
 20
4.660000000000009
 30
0.0
 11
68.333
 21
4.189000000000009
 31
0.0
  0
LINE
  5
37
330
1E
100
AcDbEntity
  8
0
100
AcDbLine
 10
47.613
 20
6.229000000000009
 30
0.0
 11
57.466
 21
4.660000000000009
 31
0.0
  0
LINE
  5
38
330
1E
100
AcDbEntity
  8
0
100
AcDbLine
 10
40.843
 20
8.467000000000009
 30
0.0
 11
47.613
 21
6.229000000000009
 31
0.0
  0
LINE
  5
39
330
1E
100
AcDbEntity
  8
0
100
AcDbLine
 10
16.167
 20
29.032
 30
0.0
 11
20.741
 21
22.903
 31
0.0
  0
LINE
  5
3A
330
1E
100
AcDbEntity
  8
0
100
AcDbLine
 10
11.53499999999999
 20
38.098
 30
0.0
 11
16.167
 21
29.032
 31
0.0
  0
LINE
  5
3B
330
1E
100
AcDbEntity
  8
0
100
AcDbLine
 10
20.741
 20
22.903
 30
0.0
 11
27.418
 21
16.42
 31
0.0
  0
LINE
  5
3C
330
1E
100
AcDbEntity
  8
0
100
AcDbLine
 10
27.418
 20
16.42
 30
0.0
 11
34.43999999999999
 21
11.595
 31
0.0
  0
LINE
  5
3D
330
1E
100
AcDbEntity
  8
0
100
AcDbLine
 10
34.43999999999999
 20
11.595
 30
0.0
 11
40.843
 21
8.467000000000009
 31
0.0
  0
LINE
  5
3E
330
1E
100
AcDbEntity
  8
0
100
AcDbLine
 10
170.644
 20
1.05000000000001
 30
0.0
 11
272.9979999999999
 21
0.0000000000000065
 31
0.0
  0
LINE
  5
3F
330
1E
100
AcDbEntity
  8
0
100
AcDbLine
 10
170.644
 20
1.05000000000001
 30
0.0
 11
272.9979999999999
 21
0.0000000000000065
 31
0.0
  0
LINE
  5
40
330
1E
100
AcDbEntity
  8
0
100
AcDbLine
 10
272.9979999999999
 20
0.0000000000000065
 30
0.0
 11
375.3519999999999
 21
1.047000000000009
 31
0.0
  0
LINE
  5
41
330
1E
100
AcDbEntity
  8
0
100
AcDbLine
 10
469.9399999999999
 20
3.882000000000009
 30
0.0
 11
485.599
 21
4.524000000000009
 31
0.0
  0
LINE
  5
42
330
1E
100
AcDbEntity
  8
0
100
AcDbLine
 10
375.3519999999999
 20
1.047000000000009
 30
0.0
 11
469.9399999999999
 21
3.882000000000009
 31
0.0
  0
LINE
  5
43
330
1E
100
AcDbEntity
  8
0
100
AcDbLine
 10
505.152
 20
8.46900000000001
 30
0.0
 11
514.1729999999999
 21
13.201
 31
0.0
  0
LINE
  5
44
330
1E
100
AcDbEntity
  8
0
100
AcDbLine
 10
496.6459999999999
 20
5.813000000000009
 30
0.0
 11
505.152
 21
8.46900000000001
 31
0.0
  0
LINE
  5
45
330
1E
100
AcDbEntity
  8
0
100
AcDbLine
 10
485.599
 20
4.524000000000009
 30
0.0
 11
496.6459999999999
 21
5.813000000000009
 31
0.0
  0
LINE
  5
46
330
1E
100
AcDbEntity
  8
0
100
AcDbLine
 10
272.9979999999999
 20
0.0000000000000065
 30
0.0
 11
375.3519999999999
 21
1.047000000000009
 31
0.0
  0
LINE
  5
47
330
1E
100
AcDbEntity
  8
0
100
AcDbLine
 10
536.204
 20
43.26399999999999
 30
0.0
 11
537.993
 21
53.08600000000001
 31
0.0
  0
LINE
  5
48
330
1E
100
AcDbEntity
  8
0
100
AcDbLine
 10
534.456
 20
38.101
 30
0.0
 11
536.204
 21
43.26399999999999
 31
0.0
  0
LINE
  5
49
330
1E
100
AcDbEntity
  8
0
100
AcDbLine
 10
530.691
 20
30.42699999999999
 30
0.0
 11
534.456
 21
38.101
 31
0.0
  0
LINE
  5
4A
330
1E
100
AcDbEntity
  8
0
100
AcDbLine
 10
525.259
 20
22.903
 30
0.0
 11
530.691
 21
30.42699999999999
 31
0.0
  0
LINE
  5
4B
330
1E
100
AcDbEntity
  8
0
100
AcDbLine
 10
519.87
 20
17.503
 30
0.0
 11
525.259
 21
22.903
 31
0.0
  0
LINE
  5
4C
330
1E
100
AcDbEntity
  8
0
100
AcDbLine
 10
514.1729999999999
 20
13.201
 30
0.0
 11
519.87
 21
17.503
 31
0.0
  0
LINE
  5
4D
330
1E
100
AcDbEntity
  8
0
100
AcDbLine
 10
263.329
 20
202.842
 30
0.0
 11
268.105
 21
201.895
 31
0.0
  0
LINE
  5
4E
330
1E
100
AcDbEntity
  8
0
100
AcDbLine
 10
250.184
 20
209.3159999999999
 30
0.0
 11
254.329
 21
206.5129999999999
 31
0.0
  0
LINE
  5
4F
330
1E
100
AcDbEntity
  8
0
100
AcDbLine
 10
254.329
 20
206.5129999999999
 30
0.0
 11
258.671
 21
204.421
 31
0.0
  0
LINE
  5
50
330
1E
100
AcDbEntity
  8
0
100
AcDbLine
 10
258.671
 20
204.421
 30
0.0
 11
263.329
 21
202.842
 31
0.0
  0
LINE
  5
51
330
1E
100
AcDbEntity
  8
0
100
AcDbLine
 10
243.3159999999999
 20
216.184
 30
0.0
 11
246.513
 21
212.5129999999999
 31
0.0
  0
LINE
  5
52
330
1E
100
AcDbEntity
  8
0
100
AcDbLine
 10
246.513
 20
212.5129999999999
 30
0.0
 11
250.184
 21
209.3159999999999
 31
0.0
  0
LINE
  5
53
330
1E
100
AcDbEntity
  8
0
100
AcDbLine
 10
240.513
 20
220.3289999999999
 30
0.0
 11
243.3159999999999
 21
216.184
 31
0.0
  0
LINE
  5
54
330
1E
100
AcDbEntity
  8
0
100
AcDbLine
 10
238.4209999999999
 20
224.6709999999999
 30
0.0
 11
240.513
 21
220.3289999999999
 31
0.0
  0
LINE
  5
55
330
1E
100
AcDbEntity
  8
0
100
AcDbLine
 10
236.8419999999999
 20
229.329
 30
0.0
 11
238.4209999999999
 21
224.6709999999999
 31
0.0
  0
LINE
  5
56
330
1E
100
AcDbEntity
  8
0
100
AcDbLine
 10
243.3159999999999
 20
261.8159999999999
 30
0.0
 11
246.513
 21
265.487
 31
0.0
  0
LINE
  5
57
330
1E
100
AcDbEntity
  8
0
100
AcDbLine
 10
240.513
 20
257.6709999999999
 30
0.0
 11
243.3159999999999
 21
261.8159999999999
 31
0.0
  0
LINE
  5
58
330
1E
100
AcDbEntity
  8
0
100
AcDbLine
 10
238.4209999999999
 20
253.329
 30
0.0
 11
240.513
 21
257.6709999999999
 31
0.0
  0
LINE
  5
59
330
1E
100
AcDbEntity
  8
0
100
AcDbLine
 10
236.8419999999999
 20
248.6709999999999
 30
0.0
 11
238.4209999999999
 21
253.329
 31
0.0
  0
LINE
  5
5A
330
1E
100
AcDbEntity
  8
0
100
AcDbLine
 10
235.895
 20
243.895
 30
0.0
 11
236.8419999999999
 21
248.6709999999999
 31
0.0
  0
LINE
  5
5B
330
1E
100
AcDbEntity
  8
0
100
AcDbLine
 10
246.513
 20
265.487
 30
0.0
 11
250.184
 21
268.684
 31
0.0
  0
LINE
  5
5C
330
1E
100
AcDbEntity
  8
0
100
AcDbLine
 10
250.184
 20
268.684
 30
0.0
 11
254.329
 21
271.487
 31
0.0
  0
LINE
  5
5D
330
1E
100
AcDbEntity
  8
0
100
AcDbLine
 10
254.329
 20
271.487
 30
0.0
 11
258.671
 21
273.579
 31
0.0
  0
LINE
  5
5E
330
1E
100
AcDbEntity
  8
0
100
AcDbLine
 10
258.671
 20
273.579
 30
0.0
 11
263.329
 21
275.158
 31
0.0
  0
LINE
  5
5F
330
1E
100
AcDbEntity
  8
0
100
AcDbLine
 10
263.329
 20
275.158
 30
0.0
 11
268.105
 21
276.105
 31
0.0
  0
LINE
  5
60
330
1E
100
AcDbEntity
  8
0
100
AcDbLine
 10
235.895
 20
234.105
 30
0.0
 11
236.8419999999999
 21
229.329
 31
0.0
  0
LINE
  5
61
330
1E
100
AcDbEntity
  8
0
100
AcDbLine
 10
235.4999999999999
 20
239.0
 30
0.0
 11
235.895
 21
234.105
 31
0.0
  0
LINE
  5
62
330
1E
100
AcDbEntity
  8
0
100
AcDbLine
 10
235.4999999999999
 20
239.0
 30
0.0
 11
235.895
 21
243.895
 31
0.0
  0
LINE
  5
66
330
1E
100
AcDbEntity
  8
0
100
AcDbLine
 10
277.895
 20
201.895
 30
0.0
 11
282.6709999999999
 21
202.842
 31
0.0
  0
LINE
  5
67
330
1E
100
AcDbEntity
  8
0
100
AcDbLine
 10
273.0
 20
201.5
 30
0.0
 11
277.895
 21
201.895
 31
0.0
  0
LINE
  5
68
330
1E
100
AcDbEntity
  8
0
100
AcDbLine
 10
299.487
 20
212.5129999999999
 30
0.0
 11
302.684
 21
216.184
 31
0.0
  0
LINE
  5
69
330
1E
100
AcDbEntity
  8
0
100
AcDbLine
 10
302.684
 20
216.184
 30
0.0
 11
305.487
 21
220.3289999999999
 31
0.0
  0
LINE
  5
6A
330
1E
100
AcDbEntity
  8
0
100
AcDbLine
 10
305.487
 20
220.3289999999999
 30
0.0
 11
307.579
 21
224.6709999999999
 31
0.0
  0
LINE
  5
6B
330
1E
100
AcDbEntity
  8
0
100
AcDbLine
 10
307.579
 20
224.6709999999999
 30
0.0
 11
309.158
 21
229.329
 31
0.0
  0
LINE
  5
6C
330
1E
100
AcDbEntity
  8
0
100
AcDbLine
 10
309.158
 20
229.329
 30
0.0
 11
310.105
 21
234.105
 31
0.0
  0
LINE
  5
6D
330
1E
100
AcDbEntity
  8
0
100
AcDbLine
 10
307.579
 20
253.329
 30
0.0
 11
309.158
 21
248.6709999999999
 31
0.0
  0
LINE
  5
6E
330
1E
100
AcDbEntity
  8
0
100
AcDbLine
 10
309.158
 20
248.6709999999999
 30
0.0
 11
310.105
 21
243.895
 31
0.0
  0
LINE
  5
6F
330
1E
100
AcDbEntity
  8
0
100
AcDbLine
 10
310.105
 20
243.895
 30
0.0
 11
310.4999999999999
 21
239.0
 31
0.0
  0
LINE
  5
70
330
1E
100
AcDbEntity
  8
0
100
AcDbLine
 10
310.105
 20
234.105
 30
0.0
 11
310.4999999999999
 21
239.0
 31
0.0
  0
LINE
  5
71
330
1E
100
AcDbEntity
  8
0
100
AcDbLine
 10
295.8159999999999
 20
209.3159999999999
 30
0.0
 11
299.487
 21
212.5129999999999
 31
0.0
  0
LINE
  5
72
330
1E
100
AcDbEntity
  8
0
100
AcDbLine
 10
291.671
 20
206.5129999999999
 30
0.0
 11
295.8159999999999
 21
209.3159999999999
 31
0.0
  0
LINE
  5
73
330
1E
100
AcDbEntity
  8
0
100
AcDbLine
 10
287.329
 20
204.421
 30
0.0
 11
291.671
 21
206.5129999999999
 31
0.0
  0
LINE
  5
74
330
1E
100
AcDbEntity
  8
0
100
AcDbLine
 10
282.6709999999999
 20
202.842
 30
0.0
 11
287.329
 21
204.421
 31
0.0
  0
LINE
  5
75
330
1E
100
AcDbEntity
  8
0
100
AcDbLine
 10
268.105
 20
201.895
 30
0.0
 11
273.0
 21
201.5
 31
0.0
  0
LINE
  5
76
330
1E
100
AcDbEntity
  8
0
100
AcDbLine
 10
295.8159999999999
 20
268.684
 30
0.0
 11
299.487
 21
265.487
 31
0.0
  0
LINE
  5
77
330
1E
100
AcDbEntity
  8
0
100
AcDbLine
 10
291.671
 20
271.487
 30
0.0
 11
295.8159999999999
 21
268.684
 31
0.0
  0
LINE
  5
78
330
1E
100
AcDbEntity
  8
0
100
AcDbLine
 10
287.329
 20
273.579
 30
0.0
 11
291.671
 21
271.487
 31
0.0
  0
LINE
  5
79
330
1E
100
AcDbEntity
  8
0
100
AcDbLine
 10
282.6709999999999
 20
275.158
 30
0.0
 11
287.329
 21
273.579
 31
0.0
  0
LINE
  5
7A
330
1E
100
AcDbEntity
  8
0
100
AcDbLine
 10
277.895
 20
276.105
 30
0.0
 11
282.6709999999999
 21
275.158
 31
0.0
  0
LINE
  5
7B
330
1E
100
AcDbEntity
  8
0
100
AcDbLine
 10
299.487
 20
265.487
 30
0.0
 11
302.684
 21
261.8159999999999
 31
0.0
  0
LINE
  5
7C
330
1E
100
AcDbEntity
  8
0
100
AcDbLine
 10
302.684
 20
261.8159999999999
 30
0.0
 11
305.487
 21
257.6709999999999
 31
0.0
  0
LINE
  5
7D
330
1E
100
AcDbEntity
  8
0
100
AcDbLine
 10
305.487
 20
257.6709999999999
 30
0.0
 11
307.579
 21
253.329
 31
0.0
  0
LINE
  5
7E
330
1E
100
AcDbEntity
  8
0
100
AcDbLine
 10
273.0
 20
276.5
 30
0.0
 11
277.895
 21
276.105
 31
0.0
  0
LINE
  5
7F
330
1E
100
AcDbEntity
  8
0
100
AcDbLine
 10
268.105
 20
276.105
 30
0.0
 11
273.0
 21
276.5
 31
0.0
  0
LINE
  5
82
330
1E
100
AcDbEntity
  8
0
100
AcDbLine
 10
264.043
 20
202.6419999999999
 30
0.0
 11
264.417084368577
 21
202.6262512778389
 31
0.0
  0
LINE
  5
83
330
1E
100
AcDbEntity
  8
0
100
AcDbLine
 10
264.043
 20
202.6419999999999
 30
0.0
 11
264.389410094229
 21
202.631738618251
 31
0.0
  0
LINE
  5
88
330
1E
100
AcDbEntity
  8
0
100
AcDbLine
 10
467.559
 20
149.767
 30
0.0
 11
471.0099999999999
 21
142.911
 31
0.0
  0
LINE
  5
89
330
1E
100
AcDbEntity
  8
0
100
AcDbLine
 10
475.939
 20
137.1229999999999
 30
0.0
 11
481.884
 21
132.774
 31
0.0
  0
LINE
  5
8A
330
1E
100
AcDbEntity
  8
0
100
AcDbLine
 10
481.884
 20
132.774
 30
0.0
 11
488.621
 21
129.912
 31
0.0
  0
LINE
  5
8B
330
1E
100
AcDbEntity
  8
0
100
AcDbLine
 10
471.0099999999999
 20
142.911
 30
0.0
 11
475.939
 21
137.1229999999999
 31
0.0
  0
LINE
  5
8D
330
1E
100
AcDbEntity
  8
0
100
AcDbLine
 10
539.578
 20
69.237
 30
0.0
 11
543.562
 21
122.4849999999999
 31
0.0
  0
LINE
  5
8E
330
1E
100
AcDbEntity
  8
0
100
AcDbLine
 10
537.993
 20
53.08600000000001
 30
0.0
 11
539.578
 21
69.237
 31
0.0
  0
LINE
  5
92
330
1E
100
AcDbEntity
  8
0
100
AcDbLine
 10
543.562
 20
122.4849999999999
 30
0.0
 11
543.9479999999999
 21
123.7889999999999
 31
0.0
  0
LINE
  5
93
330
1E
100
AcDbEntity
  8
0
100
AcDbLine
 10
543.9479999999999
 20
123.7889999999999
 30
0.0
 11
544.876
 21
124.77
 31
0.0
  0
LINE
  5
94
330
1E
100
AcDbEntity
  8
0
100
AcDbLine
 10
544.876
 20
124.77
 30
0.0
 11
546.59
 21
125.26
 31
0.0
  0
LINE
  5
95
330
1E
100
AcDbEntity
  8
0
100
AcDbLine
 10
546.59
 20
125.26
 30
0.0
 11
563.003
 21
125.129
 31
0.0
  0
LINE
  5
96
330
1E
100
AcDbEntity
  8
0
100
AcDbLine
 10
563.003
 20
125.129
 30
0.0
 11
596.654
 21
125.6939999999999
 31
0.0
  0
LINE
  5
97
330
1E
100
AcDbEntity
  8
0
100
AcDbLine
 10
630.2709999999999
 20
127.3889999999999
 30
0.0
 11
638.5459999999999
 21
129.027
 31
0.0
  0
LINE
  5
98
330
1E
100
AcDbEntity
  8
0
100
AcDbLine
 10
596.654
 20
125.6939999999999
 30
0.0
 11
630.2709999999999
 21
127.3889999999999
 31
0.0
  0
LINE
  5
9A
330
1E
100
AcDbEntity
  8
0
100
AcDbLine
 10
522.4029999999999
 20
172.8279999999999
 30
0.0
 11
522.4299999999999
 21
176.7949999999999
 31
0.0
  0
LINE
  5
9B
330
1E
100
AcDbEntity
  8
0
100
AcDbLine
 10
522.4029999999999
 20
172.8279999999999
 30
0.0
 11
522.7459999999999
 21
172.802
 31
0.0
  0
LINE
  5
9C
330
1E
100
AcDbEntity
  8
0
100
AcDbLine
 10
521.889
 20
172.617
 30
0.0
 11
523.986
 21
172.6299999999999
 31
0.0
  0
LINE
  5
9D
330
1E
100
AcDbEntity
  8
0
100
AcDbLine
 10
521.8759999999999
 20
172.9729999999999
 30
0.0
 11
521.889
 21
172.617
 31
0.0
  0
LINE
  5
9E
330
1E
100
AcDbEntity
  8
0
100
AcDbLine
 10
521.8759999999999
 20
172.9729999999999
 30
0.0
 11
523.893
 21
172.999
 31
0.0
  0
LINE
  5
9F
330
1E
100
AcDbEntity
  8
0
100
AcDbLine
 10
522.7459999999999
 20
172.802
 30
0.0
 11
522.759
 21
176.8079999999999
 31
0.0
  0
LINE
  5
A0
330
1E
100
AcDbEntity
  8
0
100
AcDbLine
 10
522.588
 20
174.6599999999999
 30
0.0
 11
523.8139999999999
 21
174.6599999999999
 31
0.0
  0
LINE
  5
A1
330
1E
100
AcDbEntity
  8
0
100
AcDbLine
 10
522.4299999999999
 20
176.7949999999999
 30
0.0
 11
522.759
 21
176.8079999999999
 31
0.0
  0
LINE
  5
A2
330
1E
100
AcDbEntity
  8
0
100
AcDbLine
 10
521.859
 20
177.009
 30
0.0
 11
523.9559999999999
 21
177.024
 31
0.0
  0
LINE
  5
A3
330
1E
100
AcDbEntity
  8
0
100
AcDbLine
 10
521.851
 20
176.6529999999999
 30
0.0
 11
523.869
 21
176.654
 31
0.0
  0
LINE
  5
A4
330
1E
100
AcDbEntity
  8
0
100
AcDbLine
 10
521.851
 20
176.6529999999999
 30
0.0
 11
521.859
 21
177.009
 31
0.0
  0
LINE
  5
A5
330
1E
100
AcDbEntity
  8
0
100
AcDbLine
 10
522.5859999999999
 20
174.976
 30
0.0
 11
523.812
 21
174.9929999999999
 31
0.0
  0
LINE
  5
A6
330
1E
100
AcDbEntity
  8
0
100
AcDbLine
 10
522.562
 20
174.8179999999999
 30
0.0
 11
522.588
 21
174.6599999999999
 31
0.0
  0
LINE
  5
A7
330
1E
100
AcDbEntity
  8
0
100
AcDbLine
 10
522.562
 20
174.8179999999999
 30
0.0
 11
522.5859999999999
 21
174.976
 31
0.0
  0
LINE
  5
A8
330
1E
100
AcDbEntity
  8
0
100
AcDbLine
 10
523.986
 20
172.6299999999999
 30
0.0
 11
524.7769999999999
 21
173.434
 31
0.0
  0
LINE
  5
A9
330
1E
100
AcDbEntity
  8
0
100
AcDbLine
 10
523.893
 20
172.999
 30
0.0
 11
524.3809999999999
 21
173.592
 31
0.0
  0
LINE
  5
AA
330
1E
100
AcDbEntity
  8
0
100
AcDbLine
 10
532.138
 20
173.579
 30
0.0
 11
532.7180000000001
 21
173.012
 31
0.0
  0
LINE
  5
AB
330
1E
100
AcDbEntity
  8
0
100
AcDbLine
 10
532.138
 20
173.579
 30
0.0
 11
532.1509999999999
 21
176.044
 31
0.0
  0
LINE
  5
AC
330
1E
100
AcDbEntity
  8
0
100
AcDbLine
 10
531.6889999999999
 20
173.395
 30
0.0
 11
532.4279999999999
 21
172.617
 31
0.0
  0
LINE
  5
AD
330
1E
100
AcDbEntity
  8
0
100
AcDbLine
 10
532.7180000000001
 20
173.012
 30
0.0
 11
533.8129999999999
 21
173.012
 31
0.0
  0
LINE
  5
AE
330
1E
100
AcDbEntity
  8
0
100
AcDbLine
 10
532.4279999999999
 20
172.617
 30
0.0
 11
534.0099999999999
 21
172.604
 31
0.0
  0
LINE
  5
AF
330
1E
100
AcDbEntity
  8
0
100
AcDbLine
 10
533.8129999999999
 20
173.012
 30
0.0
 11
534.419
 21
173.592
 31
0.0
  0
LINE
  5
B0
330
1E
100
AcDbEntity
  8
0
100
AcDbLine
 10
524.764
 20
174.2779999999999
 30
0.0
 11
524.7769999999999
 21
173.434
 31
0.0
  0
LINE
  5
B1
330
1E
100
AcDbEntity
  8
0
100
AcDbLine
 10
524.3809999999999
 20
174.08
 30
0.0
 11
524.3809999999999
 21
173.592
 31
0.0
  0
LINE
  5
B2
330
1E
100
AcDbEntity
  8
0
100
AcDbLine
 10
523.9559999999999
 20
177.024
 30
0.0
 11
524.758
 21
176.231
 31
0.0
  0
LINE
  5
B3
330
1E
100
AcDbEntity
  8
0
100
AcDbLine
 10
523.869
 20
176.654
 30
0.0
 11
524.365
 21
176.0679999999999
 31
0.0
  0
LINE
  5
B4
330
1E
100
AcDbEntity
  8
0
100
AcDbLine
 10
523.812
 20
174.9929999999999
 30
0.0
 11
524.371
 21
175.58
 31
0.0
  0
LINE
  5
B5
330
1E
100
AcDbEntity
  8
0
100
AcDbLine
 10
532.1509999999999
 20
176.044
 30
0.0
 11
532.678
 21
176.584
 31
0.0
  0
LINE
  5
B6
330
1E
100
AcDbEntity
  8
0
100
AcDbLine
 10
524.756
 20
175.388
 30
0.0
 11
524.758
 21
176.231
 31
0.0
  0
LINE
  5
B7
330
1E
100
AcDbEntity
  8
0
100
AcDbLine
 10
533.7859999999999
 20
176.571
 30
0.0
 11
534.4059999999999
 21
175.9779999999999
 31
0.0
  0
LINE
  5
B8
330
1E
100
AcDbEntity
  8
0
100
AcDbLine
 10
532.678
 20
176.584
 30
0.0
 11
533.7859999999999
 21
176.571
 31
0.0
  0
LINE
  5
B9
330
1E
100
AcDbEntity
  8
0
100
AcDbLine
 10
533.4999999999999
 20
178.0
 30
0.0
 11
533.4999999999999
 21
308.0
 31
0.0
  0
LINE
  5
BA
330
1E
100
AcDbEntity
  8
0
100
AcDbLine
 10
532.5
 20
178.0
 30
0.0
 11
533.4999999999999
 21
178.0
 31
0.0
  0
LINE
  5
BB
330
1E
100
AcDbEntity
  8
0
100
AcDbLine
 10
532.4149999999999
 20
176.9659999999999
 30
0.0
 11
534.0629999999999
 21
177.0059999999999
 31
0.0
  0
LINE
  5
BC
330
1E
100
AcDbEntity
  8
0
100
AcDbLine
 10
531.6889999999999
 20
176.175
 30
0.0
 11
531.6889999999999
 21
173.395
 31
0.0
  0
LINE
  5
BD
330
1E
100
AcDbEntity
  8
0
100
AcDbLine
 10
531.6889999999999
 20
176.175
 30
0.0
 11
532.4149999999999
 21
176.9659999999999
 31
0.0
  0
LINE
  5
BE
330
1E
100
AcDbEntity
  8
0
100
AcDbLine
 10
524.365
 20
176.0679999999999
 30
0.0
 11
524.371
 21
175.58
 31
0.0
  0
LINE
  5
BF
330
1E
100
AcDbEntity
  8
0
100
AcDbLine
 10
524.1699999999999
 20
174.844
 30
0.0
 11
524.764
 21
174.2779999999999
 31
0.0
  0
LINE
  5
C0
330
1E
100
AcDbEntity
  8
0
100
AcDbLine
 10
524.1699999999999
 20
174.844
 30
0.0
 11
524.756
 21
175.388
 31
0.0
  0
LINE
  5
C1
330
1E
100
AcDbEntity
  8
0
100
AcDbLine
 10
523.8139999999999
 20
174.6599999999999
 30
0.0
 11
524.3809999999999
 21
174.08
 31
0.0
  0
LINE
  5
C2
330
1E
100
AcDbEntity
  8
0
100
AcDbLine
 10
523.5
 20
178.0
 30
0.0
 11
523.5
 21
308.0
 31
0.0
  0
LINE
  5
C3
330
1E
100
AcDbEntity
  8
0
100
AcDbLine
 10
522.5
 20
178.0
 30
0.0
 11
523.5
 21
178.0
 31
0.0
  0
LINE
  5
C4
330
1E
100
AcDbEntity
  8
0
100
AcDbLine
 10
513.0
 20
187.5
 30
0.0
 11
513.0
 21
188.4999999999999
 31
0.0
  0
LINE
  5
C5
330
1E
100
AcDbEntity
  8
0
100
AcDbLine
 10
513.0
 20
187.5
 30
0.0
 11
613.0
 21
187.5
 31
0.0
  0
LINE
  5
C6
330
1E
100
AcDbEntity
  8
0
100
AcDbLine
 10
513.0
 20
197.5
 30
0.0
 11
513.0
 21
198.5
 31
0.0
  0
LINE
  5
C7
330
1E
100
AcDbEntity
  8
0
100
AcDbLine
 10
513.0
 20
197.5
 30
0.0
 11
613.0
 21
197.5
 31
0.0
  0
LINE
  5
C8
330
1E
100
AcDbEntity
  8
0
100
AcDbLine
 10
513.0
 20
207.5
 30
0.0
 11
513.0
 21
208.4999999999999
 31
0.0
  0
LINE
  5
C9
330
1E
100
AcDbEntity
  8
0
100
AcDbLine
 10
513.0
 20
207.5
 30
0.0
 11
613.0
 21
207.5
 31
0.0
  0
LINE
  5
CA
330
1E
100
AcDbEntity
  8
0
100
AcDbLine
 10
513.0
 20
208.4999999999999
 30
0.0
 11
613.0
 21
208.4999999999999
 31
0.0
  0
LINE
  5
CB
330
1E
100
AcDbEntity
  8
0
100
AcDbLine
 10
513.0
 20
227.4999999999999
 30
0.0
 11
513.0
 21
228.5
 31
0.0
  0
LINE
  5
CC
330
1E
100
AcDbEntity
  8
0
100
AcDbLine
 10
513.0
 20
227.4999999999999
 30
0.0
 11
613.0
 21
227.4999999999999
 31
0.0
  0
LINE
  5
CD
330
1E
100
AcDbEntity
  8
0
100
AcDbLine
 10
513.0
 20
228.5
 30
0.0
 11
613.0
 21
228.5
 31
0.0
  0
LINE
  5
CE
330
1E
100
AcDbEntity
  8
0
100
AcDbLine
 10
513.0
 20
237.5
 30
0.0
 11
513.0
 21
238.5
 31
0.0
  0
LINE
  5
CF
330
1E
100
AcDbEntity
  8
0
100
AcDbLine
 10
513.0
 20
237.5
 30
0.0
 11
613.0
 21
237.5
 31
0.0
  0
LINE
  5
D0
330
1E
100
AcDbEntity
  8
0
100
AcDbLine
 10
513.0
 20
238.5
 30
0.0
 11
613.0
 21
238.5
 31
0.0
  0
LINE
  5
D1
330
1E
100
AcDbEntity
  8
0
100
AcDbLine
 10
513.0
 20
287.5
 30
0.0
 11
513.0
 21
288.5
 31
0.0
  0
LINE
  5
D2
330
1E
100
AcDbEntity
  8
0
100
AcDbLine
 10
513.0
 20
287.5
 30
0.0
 11
613.0
 21
287.5
 31
0.0
  0
LINE
  5
D3
330
1E
100
AcDbEntity
  8
0
100
AcDbLine
 10
513.0
 20
288.5
 30
0.0
 11
613.0
 21
288.5
 31
0.0
  0
LINE
  5
D4
330
1E
100
AcDbEntity
  8
0
100
AcDbLine
 10
513.0
 20
297.5
 30
0.0
 11
513.0
 21
298.4999999999999
 31
0.0
  0
LINE
  5
D5
330
1E
100
AcDbEntity
  8
0
100
AcDbLine
 10
513.0
 20
297.5
 30
0.0
 11
613.0
 21
297.5
 31
0.0
  0
LINE
  5
D6
330
1E
100
AcDbEntity
  8
0
100
AcDbLine
 10
513.0
 20
298.4999999999999
 30
0.0
 11
613.0
 21
298.4999999999999
 31
0.0
  0
LINE
  5
D7
330
1E
100
AcDbEntity
  8
0
100
AcDbLine
 10
513.0
 20
277.4999999999999
 30
0.0
 11
513.0
 21
278.5
 31
0.0
  0
LINE
  5
D8
330
1E
100
AcDbEntity
  8
0
100
AcDbLine
 10
513.0
 20
277.4999999999999
 30
0.0
 11
613.0
 21
277.4999999999999
 31
0.0
  0
LINE
  5
D9
330
1E
100
AcDbEntity
  8
0
100
AcDbLine
 10
513.0
 20
278.5
 30
0.0
 11
613.0
 21
278.5
 31
0.0
  0
LINE
  5
DA
330
1E
100
AcDbEntity
  8
0
100
AcDbLine
 10
513.0
 20
267.5
 30
0.0
 11
513.0
 21
268.5
 31
0.0
  0
LINE
  5
DB
330
1E
100
AcDbEntity
  8
0
100
AcDbLine
 10
513.0
 20
267.5
 30
0.0
 11
613.0
 21
267.5
 31
0.0
  0
LINE
  5
DC
330
1E
100
AcDbEntity
  8
0
100
AcDbLine
 10
513.0
 20
268.5
 30
0.0
 11
613.0
 21
268.5
 31
0.0
  0
LINE
  5
DD
330
1E
100
AcDbEntity
  8
0
100
AcDbLine
 10
513.0
 20
257.5
 30
0.0
 11
513.0
 21
258.4999999999999
 31
0.0
  0
LINE
  5
DE
330
1E
100
AcDbEntity
  8
0
100
AcDbLine
 10
513.0
 20
257.5
 30
0.0
 11
613.0
 21
257.5
 31
0.0
  0
LINE
  5
DF
330
1E
100
AcDbEntity
  8
0
100
AcDbLine
 10
513.0
 20
258.4999999999999
 30
0.0
 11
613.0
 21
258.4999999999999
 31
0.0
  0
LINE
  5
E0
330
1E
100
AcDbEntity
  8
0
100
AcDbLine
 10
513.0
 20
247.5
 30
0.0
 11
513.0
 21
248.4999999999999
 31
0.0
  0
LINE
  5
E1
330
1E
100
AcDbEntity
  8
0
100
AcDbLine
 10
513.0
 20
247.5
 30
0.0
 11
613.0
 21
247.5
 31
0.0
  0
LINE
  5
E2
330
1E
100
AcDbEntity
  8
0
100
AcDbLine
 10
513.0
 20
248.4999999999999
 30
0.0
 11
613.0
 21
248.4999999999999
 31
0.0
  0
LINE
  5
E3
330
1E
100
AcDbEntity
  8
0
100
AcDbLine
 10
513.0
 20
217.5
 30
0.0
 11
513.0
 21
218.5
 31
0.0
  0
LINE
  5
E4
330
1E
100
AcDbEntity
  8
0
100
AcDbLine
 10
513.0
 20
217.5
 30
0.0
 11
613.0
 21
217.5
 31
0.0
  0
LINE
  5
E5
330
1E
100
AcDbEntity
  8
0
100
AcDbLine
 10
513.0
 20
218.5
 30
0.0
 11
613.0
 21
218.5
 31
0.0
  0
LINE
  5
E6
330
1E
100
AcDbEntity
  8
0
100
AcDbLine
 10
513.0
 20
198.5
 30
0.0
 11
613.0
 21
198.5
 31
0.0
  0
LINE
  5
E7
330
1E
100
AcDbEntity
  8
0
100
AcDbLine
 10
532.5
 20
308.0
 30
0.0
 11
532.5
 21
178.0
 31
0.0
  0
LINE
  5
E8
330
1E
100
AcDbEntity
  8
0
100
AcDbLine
 10
532.5
 20
308.0
 30
0.0
 11
533.4999999999999
 21
308.0
 31
0.0
  0
LINE
  5
E9
330
1E
100
AcDbEntity
  8
0
100
AcDbLine
 10
522.5
 20
308.0
 30
0.0
 11
522.5
 21
178.0
 31
0.0
  0
LINE
  5
EA
330
1E
100
AcDbEntity
  8
0
100
AcDbLine
 10
522.5
 20
308.0
 30
0.0
 11
523.5
 21
308.0
 31
0.0
  0
LINE
  5
EB
330
1E
100
AcDbEntity
  8
0
100
AcDbLine
 10
513.0
 20
188.4999999999999
 30
0.0
 11
613.0
 21
188.4999999999999
 31
0.0
  0
LINE
  5
ED
330
1E
100
AcDbEntity
  8
0
100
AcDbLine
 10
652.5449999999999
 20
138.203
 30
0.0
 11
657.353
 21
145.1419999999999
 31
0.0
  0
LINE
  5
EE
330
1E
100
AcDbEntity
  8
0
100
AcDbLine
 10
646.1319999999999
 20
132.709
 30
0.0
 11
652.5449999999999
 21
138.203
 31
0.0
  0
LINE
  5
F0
330
1E
100
AcDbEntity
  8
0
100
AcDbLine
 10
541.889
 20
172.617
 30
0.0
 11
543.986
 21
172.6299999999999
 31
0.0
  0
LINE
  5
F1
330
1E
100
AcDbEntity
  8
0
100
AcDbLine
 10
562.192
 20
172.564
 30
0.0
 11
562.1929999999999
 21
176.55
 31
0.0
  0
LINE
  5
F2
330
1E
100
AcDbEntity
  8
0
100
AcDbLine
 10
604.0309999999999
 20
172.6259999999999
 30
0.0
 11
604.7849999999999
 21
173.462
 31
0.0
  0
LINE
  5
F3
330
1E
100
AcDbEntity
  8
0
100
AcDbLine
 10
602.482
 20
172.6159999999999
 30
0.0
 11
604.0309999999999
 21
172.6259999999999
 31
0.0
  0
LINE
  5
F4
330
1E
100
AcDbEntity
  8
0
100
AcDbLine
 10
572.428
 20
172.617
 30
0.0
 11
574.716
 21
172.6259999999999
 31
0.0
  0
LINE
  5
F5
330
1E
100
AcDbEntity
  8
0
100
AcDbLine
 10
561.604
 20
172.564
 30
0.0
 11
562.192
 21
172.564
 31
0.0
  0
LINE
  5
F6
330
1E
100
AcDbEntity
  8
0
100
AcDbLine
 10
551.604
 20
172.564
 30
0.0
 11
554.5819999999999
 21
172.5449999999999
 31
0.0
  0
LINE
  5
F7
330
1E
100
AcDbEntity
  8
0
100
AcDbLine
 10
593.9019999999999
 20
172.632
 30
0.0
 11
593.9149999999999
 21
172.992
 31
0.0
  0
LINE
  5
F8
330
1E
100
AcDbEntity
  8
0
100
AcDbLine
 10
592.558
 20
172.632
 30
0.0
 11
592.572
 21
173.0059999999999
 31
0.0
  0
LINE
  5
F9
330
1E
100
AcDbEntity
  8
0
100
AcDbLine
 10
592.558
 20
172.632
 30
0.0
 11
593.9019999999999
 21
172.632
 31
0.0
  0
LINE
  5
FA
330
1E
100
AcDbEntity
  8
0
100
AcDbLine
 10
584.329
 20
172.7709999999999
 30
0.0
 11
584.7859999999999
 21
172.757
 31
0.0
  0
LINE
  5
FB
330
1E
100
AcDbEntity
  8
0
100
AcDbLine
 10
581.683
 20
172.812
 30
0.0
 11
582.1399999999999
 21
172.798
 31
0.0
  0
LINE
  5
FC
330
1E
100
AcDbEntity
  8
0
100
AcDbLine
 10
543.986
 20
172.6299999999999
 30
0.0
 11
544.7769999999999
 21
173.434
 31
0.0
  0
LINE
  5
FD
330
1E
100
AcDbEntity
  8
0
100
AcDbLine
 10
542.7459999999999
 20
172.802
 30
0.0
 11
542.759
 21
176.8079999999999
 31
0.0
  0
LINE
  5
FE
330
1E
100
AcDbEntity
  8
0
100
AcDbLine
 10
541.8759999999999
 20
172.9729999999999
 30
0.0
 11
541.889
 21
172.617
 31
0.0
  0
LINE
  5
FF
330
1E
100
AcDbEntity
  8
0
100
AcDbLine
 10
541.8759999999999
 20
172.9729999999999
 30
0.0
 11
543.893
 21
172.999
 31
0.0
  0
LINE
  5
100
330
1E
100
AcDbEntity
  8
0
100
AcDbLine
 10
593.015
 20
172.84
 30
0.0
 11
593.4719999999999
 21
172.8259999999999
 31
0.0
  0
LINE
  5
101
330
1E
100
AcDbEntity
  8
0
100
AcDbLine
 10
603.807
 20
173.013
 30
0.0
 11
604.3669999999999
 21
173.512
 31
0.0
  0
LINE
  5
102
330
1E
100
AcDbEntity
  8
0
100
AcDbLine
 10
602.655
 20
173.013
 30
0.0
 11
603.807
 21
173.013
 31
0.0
  0
LINE
  5
103
330
1E
100
AcDbEntity
  8
0
100
AcDbLine
 10
592.572
 20
173.0059999999999
 30
0.0
 11
593.9149999999999
 21
172.992
 31
0.0
  0
LINE
  5
104
330
1E
100
AcDbEntity
  8
0
100
AcDbLine
 10
572.718
 20
173.012
 30
0.0
 11
574.37
 21
173.013
 31
0.0
  0
LINE
  5
105
330
1E
100
AcDbEntity
  8
0
100
AcDbLine
 10
574.37
 20
173.013
 30
0.0
 11
574.384
 21
174.6329999999999
 31
0.0
  0
LINE
  5
106
330
1E
100
AcDbEntity
  8
0
100
AcDbLine
 10
554.5449999999999
 20
173.041
 30
0.0
 11
554.5819999999999
 21
172.5449999999999
 31
0.0
  0
LINE
  5
107
330
1E
100
AcDbEntity
  8
0
100
AcDbLine
 10
604.7849999999999
 20
173.462
 30
0.0
 11
604.795
 21
176.822
 31
0.0
  0
LINE
  5
108
330
1E
100
AcDbEntity
  8
0
100
AcDbLine
 10
601.8099999999999
 20
173.3699999999999
 30
0.0
 11
602.482
 21
172.6159999999999
 31
0.0
  0
LINE
  5
109
330
1E
100
AcDbEntity
  8
0
100
AcDbLine
 10
601.8099999999999
 20
173.3699999999999
 30
0.0
 11
602.0439999999999
 21
173.624
 31
0.0
  0
LINE
  5
10A
330
1E
100
AcDbEntity
  8
0
100
AcDbLine
 10
572.138
 20
173.579
 30
0.0
 11
572.718
 21
173.012
 31
0.0
  0
LINE
  5
10B
330
1E
100
AcDbEntity
  8
0
100
AcDbLine
 10
572.138
 20
173.579
 30
0.0
 11
572.1509999999999
 21
176.044
 31
0.0
  0
LINE
  5
10C
330
1E
100
AcDbEntity
  8
0
100
AcDbLine
 10
571.6889999999999
 20
173.395
 30
0.0
 11
572.428
 21
172.617
 31
0.0
  0
LINE
  5
10D
330
1E
100
AcDbEntity
  8
0
100
AcDbLine
 10
552.193
 20
173.041
 30
0.0
 11
552.193
 21
176.55
 31
0.0
  0
LINE
  5
10E
330
1E
100
AcDbEntity
  8
0
100
AcDbLine
 10
552.193
 20
173.041
 30
0.0
 11
554.5449999999999
 21
173.041
 31
0.0
  0
LINE
  5
10F
330
1E
100
AcDbEntity
  8
0
100
AcDbLine
 10
543.893
 20
172.999
 30
0.0
 11
544.381
 21
173.592
 31
0.0
  0
LINE
  5
110
330
1E
100
AcDbEntity
  8
0
100
AcDbLine
 10
542.403
 20
172.8279999999999
 30
0.0
 11
542.4299999999999
 21
176.7949999999999
 31
0.0
  0
LINE
  5
111
330
1E
100
AcDbEntity
  8
0
100
AcDbLine
 10
542.403
 20
172.8279999999999
 30
0.0
 11
542.7459999999999
 21
172.802
 31
0.0
  0
LINE
  5
112
330
1E
100
AcDbEntity
  8
0
100
AcDbLine
 10
534.0099999999999
 20
172.604
 30
0.0
 11
534.722
 21
173.329
 31
0.0
  0
LINE
  5
113
330
1E
100
AcDbEntity
  8
0
100
AcDbLine
 10
551.9169999999999
 20
174.584
 30
0.0
 11
551.9169999999999
 21
175.025
 31
0.0
  0
LINE
  5
114
330
1E
100
AcDbEntity
  8
0
100
AcDbLine
 10
551.9169999999999
 20
174.584
 30
0.0
 11
553.2589999999999
 21
174.6029999999999
 31
0.0
  0
LINE
  5
115
330
1E
100
AcDbEntity
  8
0
100
AcDbLine
 10
573.913
 20
174.979
 30
0.0
 11
574.695
 21
174.9859999999999
 31
0.0
  0
LINE
  5
116
330
1E
100
AcDbEntity
  8
0
100
AcDbLine
 10
573.899
 20
174.6329999999999
 30
0.0
 11
574.384
 21
174.6329999999999
 31
0.0
  0
LINE
  5
117
330
1E
100
AcDbEntity
  8
0
100
AcDbLine
 10
573.899
 20
174.6329999999999
 30
0.0
 11
573.913
 21
174.979
 31
0.0
  0
LINE
  5
118
330
1E
100
AcDbEntity
  8
0
100
AcDbLine
 10
602.0439999999999
 20
173.624
 30
0.0
 11
602.655
 21
173.013
 31
0.0
  0
LINE
  5
119
330
1E
100
AcDbEntity
  8
0
100
AcDbLine
 10
584.5509999999999
 20
174.654
 30
0.0
 11
584.5639999999999
 21
175.028
 31
0.0
  0
LINE
  5
11A
330
1E
100
AcDbEntity
  8
0
100
AcDbLine
 10
581.8909999999999
 20
174.654
 30
0.0
 11
581.9049999999999
 21
175.028
 31
0.0
  0
LINE
  5
11B
330
1E
100
AcDbEntity
  8
0
100
AcDbLine
 10
581.8909999999999
 20
174.654
 30
0.0
 11
584.5509999999999
 21
174.654
 31
0.0
  0
LINE
  5
11C
330
1E
100
AcDbEntity
  8
0
100
AcDbLine
 10
574.695
 20
174.9859999999999
 30
0.0
 11
574.716
 21
172.6259999999999
 31
0.0
  0
LINE
  5
11D
330
1E
100
AcDbEntity
  8
0
100
AcDbLine
 10
563.259
 20
174.988
 30
0.0
 11
563.259
 21
174.6029999999999
 31
0.0
  0
LINE
  5
11E
330
1E
100
AcDbEntity
  8
0
100
AcDbLine
 10
561.9169999999999
 20
174.584
 30
0.0
 11
561.9169999999999
 21
175.025
 31
0.0
  0
LINE
  5
11F
330
1E
100
AcDbEntity
  8
0
100
AcDbLine
 10
561.9169999999999
 20
174.584
 30
0.0
 11
563.259
 21
174.6029999999999
 31
0.0
  0
LINE
  5
120
330
1E
100
AcDbEntity
  8
0
100
AcDbLine
 10
581.9049999999999
 20
175.028
 30
0.0
 11
584.5639999999999
 21
175.028
 31
0.0
  0
LINE
  5
121
330
1E
100
AcDbEntity
  8
0
100
AcDbLine
 10
561.9169999999999
 20
175.025
 30
0.0
 11
563.259
 21
174.988
 31
0.0
  0
LINE
  5
122
330
1E
100
AcDbEntity
  8
0
100
AcDbLine
 10
553.2589999999999
 20
174.988
 30
0.0
 11
553.2589999999999
 21
174.6029999999999
 31
0.0
  0
LINE
  5
123
330
1E
100
AcDbEntity
  8
0
100
AcDbLine
 10
551.9169999999999
 20
175.025
 30
0.0
 11
553.2589999999999
 21
174.988
 31
0.0
  0
LINE
  5
124
330
1E
100
AcDbEntity
  8
0
100
AcDbLine
 10
541.859
 20
177.009
 30
0.0
 11
543.956
 21
177.024
 31
0.0
  0
LINE
  5
125
330
1E
100
AcDbEntity
  8
0
100
AcDbLine
 10
541.851
 20
176.6529999999999
 30
0.0
 11
543.869
 21
176.654
 31
0.0
  0
LINE
  5
126
330
1E
100
AcDbEntity
  8
0
100
AcDbLine
 10
541.851
 20
176.6529999999999
 30
0.0
 11
541.859
 21
177.009
 31
0.0
  0
LINE
  5
127
330
1E
100
AcDbEntity
  8
0
100
AcDbLine
 10
572.1509999999999
 20
176.044
 30
0.0
 11
572.6779999999999
 21
176.584
 31
0.0
  0
LINE
  5
128
330
1E
100
AcDbEntity
  8
0
100
AcDbLine
 10
543.5
 20
178.0
 30
0.0
 11
543.5
 21
308.0
 31
0.0
  0
LINE
  5
129
330
1E
100
AcDbEntity
  8
0
100
AcDbLine
 10
542.4999999999999
 20
178.0
 30
0.0
 11
543.5
 21
178.0
 31
0.0
  0
LINE
  5
12A
330
1E
100
AcDbEntity
  8
0
100
AcDbLine
 10
543.956
 20
177.024
 30
0.0
 11
544.758
 21
176.231
 31
0.0
  0
LINE
  5
12B
330
1E
100
AcDbEntity
  8
0
100
AcDbLine
 10
543.869
 20
176.654
 30
0.0
 11
544.3649999999999
 21
176.0679999999999
 31
0.0
  0
LINE
  5
12C
330
1E
100
AcDbEntity
  8
0
100
AcDbLine
 10
552.193
 20
176.55
 30
0.0
 11
554.5639999999999
 21
176.513
 31
0.0
  0
LINE
  5
12D
330
1E
100
AcDbEntity
  8
0
100
AcDbLine
 10
562.1929999999999
 20
176.55
 30
0.0
 11
564.5639999999999
 21
176.513
 31
0.0
  0
LINE
  5
12E
330
1E
100
AcDbEntity
  8
0
100
AcDbLine
 10
572.5439999999999
 20
176.6199999999999
 30
0.0
 11
572.5579999999999
 21
176.994
 31
0.0
  0
LINE
  5
12F
330
1E
100
AcDbEntity
  8
0
100
AcDbLine
 10
572.5439999999999
 20
176.6199999999999
 30
0.0
 11
573.888
 21
176.6199999999999
 31
0.0
  0
LINE
  5
130
330
1E
100
AcDbEntity
  8
0
100
AcDbLine
 10
573.888
 20
176.6199999999999
 30
0.0
 11
573.9019999999999
 21
176.98
 31
0.0
  0
LINE
  5
131
330
1E
100
AcDbEntity
  8
0
100
AcDbLine
 10
604.337
 20
176.792
 30
0.0
 11
604.3669999999999
 21
173.512
 31
0.0
  0
LINE
  5
132
330
1E
100
AcDbEntity
  8
0
100
AcDbLine
 10
604.337
 20
176.792
 30
0.0
 11
604.795
 21
176.822
 31
0.0
  0
LINE
  5
133
330
1E
100
AcDbEntity
  8
0
100
AcDbLine
 10
584.7859999999999
 20
176.8
 30
0.0
 11
584.7859999999999
 21
172.757
 31
0.0
  0
LINE
  5
134
330
1E
100
AcDbEntity
  8
0
100
AcDbLine
 10
584.3009999999999
 20
176.8
 30
0.0
 11
584.7859999999999
 21
176.8
 31
0.0
  0
LINE
  5
135
330
1E
100
AcDbEntity
  8
0
100
AcDbLine
 10
584.3009999999999
 20
176.8
 30
0.0
 11
584.329
 21
172.7709999999999
 31
0.0
  0
LINE
  5
136
330
1E
100
AcDbEntity
  8
0
100
AcDbLine
 10
582.1399999999999
 20
176.8409999999999
 30
0.0
 11
582.1399999999999
 21
172.798
 31
0.0
  0
LINE
  5
137
330
1E
100
AcDbEntity
  8
0
100
AcDbLine
 10
593.4719999999999
 20
176.869
 30
0.0
 11
593.4719999999999
 21
172.8259999999999
 31
0.0
  0
LINE
  5
138
330
1E
100
AcDbEntity
  8
0
100
AcDbLine
 10
592.987
 20
176.869
 30
0.0
 11
593.4719999999999
 21
176.869
 31
0.0
  0
LINE
  5
139
330
1E
100
AcDbEntity
  8
0
100
AcDbLine
 10
592.987
 20
176.869
 30
0.0
 11
593.015
 21
172.84
 31
0.0
  0
LINE
  5
13A
330
1E
100
AcDbEntity
  8
0
100
AcDbLine
 10
581.6549999999999
 20
176.8409999999999
 30
0.0
 11
582.1399999999999
 21
176.8409999999999
 31
0.0
  0
LINE
  5
13B
330
1E
100
AcDbEntity
  8
0
100
AcDbLine
 10
581.6549999999999
 20
176.8409999999999
 30
0.0
 11
581.683
 21
172.812
 31
0.0
  0
LINE
  5
13C
330
1E
100
AcDbEntity
  8
0
100
AcDbLine
 10
572.6779999999999
 20
176.584
 30
0.0
 11
574.5639999999999
 21
176.585
 31
0.0
  0
LINE
  5
13D
330
1E
100
AcDbEntity
  8
0
100
AcDbLine
 10
572.5579999999999
 20
176.994
 30
0.0
 11
573.9019999999999
 21
176.98
 31
0.0
  0
LINE
  5
13E
330
1E
100
AcDbEntity
  8
0
100
AcDbLine
 10
574.5289999999999
 20
176.9729999999999
 30
0.0
 11
574.5639999999999
 21
176.585
 31
0.0
  0
LINE
  5
13F
330
1E
100
AcDbEntity
  8
0
100
AcDbLine
 10
572.4149999999999
 20
176.9659999999999
 30
0.0
 11
574.5289999999999
 21
176.9729999999999
 31
0.0
  0
LINE
  5
140
330
1E
100
AcDbEntity
  8
0
100
AcDbLine
 10
571.6889999999999
 20
176.175
 30
0.0
 11
571.6889999999999
 21
173.395
 31
0.0
  0
LINE
  5
141
330
1E
100
AcDbEntity
  8
0
100
AcDbLine
 10
571.6889999999999
 20
176.175
 30
0.0
 11
572.4149999999999
 21
176.9659999999999
 31
0.0
  0
LINE
  5
142
330
1E
100
AcDbEntity
  8
0
100
AcDbLine
 10
564.5269999999999
 20
177.0459999999999
 30
0.0
 11
564.5639999999999
 21
176.513
 31
0.0
  0
LINE
  5
143
330
1E
100
AcDbEntity
  8
0
100
AcDbLine
 10
561.604
 20
177.064
 30
0.0
 11
564.5269999999999
 21
177.0459999999999
 31
0.0
  0
LINE
  5
144
330
1E
100
AcDbEntity
  8
0
100
AcDbLine
 10
561.604
 20
177.064
 30
0.0
 11
561.604
 21
172.564
 31
0.0
  0
LINE
  5
145
330
1E
100
AcDbEntity
  8
0
100
AcDbLine
 10
554.5269999999999
 20
177.0459999999999
 30
0.0
 11
554.5639999999999
 21
176.513
 31
0.0
  0
LINE
  5
146
330
1E
100
AcDbEntity
  8
0
100
AcDbLine
 10
563.4999999999999
 20
178.0
 30
0.0
 11
563.4999999999999
 21
308.0
 31
0.0
  0
LINE
  5
147
330
1E
100
AcDbEntity
  8
0
100
AcDbLine
 10
562.5
 20
178.0
 30
0.0
 11
563.4999999999999
 21
178.0
 31
0.0
  0
LINE
  5
148
330
1E
100
AcDbEntity
  8
0
100
AcDbLine
 10
573.5
 20
178.0
 30
0.0
 11
573.5
 21
308.0
 31
0.0
  0
LINE
  5
149
330
1E
100
AcDbEntity
  8
0
100
AcDbLine
 10
572.5
 20
178.0
 30
0.0
 11
573.5
 21
178.0
 31
0.0
  0
LINE
  5
14A
330
1E
100
AcDbEntity
  8
0
100
AcDbLine
 10
603.5
 20
178.0
 30
0.0
 11
603.5
 21
308.0
 31
0.0
  0
LINE
  5
14B
330
1E
100
AcDbEntity
  8
0
100
AcDbLine
 10
602.5
 20
178.0
 30
0.0
 11
603.5
 21
178.0
 31
0.0
  0
LINE
  5
14C
330
1E
100
AcDbEntity
  8
0
100
AcDbLine
 10
593.5
 20
178.0
 30
0.0
 11
593.5
 21
308.0
 31
0.0
  0
LINE
  5
14D
330
1E
100
AcDbEntity
  8
0
100
AcDbLine
 10
592.4999999999999
 20
178.0
 30
0.0
 11
593.5
 21
178.0
 31
0.0
  0
LINE
  5
14E
330
1E
100
AcDbEntity
  8
0
100
AcDbLine
 10
583.4999999999999
 20
178.0
 30
0.0
 11
583.4999999999999
 21
308.0
 31
0.0
  0
LINE
  5
14F
330
1E
100
AcDbEntity
  8
0
100
AcDbLine
 10
582.5
 20
178.0
 30
0.0
 11
583.4999999999999
 21
178.0
 31
0.0
  0
LINE
  5
150
330
1E
100
AcDbEntity
  8
0
100
AcDbLine
 10
553.5
 20
178.0
 30
0.0
 11
553.5
 21
308.0
 31
0.0
  0
LINE
  5
151
330
1E
100
AcDbEntity
  8
0
100
AcDbLine
 10
552.5
 20
178.0
 30
0.0
 11
553.5
 21
178.0
 31
0.0
  0
LINE
  5
152
330
1E
100
AcDbEntity
  8
0
100
AcDbLine
 10
613.0
 20
208.4999999999999
 30
0.0
 11
613.0
 21
207.5
 31
0.0
  0
LINE
  5
153
330
1E
100
AcDbEntity
  8
0
100
AcDbLine
 10
613.0
 20
228.5
 30
0.0
 11
613.0
 21
227.4999999999999
 31
0.0
  0
LINE
  5
154
330
1E
100
AcDbEntity
  8
0
100
AcDbLine
 10
613.0
 20
218.5
 30
0.0
 11
613.0
 21
217.5
 31
0.0
  0
LINE
  5
155
330
1E
100
AcDbEntity
  8
0
100
AcDbLine
 10
613.0
 20
198.5
 30
0.0
 11
613.0
 21
197.5
 31
0.0
  0
LINE
  5
156
330
1E
100
AcDbEntity
  8
0
100
AcDbLine
 10
551.604
 20
177.064
 30
0.0
 11
554.5269999999999
 21
177.0459999999999
 31
0.0
  0
LINE
  5
157
330
1E
100
AcDbEntity
  8
0
100
AcDbLine
 10
551.604
 20
177.064
 30
0.0
 11
551.604
 21
172.564
 31
0.0
  0
LINE
  5
158
330
1E
100
AcDbEntity
  8
0
100
AcDbLine
 10
544.758
 20
176.231
 30
0.0
 11
544.7769999999999
 21
173.434
 31
0.0
  0
LINE
  5
159
330
1E
100
AcDbEntity
  8
0
100
AcDbLine
 10
544.3649999999999
 20
176.0679999999999
 30
0.0
 11
544.381
 21
173.592
 31
0.0
  0
LINE
  5
15A
330
1E
100
AcDbEntity
  8
0
100
AcDbLine
 10
542.4299999999999
 20
176.7949999999999
 30
0.0
 11
542.759
 21
176.8079999999999
 31
0.0
  0
LINE
  5
15B
330
1E
100
AcDbEntity
  8
0
100
AcDbLine
 10
534.4059999999999
 20
175.9779999999999
 30
0.0
 11
534.749
 21
176.2809999999999
 31
0.0
  0
LINE
  5
15C
330
1E
100
AcDbEntity
  8
0
100
AcDbLine
 10
534.0629999999999
 20
177.0059999999999
 30
0.0
 11
534.749
 21
176.2809999999999
 31
0.0
  0
LINE
  5
15D
330
1E
100
AcDbEntity
  8
0
100
AcDbLine
 10
534.419
 20
173.592
 30
0.0
 11
534.722
 21
173.329
 31
0.0
  0
LINE
  5
15E
330
1E
100
AcDbEntity
  8
0
100
AcDbLine
 10
614.513
 20
186.1159999999999
 30
0.0
 11
614.854
 21
186.379
 31
0.0
  0
LINE
  5
15F
330
1E
100
AcDbEntity
  8
0
100
AcDbLine
 10
614.513
 20
186.1159999999999
 30
0.0
 11
615.195
 21
185.404
 31
0.0
  0
LINE
  5
160
330
1E
100
AcDbEntity
  8
0
100
AcDbLine
 10
614.513
 20
189.099
 30
0.0
 11
615.195
 21
189.8109999999999
 31
0.0
  0
LINE
  5
161
330
1E
100
AcDbEntity
  8
0
100
AcDbLine
 10
614.513
 20
189.099
 30
0.0
 11
614.854
 21
188.8359999999999
 31
0.0
  0
LINE
  5
162
330
1E
100
AcDbEntity
  8
0
100
AcDbLine
 10
614.513
 20
206.116
 30
0.0
 11
614.854
 21
206.379
 31
0.0
  0
LINE
  5
163
330
1E
100
AcDbEntity
  8
0
100
AcDbLine
 10
614.513
 20
206.116
 30
0.0
 11
615.195
 21
205.404
 31
0.0
  0
LINE
  5
164
330
1E
100
AcDbEntity
  8
0
100
AcDbLine
 10
614.513
 20
209.099
 30
0.0
 11
615.195
 21
209.8109999999999
 31
0.0
  0
LINE
  5
165
330
1E
100
AcDbEntity
  8
0
100
AcDbLine
 10
614.513
 20
209.099
 30
0.0
 11
614.854
 21
208.8359999999999
 31
0.0
  0
LINE
  5
166
330
1E
100
AcDbEntity
  8
0
100
AcDbLine
 10
614.513
 20
196.1159999999999
 30
0.0
 11
614.854
 21
196.379
 31
0.0
  0
LINE
  5
167
330
1E
100
AcDbEntity
  8
0
100
AcDbLine
 10
614.513
 20
196.1159999999999
 30
0.0
 11
615.195
 21
195.404
 31
0.0
  0
LINE
  5
168
330
1E
100
AcDbEntity
  8
0
100
AcDbLine
 10
614.513
 20
199.099
 30
0.0
 11
615.195
 21
199.8109999999999
 31
0.0
  0
LINE
  5
169
330
1E
100
AcDbEntity
  8
0
100
AcDbLine
 10
614.513
 20
199.099
 30
0.0
 11
614.854
 21
198.8359999999999
 31
0.0
  0
LINE
  5
16A
330
1E
100
AcDbEntity
  8
0
100
AcDbLine
 10
614.513
 20
216.1159999999999
 30
0.0
 11
614.854
 21
216.379
 31
0.0
  0
LINE
  5
16B
330
1E
100
AcDbEntity
  8
0
100
AcDbLine
 10
614.513
 20
216.1159999999999
 30
0.0
 11
615.195
 21
215.404
 31
0.0
  0
LINE
  5
16C
330
1E
100
AcDbEntity
  8
0
100
AcDbLine
 10
614.513
 20
219.099
 30
0.0
 11
615.195
 21
219.8109999999999
 31
0.0
  0
LINE
  5
16D
330
1E
100
AcDbEntity
  8
0
100
AcDbLine
 10
614.513
 20
219.099
 30
0.0
 11
614.854
 21
218.8359999999999
 31
0.0
  0
LINE
  5
16E
330
1E
100
AcDbEntity
  8
0
100
AcDbLine
 10
614.513
 20
229.099
 30
0.0
 11
614.854
 21
228.8359999999999
 31
0.0
  0
LINE
  5
16F
330
1E
100
AcDbEntity
  8
0
100
AcDbLine
 10
614.513
 20
229.099
 30
0.0
 11
615.195
 21
229.8109999999999
 31
0.0
  0
LINE
  5
170
330
1E
100
AcDbEntity
  8
0
100
AcDbLine
 10
614.513
 20
226.1159999999999
 30
0.0
 11
615.195
 21
225.404
 31
0.0
  0
LINE
  5
171
330
1E
100
AcDbEntity
  8
0
100
AcDbLine
 10
614.513
 20
226.1159999999999
 30
0.0
 11
614.854
 21
226.379
 31
0.0
  0
LINE
  5
172
330
1E
100
AcDbEntity
  8
0
100
AcDbLine
 10
613.0
 20
188.4999999999999
 30
0.0
 11
613.0
 21
187.5
 31
0.0
  0
LINE
  5
173
330
1E
100
AcDbEntity
  8
0
100
AcDbLine
 10
613.0
 20
238.5
 30
0.0
 11
613.0
 21
237.5
 31
0.0
  0
LINE
  5
174
330
1E
100
AcDbEntity
  8
0
100
AcDbLine
 10
613.0
 20
248.4999999999999
 30
0.0
 11
613.0
 21
247.5
 31
0.0
  0
LINE
  5
175
330
1E
100
AcDbEntity
  8
0
100
AcDbLine
 10
614.513
 20
236.1159999999999
 30
0.0
 11
614.854
 21
236.379
 31
0.0
  0
LINE
  5
176
330
1E
100
AcDbEntity
  8
0
100
AcDbLine
 10
614.513
 20
236.1159999999999
 30
0.0
 11
615.195
 21
235.404
 31
0.0
  0
LINE
  5
177
330
1E
100
AcDbEntity
  8
0
100
AcDbLine
 10
614.529
 20
247.0819999999999
 30
0.0
 11
614.5599999999999
 21
245.4569999999999
 31
0.0
  0
LINE
  5
178
330
1E
100
AcDbEntity
  8
0
100
AcDbLine
 10
614.529
 20
247.0819999999999
 30
0.0
 11
615.2569999999999
 21
247.809
 31
0.0
  0
LINE
  5
179
330
1E
100
AcDbEntity
  8
0
100
AcDbLine
 10
614.5599999999999
 20
245.4569999999999
 30
0.0
 11
617.441
 21
245.4569999999999
 31
0.0
  0
LINE
  5
17A
330
1E
100
AcDbEntity
  8
0
100
AcDbLine
 10
614.513
 20
239.099
 30
0.0
 11
615.195
 21
239.8109999999999
 31
0.0
  0
LINE
  5
17B
330
1E
100
AcDbEntity
  8
0
100
AcDbLine
 10
614.513
 20
239.099
 30
0.0
 11
614.854
 21
238.836
 31
0.0
  0
LINE
  5
17C
330
1E
100
AcDbEntity
  8
0
100
AcDbLine
 10
613.0
 20
258.4999999999999
 30
0.0
 11
613.0
 21
257.5
 31
0.0
  0
LINE
  5
17D
330
1E
100
AcDbEntity
  8
0
100
AcDbLine
 10
613.0
 20
268.5
 30
0.0
 11
613.0
 21
267.5
 31
0.0
  0
LINE
  5
17E
330
1E
100
AcDbEntity
  8
0
100
AcDbLine
 10
613.0
 20
278.5
 30
0.0
 11
613.0
 21
277.4999999999999
 31
0.0
  0
LINE
  5
17F
330
1E
100
AcDbEntity
  8
0
100
AcDbLine
 10
613.0
 20
288.5
 30
0.0
 11
613.0
 21
287.5
 31
0.0
  0
LINE
  5
180
330
1E
100
AcDbEntity
  8
0
100
AcDbLine
 10
614.529
 20
287.082
 30
0.0
 11
614.5599999999999
 21
285.4569999999999
 31
0.0
  0
LINE
  5
181
330
1E
100
AcDbEntity
  8
0
100
AcDbLine
 10
614.529
 20
287.082
 30
0.0
 11
615.2569999999999
 21
287.809
 31
0.0
  0
LINE
  5
182
330
1E
100
AcDbEntity
  8
0
100
AcDbLine
 10
614.5599999999999
 20
285.4569999999999
 30
0.0
 11
617.441
 21
285.4569999999999
 31
0.0
  0
LINE
  5
183
330
1E
100
AcDbEntity
  8
0
100
AcDbLine
 10
562.5
 20
308.0
 30
0.0
 11
562.5
 21
178.0
 31
0.0
  0
LINE
  5
184
330
1E
100
AcDbEntity
  8
0
100
AcDbLine
 10
562.5
 20
308.0
 30
0.0
 11
563.4999999999999
 21
308.0
 31
0.0
  0
LINE
  5
185
330
1E
100
AcDbEntity
  8
0
100
AcDbLine
 10
572.5
 20
308.0
 30
0.0
 11
572.5
 21
178.0
 31
0.0
  0
LINE
  5
186
330
1E
100
AcDbEntity
  8
0
100
AcDbLine
 10
572.5
 20
308.0
 30
0.0
 11
573.5
 21
308.0
 31
0.0
  0
LINE
  5
187
330
1E
100
AcDbEntity
  8
0
100
AcDbLine
 10
602.5
 20
308.0
 30
0.0
 11
602.5
 21
178.0
 31
0.0
  0
LINE
  5
188
330
1E
100
AcDbEntity
  8
0
100
AcDbLine
 10
602.5
 20
308.0
 30
0.0
 11
603.5
 21
308.0
 31
0.0
  0
LINE
  5
189
330
1E
100
AcDbEntity
  8
0
100
AcDbLine
 10
592.4999999999999
 20
308.0
 30
0.0
 11
592.4999999999999
 21
178.0
 31
0.0
  0
LINE
  5
18A
330
1E
100
AcDbEntity
  8
0
100
AcDbLine
 10
592.4999999999999
 20
308.0
 30
0.0
 11
593.5
 21
308.0
 31
0.0
  0
LINE
  5
18B
330
1E
100
AcDbEntity
  8
0
100
AcDbLine
 10
582.5
 20
308.0
 30
0.0
 11
582.5
 21
178.0
 31
0.0
  0
LINE
  5
18C
330
1E
100
AcDbEntity
  8
0
100
AcDbLine
 10
582.5
 20
308.0
 30
0.0
 11
583.4999999999999
 21
308.0
 31
0.0
  0
LINE
  5
18D
330
1E
100
AcDbEntity
  8
0
100
AcDbLine
 10
542.4999999999999
 20
308.0
 30
0.0
 11
542.4999999999999
 21
178.0
 31
0.0
  0
LINE
  5
18E
330
1E
100
AcDbEntity
  8
0
100
AcDbLine
 10
542.4999999999999
 20
308.0
 30
0.0
 11
543.5
 21
308.0
 31
0.0
  0
LINE
  5
18F
330
1E
100
AcDbEntity
  8
0
100
AcDbLine
 10
552.5
 20
308.0
 30
0.0
 11
552.5
 21
178.0
 31
0.0
  0
LINE
  5
190
330
1E
100
AcDbEntity
  8
0
100
AcDbLine
 10
552.5
 20
308.0
 30
0.0
 11
553.5
 21
308.0
 31
0.0
  0
LINE
  5
191
330
1E
100
AcDbEntity
  8
0
100
AcDbLine
 10
613.0
 20
298.4999999999999
 30
0.0
 11
613.0
 21
297.5
 31
0.0
  0
LINE
  5
192
330
1E
100
AcDbEntity
  8
0
100
AcDbLine
 10
614.529
 20
297.0819999999999
 30
0.0
 11
614.5599999999999
 21
295.457
 31
0.0
  0
LINE
  5
193
330
1E
100
AcDbEntity
  8
0
100
AcDbLine
 10
614.529
 20
297.0819999999999
 30
0.0
 11
615.2569999999999
 21
297.809
 31
0.0
  0
LINE
  5
194
330
1E
100
AcDbEntity
  8
0
100
AcDbLine
 10
614.5599999999999
 20
295.457
 30
0.0
 11
617.441
 21
295.457
 31
0.0
  0
LINE
  5
195
330
1E
100
AcDbEntity
  8
0
100
AcDbLine
 10
614.529
 20
277.082
 30
0.0
 11
614.5599999999999
 21
275.457
 31
0.0
  0
LINE
  5
196
330
1E
100
AcDbEntity
  8
0
100
AcDbLine
 10
614.529
 20
277.082
 30
0.0
 11
615.2569999999999
 21
277.809
 31
0.0
  0
LINE
  5
197
330
1E
100
AcDbEntity
  8
0
100
AcDbLine
 10
614.5599999999999
 20
275.457
 30
0.0
 11
617.441
 21
275.457
 31
0.0
  0
LINE
  5
198
330
1E
100
AcDbEntity
  8
0
100
AcDbLine
 10
614.529
 20
267.0819999999999
 30
0.0
 11
614.5599999999999
 21
265.457
 31
0.0
  0
LINE
  5
199
330
1E
100
AcDbEntity
  8
0
100
AcDbLine
 10
614.529
 20
267.0819999999999
 30
0.0
 11
615.2569999999999
 21
267.809
 31
0.0
  0
LINE
  5
19A
330
1E
100
AcDbEntity
  8
0
100
AcDbLine
 10
614.5599999999999
 20
265.457
 30
0.0
 11
617.441
 21
265.457
 31
0.0
  0
LINE
  5
19B
330
1E
100
AcDbEntity
  8
0
100
AcDbLine
 10
614.529
 20
257.0819999999999
 30
0.0
 11
614.5599999999999
 21
255.457
 31
0.0
  0
LINE
  5
19C
330
1E
100
AcDbEntity
  8
0
100
AcDbLine
 10
614.529
 20
257.0819999999999
 30
0.0
 11
615.2569999999999
 21
257.809
 31
0.0
  0
LINE
  5
19D
330
1E
100
AcDbEntity
  8
0
100
AcDbLine
 10
614.854
 20
186.379
 30
0.0
 11
615.489
 21
185.791
 31
0.0
  0
LINE
  5
19E
330
1E
100
AcDbEntity
  8
0
100
AcDbLine
 10
614.854
 20
188.8359999999999
 30
0.0
 11
615.489
 21
189.424
 31
0.0
  0
LINE
  5
19F
330
1E
100
AcDbEntity
  8
0
100
AcDbLine
 10
614.854
 20
206.379
 30
0.0
 11
615.489
 21
205.791
 31
0.0
  0
LINE
  5
1A0
330
1E
100
AcDbEntity
  8
0
100
AcDbLine
 10
614.854
 20
208.8359999999999
 30
0.0
 11
615.489
 21
209.424
 31
0.0
  0
LINE
  5
1A1
330
1E
100
AcDbEntity
  8
0
100
AcDbLine
 10
614.854
 20
196.379
 30
0.0
 11
615.489
 21
195.791
 31
0.0
  0
LINE
  5
1A2
330
1E
100
AcDbEntity
  8
0
100
AcDbLine
 10
614.854
 20
198.8359999999999
 30
0.0
 11
615.489
 21
199.4239999999999
 31
0.0
  0
LINE
  5
1A3
330
1E
100
AcDbEntity
  8
0
100
AcDbLine
 10
614.854
 20
216.379
 30
0.0
 11
615.489
 21
215.791
 31
0.0
  0
LINE
  5
1A4
330
1E
100
AcDbEntity
  8
0
100
AcDbLine
 10
614.854
 20
218.8359999999999
 30
0.0
 11
615.489
 21
219.424
 31
0.0
  0
LINE
  5
1A5
330
1E
100
AcDbEntity
  8
0
100
AcDbLine
 10
614.854
 20
228.8359999999999
 30
0.0
 11
615.489
 21
229.424
 31
0.0
  0
LINE
  5
1A6
330
1E
100
AcDbEntity
  8
0
100
AcDbLine
 10
614.854
 20
226.379
 30
0.0
 11
615.489
 21
225.7909999999999
 31
0.0
  0
LINE
  5
1A7
330
1E
100
AcDbEntity
  8
0
100
AcDbLine
 10
614.854
 20
236.379
 30
0.0
 11
615.489
 21
235.7909999999999
 31
0.0
  0
LINE
  5
1A8
330
1E
100
AcDbEntity
  8
0
100
AcDbLine
 10
614.9630000000001
 20
248.877
 30
0.0
 11
615.598
 21
249.465
 31
0.0
  0
LINE
  5
1A9
330
1E
100
AcDbEntity
  8
0
100
AcDbLine
 10
614.6219999999999
 20
249.14
 30
0.0
 11
615.3039999999999
 21
249.852
 31
0.0
  0
LINE
  5
1AA
330
1E
100
AcDbEntity
  8
0
100
AcDbLine
 10
614.6219999999999
 20
249.14
 30
0.0
 11
614.9630000000001
 21
248.877
 31
0.0
  0
LINE
  5
1AB
330
1E
100
AcDbEntity
  8
0
100
AcDbLine
 10
614.994
 20
246.9109999999999
 30
0.0
 11
614.994
 21
245.7969999999999
 31
0.0
  0
LINE
  5
1AC
330
1E
100
AcDbEntity
  8
0
100
AcDbLine
 10
614.994
 20
246.9109999999999
 30
0.0
 11
615.567
 21
247.407
 31
0.0
  0
LINE
  5
1AD
330
1E
100
AcDbEntity
  8
0
100
AcDbLine
 10
614.994
 20
245.7969999999999
 30
0.0
 11
617.4249999999999
 21
245.7969999999999
 31
0.0
  0
LINE
  5
1AE
330
1E
100
AcDbEntity
  8
0
100
AcDbLine
 10
614.854
 20
238.836
 30
0.0
 11
615.489
 21
239.4239999999999
 31
0.0
  0
LINE
  5
1AF
330
1E
100
AcDbEntity
  8
0
100
AcDbLine
 10
615.195
 20
185.404
 30
0.0
 11
616.759
 21
185.419
 31
0.0
  0
LINE
  5
1B0
330
1E
100
AcDbEntity
  8
0
100
AcDbLine
 10
615.195
 20
189.8109999999999
 30
0.0
 11
616.759
 21
189.7949999999999
 31
0.0
  0
LINE
  5
1B1
330
1E
100
AcDbEntity
  8
0
100
AcDbLine
 10
615.195
 20
205.404
 30
0.0
 11
616.759
 21
205.419
 31
0.0
  0
LINE
  5
1B2
330
1E
100
AcDbEntity
  8
0
100
AcDbLine
 10
615.195
 20
209.8109999999999
 30
0.0
 11
616.759
 21
209.7949999999999
 31
0.0
  0
LINE
  5
1B3
330
1E
100
AcDbEntity
  8
0
100
AcDbLine
 10
615.195
 20
195.404
 30
0.0
 11
616.759
 21
195.419
 31
0.0
  0
LINE
  5
1B4
330
1E
100
AcDbEntity
  8
0
100
AcDbLine
 10
615.195
 20
199.8109999999999
 30
0.0
 11
616.759
 21
199.7949999999999
 31
0.0
  0
LINE
  5
1B5
330
1E
100
AcDbEntity
  8
0
100
AcDbLine
 10
615.195
 20
215.404
 30
0.0
 11
616.759
 21
215.419
 31
0.0
  0
LINE
  5
1B6
330
1E
100
AcDbEntity
  8
0
100
AcDbLine
 10
615.195
 20
219.8109999999999
 30
0.0
 11
616.759
 21
219.795
 31
0.0
  0
LINE
  5
1B7
330
1E
100
AcDbEntity
  8
0
100
AcDbLine
 10
615.195
 20
229.8109999999999
 30
0.0
 11
616.759
 21
229.7949999999999
 31
0.0
  0
LINE
  5
1B8
330
1E
100
AcDbEntity
  8
0
100
AcDbLine
 10
615.195
 20
225.404
 30
0.0
 11
616.759
 21
225.419
 31
0.0
  0
LINE
  5
1B9
330
1E
100
AcDbEntity
  8
0
100
AcDbLine
 10
615.489
 20
185.791
 30
0.0
 11
616.5109999999999
 21
185.791
 31
0.0
  0
LINE
  5
1BA
330
1E
100
AcDbEntity
  8
0
100
AcDbLine
 10
615.489
 20
189.424
 30
0.0
 11
616.5109999999999
 21
189.424
 31
0.0
  0
LINE
  5
1BB
330
1E
100
AcDbEntity
  8
0
100
AcDbLine
 10
615.489
 20
195.791
 30
0.0
 11
616.5109999999999
 21
195.791
 31
0.0
  0
LINE
  5
1BC
330
1E
100
AcDbEntity
  8
0
100
AcDbLine
 10
615.489
 20
205.791
 30
0.0
 11
616.5109999999999
 21
205.791
 31
0.0
  0
LINE
  5
1BD
330
1E
100
AcDbEntity
  8
0
100
AcDbLine
 10
615.489
 20
209.424
 30
0.0
 11
616.5109999999999
 21
209.424
 31
0.0
  0
LINE
  5
1BE
330
1E
100
AcDbEntity
  8
0
100
AcDbLine
 10
615.489
 20
199.4239999999999
 30
0.0
 11
616.5109999999999
 21
199.4239999999999
 31
0.0
  0
LINE
  5
1BF
330
1E
100
AcDbEntity
  8
0
100
AcDbLine
 10
615.489
 20
215.791
 30
0.0
 11
616.5109999999999
 21
215.791
 31
0.0
  0
LINE
  5
1C0
330
1E
100
AcDbEntity
  8
0
100
AcDbLine
 10
615.489
 20
219.424
 30
0.0
 11
616.5109999999999
 21
219.424
 31
0.0
  0
LINE
  5
1C1
330
1E
100
AcDbEntity
  8
0
100
AcDbLine
 10
615.927
 20
187.402
 30
0.0
 11
615.927
 21
187.565
 31
0.0
  0
LINE
  5
1C2
330
1E
100
AcDbEntity
  8
0
100
AcDbLine
 10
615.927
 20
187.402
 30
0.0
 11
616.557
 21
187.4
 31
0.0
  0
LINE
  5
1C3
330
1E
100
AcDbEntity
  8
0
100
AcDbLine
 10
615.927
 20
187.565
 30
0.0
 11
615.9419999999999
 21
187.757
 31
0.0
  0
LINE
  5
1C4
330
1E
100
AcDbEntity
  8
0
100
AcDbLine
 10
615.927
 20
197.402
 30
0.0
 11
615.927
 21
197.565
 31
0.0
  0
LINE
  5
1C5
330
1E
100
AcDbEntity
  8
0
100
AcDbLine
 10
615.927
 20
197.402
 30
0.0
 11
616.557
 21
197.4
 31
0.0
  0
LINE
  5
1C6
330
1E
100
AcDbEntity
  8
0
100
AcDbLine
 10
615.927
 20
207.4019999999999
 30
0.0
 11
615.927
 21
207.5649999999999
 31
0.0
  0
LINE
  5
1C7
330
1E
100
AcDbEntity
  8
0
100
AcDbLine
 10
615.927
 20
207.4019999999999
 30
0.0
 11
616.557
 21
207.4
 31
0.0
  0
LINE
  5
1C8
330
1E
100
AcDbEntity
  8
0
100
AcDbLine
 10
615.927
 20
207.5649999999999
 30
0.0
 11
615.9419999999999
 21
207.757
 31
0.0
  0
LINE
  5
1C9
330
1E
100
AcDbEntity
  8
0
100
AcDbLine
 10
615.927
 20
197.565
 30
0.0
 11
615.9419999999999
 21
197.757
 31
0.0
  0
LINE
  5
1CA
330
1E
100
AcDbEntity
  8
0
100
AcDbLine
 10
615.927
 20
217.402
 30
0.0
 11
615.927
 21
217.565
 31
0.0
  0
LINE
  5
1CB
330
1E
100
AcDbEntity
  8
0
100
AcDbLine
 10
615.927
 20
217.402
 30
0.0
 11
616.557
 21
217.3999999999999
 31
0.0
  0
LINE
  5
1CC
330
1E
100
AcDbEntity
  8
0
100
AcDbLine
 10
615.927
 20
217.565
 30
0.0
 11
615.9419999999999
 21
217.757
 31
0.0
  0
LINE
  5
1CD
330
1E
100
AcDbEntity
  8
0
100
AcDbLine
 10
615.489
 20
225.7909999999999
 30
0.0
 11
616.5109999999999
 21
225.7909999999999
 31
0.0
  0
LINE
  5
1CE
330
1E
100
AcDbEntity
  8
0
100
AcDbLine
 10
615.489
 20
229.424
 30
0.0
 11
616.5109999999999
 21
229.424
 31
0.0
  0
LINE
  5
1CF
330
1E
100
AcDbEntity
  8
0
100
AcDbLine
 10
615.927
 20
227.565
 30
0.0
 11
615.927
 21
227.402
 31
0.0
  0
LINE
  5
1D0
330
1E
100
AcDbEntity
  8
0
100
AcDbLine
 10
615.927
 20
227.565
 30
0.0
 11
615.9419999999999
 21
227.757
 31
0.0
  0
LINE
  5
1D1
330
1E
100
AcDbEntity
  8
0
100
AcDbLine
 10
616.5109999999999
 20
185.791
 30
0.0
 11
616.9139999999999
 21
186.224
 31
0.0
  0
LINE
  5
1D2
330
1E
100
AcDbEntity
  8
0
100
AcDbLine
 10
616.5109999999999
 20
189.424
 30
0.0
 11
616.9139999999999
 21
188.991
 31
0.0
  0
LINE
  5
1D3
330
1E
100
AcDbEntity
  8
0
100
AcDbLine
 10
615.9419999999999
 20
187.757
 30
0.0
 11
616.557
 21
187.814
 31
0.0
  0
LINE
  5
1D4
330
1E
100
AcDbEntity
  8
0
100
AcDbLine
 10
616.5109999999999
 20
195.791
 30
0.0
 11
616.9139999999999
 21
196.224
 31
0.0
  0
LINE
  5
1D5
330
1E
100
AcDbEntity
  8
0
100
AcDbLine
 10
616.5109999999999
 20
205.791
 30
0.0
 11
616.9139999999999
 21
206.224
 31
0.0
  0
LINE
  5
1D6
330
1E
100
AcDbEntity
  8
0
100
AcDbLine
 10
616.5109999999999
 20
209.424
 30
0.0
 11
616.9139999999999
 21
208.99
 31
0.0
  0
LINE
  5
1D7
330
1E
100
AcDbEntity
  8
0
100
AcDbLine
 10
615.9419999999999
 20
207.757
 30
0.0
 11
616.557
 21
207.814
 31
0.0
  0
LINE
  5
1D8
330
1E
100
AcDbEntity
  8
0
100
AcDbLine
 10
616.5109999999999
 20
199.4239999999999
 30
0.0
 11
616.9139999999999
 21
198.99
 31
0.0
  0
LINE
  5
1D9
330
1E
100
AcDbEntity
  8
0
100
AcDbLine
 10
615.9419999999999
 20
197.757
 30
0.0
 11
616.557
 21
197.814
 31
0.0
  0
LINE
  5
1DA
330
1E
100
AcDbEntity
  8
0
100
AcDbLine
 10
616.5109999999999
 20
215.791
 30
0.0
 11
616.9139999999999
 21
216.224
 31
0.0
  0
LINE
  5
1DB
330
1E
100
AcDbEntity
  8
0
100
AcDbLine
 10
616.5109999999999
 20
219.424
 30
0.0
 11
616.9139999999999
 21
218.99
 31
0.0
  0
LINE
  5
1DC
330
1E
100
AcDbEntity
  8
0
100
AcDbLine
 10
615.9419999999999
 20
217.757
 30
0.0
 11
616.557
 21
217.814
 31
0.0
  0
LINE
  5
1DD
330
1E
100
AcDbEntity
  8
0
100
AcDbLine
 10
616.557
 20
187.4
 30
0.0
 11
616.976
 21
186.859
 31
0.0
  0
LINE
  5
1DE
330
1E
100
AcDbEntity
  8
0
100
AcDbLine
 10
616.557
 20
187.814
 30
0.0
 11
616.976
 21
188.3559999999999
 31
0.0
  0
LINE
  5
1DF
330
1E
100
AcDbEntity
  8
0
100
AcDbLine
 10
616.557
 20
197.4
 30
0.0
 11
616.976
 21
196.859
 31
0.0
  0
LINE
  5
1E0
330
1E
100
AcDbEntity
  8
0
100
AcDbLine
 10
616.557
 20
207.4
 30
0.0
 11
616.976
 21
206.8589999999999
 31
0.0
  0
LINE
  5
1E1
330
1E
100
AcDbEntity
  8
0
100
AcDbLine
 10
616.557
 20
207.814
 30
0.0
 11
616.976
 21
208.3559999999999
 31
0.0
  0
LINE
  5
1E2
330
1E
100
AcDbEntity
  8
0
100
AcDbLine
 10
616.557
 20
197.814
 30
0.0
 11
616.976
 21
198.3559999999999
 31
0.0
  0
LINE
  5
1E3
330
1E
100
AcDbEntity
  8
0
100
AcDbLine
 10
616.557
 20
217.3999999999999
 30
0.0
 11
616.976
 21
216.859
 31
0.0
  0
LINE
  5
1E4
330
1E
100
AcDbEntity
  8
0
100
AcDbLine
 10
616.557
 20
217.814
 30
0.0
 11
616.976
 21
218.3559999999999
 31
0.0
  0
LINE
  5
1E5
330
1E
100
AcDbEntity
  8
0
100
AcDbLine
 10
616.5109999999999
 20
225.7909999999999
 30
0.0
 11
616.9139999999999
 21
226.224
 31
0.0
  0
LINE
  5
1E6
330
1E
100
AcDbEntity
  8
0
100
AcDbLine
 10
616.5109999999999
 20
229.424
 30
0.0
 11
616.9139999999999
 21
228.99
 31
0.0
  0
LINE
  5
1E7
330
1E
100
AcDbEntity
  8
0
100
AcDbLine
 10
616.557
 20
227.814
 30
0.0
 11
616.976
 21
228.356
 31
0.0
  0
LINE
  5
1E8
330
1E
100
AcDbEntity
  8
0
100
AcDbLine
 10
615.9419999999999
 20
227.757
 30
0.0
 11
616.557
 21
227.814
 31
0.0
  0
LINE
  5
1E9
330
1E
100
AcDbEntity
  8
0
100
AcDbLine
 10
616.557
 20
227.4
 30
0.0
 11
616.976
 21
226.859
 31
0.0
  0
LINE
  5
1EA
330
1E
100
AcDbEntity
  8
0
100
AcDbLine
 10
615.927
 20
227.402
 30
0.0
 11
616.557
 21
227.4
 31
0.0
  0
LINE
  5
1EB
330
1E
100
AcDbEntity
  8
0
100
AcDbLine
 10
615.489
 20
235.7909999999999
 30
0.0
 11
616.5109999999999
 21
235.7909999999999
 31
0.0
  0
LINE
  5
1EC
330
1E
100
AcDbEntity
  8
0
100
AcDbLine
 10
615.195
 20
235.404
 30
0.0
 11
616.759
 21
235.419
 31
0.0
  0
LINE
  5
1ED
330
1E
100
AcDbEntity
  8
0
100
AcDbLine
 10
616.5109999999999
 20
235.7909999999999
 30
0.0
 11
616.9139999999999
 21
236.224
 31
0.0
  0
LINE
  5
1EE
330
1E
100
AcDbEntity
  8
0
100
AcDbLine
 10
616.759
 20
185.419
 30
0.0
 11
617.518
 21
186.147
 31
0.0
  0
LINE
  5
1EF
330
1E
100
AcDbEntity
  8
0
100
AcDbLine
 10
616.759
 20
189.7949999999999
 30
0.0
 11
617.518
 21
189.0679999999999
 31
0.0
  0
LINE
  5
1F0
330
1E
100
AcDbEntity
  8
0
100
AcDbLine
 10
616.759
 20
205.419
 30
0.0
 11
617.518
 21
206.147
 31
0.0
  0
LINE
  5
1F1
330
1E
100
AcDbEntity
  8
0
100
AcDbLine
 10
616.759
 20
209.7949999999999
 30
0.0
 11
617.518
 21
209.0679999999999
 31
0.0
  0
LINE
  5
1F2
330
1E
100
AcDbEntity
  8
0
100
AcDbLine
 10
616.759
 20
195.419
 30
0.0
 11
617.518
 21
196.147
 31
0.0
  0
LINE
  5
1F3
330
1E
100
AcDbEntity
  8
0
100
AcDbLine
 10
616.759
 20
199.7949999999999
 30
0.0
 11
617.518
 21
199.0679999999999
 31
0.0
  0
LINE
  5
1F4
330
1E
100
AcDbEntity
  8
0
100
AcDbLine
 10
616.759
 20
215.419
 30
0.0
 11
617.518
 21
216.147
 31
0.0
  0
LINE
  5
1F5
330
1E
100
AcDbEntity
  8
0
100
AcDbLine
 10
616.759
 20
219.795
 30
0.0
 11
617.518
 21
219.0679999999999
 31
0.0
  0
LINE
  5
1F6
330
1E
100
AcDbEntity
  8
0
100
AcDbLine
 10
616.759
 20
229.7949999999999
 30
0.0
 11
617.518
 21
229.068
 31
0.0
  0
LINE
  5
1F7
330
1E
100
AcDbEntity
  8
0
100
AcDbLine
 10
616.759
 20
225.419
 30
0.0
 11
617.518
 21
226.147
 31
0.0
  0
LINE
  5
1F8
330
1E
100
AcDbEntity
  8
0
100
AcDbLine
 10
616.9139999999999
 20
186.224
 30
0.0
 11
616.976
 21
186.859
 31
0.0
  0
LINE
  5
1F9
330
1E
100
AcDbEntity
  8
0
100
AcDbLine
 10
616.9139999999999
 20
188.991
 30
0.0
 11
616.976
 21
188.3559999999999
 31
0.0
  0
LINE
  5
1FA
330
1E
100
AcDbEntity
  8
0
100
AcDbLine
 10
616.9139999999999
 20
196.224
 30
0.0
 11
616.976
 21
196.859
 31
0.0
  0
LINE
  5
1FB
330
1E
100
AcDbEntity
  8
0
100
AcDbLine
 10
616.9139999999999
 20
206.224
 30
0.0
 11
616.976
 21
206.8589999999999
 31
0.0
  0
LINE
  5
1FC
330
1E
100
AcDbEntity
  8
0
100
AcDbLine
 10
616.9139999999999
 20
208.99
 30
0.0
 11
616.976
 21
208.3559999999999
 31
0.0
  0
LINE
  5
1FD
330
1E
100
AcDbEntity
  8
0
100
AcDbLine
 10
616.9139999999999
 20
198.99
 30
0.0
 11
616.976
 21
198.3559999999999
 31
0.0
  0
LINE
  5
1FE
330
1E
100
AcDbEntity
  8
0
100
AcDbLine
 10
616.9139999999999
 20
216.224
 30
0.0
 11
616.976
 21
216.859
 31
0.0
  0
LINE
  5
1FF
330
1E
100
AcDbEntity
  8
0
100
AcDbLine
 10
616.9139999999999
 20
218.99
 30
0.0
 11
616.976
 21
218.3559999999999
 31
0.0
  0
LINE
  5
200
330
1E
100
AcDbEntity
  8
0
100
AcDbLine
 10
617.011
 20
187.565
 30
0.0
 11
617.5489999999999
 21
188.217
 31
0.0
  0
LINE
  5
201
330
1E
100
AcDbEntity
  8
0
100
AcDbLine
 10
617.011
 20
187.565
 30
0.0
 11
617.5489999999999
 21
186.9979999999999
 31
0.0
  0
LINE
  5
202
330
1E
100
AcDbEntity
  8
0
100
AcDbLine
 10
617.011
 20
207.5649999999999
 30
0.0
 11
617.5489999999999
 21
208.217
 31
0.0
  0
LINE
  5
203
330
1E
100
AcDbEntity
  8
0
100
AcDbLine
 10
617.011
 20
207.5649999999999
 30
0.0
 11
617.5489999999999
 21
206.998
 31
0.0
  0
LINE
  5
204
330
1E
100
AcDbEntity
  8
0
100
AcDbLine
 10
617.011
 20
197.565
 30
0.0
 11
617.5489999999999
 21
198.217
 31
0.0
  0
LINE
  5
205
330
1E
100
AcDbEntity
  8
0
100
AcDbLine
 10
617.011
 20
197.565
 30
0.0
 11
617.5489999999999
 21
196.9979999999999
 31
0.0
  0
LINE
  5
206
330
1E
100
AcDbEntity
  8
0
100
AcDbLine
 10
617.011
 20
217.565
 30
0.0
 11
617.5489999999999
 21
218.217
 31
0.0
  0
LINE
  5
207
330
1E
100
AcDbEntity
  8
0
100
AcDbLine
 10
617.011
 20
217.565
 30
0.0
 11
617.5489999999999
 21
216.9979999999999
 31
0.0
  0
LINE
  5
208
330
1E
100
AcDbEntity
  8
0
100
AcDbLine
 10
616.9139999999999
 20
226.224
 30
0.0
 11
616.976
 21
226.859
 31
0.0
  0
LINE
  5
209
330
1E
100
AcDbEntity
  8
0
100
AcDbLine
 10
616.9139999999999
 20
228.99
 30
0.0
 11
616.976
 21
228.356
 31
0.0
  0
LINE
  5
20A
330
1E
100
AcDbEntity
  8
0
100
AcDbLine
 10
617.011
 20
227.565
 30
0.0
 11
617.5489999999999
 21
226.9979999999999
 31
0.0
  0
LINE
  5
20B
330
1E
100
AcDbEntity
  8
0
100
AcDbLine
 10
617.011
 20
227.565
 30
0.0
 11
617.5489999999999
 21
228.217
 31
0.0
  0
LINE
  5
20C
330
1E
100
AcDbEntity
  8
0
100
AcDbLine
 10
616.759
 20
235.419
 30
0.0
 11
617.518
 21
236.147
 31
0.0
  0
LINE
  5
20D
330
1E
100
AcDbEntity
  8
0
100
AcDbLine
 10
616.9139999999999
 20
236.224
 30
0.0
 11
616.976
 21
236.859
 31
0.0
  0
LINE
  5
20E
330
1E
100
AcDbEntity
  8
0
100
AcDbLine
 10
616.557
 20
237.4
 30
0.0
 11
616.976
 21
236.859
 31
0.0
  0
LINE
  5
20F
330
1E
100
AcDbEntity
  8
0
100
AcDbLine
 10
615.927
 20
237.402
 30
0.0
 11
615.927
 21
237.5649999999999
 31
0.0
  0
LINE
  5
210
330
1E
100
AcDbEntity
  8
0
100
AcDbLine
 10
615.927
 20
237.402
 30
0.0
 11
616.557
 21
237.4
 31
0.0
  0
LINE
  5
211
330
1E
100
AcDbEntity
  8
0
100
AcDbLine
 10
617.518
 20
186.147
 30
0.0
 11
617.5489999999999
 21
186.9979999999999
 31
0.0
  0
LINE
  5
212
330
1E
100
AcDbEntity
  8
0
100
AcDbLine
 10
617.518
 20
189.0679999999999
 30
0.0
 11
617.5489999999999
 21
188.217
 31
0.0
  0
LINE
  5
213
330
1E
100
AcDbEntity
  8
0
100
AcDbLine
 10
617.518
 20
196.147
 30
0.0
 11
617.5489999999999
 21
196.9979999999999
 31
0.0
  0
LINE
  5
214
330
1E
100
AcDbEntity
  8
0
100
AcDbLine
 10
617.518
 20
206.147
 30
0.0
 11
617.5489999999999
 21
206.998
 31
0.0
  0
LINE
  5
215
330
1E
100
AcDbEntity
  8
0
100
AcDbLine
 10
617.518
 20
209.0679999999999
 30
0.0
 11
617.5489999999999
 21
208.217
 31
0.0
  0
LINE
  5
216
330
1E
100
AcDbEntity
  8
0
100
AcDbLine
 10
617.518
 20
199.0679999999999
 30
0.0
 11
617.5489999999999
 21
198.217
 31
0.0
  0
LINE
  5
217
330
1E
100
AcDbEntity
  8
0
100
AcDbLine
 10
617.518
 20
216.147
 30
0.0
 11
617.5489999999999
 21
216.9979999999999
 31
0.0
  0
LINE
  5
218
330
1E
100
AcDbEntity
  8
0
100
AcDbLine
 10
617.518
 20
219.0679999999999
 30
0.0
 11
617.5489999999999
 21
218.217
 31
0.0
  0
LINE
  5
219
330
1E
100
AcDbEntity
  8
0
100
AcDbLine
 10
617.518
 20
229.068
 30
0.0
 11
617.5489999999999
 21
228.217
 31
0.0
  0
LINE
  5
21A
330
1E
100
AcDbEntity
  8
0
100
AcDbLine
 10
618.519
 20
206.145
 30
0.0
 11
618.86
 21
206.4079999999999
 31
0.0
  0
LINE
  5
21B
330
1E
100
AcDbEntity
  8
0
100
AcDbLine
 10
618.519
 20
206.145
 30
0.0
 11
619.2
 21
205.4329999999999
 31
0.0
  0
LINE
  5
21C
330
1E
100
AcDbEntity
  8
0
100
AcDbLine
 10
618.519
 20
209.1279999999999
 30
0.0
 11
619.2
 21
209.84
 31
0.0
  0
LINE
  5
21D
330
1E
100
AcDbEntity
  8
0
100
AcDbLine
 10
618.519
 20
209.1279999999999
 30
0.0
 11
618.86
 21
208.865
 31
0.0
  0
LINE
  5
21E
330
1E
100
AcDbEntity
  8
0
100
AcDbLine
 10
617.518
 20
226.147
 30
0.0
 11
617.5489999999999
 21
226.9979999999999
 31
0.0
  0
LINE
  5
21F
330
1E
100
AcDbEntity
  8
0
100
AcDbLine
 10
618.431
 20
196.91
 30
0.0
 11
620.7069999999999
 21
199.861
 31
0.0
  0
LINE
  5
220
330
1E
100
AcDbEntity
  8
0
100
AcDbLine
 10
618.431
 20
196.91
 30
0.0
 11
621.4089999999999
 21
196.849
 31
0.0
  0
LINE
  5
221
330
1E
100
AcDbEntity
  8
0
100
AcDbLine
 10
618.601
 20
189.835
 30
0.0
 11
618.69
 21
187.967
 31
0.0
  0
LINE
  5
222
330
1E
100
AcDbEntity
  8
0
100
AcDbLine
 10
618.601
 20
189.835
 30
0.0
 11
621.613
 21
189.835
 31
0.0
  0
LINE
  5
223
330
1E
100
AcDbEntity
  8
0
100
AcDbLine
 10
618.69
 20
187.967
 30
0.0
 11
620.797
 21
187.937
 31
0.0
  0
LINE
  5
224
330
1E
100
AcDbEntity
  8
0
100
AcDbLine
 10
621.0790000000001
 20
185.3429999999999
 30
0.0
 11
621.865
 21
186.173
 31
0.0
  0
LINE
  5
225
330
1E
100
AcDbEntity
  8
0
100
AcDbLine
 10
620.812
 20
185.817
 30
0.0
 11
621.2569999999999
 21
186.292
 31
0.0
  0
LINE
  5
226
330
1E
100
AcDbEntity
  8
0
100
AcDbLine
 10
621.865
 20
186.173
 30
0.0
 11
621.865
 21
187.6559999999999
 31
0.0
  0
LINE
  5
227
330
1E
100
AcDbEntity
  8
0
100
AcDbLine
 10
619.6839999999999
 20
185.817
 30
0.0
 11
620.812
 21
185.817
 31
0.0
  0
LINE
  5
228
330
1E
100
AcDbEntity
  8
0
100
AcDbLine
 10
619.5059999999999
 20
185.372
 30
0.0
 11
621.0790000000001
 21
185.3429999999999
 31
0.0
  0
LINE
  5
229
330
1E
100
AcDbEntity
  8
0
100
AcDbLine
 10
618.86
 20
206.4079999999999
 30
0.0
 11
619.495
 21
205.8199999999999
 31
0.0
  0
LINE
  5
22A
330
1E
100
AcDbEntity
  8
0
100
AcDbLine
 10
618.86
 20
208.865
 30
0.0
 11
619.495
 21
209.453
 31
0.0
  0
LINE
  5
22B
330
1E
100
AcDbEntity
  8
0
100
AcDbLine
 10
619.0489999999999
 20
197.1759999999999
 30
0.0
 11
620.5379999999999
 21
199.2809999999999
 31
0.0
  0
LINE
  5
22C
330
1E
100
AcDbEntity
  8
0
100
AcDbLine
 10
619.0489999999999
 20
197.1759999999999
 30
0.0
 11
621.3849999999999
 21
197.1759999999999
 31
0.0
  0
LINE
  5
22D
330
1E
100
AcDbEntity
  8
0
100
AcDbLine
 10
618.899
 20
219.198
 30
0.0
 11
619.58
 21
219.91
 31
0.0
  0
LINE
  5
22E
330
1E
100
AcDbEntity
  8
0
100
AcDbLine
 10
618.899
 20
219.198
 30
0.0
 11
619.24
 21
218.935
 31
0.0
  0
LINE
  5
22F
330
1E
100
AcDbEntity
  8
0
100
AcDbLine
 10
618.806
 20
217.1399999999999
 30
0.0
 11
618.8369999999999
 21
215.5149999999999
 31
0.0
  0
LINE
  5
230
330
1E
100
AcDbEntity
  8
0
100
AcDbLine
 10
618.806
 20
217.1399999999999
 30
0.0
 11
619.5339999999999
 21
217.867
 31
0.0
  0
LINE
  5
231
330
1E
100
AcDbEntity
  8
0
100
AcDbLine
 10
618.8369999999999
 20
215.5149999999999
 30
0.0
 11
621.717
 21
215.5149999999999
 31
0.0
  0
LINE
  5
232
330
1E
100
AcDbEntity
  8
0
100
AcDbLine
 10
619.2
 20
205.4329999999999
 30
0.0
 11
620.764
 21
205.449
 31
0.0
  0
LINE
  5
233
330
1E
100
AcDbEntity
  8
0
100
AcDbLine
 10
619.495
 20
205.8199999999999
 30
0.0
 11
620.5169999999999
 21
205.8199999999999
 31
0.0
  0
LINE
  5
234
330
1E
100
AcDbEntity
  8
0
100
AcDbLine
 10
619.495
 20
209.453
 30
0.0
 11
620.5169999999999
 21
209.453
 31
0.0
  0
LINE
  5
235
330
1E
100
AcDbEntity
  8
0
100
AcDbLine
 10
619.2
 20
209.84
 30
0.0
 11
620.764
 21
209.8249999999999
 31
0.0
  0
LINE
  5
236
330
1E
100
AcDbEntity
  8
0
100
AcDbLine
 10
619.24
 20
218.935
 30
0.0
 11
619.875
 21
219.523
 31
0.0
  0
LINE
  5
237
330
1E
100
AcDbEntity
  8
0
100
AcDbLine
 10
619.58
 20
219.91
 30
0.0
 11
621.144
 21
219.8949999999999
 31
0.0
  0
LINE
  5
238
330
1E
100
AcDbEntity
  8
0
100
AcDbLine
 10
619.5339999999999
 20
217.867
 30
0.0
 11
620.943
 21
217.914
 31
0.0
  0
LINE
  5
239
330
1E
100
AcDbEntity
  8
0
100
AcDbLine
 10
619.2709999999999
 20
216.969
 30
0.0
 11
619.2709999999999
 21
215.8549999999999
 31
0.0
  0
LINE
  5
23A
330
1E
100
AcDbEntity
  8
0
100
AcDbLine
 10
619.2709999999999
 20
216.969
 30
0.0
 11
619.844
 21
217.465
 31
0.0
  0
LINE
  5
23B
330
1E
100
AcDbEntity
  8
0
100
AcDbLine
 10
619.2709999999999
 20
215.8549999999999
 30
0.0
 11
621.7019999999999
 21
215.8549999999999
 31
0.0
  0
LINE
  5
23C
330
1E
100
AcDbEntity
  8
0
100
AcDbLine
 10
620.5169999999999
 20
205.8199999999999
 30
0.0
 11
620.9189999999999
 21
206.2529999999999
 31
0.0
  0
LINE
  5
23D
330
1E
100
AcDbEntity
  8
0
100
AcDbLine
 10
619.9329999999999
 20
207.4309999999999
 30
0.0
 11
619.9329999999999
 21
207.594
 31
0.0
  0
LINE
  5
23E
330
1E
100
AcDbEntity
  8
0
100
AcDbLine
 10
619.9329999999999
 20
207.4309999999999
 30
0.0
 11
620.563
 21
207.43
 31
0.0
  0
LINE
  5
23F
330
1E
100
AcDbEntity
  8
0
100
AcDbLine
 10
620.5169999999999
 20
209.453
 30
0.0
 11
620.9189999999999
 21
209.02
 31
0.0
  0
LINE
  5
240
330
1E
100
AcDbEntity
  8
0
100
AcDbLine
 10
619.948
 20
207.7869999999999
 30
0.0
 11
620.563
 21
207.844
 31
0.0
  0
LINE
  5
241
330
1E
100
AcDbEntity
  8
0
100
AcDbLine
 10
619.9329999999999
 20
207.594
 30
0.0
 11
619.948
 21
207.7869999999999
 31
0.0
  0
LINE
  5
242
330
1E
100
AcDbEntity
  8
0
100
AcDbLine
 10
620.563
 20
207.43
 30
0.0
 11
620.981
 21
206.888
 31
0.0
  0
LINE
  5
243
330
1E
100
AcDbEntity
  8
0
100
AcDbLine
 10
620.764
 20
205.449
 30
0.0
 11
621.523
 21
206.176
 31
0.0
  0
LINE
  5
244
330
1E
100
AcDbEntity
  8
0
100
AcDbLine
 10
620.9189999999999
 20
206.2529999999999
 30
0.0
 11
620.981
 21
206.888
 31
0.0
  0
LINE
  5
245
330
1E
100
AcDbEntity
  8
0
100
AcDbLine
 10
620.764
 20
209.8249999999999
 30
0.0
 11
621.523
 21
209.0969999999999
 31
0.0
  0
LINE
  5
246
330
1E
100
AcDbEntity
  8
0
100
AcDbLine
 10
620.9189999999999
 20
209.02
 30
0.0
 11
620.981
 21
208.3849999999999
 31
0.0
  0
LINE
  5
247
330
1E
100
AcDbEntity
  8
0
100
AcDbLine
 10
621.016
 20
207.594
 30
0.0
 11
621.5539999999999
 21
208.2459999999999
 31
0.0
  0
LINE
  5
248
330
1E
100
AcDbEntity
  8
0
100
AcDbLine
 10
621.016
 20
207.594
 30
0.0
 11
621.5539999999999
 21
207.027
 31
0.0
  0
LINE
  5
249
330
1E
100
AcDbEntity
  8
0
100
AcDbLine
 10
620.563
 20
207.844
 30
0.0
 11
620.981
 21
208.3849999999999
 31
0.0
  0
LINE
  5
24A
330
1E
100
AcDbEntity
  8
0
100
AcDbLine
 10
620.7069999999999
 20
199.861
 30
0.0
 11
620.84
 21
195.627
 31
0.0
  0
LINE
  5
24B
330
1E
100
AcDbEntity
  8
0
100
AcDbLine
 10
620.5259999999999
 20
195.639
 30
0.0
 11
620.5379999999999
 21
199.2809999999999
 31
0.0
  0
LINE
  5
24C
330
1E
100
AcDbEntity
  8
0
100
AcDbLine
 10
620.5259999999999
 20
195.639
 30
0.0
 11
620.84
 21
195.627
 31
0.0
  0
LINE
  5
24D
330
1E
100
AcDbEntity
  8
0
100
AcDbLine
 10
619.875
 20
219.523
 30
0.0
 11
620.8969999999999
 21
219.523
 31
0.0
  0
LINE
  5
24E
330
1E
100
AcDbEntity
  8
0
100
AcDbLine
 10
620.8969999999999
 20
219.523
 30
0.0
 11
621.2989999999999
 21
219.09
 31
0.0
  0
LINE
  5
24F
330
1E
100
AcDbEntity
  8
0
100
AcDbLine
 10
620.943
 20
217.914
 30
0.0
 11
621.361
 21
218.455
 31
0.0
  0
LINE
  5
250
330
1E
100
AcDbEntity
  8
0
100
AcDbLine
 10
619.844
 20
217.465
 30
0.0
 11
621.1289999999999
 21
217.511
 31
0.0
  0
LINE
  5
251
330
1E
100
AcDbEntity
  8
0
100
AcDbLine
 10
620.263
 20
225.784
 30
0.0
 11
620.2799999999999
 21
229.415
 31
0.0
  0
LINE
  5
252
330
1E
100
AcDbEntity
  8
0
100
AcDbLine
 10
620.263
 20
225.784
 30
0.0
 11
620.473
 21
225.801
 31
0.0
  0
LINE
  5
253
330
1E
100
AcDbEntity
  8
0
100
AcDbLine
 10
621.0369999999999
 20
225.571
 30
0.0
 11
621.044
 21
225.7929999999999
 31
0.0
  0
LINE
  5
254
330
1E
100
AcDbEntity
  8
0
100
AcDbLine
 10
619.72
 20
225.5549999999999
 30
0.0
 11
621.0369999999999
 21
225.571
 31
0.0
  0
LINE
  5
255
330
1E
100
AcDbEntity
  8
0
100
AcDbLine
 10
619.5249999999999
 20
235.49
 30
0.0
 11
620.418
 21
235.49
 31
0.0
  0
LINE
  5
256
330
1E
100
AcDbEntity
  8
0
100
AcDbLine
 10
620.418
 20
235.49
 30
0.0
 11
621.2609999999999
 21
236.259
 31
0.0
  0
LINE
  5
257
330
1E
100
AcDbEntity
  8
0
100
AcDbLine
 10
620.244
 20
235.937
 30
0.0
 11
620.7399999999999
 21
236.358
 31
0.0
  0
LINE
  5
258
330
1E
100
AcDbEntity
  8
0
100
AcDbLine
 10
619.624
 20
235.912
 30
0.0
 11
620.244
 21
235.937
 31
0.0
  0
LINE
  5
259
330
1E
100
AcDbEntity
  8
0
100
AcDbLine
 10
620.473
 20
229.8179999999999
 30
0.0
 11
620.473
 21
225.801
 31
0.0
  0
LINE
  5
25A
330
1E
100
AcDbEntity
  8
0
100
AcDbLine
 10
619.754
 20
228.9239999999999
 30
0.0
 11
620.2799999999999
 21
229.415
 31
0.0
  0
LINE
  5
25B
330
1E
100
AcDbEntity
  8
0
100
AcDbLine
 10
619.604
 20
229.0729999999999
 30
0.0
 11
620.473
 21
229.8179999999999
 31
0.0
  0
LINE
  5
25C
330
1E
100
AcDbEntity
  8
0
100
AcDbLine
 10
619.604
 20
229.0729999999999
 30
0.0
 11
619.754
 21
228.9239999999999
 31
0.0
  0
LINE
  5
25D
330
1E
100
AcDbEntity
  8
0
100
AcDbLine
 10
619.719
 20
225.7929999999999
 30
0.0
 11
621.044
 21
225.7929999999999
 31
0.0
  0
LINE
  5
25E
330
1E
100
AcDbEntity
  8
0
100
AcDbLine
 10
619.719
 20
225.7929999999999
 30
0.0
 11
619.72
 21
225.5549999999999
 31
0.0
  0
LINE
  5
25F
330
1E
100
AcDbEntity
  8
0
100
AcDbLine
 10
619.1359999999999
 20
189.3609999999999
 30
0.0
 11
619.1499999999999
 21
188.4709999999999
 31
0.0
  0
LINE
  5
260
330
1E
100
AcDbEntity
  8
0
100
AcDbLine
 10
619.1359999999999
 20
189.3609999999999
 30
0.0
 11
621.5539999999999
 21
189.3609999999999
 31
0.0
  0
LINE
  5
261
330
1E
100
AcDbEntity
  8
0
100
AcDbLine
 10
619.1499999999999
 20
188.4709999999999
 30
0.0
 11
621.0790000000001
 21
188.4859999999999
 31
0.0
  0
LINE
  5
262
330
1E
100
AcDbEntity
  8
0
100
AcDbLine
 10
621.144
 20
219.8949999999999
 30
0.0
 11
621.903
 21
219.167
 31
0.0
  0
LINE
  5
263
330
1E
100
AcDbEntity
  8
0
100
AcDbLine
 10
621.1289999999999
 20
217.511
 30
0.0
 11
621.9339999999999
 21
218.3159999999999
 31
0.0
  0
LINE
  5
264
330
1E
100
AcDbEntity
  8
0
100
AcDbLine
 10
621.0790000000001
 20
188.4859999999999
 30
0.0
 11
621.865
 21
187.6559999999999
 31
0.0
  0
LINE
  5
265
330
1E
100
AcDbEntity
  8
0
100
AcDbLine
 10
620.797
 20
187.937
 30
0.0
 11
621.2569999999999
 21
187.4479999999999
 31
0.0
  0
LINE
  5
266
330
1E
100
AcDbEntity
  8
0
100
AcDbLine
 10
621.523
 20
206.176
 30
0.0
 11
621.5539999999999
 21
207.027
 31
0.0
  0
LINE
  5
267
330
1E
100
AcDbEntity
  8
0
100
AcDbLine
 10
621.523
 20
209.0969999999999
 30
0.0
 11
621.5539999999999
 21
208.2459999999999
 31
0.0
  0
LINE
  5
268
330
1E
100
AcDbEntity
  8
0
100
AcDbLine
 10
621.3849999999999
 20
197.1759999999999
 30
0.0
 11
621.4089999999999
 21
196.849
 31
0.0
  0
LINE
  5
269
330
1E
100
AcDbEntity
  8
0
100
AcDbLine
 10
621.2989999999999
 20
219.09
 30
0.0
 11
621.361
 21
218.455
 31
0.0
  0
LINE
  5
26A
330
1E
100
AcDbEntity
  8
0
100
AcDbLine
 10
621.903
 20
219.167
 30
0.0
 11
621.9339999999999
 21
218.3159999999999
 31
0.0
  0
LINE
  5
26B
330
1E
100
AcDbEntity
  8
0
100
AcDbLine
 10
621.7019999999999
 20
215.8549999999999
 30
0.0
 11
621.717
 21
215.5149999999999
 31
0.0
  0
LINE
  5
26C
330
1E
100
AcDbEntity
  8
0
100
AcDbLine
 10
621.5539999999999
 20
189.3609999999999
 30
0.0
 11
621.613
 21
189.835
 31
0.0
  0
LINE
  5
26D
330
1E
100
AcDbEntity
  8
0
100
AcDbLine
 10
621.2569999999999
 20
187.4479999999999
 30
0.0
 11
621.2569999999999
 21
186.292
 31
0.0
  0
LINE
  5
26E
330
1E
100
AcDbEntity
  8
0
100
AcDbLine
 10
619.1209999999999
 20
186.41
 30
0.0
 11
619.6839999999999
 21
185.817
 31
0.0
  0
LINE
  5
26F
330
1E
100
AcDbEntity
  8
0
100
AcDbLine
 10
618.705
 20
186.1139999999999
 30
0.0
 11
619.5059999999999
 21
185.372
 31
0.0
  0
LINE
  5
270
330
1E
100
AcDbEntity
  8
0
100
AcDbLine
 10
618.705
 20
186.1139999999999
 30
0.0
 11
619.1209999999999
 21
186.41
 31
0.0
  0
LINE
  5
271
330
1E
100
AcDbEntity
  8
0
100
AcDbLine
 10
620.7399999999999
 20
236.358
 30
0.0
 11
620.765
 21
238.838
 31
0.0
  0
LINE
  5
272
330
1E
100
AcDbEntity
  8
0
100
AcDbLine
 10
619.103
 20
236.3329999999999
 30
0.0
 11
619.1769999999999
 21
238.986
 31
0.0
  0
LINE
  5
273
330
1E
100
AcDbEntity
  8
0
100
AcDbLine
 10
619.103
 20
236.3329999999999
 30
0.0
 11
619.624
 21
235.912
 31
0.0
  0
LINE
  5
274
330
1E
100
AcDbEntity
  8
0
100
AcDbLine
 10
618.6309999999999
 20
236.309
 30
0.0
 11
618.706
 21
239.0609999999999
 31
0.0
  0
LINE
  5
275
330
1E
100
AcDbEntity
  8
0
100
AcDbLine
 10
618.6309999999999
 20
236.309
 30
0.0
 11
619.5249999999999
 21
235.49
 31
0.0
  0
LINE
  5
276
330
1E
100
AcDbEntity
  8
0
100
AcDbLine
 10
617.518
 20
236.147
 30
0.0
 11
617.5489999999999
 21
236.9979999999999
 31
0.0
  0
LINE
  5
277
330
1E
100
AcDbEntity
  8
0
100
AcDbLine
 10
617.011
 20
237.5649999999999
 30
0.0
 11
617.5489999999999
 21
238.217
 31
0.0
  0
LINE
  5
278
330
1E
100
AcDbEntity
  8
0
100
AcDbLine
 10
617.011
 20
237.5649999999999
 30
0.0
 11
617.5489999999999
 21
236.9979999999999
 31
0.0
  0
LINE
  5
279
330
1E
100
AcDbEntity
  8
0
100
AcDbLine
 10
615.489
 20
239.4239999999999
 30
0.0
 11
616.5109999999999
 21
239.4239999999999
 31
0.0
  0
LINE
  5
27A
330
1E
100
AcDbEntity
  8
0
100
AcDbLine
 10
615.598
 20
249.465
 30
0.0
 11
616.6199999999999
 21
249.465
 31
0.0
  0
LINE
  5
27B
330
1E
100
AcDbEntity
  8
0
100
AcDbLine
 10
615.3039999999999
 20
249.852
 30
0.0
 11
616.8680000000001
 21
249.837
 31
0.0
  0
LINE
  5
27C
330
1E
100
AcDbEntity
  8
0
100
AcDbLine
 10
615.567
 20
247.407
 30
0.0
 11
616.852
 21
247.453
 31
0.0
  0
LINE
  5
27D
330
1E
100
AcDbEntity
  8
0
100
AcDbLine
 10
615.2569999999999
 20
247.809
 30
0.0
 11
616.6659999999999
 21
247.8559999999999
 31
0.0
  0
LINE
  5
27E
330
1E
100
AcDbEntity
  8
0
100
AcDbLine
 10
615.195
 20
239.8109999999999
 30
0.0
 11
616.759
 21
239.7949999999999
 31
0.0
  0
LINE
  5
27F
330
1E
100
AcDbEntity
  8
0
100
AcDbLine
 10
616.6199999999999
 20
249.465
 30
0.0
 11
617.023
 21
249.032
 31
0.0
  0
LINE
  5
280
330
1E
100
AcDbEntity
  8
0
100
AcDbLine
 10
616.6659999999999
 20
247.8559999999999
 30
0.0
 11
617.085
 21
248.397
 31
0.0
  0
LINE
  5
281
330
1E
100
AcDbEntity
  8
0
100
AcDbLine
 10
616.8680000000001
 20
249.837
 30
0.0
 11
617.6269999999999
 21
249.109
 31
0.0
  0
LINE
  5
282
330
1E
100
AcDbEntity
  8
0
100
AcDbLine
 10
616.852
 20
247.453
 30
0.0
 11
617.658
 21
248.258
 31
0.0
  0
LINE
  5
283
330
1E
100
AcDbEntity
  8
0
100
AcDbLine
 10
616.759
 20
239.7949999999999
 30
0.0
 11
617.518
 21
239.0679999999999
 31
0.0
  0
LINE
  5
284
330
1E
100
AcDbEntity
  8
0
100
AcDbLine
 10
616.5109999999999
 20
239.4239999999999
 30
0.0
 11
616.9139999999999
 21
238.99
 31
0.0
  0
LINE
  5
285
330
1E
100
AcDbEntity
  8
0
100
AcDbLine
 10
619.1769999999999
 20
238.986
 30
0.0
 11
619.6979999999999
 21
239.4079999999999
 31
0.0
  0
LINE
  5
286
330
1E
100
AcDbEntity
  8
0
100
AcDbLine
 10
618.706
 20
239.0609999999999
 30
0.0
 11
619.45
 21
239.879
 31
0.0
  0
LINE
  5
287
330
1E
100
AcDbEntity
  8
0
100
AcDbLine
 10
617.4249999999999
 20
245.7969999999999
 30
0.0
 11
617.441
 21
245.4569999999999
 31
0.0
  0
LINE
  5
288
330
1E
100
AcDbEntity
  8
0
100
AcDbLine
 10
618.604
 20
248.154
 30
0.0
 11
619.334
 21
247.3729999999999
 31
0.0
  0
LINE
  5
289
330
1E
100
AcDbEntity
  8
0
100
AcDbLine
 10
619.1119999999999
 20
248.3989999999999
 30
0.0
 11
619.119
 21
248.918
 31
0.0
  0
LINE
  5
28A
330
1E
100
AcDbEntity
  8
0
100
AcDbLine
 10
619.1119999999999
 20
248.3989999999999
 30
0.0
 11
619.579
 21
247.859
 31
0.0
  0
LINE
  5
28B
330
1E
100
AcDbEntity
  8
0
100
AcDbLine
 10
619.119
 20
248.918
 30
0.0
 11
619.6749999999999
 21
249.384
 31
0.0
  0
LINE
  5
28C
330
1E
100
AcDbEntity
  8
0
100
AcDbLine
 10
617.6269999999999
 20
249.109
 30
0.0
 11
617.658
 21
248.258
 31
0.0
  0
LINE
  5
28D
330
1E
100
AcDbEntity
  8
0
100
AcDbLine
 10
617.023
 20
249.032
 30
0.0
 11
617.085
 21
248.397
 31
0.0
  0
LINE
  5
28E
330
1E
100
AcDbEntity
  8
0
100
AcDbLine
 10
618.601
 20
249.014
 30
0.0
 11
619.385
 21
249.8479999999999
 31
0.0
  0
LINE
  5
28F
330
1E
100
AcDbEntity
  8
0
100
AcDbLine
 10
618.601
 20
249.014
 30
0.0
 11
618.604
 21
248.154
 31
0.0
  0
LINE
  5
290
330
1E
100
AcDbEntity
  8
0
100
AcDbLine
 10
619.334
 20
247.3729999999999
 30
0.0
 11
621.249
 21
247.3899999999999
 31
0.0
  0
LINE
  5
291
330
1E
100
AcDbEntity
  8
0
100
AcDbLine
 10
619.385
 20
249.8479999999999
 30
0.0
 11
621.0309999999999
 21
249.8099999999999
 31
0.0
  0
LINE
  5
292
330
1E
100
AcDbEntity
  8
0
100
AcDbLine
 10
619.6979999999999
 20
239.4079999999999
 30
0.0
 11
620.219
 21
239.4079999999999
 31
0.0
  0
LINE
  5
293
330
1E
100
AcDbEntity
  8
0
100
AcDbLine
 10
619.45
 20
239.879
 30
0.0
 11
620.443
 21
239.879
 31
0.0
  0
LINE
  5
294
330
1E
100
AcDbEntity
  8
0
100
AcDbLine
 10
620.219
 20
239.4079999999999
 30
0.0
 11
620.765
 21
238.838
 31
0.0
  0
LINE
  5
295
330
1E
100
AcDbEntity
  8
0
100
AcDbLine
 10
620.443
 20
239.879
 30
0.0
 11
621.2119999999999
 21
239.1109999999999
 31
0.0
  0
LINE
  5
296
330
1E
100
AcDbEntity
  8
0
100
AcDbLine
 10
621.2119999999999
 20
239.1109999999999
 30
0.0
 11
621.2609999999999
 21
236.259
 31
0.0
  0
LINE
  5
297
330
1E
100
AcDbEntity
  8
0
100
AcDbLine
 10
620.315
 20
245.4159999999999
 30
0.0
 11
621.7459999999999
 21
246.8929999999999
 31
0.0
  0
LINE
  5
298
330
1E
100
AcDbEntity
  8
0
100
AcDbLine
 10
619.579
 20
247.859
 30
0.0
 11
621.2699999999999
 21
247.834
 31
0.0
  0
LINE
  5
299
330
1E
100
AcDbEntity
  8
0
100
AcDbLine
 10
619.6749999999999
 20
249.384
 30
0.0
 11
620.7130000000001
 21
249.37
 31
0.0
  0
LINE
  5
29A
330
1E
100
AcDbEntity
  8
0
100
AcDbLine
 10
621.7459999999999
 20
246.8929999999999
 30
0.0
 11
621.7749999999999
 21
248.939
 31
0.0
  0
LINE
  5
29B
330
1E
100
AcDbEntity
  8
0
100
AcDbLine
 10
621.249
 20
247.3899999999999
 30
0.0
 11
621.2699999999999
 21
247.834
 31
0.0
  0
LINE
  5
29C
330
1E
100
AcDbEntity
  8
0
100
AcDbLine
 10
621.0309999999999
 20
249.8099999999999
 30
0.0
 11
621.7749999999999
 21
248.939
 31
0.0
  0
LINE
  5
29D
330
1E
100
AcDbEntity
  8
0
100
AcDbLine
 10
620.7130000000001
 20
249.37
 30
0.0
 11
621.253
 21
248.769
 31
0.0
  0
LINE
  5
29E
330
1E
100
AcDbEntity
  8
0
100
AcDbLine
 10
621.1990000000001
 20
247.02
 30
0.0
 11
621.253
 21
248.769
 31
0.0
  0
LINE
  5
29F
330
1E
100
AcDbEntity
  8
0
100
AcDbLine
 10
620.0249999999999
 20
245.865
 30
0.0
 11
621.1990000000001
 21
247.02
 31
0.0
  0
LINE
  5
2A0
330
1E
100
AcDbEntity
  8
0
100
AcDbLine
 10
619.44
 20
245.428
 30
0.0
 11
620.315
 21
245.4159999999999
 31
0.0
  0
LINE
  5
2A1
330
1E
100
AcDbEntity
  8
0
100
AcDbLine
 10
619.431
 20
245.859
 30
0.0
 11
619.44
 21
245.428
 31
0.0
  0
LINE
  5
2A2
330
1E
100
AcDbEntity
  8
0
100
AcDbLine
 10
619.431
 20
245.859
 30
0.0
 11
620.0249999999999
 21
245.865
 31
0.0
  0
LINE
  5
2A3
330
1E
100
AcDbEntity
  8
0
100
AcDbLine
 10
620.9069999999999
 20
255.4749999999999
 30
0.0
 11
621.6779999999999
 21
256.32
 31
0.0
  0
LINE
  5
2A4
330
1E
100
AcDbEntity
  8
0
100
AcDbLine
 10
619.2599999999999
 20
255.4899999999999
 30
0.0
 11
620.9069999999999
 21
255.4749999999999
 31
0.0
  0
LINE
  5
2A5
330
1E
100
AcDbEntity
  8
0
100
AcDbLine
 10
617.518
 20
239.0679999999999
 30
0.0
 11
617.5489999999999
 21
238.217
 31
0.0
  0
LINE
  5
2A6
330
1E
100
AcDbEntity
  8
0
100
AcDbLine
 10
616.9139999999999
 20
238.99
 30
0.0
 11
616.976
 21
238.356
 31
0.0
  0
LINE
  5
2A7
330
1E
100
AcDbEntity
  8
0
100
AcDbLine
 10
616.557
 20
237.814
 30
0.0
 11
616.976
 21
238.356
 31
0.0
  0
LINE
  5
2A8
330
1E
100
AcDbEntity
  8
0
100
AcDbLine
 10
615.9419999999999
 20
237.7569999999999
 30
0.0
 11
616.557
 21
237.814
 31
0.0
  0
LINE
  5
2A9
330
1E
100
AcDbEntity
  8
0
100
AcDbLine
 10
615.927
 20
237.5649999999999
 30
0.0
 11
615.9419999999999
 21
237.7569999999999
 31
0.0
  0
LINE
  5
2AA
330
1E
100
AcDbEntity
  8
0
100
AcDbLine
 10
614.994
 20
255.797
 30
0.0
 11
617.4249999999999
 21
255.797
 31
0.0
  0
LINE
  5
2AB
330
1E
100
AcDbEntity
  8
0
100
AcDbLine
 10
614.9630000000001
 20
258.877
 30
0.0
 11
615.598
 21
259.4649999999999
 31
0.0
  0
LINE
  5
2AC
330
1E
100
AcDbEntity
  8
0
100
AcDbLine
 10
614.6219999999999
 20
289.1399999999999
 30
0.0
 11
615.3039999999999
 21
289.852
 31
0.0
  0
LINE
  5
2AD
330
1E
100
AcDbEntity
  8
0
100
AcDbLine
 10
614.6219999999999
 20
289.1399999999999
 30
0.0
 11
614.9630000000001
 21
288.877
 31
0.0
  0
LINE
  5
2AE
330
1E
100
AcDbEntity
  8
0
100
AcDbLine
 10
614.6219999999999
 20
299.14
 30
0.0
 11
615.3039999999999
 21
299.852
 31
0.0
  0
LINE
  5
2AF
330
1E
100
AcDbEntity
  8
0
100
AcDbLine
 10
614.6219999999999
 20
299.14
 30
0.0
 11
614.9630000000001
 21
298.877
 31
0.0
  0
LINE
  5
2B0
330
1E
100
AcDbEntity
  8
0
100
AcDbLine
 10
614.6219999999999
 20
279.1399999999999
 30
0.0
 11
615.3039999999999
 21
279.852
 31
0.0
  0
LINE
  5
2B1
330
1E
100
AcDbEntity
  8
0
100
AcDbLine
 10
614.6219999999999
 20
279.1399999999999
 30
0.0
 11
614.9630000000001
 21
278.8769999999999
 31
0.0
  0
LINE
  5
2B2
330
1E
100
AcDbEntity
  8
0
100
AcDbLine
 10
614.9630000000001
 20
288.877
 30
0.0
 11
615.598
 21
289.465
 31
0.0
  0
LINE
  5
2B3
330
1E
100
AcDbEntity
  8
0
100
AcDbLine
 10
614.9630000000001
 20
298.877
 30
0.0
 11
615.598
 21
299.465
 31
0.0
  0
LINE
  5
2B4
330
1E
100
AcDbEntity
  8
0
100
AcDbLine
 10
614.994
 20
286.911
 30
0.0
 11
614.994
 21
285.797
 31
0.0
  0
LINE
  5
2B5
330
1E
100
AcDbEntity
  8
0
100
AcDbLine
 10
614.994
 20
286.911
 30
0.0
 11
615.567
 21
287.4069999999999
 31
0.0
  0
LINE
  5
2B6
330
1E
100
AcDbEntity
  8
0
100
AcDbLine
 10
614.994
 20
285.797
 30
0.0
 11
617.4249999999999
 21
285.797
 31
0.0
  0
LINE
  5
2B7
330
1E
100
AcDbEntity
  8
0
100
AcDbLine
 10
614.994
 20
296.912
 30
0.0
 11
614.994
 21
295.797
 31
0.0
  0
LINE
  5
2B8
330
1E
100
AcDbEntity
  8
0
100
AcDbLine
 10
614.994
 20
296.912
 30
0.0
 11
615.567
 21
297.4069999999999
 31
0.0
  0
LINE
  5
2B9
330
1E
100
AcDbEntity
  8
0
100
AcDbLine
 10
614.994
 20
295.797
 30
0.0
 11
617.4249999999999
 21
295.797
 31
0.0
  0
LINE
  5
2BA
330
1E
100
AcDbEntity
  8
0
100
AcDbLine
 10
614.9630000000001
 20
278.8769999999999
 30
0.0
 11
615.598
 21
279.4649999999999
 31
0.0
  0
LINE
  5
2BB
330
1E
100
AcDbEntity
  8
0
100
AcDbLine
 10
614.994
 20
276.9109999999999
 30
0.0
 11
614.994
 21
275.797
 31
0.0
  0
LINE
  5
2BC
330
1E
100
AcDbEntity
  8
0
100
AcDbLine
 10
614.994
 20
276.9109999999999
 30
0.0
 11
615.567
 21
277.407
 31
0.0
  0
LINE
  5
2BD
330
1E
100
AcDbEntity
  8
0
100
AcDbLine
 10
614.994
 20
275.797
 30
0.0
 11
617.4249999999999
 21
275.797
 31
0.0
  0
LINE
  5
2BE
330
1E
100
AcDbEntity
  8
0
100
AcDbLine
 10
614.9630000000001
 20
268.877
 30
0.0
 11
615.598
 21
269.4649999999999
 31
0.0
  0
LINE
  5
2BF
330
1E
100
AcDbEntity
  8
0
100
AcDbLine
 10
614.6219999999999
 20
269.1399999999999
 30
0.0
 11
615.3039999999999
 21
269.852
 31
0.0
  0
LINE
  5
2C0
330
1E
100
AcDbEntity
  8
0
100
AcDbLine
 10
614.6219999999999
 20
269.1399999999999
 30
0.0
 11
614.9630000000001
 21
268.877
 31
0.0
  0
LINE
  5
2C1
330
1E
100
AcDbEntity
  8
0
100
AcDbLine
 10
614.994
 20
266.9109999999999
 30
0.0
 11
614.994
 21
265.797
 31
0.0
  0
LINE
  5
2C2
330
1E
100
AcDbEntity
  8
0
100
AcDbLine
 10
614.994
 20
266.9109999999999
 30
0.0
 11
615.567
 21
267.4069999999999
 31
0.0
  0
LINE
  5
2C3
330
1E
100
AcDbEntity
  8
0
100
AcDbLine
 10
614.994
 20
265.797
 30
0.0
 11
617.4249999999999
 21
265.797
 31
0.0
  0
LINE
  5
2C4
330
1E
100
AcDbEntity
  8
0
100
AcDbLine
 10
614.6219999999999
 20
259.1399999999999
 30
0.0
 11
615.3039999999999
 21
259.852
 31
0.0
  0
LINE
  5
2C5
330
1E
100
AcDbEntity
  8
0
100
AcDbLine
 10
614.6219999999999
 20
259.1399999999999
 30
0.0
 11
614.9630000000001
 21
258.877
 31
0.0
  0
LINE
  5
2C6
330
1E
100
AcDbEntity
  8
0
100
AcDbLine
 10
620.61
 20
255.934
 30
0.0
 11
621.159
 21
256.4089999999999
 31
0.0
  0
LINE
  5
2C7
330
1E
100
AcDbEntity
  8
0
100
AcDbLine
 10
619.571
 20
255.934
 30
0.0
 11
620.61
 21
255.934
 31
0.0
  0
LINE
  5
2C8
330
1E
100
AcDbEntity
  8
0
100
AcDbLine
 10
619.0299999999999
 20
256.9649999999999
 30
0.0
 11
619.4239999999999
 21
257.4419999999999
 31
0.0
  0
LINE
  5
2C9
330
1E
100
AcDbEntity
  8
0
100
AcDbLine
 10
618.5109999999999
 20
256.9649999999999
 30
0.0
 11
619.071
 21
257.628
 31
0.0
  0
LINE
  5
2CA
330
1E
100
AcDbEntity
  8
0
100
AcDbLine
 10
619.4239999999999
 20
257.4419999999999
 30
0.0
 11
619.4239999999999
 21
257.939
 31
0.0
  0
LINE
  5
2CB
330
1E
100
AcDbEntity
  8
0
100
AcDbLine
 10
619.4239999999999
 20
257.4419999999999
 30
0.0
 11
620.6839999999999
 21
257.4619999999999
 31
0.0
  0
LINE
  5
2CC
330
1E
100
AcDbEntity
  8
0
100
AcDbLine
 10
621.663
 20
257.18
 30
0.0
 11
621.6779999999999
 21
256.32
 31
0.0
  0
LINE
  5
2CD
330
1E
100
AcDbEntity
  8
0
100
AcDbLine
 10
621.159
 20
256.928
 30
0.0
 11
621.159
 21
256.4089999999999
 31
0.0
  0
LINE
  5
2CE
330
1E
100
AcDbEntity
  8
0
100
AcDbLine
 10
619.0219999999999
 20
256.528
 30
0.0
 11
619.0299999999999
 21
256.9649999999999
 31
0.0
  0
LINE
  5
2CF
330
1E
100
AcDbEntity
  8
0
100
AcDbLine
 10
619.0219999999999
 20
256.528
 30
0.0
 11
619.571
 21
255.934
 31
0.0
  0
LINE
  5
2D0
330
1E
100
AcDbEntity
  8
0
100
AcDbLine
 10
618.503
 20
256.35
 30
0.0
 11
618.5109999999999
 21
256.9649999999999
 31
0.0
  0
LINE
  5
2D1
330
1E
100
AcDbEntity
  8
0
100
AcDbLine
 10
618.503
 20
256.35
 30
0.0
 11
619.2599999999999
 21
255.4899999999999
 31
0.0
  0
LINE
  5
2D2
330
1E
100
AcDbEntity
  8
0
100
AcDbLine
 10
619.071
 20
257.628
 30
0.0
 11
619.4239999999999
 21
257.4419999999999
 31
0.0
  0
LINE
  5
2D3
330
1E
100
AcDbEntity
  8
0
100
AcDbLine
 10
619.071
 20
257.628
 30
0.0
 11
619.4239999999999
 21
257.939
 31
0.0
  0
LINE
  5
2D4
330
1E
100
AcDbEntity
  8
0
100
AcDbLine
 10
621.1459999999999
 20
257.67
 30
0.0
 11
621.663
 21
257.18
 31
0.0
  0
LINE
  5
2D5
330
1E
100
AcDbEntity
  8
0
100
AcDbLine
 10
621.1459999999999
 20
257.67
 30
0.0
 11
621.663
 21
258.2009999999999
 31
0.0
  0
LINE
  5
2D6
330
1E
100
AcDbEntity
  8
0
100
AcDbLine
 10
620.6839999999999
 20
257.4619999999999
 30
0.0
 11
621.159
 21
256.928
 31
0.0
  0
LINE
  5
2D7
330
1E
100
AcDbEntity
  8
0
100
AcDbLine
 10
620.6839999999999
 20
257.4619999999999
 30
0.0
 11
621.1459999999999
 21
257.67
 31
0.0
  0
LINE
  5
2D8
330
1E
100
AcDbEntity
  8
0
100
AcDbLine
 10
616.852
 20
257.4529999999999
 30
0.0
 11
617.658
 21
258.2579999999999
 31
0.0
  0
LINE
  5
2D9
330
1E
100
AcDbEntity
  8
0
100
AcDbLine
 10
615.567
 20
257.4069999999999
 30
0.0
 11
616.852
 21
257.4529999999999
 31
0.0
  0
LINE
  5
2DA
330
1E
100
AcDbEntity
  8
0
100
AcDbLine
 10
615.598
 20
259.4649999999999
 30
0.0
 11
616.6199999999999
 21
259.4649999999999
 31
0.0
  0
LINE
  5
2DB
330
1E
100
AcDbEntity
  8
0
100
AcDbLine
 10
615.3039999999999
 20
289.852
 30
0.0
 11
616.8680000000001
 21
289.8369999999999
 31
0.0
  0
LINE
  5
2DC
330
1E
100
AcDbEntity
  8
0
100
AcDbLine
 10
615.2569999999999
 20
287.809
 30
0.0
 11
616.6659999999999
 21
287.8559999999999
 31
0.0
  0
LINE
  5
2DD
330
1E
100
AcDbEntity
  8
0
100
AcDbLine
 10
615.3039999999999
 20
299.852
 30
0.0
 11
616.8680000000001
 21
299.8369999999999
 31
0.0
  0
LINE
  5
2DE
330
1E
100
AcDbEntity
  8
0
100
AcDbLine
 10
615.2569999999999
 20
297.809
 30
0.0
 11
616.6659999999999
 21
297.8559999999999
 31
0.0
  0
LINE
  5
2DF
330
1E
100
AcDbEntity
  8
0
100
AcDbLine
 10
615.3039999999999
 20
279.852
 30
0.0
 11
616.8680000000001
 21
279.8369999999999
 31
0.0
  0
LINE
  5
2E0
330
1E
100
AcDbEntity
  8
0
100
AcDbLine
 10
615.2569999999999
 20
277.809
 30
0.0
 11
616.6659999999999
 21
277.856
 31
0.0
  0
LINE
  5
2E1
330
1E
100
AcDbEntity
  8
0
100
AcDbLine
 10
615.3039999999999
 20
269.852
 30
0.0
 11
616.8680000000001
 21
269.837
 31
0.0
  0
LINE
  5
2E2
330
1E
100
AcDbEntity
  8
0
100
AcDbLine
 10
615.2569999999999
 20
267.809
 30
0.0
 11
616.6659999999999
 21
267.856
 31
0.0
  0
LINE
  5
2E3
330
1E
100
AcDbEntity
  8
0
100
AcDbLine
 10
615.598
 20
269.4649999999999
 30
0.0
 11
616.6199999999999
 21
269.4649999999999
 31
0.0
  0
LINE
  5
2E4
330
1E
100
AcDbEntity
  8
0
100
AcDbLine
 10
615.567
 20
287.4069999999999
 30
0.0
 11
616.852
 21
287.4529999999999
 31
0.0
  0
LINE
  5
2E5
330
1E
100
AcDbEntity
  8
0
100
AcDbLine
 10
615.567
 20
297.4069999999999
 30
0.0
 11
616.852
 21
297.4529999999999
 31
0.0
  0
LINE
  5
2E6
330
1E
100
AcDbEntity
  8
0
100
AcDbLine
 10
615.598
 20
289.465
 30
0.0
 11
616.6199999999999
 21
289.465
 31
0.0
  0
LINE
  5
2E7
330
1E
100
AcDbEntity
  8
0
100
AcDbLine
 10
616.6199999999999
 20
289.465
 30
0.0
 11
617.023
 21
289.032
 31
0.0
  0
LINE
  5
2E8
330
1E
100
AcDbEntity
  8
0
100
AcDbLine
 10
615.598
 20
299.465
 30
0.0
 11
616.6199999999999
 21
299.465
 31
0.0
  0
LINE
  5
2E9
330
1E
100
AcDbEntity
  8
0
100
AcDbLine
 10
616.6199999999999
 20
299.465
 30
0.0
 11
617.023
 21
299.032
 31
0.0
  0
LINE
  5
2EA
330
1E
100
AcDbEntity
  8
0
100
AcDbLine
 10
615.598
 20
279.4649999999999
 30
0.0
 11
616.6199999999999
 21
279.4649999999999
 31
0.0
  0
LINE
  5
2EB
330
1E
100
AcDbEntity
  8
0
100
AcDbLine
 10
616.6659999999999
 20
287.8559999999999
 30
0.0
 11
617.085
 21
288.397
 31
0.0
  0
LINE
  5
2EC
330
1E
100
AcDbEntity
  8
0
100
AcDbLine
 10
616.6659999999999
 20
297.8559999999999
 30
0.0
 11
617.085
 21
298.3969999999999
 31
0.0
  0
LINE
  5
2ED
330
1E
100
AcDbEntity
  8
0
100
AcDbLine
 10
616.6199999999999
 20
279.4649999999999
 30
0.0
 11
617.023
 21
279.0319999999999
 31
0.0
  0
LINE
  5
2EE
330
1E
100
AcDbEntity
  8
0
100
AcDbLine
 10
616.6659999999999
 20
277.856
 30
0.0
 11
617.085
 21
278.397
 31
0.0
  0
LINE
  5
2EF
330
1E
100
AcDbEntity
  8
0
100
AcDbLine
 10
615.567
 20
277.407
 30
0.0
 11
616.852
 21
277.4529999999999
 31
0.0
  0
LINE
  5
2F0
330
1E
100
AcDbEntity
  8
0
100
AcDbLine
 10
616.6199999999999
 20
269.4649999999999
 30
0.0
 11
617.023
 21
269.0319999999999
 31
0.0
  0
LINE
  5
2F1
330
1E
100
AcDbEntity
  8
0
100
AcDbLine
 10
616.6659999999999
 20
267.856
 30
0.0
 11
617.085
 21
268.3969999999999
 31
0.0
  0
LINE
  5
2F2
330
1E
100
AcDbEntity
  8
0
100
AcDbLine
 10
615.567
 20
267.4069999999999
 30
0.0
 11
616.852
 21
267.4529999999999
 31
0.0
  0
LINE
  5
2F3
330
1E
100
AcDbEntity
  8
0
100
AcDbLine
 10
615.3039999999999
 20
259.852
 30
0.0
 11
616.8680000000001
 21
259.837
 31
0.0
  0
LINE
  5
2F4
330
1E
100
AcDbEntity
  8
0
100
AcDbLine
 10
616.6199999999999
 20
259.4649999999999
 30
0.0
 11
617.023
 21
259.0319999999999
 31
0.0
  0
LINE
  5
2F5
330
1E
100
AcDbEntity
  8
0
100
AcDbLine
 10
619.0299999999999
 20
258.416
 30
0.0
 11
619.4239999999999
 21
257.939
 31
0.0
  0
LINE
  5
2F6
330
1E
100
AcDbEntity
  8
0
100
AcDbLine
 10
618.574
 20
258.312
 30
0.0
 11
619.071
 21
257.628
 31
0.0
  0
LINE
  5
2F7
330
1E
100
AcDbEntity
  8
0
100
AcDbLine
 10
619.4239999999999
 20
257.939
 30
0.0
 11
620.6839999999999
 21
257.919
 31
0.0
  0
LINE
  5
2F8
330
1E
100
AcDbEntity
  8
0
100
AcDbLine
 10
620.6839999999999
 20
257.919
 30
0.0
 11
621.159
 21
258.4529999999999
 31
0.0
  0
LINE
  5
2F9
330
1E
100
AcDbEntity
  8
0
100
AcDbLine
 10
620.6839999999999
 20
257.919
 30
0.0
 11
621.1459999999999
 21
257.67
 31
0.0
  0
LINE
  5
2FA
330
1E
100
AcDbEntity
  8
0
100
AcDbLine
 10
620.6839999999999
 20
257.919
 30
0.0
 11
620.6839999999999
 21
257.4619999999999
 31
0.0
  0
LINE
  5
2FB
330
1E
100
AcDbEntity
  8
0
100
AcDbLine
 10
621.663
 20
258.2009999999999
 30
0.0
 11
621.6779999999999
 21
259.0609999999999
 31
0.0
  0
LINE
  5
2FC
330
1E
100
AcDbEntity
  8
0
100
AcDbLine
 10
621.159
 20
258.4529999999999
 30
0.0
 11
621.159
 21
258.9719999999999
 31
0.0
  0
LINE
  5
2FD
330
1E
100
AcDbEntity
  8
0
100
AcDbLine
 10
619.0219999999999
 20
258.8529999999999
 30
0.0
 11
619.0299999999999
 21
258.416
 31
0.0
  0
LINE
  5
2FE
330
1E
100
AcDbEntity
  8
0
100
AcDbLine
 10
619.0219999999999
 20
258.8529999999999
 30
0.0
 11
619.571
 21
259.4459999999999
 31
0.0
  0
LINE
  5
2FF
330
1E
100
AcDbEntity
  8
0
100
AcDbLine
 10
618.503
 20
259.031
 30
0.0
 11
618.574
 21
258.312
 31
0.0
  0
LINE
  5
300
330
1E
100
AcDbEntity
  8
0
100
AcDbLine
 10
618.503
 20
259.031
 30
0.0
 11
619.2599999999999
 21
259.8909999999999
 31
0.0
  0
LINE
  5
301
330
1E
100
AcDbEntity
  8
0
100
AcDbLine
 10
616.852
 20
287.4529999999999
 30
0.0
 11
617.658
 21
288.2579999999999
 31
0.0
  0
LINE
  5
302
330
1E
100
AcDbEntity
  8
0
100
AcDbLine
 10
616.852
 20
297.4529999999999
 30
0.0
 11
617.658
 21
298.258
 31
0.0
  0
LINE
  5
303
330
1E
100
AcDbEntity
  8
0
100
AcDbLine
 10
616.8680000000001
 20
289.8369999999999
 30
0.0
 11
617.6269999999999
 21
289.109
 31
0.0
  0
LINE
  5
304
330
1E
100
AcDbEntity
  8
0
100
AcDbLine
 10
616.8680000000001
 20
299.8369999999999
 30
0.0
 11
617.6269999999999
 21
299.109
 31
0.0
  0
LINE
  5
305
330
1E
100
AcDbEntity
  8
0
100
AcDbLine
 10
617.023
 20
289.032
 30
0.0
 11
617.085
 21
288.397
 31
0.0
  0
LINE
  5
306
330
1E
100
AcDbEntity
  8
0
100
AcDbLine
 10
617.023
 20
299.032
 30
0.0
 11
617.085
 21
298.3969999999999
 31
0.0
  0
LINE
  5
307
330
1E
100
AcDbEntity
  8
0
100
AcDbLine
 10
616.8680000000001
 20
279.8369999999999
 30
0.0
 11
617.6269999999999
 21
279.109
 31
0.0
  0
LINE
  5
308
330
1E
100
AcDbEntity
  8
0
100
AcDbLine
 10
617.023
 20
279.0319999999999
 30
0.0
 11
617.085
 21
278.397
 31
0.0
  0
LINE
  5
309
330
1E
100
AcDbEntity
  8
0
100
AcDbLine
 10
616.852
 20
277.4529999999999
 30
0.0
 11
617.658
 21
278.2579999999999
 31
0.0
  0
LINE
  5
30A
330
1E
100
AcDbEntity
  8
0
100
AcDbLine
 10
616.8680000000001
 20
269.837
 30
0.0
 11
617.6269999999999
 21
269.109
 31
0.0
  0
LINE
  5
30B
330
1E
100
AcDbEntity
  8
0
100
AcDbLine
 10
617.4249999999999
 20
285.797
 30
0.0
 11
617.441
 21
285.4569999999999
 31
0.0
  0
LINE
  5
30C
330
1E
100
AcDbEntity
  8
0
100
AcDbLine
 10
617.4249999999999
 20
295.797
 30
0.0
 11
617.441
 21
295.457
 31
0.0
  0
LINE
  5
30D
330
1E
100
AcDbEntity
  8
0
100
AcDbLine
 10
617.4249999999999
 20
275.797
 30
0.0
 11
617.441
 21
275.457
 31
0.0
  0
LINE
  5
30E
330
1E
100
AcDbEntity
  8
0
100
AcDbLine
 10
617.023
 20
269.0319999999999
 30
0.0
 11
617.085
 21
268.3969999999999
 31
0.0
  0
LINE
  5
30F
330
1E
100
AcDbEntity
  8
0
100
AcDbLine
 10
616.852
 20
267.4529999999999
 30
0.0
 11
617.658
 21
268.2579999999999
 31
0.0
  0
LINE
  5
310
330
1E
100
AcDbEntity
  8
0
100
AcDbLine
 10
617.6269999999999
 20
289.109
 30
0.0
 11
617.658
 21
288.2579999999999
 31
0.0
  0
LINE
  5
311
330
1E
100
AcDbEntity
  8
0
100
AcDbLine
 10
617.6269999999999
 20
299.109
 30
0.0
 11
617.658
 21
298.258
 31
0.0
  0
LINE
  5
312
330
1E
100
AcDbEntity
  8
0
100
AcDbLine
 10
617.6269999999999
 20
279.109
 30
0.0
 11
617.658
 21
278.2579999999999
 31
0.0
  0
LINE
  5
313
330
1E
100
AcDbEntity
  8
0
100
AcDbLine
 10
617.6269999999999
 20
269.109
 30
0.0
 11
617.658
 21
268.2579999999999
 31
0.0
  0
LINE
  5
314
330
1E
100
AcDbEntity
  8
0
100
AcDbLine
 10
617.4249999999999
 20
265.797
 30
0.0
 11
617.441
 21
265.457
 31
0.0
  0
LINE
  5
315
330
1E
100
AcDbEntity
  8
0
100
AcDbLine
 10
616.8680000000001
 20
259.837
 30
0.0
 11
617.6269999999999
 21
259.109
 31
0.0
  0
LINE
  5
316
330
1E
100
AcDbEntity
  8
0
100
AcDbLine
 10
620.61
 20
259.4459999999999
 30
0.0
 11
621.159
 21
258.9719999999999
 31
0.0
  0
LINE
  5
317
330
1E
100
AcDbEntity
  8
0
100
AcDbLine
 10
619.571
 20
259.4459999999999
 30
0.0
 11
620.61
 21
259.4459999999999
 31
0.0
  0
LINE
  5
318
330
1E
100
AcDbEntity
  8
0
100
AcDbLine
 10
620.143
 20
265.483
 30
0.0
 11
622.19
 21
269.8269999999999
 31
0.0
  0
LINE
  5
319
330
1E
100
AcDbEntity
  8
0
100
AcDbLine
 10
619.579
 20
265.483
 30
0.0
 11
620.143
 21
265.483
 31
0.0
  0
LINE
  5
31A
330
1E
100
AcDbEntity
  8
0
100
AcDbLine
 10
619.579
 20
265.483
 30
0.0
 11
621.374
 21
269.3529999999999
 31
0.0
  0
LINE
  5
31B
330
1E
100
AcDbEntity
  8
0
100
AcDbLine
 10
618.698
 20
276.3149999999999
 30
0.0
 11
619.455
 21
275.455
 31
0.0
  0
LINE
  5
31C
330
1E
100
AcDbEntity
  8
0
100
AcDbLine
 10
618.698
 20
278.3609999999999
 30
0.0
 11
620.1080000000001
 21
279.859
 31
0.0
  0
LINE
  5
31D
330
1E
100
AcDbEntity
  8
0
100
AcDbLine
 10
618.698
 20
278.3609999999999
 30
0.0
 11
618.698
 21
276.3149999999999
 31
0.0
  0
LINE
  5
31E
330
1E
100
AcDbEntity
  8
0
100
AcDbLine
 10
618.431
 20
296.91
 30
0.0
 11
620.7069999999999
 21
299.8609999999999
 31
0.0
  0
LINE
  5
31F
330
1E
100
AcDbEntity
  8
0
100
AcDbLine
 10
618.431
 20
296.91
 30
0.0
 11
621.4089999999999
 21
296.849
 31
0.0
  0
LINE
  5
320
330
1E
100
AcDbEntity
  8
0
100
AcDbLine
 10
619.0489999999999
 20
297.1759999999999
 30
0.0
 11
620.5379999999999
 21
299.281
 31
0.0
  0
LINE
  5
321
330
1E
100
AcDbEntity
  8
0
100
AcDbLine
 10
619.0489999999999
 20
297.1759999999999
 30
0.0
 11
621.3849999999999
 21
297.1759999999999
 31
0.0
  0
LINE
  5
322
330
1E
100
AcDbEntity
  8
0
100
AcDbLine
 10
618.601
 20
289.8349999999999
 30
0.0
 11
618.69
 21
287.9669999999999
 31
0.0
  0
LINE
  5
323
330
1E
100
AcDbEntity
  8
0
100
AcDbLine
 10
618.601
 20
289.8349999999999
 30
0.0
 11
621.613
 21
289.8349999999999
 31
0.0
  0
LINE
  5
324
330
1E
100
AcDbEntity
  8
0
100
AcDbLine
 10
618.69
 20
287.9669999999999
 30
0.0
 11
620.797
 21
287.937
 31
0.0
  0
LINE
  5
325
330
1E
100
AcDbEntity
  8
0
100
AcDbLine
 10
619.1359999999999
 20
289.3609999999999
 30
0.0
 11
619.1499999999999
 21
288.471
 31
0.0
  0
LINE
  5
326
330
1E
100
AcDbEntity
  8
0
100
AcDbLine
 10
619.1359999999999
 20
289.3609999999999
 30
0.0
 11
621.5539999999999
 21
289.3609999999999
 31
0.0
  0
LINE
  5
327
330
1E
100
AcDbEntity
  8
0
100
AcDbLine
 10
619.1499999999999
 20
288.471
 30
0.0
 11
621.0790000000001
 21
288.4859999999999
 31
0.0
  0
LINE
  5
328
330
1E
100
AcDbEntity
  8
0
100
AcDbLine
 10
619.1209999999999
 20
286.41
 30
0.0
 11
619.6839999999999
 21
285.817
 31
0.0
  0
LINE
  5
329
330
1E
100
AcDbEntity
  8
0
100
AcDbLine
 10
618.705
 20
286.114
 30
0.0
 11
619.5059999999999
 21
285.372
 31
0.0
  0
LINE
  5
32A
330
1E
100
AcDbEntity
  8
0
100
AcDbLine
 10
618.705
 20
286.114
 30
0.0
 11
619.1209999999999
 21
286.41
 31
0.0
  0
LINE
  5
32B
330
1E
100
AcDbEntity
  8
0
100
AcDbLine
 10
619.2029999999999
 20
277.872
 30
0.0
 11
621.117
 21
277.916
 31
0.0
  0
LINE
  5
32C
330
1E
100
AcDbEntity
  8
0
100
AcDbLine
 10
619.188
 20
277.427
 30
0.0
 11
620.879
 21
277.427
 31
0.0
  0
LINE
  5
32D
330
1E
100
AcDbEntity
  8
0
100
AcDbLine
 10
619.188
 20
277.427
 30
0.0
 11
619.2029999999999
 21
277.872
 31
0.0
  0
LINE
  5
32E
330
1E
100
AcDbEntity
  8
0
100
AcDbLine
 10
619.7659999999999
 20
275.8999999999999
 30
0.0
 11
620.805
 21
275.8999999999999
 31
0.0
  0
LINE
  5
32F
330
1E
100
AcDbEntity
  8
0
100
AcDbLine
 10
619.455
 20
275.455
 30
0.0
 11
621.1019999999999
 21
275.4399999999999
 31
0.0
  0
LINE
  5
330
330
1E
100
AcDbEntity
  8
0
100
AcDbLine
 10
619.218
 20
276.493
 30
0.0
 11
619.247
 21
278.242
 31
0.0
  0
LINE
  5
331
330
1E
100
AcDbEntity
  8
0
100
AcDbLine
 10
619.218
 20
276.493
 30
0.0
 11
619.7659999999999
 21
275.8999999999999
 31
0.0
  0
LINE
  5
332
330
1E
100
AcDbEntity
  8
0
100
AcDbLine
 10
619.247
 20
278.242
 30
0.0
 11
620.4039999999999
 21
279.414
 31
0.0
  0
LINE
  5
333
330
1E
100
AcDbEntity
  8
0
100
AcDbLine
 10
620.879
 20
277.427
 30
0.0
 11
621.354
 21
276.8929999999999
 31
0.0
  0
LINE
  5
334
330
1E
100
AcDbEntity
  8
0
100
AcDbLine
 10
620.805
 20
275.8999999999999
 30
0.0
 11
621.354
 21
276.374
 31
0.0
  0
LINE
  5
335
330
1E
100
AcDbEntity
  8
0
100
AcDbLine
 10
620.4039999999999
 20
279.414
 30
0.0
 11
620.998
 21
279.429
 31
0.0
  0
LINE
  5
336
330
1E
100
AcDbEntity
  8
0
100
AcDbLine
 10
620.1080000000001
 20
279.859
 30
0.0
 11
620.9830000000001
 21
279.859
 31
0.0
  0
LINE
  5
337
330
1E
100
AcDbEntity
  8
0
100
AcDbLine
 10
620.7069999999999
 20
299.8609999999999
 30
0.0
 11
620.84
 21
295.6269999999999
 31
0.0
  0
LINE
  5
338
330
1E
100
AcDbEntity
  8
0
100
AcDbLine
 10
620.5259999999999
 20
295.639
 30
0.0
 11
620.5379999999999
 21
299.281
 31
0.0
  0
LINE
  5
339
330
1E
100
AcDbEntity
  8
0
100
AcDbLine
 10
620.5259999999999
 20
295.639
 30
0.0
 11
620.84
 21
295.6269999999999
 31
0.0
  0
LINE
  5
33A
330
1E
100
AcDbEntity
  8
0
100
AcDbLine
 10
620.797
 20
287.937
 30
0.0
 11
621.2569999999999
 21
287.4479999999999
 31
0.0
  0
LINE
  5
33B
330
1E
100
AcDbEntity
  8
0
100
AcDbLine
 10
620.812
 20
285.817
 30
0.0
 11
621.2569999999999
 21
286.292
 31
0.0
  0
LINE
  5
33C
330
1E
100
AcDbEntity
  8
0
100
AcDbLine
 10
619.6839999999999
 20
285.817
 30
0.0
 11
620.812
 21
285.817
 31
0.0
  0
LINE
  5
33D
330
1E
100
AcDbEntity
  8
0
100
AcDbLine
 10
619.5059999999999
 20
285.372
 30
0.0
 11
621.0790000000001
 21
285.343
 31
0.0
  0
LINE
  5
33E
330
1E
100
AcDbEntity
  8
0
100
AcDbLine
 10
619.179
 20
269.7679999999999
 30
0.0
 11
622.19
 21
269.8269999999999
 31
0.0
  0
LINE
  5
33F
330
1E
100
AcDbEntity
  8
0
100
AcDbLine
 10
619.1639999999999
 20
269.3379999999999
 30
0.0
 11
621.374
 21
269.3529999999999
 31
0.0
  0
LINE
  5
340
330
1E
100
AcDbEntity
  8
0
100
AcDbLine
 10
619.1639999999999
 20
269.3379999999999
 30
0.0
 11
619.179
 21
269.7679999999999
 31
0.0
  0
LINE
  5
341
330
1E
100
AcDbEntity
  8
0
100
AcDbLine
 10
621.117
 20
277.916
 30
0.0
 11
621.8580000000001
 21
277.1449999999999
 31
0.0
  0
LINE
  5
342
330
1E
100
AcDbEntity
  8
0
100
AcDbLine
 10
621.8580000000001
 20
277.1449999999999
 30
0.0
 11
621.873
 21
276.285
 31
0.0
  0
LINE
  5
343
330
1E
100
AcDbEntity
  8
0
100
AcDbLine
 10
621.354
 20
276.8929999999999
 30
0.0
 11
621.354
 21
276.374
 31
0.0
  0
LINE
  5
344
330
1E
100
AcDbEntity
  8
0
100
AcDbLine
 10
621.1019999999999
 20
275.4399999999999
 30
0.0
 11
621.873
 21
276.285
 31
0.0
  0
LINE
  5
345
330
1E
100
AcDbEntity
  8
0
100
AcDbLine
 10
620.9830000000001
 20
279.859
 30
0.0
 11
620.998
 21
279.429
 31
0.0
  0
LINE
  5
346
330
1E
100
AcDbEntity
  8
0
100
AcDbLine
 10
621.0790000000001
 20
288.4859999999999
 30
0.0
 11
621.865
 21
287.6559999999999
 31
0.0
  0
LINE
  5
347
330
1E
100
AcDbEntity
  8
0
100
AcDbLine
 10
621.3849999999999
 20
297.1759999999999
 30
0.0
 11
621.4089999999999
 21
296.849
 31
0.0
  0
LINE
  5
348
330
1E
100
AcDbEntity
  8
0
100
AcDbLine
 10
621.5539999999999
 20
289.3609999999999
 30
0.0
 11
621.613
 21
289.8349999999999
 31
0.0
  0
LINE
  5
349
330
1E
100
AcDbEntity
  8
0
100
AcDbLine
 10
621.865
 20
286.173
 30
0.0
 11
621.865
 21
287.6559999999999
 31
0.0
  0
LINE
  5
34A
330
1E
100
AcDbEntity
  8
0
100
AcDbLine
 10
621.2569999999999
 20
287.4479999999999
 30
0.0
 11
621.2569999999999
 21
286.292
 31
0.0
  0
LINE
  5
34B
330
1E
100
AcDbEntity
  8
0
100
AcDbLine
 10
621.0790000000001
 20
285.343
 30
0.0
 11
621.865
 21
286.173
 31
0.0
  0
LINE
  5
34C
330
1E
100
AcDbEntity
  8
0
100
AcDbLine
 10
620.9069999999999
 20
259.906
 30
0.0
 11
621.6779999999999
 21
259.0609999999999
 31
0.0
  0
LINE
  5
34D
330
1E
100
AcDbEntity
  8
0
100
AcDbLine
 10
619.2599999999999
 20
259.8909999999999
 30
0.0
 11
620.9069999999999
 21
259.906
 31
0.0
  0
LINE
  5
34E
330
1E
100
AcDbEntity
  8
0
100
AcDbLine
 10
617.6269999999999
 20
259.109
 30
0.0
 11
617.658
 21
258.2579999999999
 31
0.0
  0
LINE
  5
34F
330
1E
100
AcDbEntity
  8
0
100
AcDbLine
 10
617.023
 20
259.0319999999999
 30
0.0
 11
617.085
 21
258.3969999999999
 31
0.0
  0
LINE
  5
350
330
1E
100
AcDbEntity
  8
0
100
AcDbLine
 10
616.6659999999999
 20
257.8559999999999
 30
0.0
 11
617.085
 21
258.3969999999999
 31
0.0
  0
LINE
  5
351
330
1E
100
AcDbEntity
  8
0
100
AcDbLine
 10
615.2569999999999
 20
257.809
 30
0.0
 11
616.6659999999999
 21
257.8559999999999
 31
0.0
  0
LINE
  5
352
330
1E
100
AcDbEntity
  8
0
100
AcDbLine
 10
614.994
 20
256.911
 30
0.0
 11
614.994
 21
255.797
 31
0.0
  0
LINE
  5
353
330
1E
100
AcDbEntity
  8
0
100
AcDbLine
 10
614.994
 20
256.911
 30
0.0
 11
615.567
 21
257.4069999999999
 31
0.0
  0
LINE
  5
354
330
1E
100
AcDbEntity
  8
0
100
AcDbLine
 10
617.4249999999999
 20
255.797
 30
0.0
 11
617.441
 21
255.457
 31
0.0
  0
LINE
  5
355
330
1E
100
AcDbEntity
  8
0
100
AcDbLine
 10
614.5599999999999
 20
255.457
 30
0.0
 11
617.441
 21
255.457
 31
0.0
  0
LINE
  5
356
330
1E
100
AcDbEntity
  8
0
100
AcDbLine
 10
657.353
 20
145.1419999999999
 30
0.0
 11
659.6829999999999
 21
150.912
 31
0.0
  0
LINE
  5
357
330
1E
100
AcDbEntity
  8
0
100
AcDbLine
 10
664.78
 20
208.6409999999999
 30
0.0
 11
666.0
 21
260.392
 31
0.0
  0
LINE
  5
358
330
1E
100
AcDbEntity
  8
0
100
AcDbLine
 10
660.8889999999998
 20
157.017
 30
0.0
 11
664.78
 21
208.6409999999999
 31
0.0
  0
LINE
  5
359
330
1E
100
AcDbEntity
  8
0
100
AcDbLine
 10
664.557
 20
312.1409999999999
 30
0.0
 11
666.0
 21
260.392
 31
0.0
  0
LINE
  5
35A
330
1E
100
AcDbEntity
  8
0
100
AcDbLine
 10
659.6829999999999
 20
150.912
 30
0.0
 11
660.8889999999998
 21
157.017
 31
0.0
  0
LINE
  5
35B
330
1E
100
AcDbEntity
  8
0
100
AcDbLine
 10
638.5459999999999
 20
129.027
 30
0.0
 11
646.1319999999999
 21
132.709
 31
0.0
  0
LINE
  5
360
330
1E
100
AcDbEntity
  8
0
100
AcDbLine
 10
14.911
 20
385.327
 30
0.0
 11
19.268
 21
391.7569999999999
 31
0.0
  0
LINE
  5
361
330
1E
100
AcDbEntity
  8
0
100
AcDbLine
 10
10.92999999999999
 20
376.717
 30
0.0
 11
14.911
 21
385.327
 31
0.0
  0
LINE
  5
366
330
1E
100
AcDbEntity
  8
0
100
AcDbLine
 10
293.5
 20
388.0
 30
0.0
 11
293.5
 21
428.0
 31
0.0
  0
LINE
  5
367
330
1E
100
AcDbEntity
  8
0
100
AcDbLine
 10
292.5
 20
388.0
 30
0.0
 11
293.5
 21
388.0
 31
0.0
  0
LINE
  5
368
330
1E
100
AcDbEntity
  8
0
100
AcDbLine
 10
283.4999999999999
 20
388.0
 30
0.0
 11
283.4999999999999
 21
428.0
 31
0.0
  0
LINE
  5
369
330
1E
100
AcDbEntity
  8
0
100
AcDbLine
 10
282.5
 20
388.0
 30
0.0
 11
283.4999999999999
 21
388.0
 31
0.0
  0
LINE
  5
36A
330
1E
100
AcDbEntity
  8
0
100
AcDbLine
 10
273.4999999999999
 20
388.0
 30
0.0
 11
273.4999999999999
 21
428.0
 31
0.0
  0
LINE
  5
36B
330
1E
100
AcDbEntity
  8
0
100
AcDbLine
 10
272.5
 20
388.0
 30
0.0
 11
273.4999999999999
 21
388.0
 31
0.0
  0
LINE
  5
370
330
1E
100
AcDbEntity
  8
0
100
AcDbLine
 10
28.91199999999999
 20
401.175
 30
0.0
 11
33.668
 21
404.38
 31
0.0
  0
LINE
  5
371
330
1E
100
AcDbEntity
  8
0
100
AcDbLine
 10
24.52199999999999
 20
397.476
 30
0.0
 11
28.91199999999999
 21
401.175
 31
0.0
  0
LINE
  5
372
330
1E
100
AcDbEntity
  8
0
100
AcDbLine
 10
33.668
 20
404.38
 30
0.0
 11
38.74499999999999
 21
407.049
 31
0.0
  0
LINE
  5
373
330
1E
100
AcDbEntity
  8
0
100
AcDbLine
 10
44.08399999999999
 20
409.159
 30
0.0
 11
49.613
 21
410.6749999999999
 31
0.0
  0
LINE
  5
374
330
1E
100
AcDbEntity
  8
0
100
AcDbLine
 10
49.613
 20
410.6749999999999
 30
0.0
 11
55.278
 21
411.582
 31
0.0
  0
LINE
  5
375
330
1E
100
AcDbEntity
  8
0
100
AcDbLine
 10
38.74499999999999
 20
407.049
 30
0.0
 11
44.08399999999999
 21
409.159
 31
0.0
  0
LINE
  5
376
330
1E
100
AcDbEntity
  8
0
100
AcDbLine
 10
64.847
 20
412.088
 30
0.0
 11
97.59100000000001
 21
413.349
 31
0.0
  0
LINE
  5
377
330
1E
100
AcDbEntity
  8
0
100
AcDbLine
 10
97.59100000000001
 20
413.349
 30
0.0
 11
168.733
 21
415.3389999999999
 31
0.0
  0
LINE
  5
378
330
1E
100
AcDbEntity
  8
0
100
AcDbLine
 10
259.904
 20
406.165
 30
0.0
 11
260.3329999999999
 21
406.1659999999999
 31
0.0
  0
LINE
  5
379
330
1E
100
AcDbEntity
  8
0
100
AcDbLine
 10
257.162
 20
407.462
 30
0.0
 11
259.507
 21
407.462
 31
0.0
  0
LINE
  5
37A
330
1E
100
AcDbEntity
  8
0
100
AcDbLine
 10
257.162
 20
407.462
 30
0.0
 11
257.25
 21
407.883
 31
0.0
  0
LINE
  5
37B
330
1E
100
AcDbEntity
  8
0
100
AcDbLine
 10
256.665
 20
406.1969999999999
 30
0.0
 11
258.36
 21
409.907
 31
0.0
  0
LINE
  5
37C
330
1E
100
AcDbEntity
  8
0
100
AcDbLine
 10
256.22
 20
406.191
 30
0.0
 11
256.665
 21
406.1969999999999
 31
0.0
  0
LINE
  5
37D
330
1E
100
AcDbEntity
  8
0
100
AcDbLine
 10
256.22
 20
406.191
 30
0.0
 11
258.3909999999999
 21
410.911
 31
0.0
  0
LINE
  5
37E
330
1E
100
AcDbEntity
  8
0
100
AcDbLine
 10
257.25
 20
407.883
 30
0.0
 11
259.384
 21
407.871
 31
0.0
  0
LINE
  5
37F
330
1E
100
AcDbEntity
  8
0
100
AcDbLine
 10
259.384
 20
407.871
 30
0.0
 11
259.507
 21
407.462
 31
0.0
  0
LINE
  5
380
330
1E
100
AcDbEntity
  8
0
100
AcDbLine
 10
258.3909999999999
 20
410.911
 30
0.0
 11
260.3329999999999
 21
406.1659999999999
 31
0.0
  0
LINE
  5
381
330
1E
100
AcDbEntity
  8
0
100
AcDbLine
 10
258.36
 20
409.907
 30
0.0
 11
259.904
 21
406.165
 31
0.0
  0
LINE
  5
382
330
1E
100
AcDbEntity
  8
0
100
AcDbLine
 10
263.0
 20
407.5
 30
0.0
 11
263.0
 21
408.4999999999999
 31
0.0
  0
LINE
  5
383
330
1E
100
AcDbEntity
  8
0
100
AcDbLine
 10
263.0
 20
407.5
 30
0.0
 11
503.0
 21
407.5
 31
0.0
  0
LINE
  5
384
330
1E
100
AcDbEntity
  8
0
100
AcDbLine
 10
263.0
 20
408.4999999999999
 30
0.0
 11
503.0
 21
408.4999999999999
 31
0.0
  0
LINE
  5
385
330
1E
100
AcDbEntity
  8
0
100
AcDbLine
 10
168.733
 20
415.3389999999999
 30
0.0
 11
170.43
 21
415.924
 31
0.0
  0
LINE
  5
386
330
1E
100
AcDbEntity
  8
0
100
AcDbLine
 10
171.31
 20
416.966
 30
0.0
 11
171.6549999999999
 21
418.285
 31
0.0
  0
LINE
  5
387
330
1E
100
AcDbEntity
  8
0
100
AcDbLine
 10
170.43
 20
415.924
 30
0.0
 11
171.31
 21
416.966
 31
0.0
  0
LINE
  5
38C
330
1E
100
AcDbEntity
  8
0
100
AcDbLine
 10
176.421
 20
456.6639999999999
 30
0.0
 11
180.804
 21
463.989
 31
0.0
  0
LINE
  5
38D
330
1E
100
AcDbEntity
  8
0
100
AcDbLine
 10
174.152
 20
448.435
 30
0.0
 11
176.421
 21
456.6639999999999
 31
0.0
  0
LINE
  5
38E
330
1E
100
AcDbEntity
  8
0
100
AcDbLine
 10
180.804
 20
463.989
 30
0.0
 11
186.994
 21
469.8649999999999
 31
0.0
  0
LINE
  5
38F
330
1E
100
AcDbEntity
  8
0
100
AcDbLine
 10
272.5
 20
428.0
 30
0.0
 11
272.5
 21
388.0
 31
0.0
  0
LINE
  5
390
330
1E
100
AcDbEntity
  8
0
100
AcDbLine
 10
272.5
 20
428.0
 30
0.0
 11
273.4999999999999
 21
428.0
 31
0.0
  0
LINE
  5
391
330
1E
100
AcDbEntity
  8
0
100
AcDbLine
 10
282.5
 20
428.0
 30
0.0
 11
282.5
 21
388.0
 31
0.0
  0
LINE
  5
392
330
1E
100
AcDbEntity
  8
0
100
AcDbLine
 10
282.5
 20
428.0
 30
0.0
 11
283.4999999999999
 21
428.0
 31
0.0
  0
LINE
  5
393
330
1E
100
AcDbEntity
  8
0
100
AcDbLine
 10
292.5
 20
428.0
 30
0.0
 11
292.5
 21
388.0
 31
0.0
  0
LINE
  5
394
330
1E
100
AcDbEntity
  8
0
100
AcDbLine
 10
292.5
 20
428.0
 30
0.0
 11
293.5
 21
428.0
 31
0.0
  0
LINE
  5
395
330
1E
100
AcDbEntity
  8
0
100
AcDbLine
 10
292.35
 20
430.5469999999999
 30
0.0
 11
293.914
 21
430.5619999999999
 31
0.0
  0
LINE
  5
396
330
1E
100
AcDbEntity
  8
0
100
AcDbLine
 10
293.914
 20
430.5619999999999
 30
0.0
 11
294.673
 21
431.289
 31
0.0
  0
LINE
  5
397
330
1E
100
AcDbEntity
  8
0
100
AcDbLine
 10
281.607
 20
430.558
 30
0.0
 11
284.487
 21
430.558
 31
0.0
  0
LINE
  5
398
330
1E
100
AcDbEntity
  8
0
100
AcDbLine
 10
272.9959999999999
 20
430.8169999999999
 30
0.0
 11
273.014
 21
434.448
 31
0.0
  0
LINE
  5
399
330
1E
100
AcDbEntity
  8
0
100
AcDbLine
 10
272.9959999999999
 20
430.8169999999999
 30
0.0
 11
273.2069999999999
 21
430.8349999999999
 31
0.0
  0
LINE
  5
39A
330
1E
100
AcDbEntity
  8
0
100
AcDbLine
 10
273.7699999999999
 20
430.604
 30
0.0
 11
273.7769999999999
 21
430.8259999999999
 31
0.0
  0
LINE
  5
39B
330
1E
100
AcDbEntity
  8
0
100
AcDbLine
 10
272.454
 20
430.5889999999999
 30
0.0
 11
273.7699999999999
 21
430.604
 31
0.0
  0
LINE
  5
39C
330
1E
100
AcDbEntity
  8
0
100
AcDbLine
 10
283.8989999999999
 20
432.5549999999999
 30
0.0
 11
284.704
 21
433.359
 31
0.0
  0
LINE
  5
39D
330
1E
100
AcDbEntity
  8
0
100
AcDbLine
 10
283.7129999999999
 20
432.957
 30
0.0
 11
284.1309999999999
 21
433.499
 31
0.0
  0
LINE
  5
39E
330
1E
100
AcDbEntity
  8
0
100
AcDbLine
 10
282.613
 20
432.508
 30
0.0
 11
283.8989999999999
 21
432.5549999999999
 31
0.0
  0
LINE
  5
39F
330
1E
100
AcDbEntity
  8
0
100
AcDbLine
 10
282.303
 20
432.91
 30
0.0
 11
283.7129999999999
 21
432.957
 31
0.0
  0
LINE
  5
3A0
330
1E
100
AcDbEntity
  8
0
100
AcDbLine
 10
282.04
 20
432.013
 30
0.0
 11
282.04
 21
430.898
 31
0.0
  0
LINE
  5
3A1
330
1E
100
AcDbEntity
  8
0
100
AcDbLine
 10
282.04
 20
432.013
 30
0.0
 11
282.613
 21
432.508
 31
0.0
  0
LINE
  5
3A2
330
1E
100
AcDbEntity
  8
0
100
AcDbLine
 10
281.5759999999999
 20
432.183
 30
0.0
 11
281.607
 21
430.558
 31
0.0
  0
LINE
  5
3A3
330
1E
100
AcDbEntity
  8
0
100
AcDbLine
 10
281.5759999999999
 20
432.183
 30
0.0
 11
282.303
 21
432.91
 31
0.0
  0
LINE
  5
3A4
330
1E
100
AcDbEntity
  8
0
100
AcDbLine
 10
282.04
 20
430.898
 30
0.0
 11
284.4719999999999
 21
430.898
 31
0.0
  0
LINE
  5
3A5
330
1E
100
AcDbEntity
  8
0
100
AcDbLine
 10
292.6439999999999
 20
430.933
 30
0.0
 11
293.6659999999999
 21
430.933
 31
0.0
  0
LINE
  5
3A6
330
1E
100
AcDbEntity
  8
0
100
AcDbLine
 10
292.009
 20
431.522
 30
0.0
 11
292.6439999999999
 21
430.933
 31
0.0
  0
LINE
  5
3A7
330
1E
100
AcDbEntity
  8
0
100
AcDbLine
 10
291.6679999999999
 20
431.258
 30
0.0
 11
292.009
 21
431.522
 31
0.0
  0
LINE
  5
3A8
330
1E
100
AcDbEntity
  8
0
100
AcDbLine
 10
291.6679999999999
 20
431.258
 30
0.0
 11
292.35
 21
430.5469999999999
 31
0.0
  0
LINE
  5
3A9
330
1E
100
AcDbEntity
  8
0
100
AcDbLine
 10
293.6659999999999
 20
430.933
 30
0.0
 11
294.069
 21
431.367
 31
0.0
  0
LINE
  5
3AA
330
1E
100
AcDbEntity
  8
0
100
AcDbLine
 10
294.069
 20
431.367
 30
0.0
 11
294.1309999999999
 21
432.0009999999999
 31
0.0
  0
LINE
  5
3AB
330
1E
100
AcDbEntity
  8
0
100
AcDbLine
 10
293.7129999999999
 20
432.5429999999999
 30
0.0
 11
294.1309999999999
 21
432.0009999999999
 31
0.0
  0
LINE
  5
3AC
330
1E
100
AcDbEntity
  8
0
100
AcDbLine
 10
293.0829999999999
 20
432.544
 30
0.0
 11
293.0829999999999
 21
432.7069999999999
 31
0.0
  0
LINE
  5
3AD
330
1E
100
AcDbEntity
  8
0
100
AcDbLine
 10
293.0829999999999
 20
432.544
 30
0.0
 11
293.7129999999999
 21
432.5429999999999
 31
0.0
  0
LINE
  5
3AE
330
1E
100
AcDbEntity
  8
0
100
AcDbLine
 10
294.673
 20
431.289
 30
0.0
 11
294.704
 21
432.1409999999999
 31
0.0
  0
LINE
  5
3AF
330
1E
100
AcDbEntity
  8
0
100
AcDbLine
 10
294.166
 20
432.7069999999999
 30
0.0
 11
294.704
 21
433.359
 31
0.0
  0
LINE
  5
3B0
330
1E
100
AcDbEntity
  8
0
100
AcDbLine
 10
294.166
 20
432.7069999999999
 30
0.0
 11
294.704
 21
432.1409999999999
 31
0.0
  0
LINE
  5
3B1
330
1E
100
AcDbEntity
  8
0
100
AcDbLine
 10
293.7129999999999
 20
432.957
 30
0.0
 11
294.1309999999999
 21
433.499
 31
0.0
  0
LINE
  5
3B2
330
1E
100
AcDbEntity
  8
0
100
AcDbLine
 10
293.098
 20
432.8999999999999
 30
0.0
 11
293.7129999999999
 21
432.957
 31
0.0
  0
LINE
  5
3B3
330
1E
100
AcDbEntity
  8
0
100
AcDbLine
 10
293.0829999999999
 20
432.7069999999999
 30
0.0
 11
293.098
 21
432.8999999999999
 31
0.0
  0
LINE
  5
3B4
330
1E
100
AcDbEntity
  8
0
100
AcDbLine
 10
284.4719999999999
 20
430.898
 30
0.0
 11
284.487
 21
430.558
 31
0.0
  0
LINE
  5
3B5
330
1E
100
AcDbEntity
  8
0
100
AcDbLine
 10
292.009
 20
433.978
 30
0.0
 11
292.6439999999999
 21
434.5669999999999
 31
0.0
  0
LINE
  5
3B6
330
1E
100
AcDbEntity
  8
0
100
AcDbLine
 10
294.069
 20
434.133
 30
0.0
 11
294.1309999999999
 21
433.499
 31
0.0
  0
LINE
  5
3B7
330
1E
100
AcDbEntity
  8
0
100
AcDbLine
 10
282.009
 20
433.978
 30
0.0
 11
282.644
 21
434.5669999999999
 31
0.0
  0
LINE
  5
3B8
330
1E
100
AcDbEntity
  8
0
100
AcDbLine
 10
281.669
 20
434.2419999999999
 30
0.0
 11
282.35
 21
434.953
 31
0.0
  0
LINE
  5
3B9
330
1E
100
AcDbEntity
  8
0
100
AcDbLine
 10
281.669
 20
434.2419999999999
 30
0.0
 11
282.009
 21
433.978
 31
0.0
  0
LINE
  5
3BA
330
1E
100
AcDbEntity
  8
0
100
AcDbLine
 10
282.644
 20
434.5669999999999
 30
0.0
 11
283.666
 21
434.5669999999999
 31
0.0
  0
LINE
  5
3BB
330
1E
100
AcDbEntity
  8
0
100
AcDbLine
 10
282.35
 20
434.953
 30
0.0
 11
283.914
 21
434.938
 31
0.0
  0
LINE
  5
3BC
330
1E
100
AcDbEntity
  8
0
100
AcDbLine
 10
283.914
 20
434.938
 30
0.0
 11
284.6729999999999
 21
434.2109999999999
 31
0.0
  0
LINE
  5
3BD
330
1E
100
AcDbEntity
  8
0
100
AcDbLine
 10
283.666
 20
434.5669999999999
 30
0.0
 11
284.069
 21
434.133
 31
0.0
  0
LINE
  5
3BE
330
1E
100
AcDbEntity
  8
0
100
AcDbLine
 10
291.6679999999999
 20
434.2419999999999
 30
0.0
 11
292.35
 21
434.953
 31
0.0
  0
LINE
  5
3BF
330
1E
100
AcDbEntity
  8
0
100
AcDbLine
 10
291.6679999999999
 20
434.2419999999999
 30
0.0
 11
292.009
 21
433.978
 31
0.0
  0
LINE
  5
3C0
330
1E
100
AcDbEntity
  8
0
100
AcDbLine
 10
292.6439999999999
 20
434.5669999999999
 30
0.0
 11
293.6659999999999
 21
434.5669999999999
 31
0.0
  0
LINE
  5
3C1
330
1E
100
AcDbEntity
  8
0
100
AcDbLine
 10
292.35
 20
434.953
 30
0.0
 11
293.914
 21
434.938
 31
0.0
  0
LINE
  5
3C2
330
1E
100
AcDbEntity
  8
0
100
AcDbLine
 10
293.914
 20
434.938
 30
0.0
 11
294.673
 21
434.2109999999999
 31
0.0
  0
LINE
  5
3C3
330
1E
100
AcDbEntity
  8
0
100
AcDbLine
 10
293.6659999999999
 20
434.5669999999999
 30
0.0
 11
294.069
 21
434.133
 31
0.0
  0
LINE
  5
3C4
330
1E
100
AcDbEntity
  8
0
100
AcDbLine
 10
294.673
 20
434.2109999999999
 30
0.0
 11
294.704
 21
433.359
 31
0.0
  0
LINE
  5
3C5
330
1E
100
AcDbEntity
  8
0
100
AcDbLine
 10
284.6729999999999
 20
434.2109999999999
 30
0.0
 11
284.704
 21
433.359
 31
0.0
  0
LINE
  5
3C6
330
1E
100
AcDbEntity
  8
0
100
AcDbLine
 10
284.069
 20
434.133
 30
0.0
 11
284.1309999999999
 21
433.499
 31
0.0
  0
LINE
  5
3C7
330
1E
100
AcDbEntity
  8
0
100
AcDbLine
 10
273.2069999999999
 20
434.8519999999999
 30
0.0
 11
273.2069999999999
 21
430.8349999999999
 31
0.0
  0
LINE
  5
3C8
330
1E
100
AcDbEntity
  8
0
100
AcDbLine
 10
272.487
 20
433.957
 30
0.0
 11
273.014
 21
434.448
 31
0.0
  0
LINE
  5
3C9
330
1E
100
AcDbEntity
  8
0
100
AcDbLine
 10
272.3379999999999
 20
434.1059999999999
 30
0.0
 11
273.2069999999999
 21
434.8519999999999
 31
0.0
  0
LINE
  5
3CA
330
1E
100
AcDbEntity
  8
0
100
AcDbLine
 10
272.3379999999999
 20
434.1059999999999
 30
0.0
 11
272.487
 21
433.957
 31
0.0
  0
LINE
  5
3CB
330
1E
100
AcDbEntity
  8
0
100
AcDbLine
 10
272.452
 20
430.8259999999999
 30
0.0
 11
273.7769999999999
 21
430.8259999999999
 31
0.0
  0
LINE
  5
3CC
330
1E
100
AcDbEntity
  8
0
100
AcDbLine
 10
272.452
 20
430.8259999999999
 30
0.0
 11
272.454
 21
430.5889999999999
 31
0.0
  0
LINE
  5
3CD
330
1E
100
AcDbEntity
  8
0
100
AcDbLine
 10
186.994
 20
469.8649999999999
 30
0.0
 11
195.035
 21
474.044
 31
0.0
  0
LINE
  5
3CE
330
1E
100
AcDbEntity
  8
0
100
AcDbLine
 10
203.932
 20
475.76
 30
0.0
 11
295.942
 21
478.9399999999999
 31
0.0
  0
LINE
  5
3CF
330
1E
100
AcDbEntity
  8
0
100
AcDbLine
 10
295.942
 20
478.9399999999999
 30
0.0
 11
387.999
 21
480.0
 31
0.0
  0
LINE
  5
3D0
330
1E
100
AcDbEntity
  8
0
100
AcDbLine
 10
195.035
 20
474.044
 30
0.0
 11
203.932
 21
475.76
 31
0.0
  0
LINE
  5
3D1
330
1E
100
AcDbEntity
  8
0
100
AcDbLine
 10
172.524
 20
433.393
 30
0.0
 11
174.152
 21
448.435
 31
0.0
  0
LINE
  5
3D2
330
1E
100
AcDbEntity
  8
0
100
AcDbLine
 10
171.6549999999999
 20
418.285
 30
0.0
 11
172.524
 21
433.393
 31
0.0
  0
LINE
  5
3D3
330
1E
100
AcDbEntity
  8
0
100
AcDbLine
 10
55.278
 20
411.582
 30
0.0
 11
64.847
 21
412.088
 31
0.0
  0
LINE
  5
3D4
330
1E
100
AcDbEntity
  8
0
100
AcDbLine
 10
19.268
 20
391.7569999999999
 30
0.0
 11
24.52199999999999
 21
397.476
 31
0.0
  0
LINE
  5
3DC
330
1E
100
AcDbEntity
  8
0
100
AcDbLine
 10
572.01
 20
342.3309999999999
 30
0.0
 11
577.4469999999999
 21
343.339
 31
0.0
  0
LINE
  5
3DD
330
1E
100
AcDbEntity
  8
0
100
AcDbLine
 10
302.4999999999999
 20
428.0
 30
0.0
 11
302.4999999999999
 21
388.0
 31
0.0
  0
LINE
  5
3DE
330
1E
100
AcDbEntity
  8
0
100
AcDbLine
 10
302.4999999999999
 20
428.0
 30
0.0
 11
303.5
 21
428.0
 31
0.0
  0
LINE
  5
3DF
330
1E
100
AcDbEntity
  8
0
100
AcDbLine
 10
303.5
 20
388.0
 30
0.0
 11
303.5
 21
428.0
 31
0.0
  0
LINE
  5
3E0
330
1E
100
AcDbEntity
  8
0
100
AcDbLine
 10
302.4999999999999
 20
388.0
 30
0.0
 11
303.5
 21
388.0
 31
0.0
  0
LINE
  5
3E1
330
1E
100
AcDbEntity
  8
0
100
AcDbLine
 10
303.7259999999999
 20
430.6859999999999
 30
0.0
 11
303.738
 21
434.328
 31
0.0
  0
LINE
  5
3E2
330
1E
100
AcDbEntity
  8
0
100
AcDbLine
 10
303.7259999999999
 20
430.6859999999999
 30
0.0
 11
304.041
 21
430.674
 31
0.0
  0
LINE
  5
3E3
330
1E
100
AcDbEntity
  8
0
100
AcDbLine
 10
313.5
 20
388.0
 30
0.0
 11
313.5
 21
428.0
 31
0.0
  0
LINE
  5
3E4
330
1E
100
AcDbEntity
  8
0
100
AcDbLine
 10
312.5
 20
428.0
 30
0.0
 11
312.5
 21
388.0
 31
0.0
  0
LINE
  5
3E5
330
1E
100
AcDbEntity
  8
0
100
AcDbLine
 10
312.5
 20
428.0
 30
0.0
 11
313.5
 21
428.0
 31
0.0
  0
LINE
  5
3E6
330
1E
100
AcDbEntity
  8
0
100
AcDbLine
 10
312.5
 20
388.0
 30
0.0
 11
313.5
 21
388.0
 31
0.0
  0
LINE
  5
3E7
330
1E
100
AcDbEntity
  8
0
100
AcDbLine
 10
323.4999999999999
 20
388.0
 30
0.0
 11
323.4999999999999
 21
428.0
 31
0.0
  0
LINE
  5
3E8
330
1E
100
AcDbEntity
  8
0
100
AcDbLine
 10
322.5
 20
428.0
 30
0.0
 11
322.5
 21
388.0
 31
0.0
  0
LINE
  5
3E9
330
1E
100
AcDbEntity
  8
0
100
AcDbLine
 10
322.5
 20
428.0
 30
0.0
 11
323.4999999999999
 21
428.0
 31
0.0
  0
LINE
  5
3EA
330
1E
100
AcDbEntity
  8
0
100
AcDbLine
 10
322.5
 20
388.0
 30
0.0
 11
323.4999999999999
 21
388.0
 31
0.0
  0
LINE
  5
3EB
330
1E
100
AcDbEntity
  8
0
100
AcDbLine
 10
352.4999999999999
 20
388.0
 30
0.0
 11
353.5
 21
388.0
 31
0.0
  0
LINE
  5
3EC
330
1E
100
AcDbEntity
  8
0
100
AcDbLine
 10
343.5
 20
388.0
 30
0.0
 11
343.5
 21
428.0
 31
0.0
  0
LINE
  5
3ED
330
1E
100
AcDbEntity
  8
0
100
AcDbLine
 10
342.5
 20
388.0
 30
0.0
 11
343.5
 21
388.0
 31
0.0
  0
LINE
  5
3EE
330
1E
100
AcDbEntity
  8
0
100
AcDbLine
 10
333.4999999999999
 20
388.0
 30
0.0
 11
333.4999999999999
 21
428.0
 31
0.0
  0
LINE
  5
3EF
330
1E
100
AcDbEntity
  8
0
100
AcDbLine
 10
352.4999999999999
 20
428.0
 30
0.0
 11
352.4999999999999
 21
388.0
 31
0.0
  0
LINE
  5
3F0
330
1E
100
AcDbEntity
  8
0
100
AcDbLine
 10
352.4999999999999
 20
428.0
 30
0.0
 11
353.5
 21
428.0
 31
0.0
  0
LINE
  5
3F1
330
1E
100
AcDbEntity
  8
0
100
AcDbLine
 10
342.5
 20
428.0
 30
0.0
 11
342.5
 21
388.0
 31
0.0
  0
LINE
  5
3F2
330
1E
100
AcDbEntity
  8
0
100
AcDbLine
 10
342.5
 20
428.0
 30
0.0
 11
343.5
 21
428.0
 31
0.0
  0
LINE
  5
3F3
330
1E
100
AcDbEntity
  8
0
100
AcDbLine
 10
332.5
 20
428.0
 30
0.0
 11
332.5
 21
388.0
 31
0.0
  0
LINE
  5
3F4
330
1E
100
AcDbEntity
  8
0
100
AcDbLine
 10
332.5
 20
428.0
 30
0.0
 11
333.4999999999999
 21
428.0
 31
0.0
  0
LINE
  5
3F5
330
1E
100
AcDbEntity
  8
0
100
AcDbLine
 10
332.5
 20
388.0
 30
0.0
 11
333.4999999999999
 21
388.0
 31
0.0
  0
LINE
  5
3F6
330
1E
100
AcDbEntity
  8
0
100
AcDbLine
 10
353.5
 20
388.0
 30
0.0
 11
353.5
 21
428.0
 31
0.0
  0
LINE
  5
3F7
330
1E
100
AcDbEntity
  8
0
100
AcDbLine
 10
362.5
 20
428.0
 30
0.0
 11
362.5
 21
388.0
 31
0.0
  0
LINE
  5
3F8
330
1E
100
AcDbEntity
  8
0
100
AcDbLine
 10
362.5
 20
428.0
 30
0.0
 11
363.5
 21
428.0
 31
0.0
  0
LINE
  5
3F9
330
1E
100
AcDbEntity
  8
0
100
AcDbLine
 10
363.5
 20
388.0
 30
0.0
 11
363.5
 21
428.0
 31
0.0
  0
LINE
  5
3FA
330
1E
100
AcDbEntity
  8
0
100
AcDbLine
 10
362.5
 20
388.0
 30
0.0
 11
363.5
 21
388.0
 31
0.0
  0
LINE
  5
3FB
330
1E
100
AcDbEntity
  8
0
100
AcDbLine
 10
372.5
 20
428.0
 30
0.0
 11
372.5
 21
388.0
 31
0.0
  0
LINE
  5
3FC
330
1E
100
AcDbEntity
  8
0
100
AcDbLine
 10
372.5
 20
428.0
 30
0.0
 11
373.4999999999999
 21
428.0
 31
0.0
  0
LINE
  5
3FD
330
1E
100
AcDbEntity
  8
0
100
AcDbLine
 10
383.4999999999999
 20
388.0
 30
0.0
 11
383.4999999999999
 21
428.0
 31
0.0
  0
LINE
  5
3FE
330
1E
100
AcDbEntity
  8
0
100
AcDbLine
 10
382.5
 20
388.0
 30
0.0
 11
383.4999999999999
 21
388.0
 31
0.0
  0
LINE
  5
3FF
330
1E
100
AcDbEntity
  8
0
100
AcDbLine
 10
382.5
 20
428.0
 30
0.0
 11
382.5
 21
388.0
 31
0.0
  0
LINE
  5
400
330
1E
100
AcDbEntity
  8
0
100
AcDbLine
 10
382.5
 20
428.0
 30
0.0
 11
383.4999999999999
 21
428.0
 31
0.0
  0
LINE
  5
401
330
1E
100
AcDbEntity
  8
0
100
AcDbLine
 10
373.4999999999999
 20
388.0
 30
0.0
 11
373.4999999999999
 21
428.0
 31
0.0
  0
LINE
  5
402
330
1E
100
AcDbEntity
  8
0
100
AcDbLine
 10
372.5
 20
388.0
 30
0.0
 11
373.4999999999999
 21
388.0
 31
0.0
  0
LINE
  5
403
330
1E
100
AcDbEntity
  8
0
100
AcDbLine
 10
392.5
 20
428.0
 30
0.0
 11
392.5
 21
388.0
 31
0.0
  0
LINE
  5
404
330
1E
100
AcDbEntity
  8
0
100
AcDbLine
 10
392.5
 20
428.0
 30
0.0
 11
393.5
 21
428.0
 31
0.0
  0
LINE
  5
405
330
1E
100
AcDbEntity
  8
0
100
AcDbLine
 10
413.4999999999999
 20
388.0
 30
0.0
 11
413.4999999999999
 21
428.0
 31
0.0
  0
LINE
  5
406
330
1E
100
AcDbEntity
  8
0
100
AcDbLine
 10
412.5
 20
388.0
 30
0.0
 11
413.4999999999999
 21
388.0
 31
0.0
  0
LINE
  5
407
330
1E
100
AcDbEntity
  8
0
100
AcDbLine
 10
433.4999999999999
 20
388.0
 30
0.0
 11
433.4999999999999
 21
428.0
 31
0.0
  0
LINE
  5
408
330
1E
100
AcDbEntity
  8
0
100
AcDbLine
 10
432.5
 20
388.0
 30
0.0
 11
433.4999999999999
 21
388.0
 31
0.0
  0
LINE
  5
409
330
1E
100
AcDbEntity
  8
0
100
AcDbLine
 10
443.5
 20
388.0
 30
0.0
 11
443.5
 21
428.0
 31
0.0
  0
LINE
  5
40A
330
1E
100
AcDbEntity
  8
0
100
AcDbLine
 10
442.4999999999999
 20
388.0
 30
0.0
 11
443.5
 21
388.0
 31
0.0
  0
LINE
  5
40B
330
1E
100
AcDbEntity
  8
0
100
AcDbLine
 10
463.4999999999999
 20
388.0
 30
0.0
 11
463.4999999999999
 21
428.0
 31
0.0
  0
LINE
  5
40C
330
1E
100
AcDbEntity
  8
0
100
AcDbLine
 10
462.5
 20
388.0
 30
0.0
 11
463.4999999999999
 21
388.0
 31
0.0
  0
LINE
  5
40D
330
1E
100
AcDbEntity
  8
0
100
AcDbLine
 10
453.5
 20
388.0
 30
0.0
 11
453.5
 21
428.0
 31
0.0
  0
LINE
  5
40E
330
1E
100
AcDbEntity
  8
0
100
AcDbLine
 10
452.5
 20
388.0
 30
0.0
 11
453.5
 21
388.0
 31
0.0
  0
LINE
  5
40F
330
1E
100
AcDbEntity
  8
0
100
AcDbLine
 10
473.5
 20
388.0
 30
0.0
 11
473.5
 21
428.0
 31
0.0
  0
LINE
  5
410
330
1E
100
AcDbEntity
  8
0
100
AcDbLine
 10
472.5
 20
388.0
 30
0.0
 11
473.5
 21
388.0
 31
0.0
  0
LINE
  5
411
330
1E
100
AcDbEntity
  8
0
100
AcDbLine
 10
423.5
 20
388.0
 30
0.0
 11
423.5
 21
428.0
 31
0.0
  0
LINE
  5
412
330
1E
100
AcDbEntity
  8
0
100
AcDbLine
 10
422.4999999999999
 20
388.0
 30
0.0
 11
423.5
 21
388.0
 31
0.0
  0
LINE
  5
413
330
1E
100
AcDbEntity
  8
0
100
AcDbLine
 10
403.5
 20
388.0
 30
0.0
 11
403.5
 21
428.0
 31
0.0
  0
LINE
  5
414
330
1E
100
AcDbEntity
  8
0
100
AcDbLine
 10
402.5
 20
388.0
 30
0.0
 11
403.5
 21
388.0
 31
0.0
  0
LINE
  5
415
330
1E
100
AcDbEntity
  8
0
100
AcDbLine
 10
432.5
 20
428.0
 30
0.0
 11
432.5
 21
388.0
 31
0.0
  0
LINE
  5
416
330
1E
100
AcDbEntity
  8
0
100
AcDbLine
 10
432.5
 20
428.0
 30
0.0
 11
433.4999999999999
 21
428.0
 31
0.0
  0
LINE
  5
417
330
1E
100
AcDbEntity
  8
0
100
AcDbLine
 10
442.4999999999999
 20
428.0
 30
0.0
 11
442.4999999999999
 21
388.0
 31
0.0
  0
LINE
  5
418
330
1E
100
AcDbEntity
  8
0
100
AcDbLine
 10
442.4999999999999
 20
428.0
 30
0.0
 11
443.5
 21
428.0
 31
0.0
  0
LINE
  5
419
330
1E
100
AcDbEntity
  8
0
100
AcDbLine
 10
462.5
 20
428.0
 30
0.0
 11
462.5
 21
388.0
 31
0.0
  0
LINE
  5
41A
330
1E
100
AcDbEntity
  8
0
100
AcDbLine
 10
462.5
 20
428.0
 30
0.0
 11
463.4999999999999
 21
428.0
 31
0.0
  0
LINE
  5
41B
330
1E
100
AcDbEntity
  8
0
100
AcDbLine
 10
452.5
 20
428.0
 30
0.0
 11
452.5
 21
388.0
 31
0.0
  0
LINE
  5
41C
330
1E
100
AcDbEntity
  8
0
100
AcDbLine
 10
452.5
 20
428.0
 30
0.0
 11
453.5
 21
428.0
 31
0.0
  0
LINE
  5
41D
330
1E
100
AcDbEntity
  8
0
100
AcDbLine
 10
472.5
 20
428.0
 30
0.0
 11
472.5
 21
388.0
 31
0.0
  0
LINE
  5
41E
330
1E
100
AcDbEntity
  8
0
100
AcDbLine
 10
472.5
 20
428.0
 30
0.0
 11
473.5
 21
428.0
 31
0.0
  0
LINE
  5
41F
330
1E
100
AcDbEntity
  8
0
100
AcDbLine
 10
412.5
 20
428.0
 30
0.0
 11
412.5
 21
388.0
 31
0.0
  0
LINE
  5
420
330
1E
100
AcDbEntity
  8
0
100
AcDbLine
 10
412.5
 20
428.0
 30
0.0
 11
413.4999999999999
 21
428.0
 31
0.0
  0
LINE
  5
421
330
1E
100
AcDbEntity
  8
0
100
AcDbLine
 10
422.4999999999999
 20
428.0
 30
0.0
 11
422.4999999999999
 21
388.0
 31
0.0
  0
LINE
  5
422
330
1E
100
AcDbEntity
  8
0
100
AcDbLine
 10
422.4999999999999
 20
428.0
 30
0.0
 11
423.5
 21
428.0
 31
0.0
  0
LINE
  5
423
330
1E
100
AcDbEntity
  8
0
100
AcDbLine
 10
402.5
 20
428.0
 30
0.0
 11
402.5
 21
388.0
 31
0.0
  0
LINE
  5
424
330
1E
100
AcDbEntity
  8
0
100
AcDbLine
 10
402.5
 20
428.0
 30
0.0
 11
403.5
 21
428.0
 31
0.0
  0
LINE
  5
425
330
1E
100
AcDbEntity
  8
0
100
AcDbLine
 10
393.5
 20
388.0
 30
0.0
 11
393.5
 21
428.0
 31
0.0
  0
LINE
  5
426
330
1E
100
AcDbEntity
  8
0
100
AcDbLine
 10
392.5
 20
388.0
 30
0.0
 11
393.5
 21
388.0
 31
0.0
  0
LINE
  5
427
330
1E
100
AcDbEntity
  8
0
100
AcDbLine
 10
454.569
 20
430.503
 30
0.0
 11
456.0
 21
431.9799999999999
 31
0.0
  0
LINE
  5
428
330
1E
100
AcDbEntity
  8
0
100
AcDbLine
 10
353.214
 20
430.503
 30
0.0
 11
354.644
 21
431.9799999999999
 31
0.0
  0
LINE
  5
429
330
1E
100
AcDbEntity
  8
0
100
AcDbLine
 10
343.9019999999999
 20
430.513
 30
0.0
 11
344.673
 21
431.3579999999999
 31
0.0
  0
LINE
  5
42A
330
1E
100
AcDbEntity
  8
0
100
AcDbLine
 10
323.902
 20
430.513
 30
0.0
 11
324.6729999999999
 21
431.3579999999999
 31
0.0
  0
LINE
  5
42B
330
1E
100
AcDbEntity
  8
0
100
AcDbLine
 10
465.513
 20
430.526
 30
0.0
 11
466.3569999999999
 21
431.2949999999999
 31
0.0
  0
LINE
  5
42C
330
1E
100
AcDbEntity
  8
0
100
AcDbLine
 10
464.62
 20
430.526
 30
0.0
 11
465.513
 21
430.526
 31
0.0
  0
LINE
  5
42D
330
1E
100
AcDbEntity
  8
0
100
AcDbLine
 10
479.603
 20
430.5209999999999
 30
0.0
 11
482.484
 21
430.5209999999999
 31
0.0
  0
LINE
  5
42E
330
1E
100
AcDbEntity
  8
0
100
AcDbLine
 10
453.694
 20
430.515
 30
0.0
 11
454.569
 21
430.503
 31
0.0
  0
LINE
  5
42F
330
1E
100
AcDbEntity
  8
0
100
AcDbLine
 10
352.338
 20
430.515
 30
0.0
 11
353.214
 21
430.503
 31
0.0
  0
LINE
  5
430
330
1E
100
AcDbEntity
  8
0
100
AcDbLine
 10
364.8959999999999
 20
430.548
 30
0.0
 11
365.7399999999999
 21
431.3169999999999
 31
0.0
  0
LINE
  5
431
330
1E
100
AcDbEntity
  8
0
100
AcDbLine
 10
364.003
 20
430.548
 30
0.0
 11
364.8959999999999
 21
430.548
 31
0.0
  0
LINE
  5
432
330
1E
100
AcDbEntity
  8
0
100
AcDbLine
 10
362.084
 20
430.629
 30
0.0
 11
362.091
 21
430.851
 31
0.0
  0
LINE
  5
433
330
1E
100
AcDbEntity
  8
0
100
AcDbLine
 10
360.768
 20
430.614
 30
0.0
 11
362.084
 21
430.629
 31
0.0
  0
LINE
  5
434
330
1E
100
AcDbEntity
  8
0
100
AcDbLine
 10
470.265
 20
430.558
 30
0.0
 11
473.1449999999999
 21
430.558
 31
0.0
  0
LINE
  5
435
330
1E
100
AcDbEntity
  8
0
100
AcDbLine
 10
459.897
 20
430.558
 30
0.0
 11
462.778
 21
430.558
 31
0.0
  0
LINE
  5
436
330
1E
100
AcDbEntity
  8
0
100
AcDbLine
 10
445.209
 20
430.5609999999999
 30
0.0
 11
445.98
 21
431.406
 31
0.0
  0
LINE
  5
437
330
1E
100
AcDbEntity
  8
0
100
AcDbLine
 10
425.3059999999999
 20
430.5609999999999
 30
0.0
 11
426.0769999999999
 21
431.406
 31
0.0
  0
LINE
  5
438
330
1E
100
AcDbEntity
  8
0
100
AcDbLine
 10
415.294
 20
430.5609999999999
 30
0.0
 11
416.08
 21
431.392
 31
0.0
  0
LINE
  5
439
330
1E
100
AcDbEntity
  8
0
100
AcDbLine
 10
393.624
 20
430.5469999999999
 30
0.0
 11
395.188
 21
430.5619999999999
 31
0.0
  0
LINE
  5
43A
330
1E
100
AcDbEntity
  8
0
100
AcDbLine
 10
410.443
 20
430.5889999999999
 30
0.0
 11
411.76
 21
430.604
 31
0.0
  0
LINE
  5
43B
330
1E
100
AcDbEntity
  8
0
100
AcDbLine
 10
400.443
 20
430.5889999999999
 30
0.0
 11
401.7599999999999
 21
430.604
 31
0.0
  0
LINE
  5
43C
330
1E
100
AcDbEntity
  8
0
100
AcDbLine
 10
411.76
 20
430.604
 30
0.0
 11
411.767
 21
430.8259999999999
 31
0.0
  0
LINE
  5
43D
330
1E
100
AcDbEntity
  8
0
100
AcDbLine
 10
401.7599999999999
 20
430.604
 30
0.0
 11
401.7669999999999
 21
430.8259999999999
 31
0.0
  0
LINE
  5
43E
330
1E
100
AcDbEntity
  8
0
100
AcDbLine
 10
391.76
 20
430.604
 30
0.0
 11
391.767
 21
430.8259999999999
 31
0.0
  0
LINE
  5
43F
330
1E
100
AcDbEntity
  8
0
100
AcDbLine
 10
390.443
 20
430.5889999999999
 30
0.0
 11
391.76
 21
430.604
 31
0.0
  0
LINE
  5
440
330
1E
100
AcDbEntity
  8
0
100
AcDbLine
 10
443.5619999999999
 20
430.5759999999999
 30
0.0
 11
445.209
 21
430.5609999999999
 31
0.0
  0
LINE
  5
441
330
1E
100
AcDbEntity
  8
0
100
AcDbLine
 10
430.443
 20
430.5889999999999
 30
0.0
 11
431.7599999999999
 21
430.604
 31
0.0
  0
LINE
  5
442
330
1E
100
AcDbEntity
  8
0
100
AcDbLine
 10
431.7599999999999
 20
430.604
 30
0.0
 11
431.7669999999999
 21
430.8259999999999
 31
0.0
  0
LINE
  5
443
330
1E
100
AcDbEntity
  8
0
100
AcDbLine
 10
421.76
 20
430.604
 30
0.0
 11
421.767
 21
430.8259999999999
 31
0.0
  0
LINE
  5
444
330
1E
100
AcDbEntity
  8
0
100
AcDbLine
 10
420.443
 20
430.5889999999999
 30
0.0
 11
421.76
 21
430.604
 31
0.0
  0
LINE
  5
445
330
1E
100
AcDbEntity
  8
0
100
AcDbLine
 10
440.443
 20
430.5889999999999
 30
0.0
 11
441.76
 21
430.604
 31
0.0
  0
LINE
  5
446
330
1E
100
AcDbEntity
  8
0
100
AcDbLine
 10
450.443
 20
430.5889999999999
 30
0.0
 11
451.7599999999999
 21
430.604
 31
0.0
  0
LINE
  5
447
330
1E
100
AcDbEntity
  8
0
100
AcDbLine
 10
441.76
 20
430.604
 30
0.0
 11
441.767
 21
430.8259999999999
 31
0.0
  0
LINE
  5
448
330
1E
100
AcDbEntity
  8
0
100
AcDbLine
 10
451.7599999999999
 20
430.604
 30
0.0
 11
451.7669999999999
 21
430.8259999999999
 31
0.0
  0
LINE
  5
449
330
1E
100
AcDbEntity
  8
0
100
AcDbLine
 10
434.0759999999999
 20
430.6029999999999
 30
0.0
 11
436.123
 21
434.948
 31
0.0
  0
LINE
  5
44A
330
1E
100
AcDbEntity
  8
0
100
AcDbLine
 10
433.5119999999999
 20
430.6029999999999
 30
0.0
 11
434.0759999999999
 21
430.6029999999999
 31
0.0
  0
LINE
  5
44B
330
1E
100
AcDbEntity
  8
0
100
AcDbLine
 10
433.5119999999999
 20
430.6029999999999
 30
0.0
 11
435.3069999999999
 21
434.473
 31
0.0
  0
LINE
  5
44C
330
1E
100
AcDbEntity
  8
0
100
AcDbLine
 10
423.6589999999999
 20
430.5759999999999
 30
0.0
 11
425.3059999999999
 21
430.5609999999999
 31
0.0
  0
LINE
  5
44D
330
1E
100
AcDbEntity
  8
0
100
AcDbLine
 10
413.721
 20
430.5909999999999
 30
0.0
 11
415.294
 21
430.5609999999999
 31
0.0
  0
LINE
  5
44E
330
1E
100
AcDbEntity
  8
0
100
AcDbLine
 10
395.188
 20
430.5619999999999
 30
0.0
 11
395.9469999999999
 21
431.289
 31
0.0
  0
LINE
  5
44F
330
1E
100
AcDbEntity
  8
0
100
AcDbLine
 10
382.8119999999999
 20
430.529
 30
0.0
 11
385.693
 21
430.529
 31
0.0
  0
LINE
  5
450
330
1E
100
AcDbEntity
  8
0
100
AcDbLine
 10
381.76
 20
430.604
 30
0.0
 11
381.767
 21
430.8259999999999
 31
0.0
  0
LINE
  5
451
330
1E
100
AcDbEntity
  8
0
100
AcDbLine
 10
380.443
 20
430.5889999999999
 30
0.0
 11
381.76
 21
430.604
 31
0.0
  0
LINE
  5
452
330
1E
100
AcDbEntity
  8
0
100
AcDbLine
 10
474.4299999999999
 20
430.6619999999999
 30
0.0
 11
475.746
 21
430.678
 31
0.0
  0
LINE
  5
453
330
1E
100
AcDbEntity
  8
0
100
AcDbLine
 10
404.9769999999999
 20
430.6719999999999
 30
0.0
 11
404.989
 21
434.313
 31
0.0
  0
LINE
  5
454
330
1E
100
AcDbEntity
  8
0
100
AcDbLine
 10
404.9769999999999
 20
430.6719999999999
 30
0.0
 11
405.2919999999999
 21
430.6589999999999
 31
0.0
  0
LINE
  5
455
330
1E
100
AcDbEntity
  8
0
100
AcDbLine
 10
373.819
 20
430.663
 30
0.0
 11
375.1349999999999
 21
430.679
 31
0.0
  0
LINE
  5
456
330
1E
100
AcDbEntity
  8
0
100
AcDbLine
 10
372.406
 20
430.654
 30
0.0
 11
372.413
 21
430.8759999999999
 31
0.0
  0
LINE
  5
457
330
1E
100
AcDbEntity
  8
0
100
AcDbLine
 10
371.0899999999999
 20
430.638
 30
0.0
 11
372.406
 21
430.654
 31
0.0
  0
LINE
  5
458
330
1E
100
AcDbEntity
  8
0
100
AcDbLine
 10
342.255
 20
430.528
 30
0.0
 11
343.9019999999999
 21
430.513
 31
0.0
  0
LINE
  5
459
330
1E
100
AcDbEntity
  8
0
100
AcDbLine
 10
332.744
 20
430.6759999999999
 30
0.0
 11
334.791
 21
435.02
 31
0.0
  0
LINE
  5
45A
330
1E
100
AcDbEntity
  8
0
100
AcDbLine
 10
361.31
 20
430.8419999999999
 30
0.0
 11
361.328
 21
434.473
 31
0.0
  0
LINE
  5
45B
330
1E
100
AcDbEntity
  8
0
100
AcDbLine
 10
361.31
 20
430.8419999999999
 30
0.0
 11
361.5209999999999
 21
430.86
 31
0.0
  0
LINE
  5
45C
330
1E
100
AcDbEntity
  8
0
100
AcDbLine
 10
360.7659999999999
 20
430.851
 30
0.0
 11
362.091
 21
430.851
 31
0.0
  0
LINE
  5
45D
330
1E
100
AcDbEntity
  8
0
100
AcDbLine
 10
360.7659999999999
 20
430.851
 30
0.0
 11
360.768
 21
430.614
 31
0.0
  0
LINE
  5
45E
330
1E
100
AcDbEntity
  8
0
100
AcDbLine
 10
371.088
 20
430.8759999999999
 30
0.0
 11
372.413
 21
430.8759999999999
 31
0.0
  0
LINE
  5
45F
330
1E
100
AcDbEntity
  8
0
100
AcDbLine
 10
371.088
 20
430.8759999999999
 30
0.0
 11
371.0899999999999
 21
430.638
 31
0.0
  0
LINE
  5
460
330
1E
100
AcDbEntity
  8
0
100
AcDbLine
 10
374.3609999999999
 20
430.8919999999999
 30
0.0
 11
374.379
 21
434.5229999999999
 31
0.0
  0
LINE
  5
461
330
1E
100
AcDbEntity
  8
0
100
AcDbLine
 10
374.3609999999999
 20
430.8919999999999
 30
0.0
 11
374.5719999999999
 21
430.909
 31
0.0
  0
LINE
  5
462
330
1E
100
AcDbEntity
  8
0
100
AcDbLine
 10
431.193
 20
430.7419999999999
 30
0.0
 11
431.196
 21
434.8519999999999
 31
0.0
  0
LINE
  5
463
330
1E
100
AcDbEntity
  8
0
100
AcDbLine
 10
441.19
 20
430.7419999999999
 30
0.0
 11
441.1959999999999
 21
434.8519999999999
 31
0.0
  0
LINE
  5
464
330
1E
100
AcDbEntity
  8
0
100
AcDbLine
 10
475.746
 20
430.678
 30
0.0
 11
475.753
 21
430.899
 31
0.0
  0
LINE
  5
465
330
1E
100
AcDbEntity
  8
0
100
AcDbLine
 10
451.1899999999999
 20
430.7419999999999
 30
0.0
 11
451.196
 21
434.8519999999999
 31
0.0
  0
LINE
  5
466
330
1E
100
AcDbEntity
  8
0
100
AcDbLine
 10
421.1899999999999
 20
430.7419999999999
 30
0.0
 11
421.1959999999999
 21
434.8519999999999
 31
0.0
  0
LINE
  5
467
330
1E
100
AcDbEntity
  8
0
100
AcDbLine
 10
411.19
 20
430.7419999999999
 30
0.0
 11
411.1959999999999
 21
434.8519999999999
 31
0.0
  0
LINE
  5
468
330
1E
100
AcDbEntity
  8
0
100
AcDbLine
 10
401.193
 20
430.7419999999999
 30
0.0
 11
401.196
 21
434.8519999999999
 31
0.0
  0
LINE
  5
469
330
1E
100
AcDbEntity
  8
0
100
AcDbLine
 10
391.19
 20
430.7419999999999
 30
0.0
 11
391.1959999999999
 21
434.8519999999999
 31
0.0
  0
LINE
  5
46A
330
1E
100
AcDbEntity
  8
0
100
AcDbLine
 10
390.4419999999999
 20
430.8259999999999
 30
0.0
 11
391.767
 21
430.8259999999999
 31
0.0
  0
LINE
  5
46B
330
1E
100
AcDbEntity
  8
0
100
AcDbLine
 10
390.4419999999999
 20
430.8259999999999
 30
0.0
 11
390.443
 21
430.5889999999999
 31
0.0
  0
LINE
  5
46C
330
1E
100
AcDbEntity
  8
0
100
AcDbLine
 10
430.9859999999999
 20
430.8169999999999
 30
0.0
 11
431.003
 21
434.448
 31
0.0
  0
LINE
  5
46D
330
1E
100
AcDbEntity
  8
0
100
AcDbLine
 10
430.9859999999999
 20
430.8169999999999
 30
0.0
 11
431.193
 21
430.7419999999999
 31
0.0
  0
LINE
  5
46E
330
1E
100
AcDbEntity
  8
0
100
AcDbLine
 10
440.986
 20
430.8169999999999
 30
0.0
 11
441.003
 21
434.448
 31
0.0
  0
LINE
  5
46F
330
1E
100
AcDbEntity
  8
0
100
AcDbLine
 10
440.986
 20
430.8169999999999
 30
0.0
 11
441.19
 21
430.7419999999999
 31
0.0
  0
LINE
  5
470
330
1E
100
AcDbEntity
  8
0
100
AcDbLine
 10
475.1769999999999
 20
430.815
 30
0.0
 11
475.183
 21
434.925
 31
0.0
  0
LINE
  5
471
330
1E
100
AcDbEntity
  8
0
100
AcDbLine
 10
450.9859999999999
 20
430.8169999999999
 30
0.0
 11
451.003
 21
434.448
 31
0.0
  0
LINE
  5
472
330
1E
100
AcDbEntity
  8
0
100
AcDbLine
 10
450.9859999999999
 20
430.8169999999999
 30
0.0
 11
451.1899999999999
 21
430.7419999999999
 31
0.0
  0
LINE
  5
473
330
1E
100
AcDbEntity
  8
0
100
AcDbLine
 10
420.9859999999999
 20
430.8169999999999
 30
0.0
 11
421.003
 21
434.448
 31
0.0
  0
LINE
  5
474
330
1E
100
AcDbEntity
  8
0
100
AcDbLine
 10
420.9859999999999
 20
430.8169999999999
 30
0.0
 11
421.1899999999999
 21
430.7419999999999
 31
0.0
  0
LINE
  5
475
330
1E
100
AcDbEntity
  8
0
100
AcDbLine
 10
410.986
 20
430.8169999999999
 30
0.0
 11
411.003
 21
434.448
 31
0.0
  0
LINE
  5
476
330
1E
100
AcDbEntity
  8
0
100
AcDbLine
 10
410.986
 20
430.8169999999999
 30
0.0
 11
411.19
 21
430.7419999999999
 31
0.0
  0
LINE
  5
477
330
1E
100
AcDbEntity
  8
0
100
AcDbLine
 10
430.4419999999999
 20
430.8259999999999
 30
0.0
 11
431.7669999999999
 21
430.8259999999999
 31
0.0
  0
LINE
  5
478
330
1E
100
AcDbEntity
  8
0
100
AcDbLine
 10
430.4419999999999
 20
430.8259999999999
 30
0.0
 11
430.443
 21
430.5889999999999
 31
0.0
  0
LINE
  5
479
330
1E
100
AcDbEntity
  8
0
100
AcDbLine
 10
440.442
 20
430.8259999999999
 30
0.0
 11
441.767
 21
430.8259999999999
 31
0.0
  0
LINE
  5
47A
330
1E
100
AcDbEntity
  8
0
100
AcDbLine
 10
440.442
 20
430.8259999999999
 30
0.0
 11
440.443
 21
430.5889999999999
 31
0.0
  0
LINE
  5
47B
330
1E
100
AcDbEntity
  8
0
100
AcDbLine
 10
450.4419999999999
 20
430.8259999999999
 30
0.0
 11
451.7669999999999
 21
430.8259999999999
 31
0.0
  0
LINE
  5
47C
330
1E
100
AcDbEntity
  8
0
100
AcDbLine
 10
450.4419999999999
 20
430.8259999999999
 30
0.0
 11
450.443
 21
430.5889999999999
 31
0.0
  0
LINE
  5
47D
330
1E
100
AcDbEntity
  8
0
100
AcDbLine
 10
420.4419999999999
 20
430.8259999999999
 30
0.0
 11
421.767
 21
430.8259999999999
 31
0.0
  0
LINE
  5
47E
330
1E
100
AcDbEntity
  8
0
100
AcDbLine
 10
420.4419999999999
 20
430.8259999999999
 30
0.0
 11
420.443
 21
430.5889999999999
 31
0.0
  0
LINE
  5
47F
330
1E
100
AcDbEntity
  8
0
100
AcDbLine
 10
410.4419999999999
 20
430.8259999999999
 30
0.0
 11
411.767
 21
430.8259999999999
 31
0.0
  0
LINE
  5
480
330
1E
100
AcDbEntity
  8
0
100
AcDbLine
 10
410.4419999999999
 20
430.8259999999999
 30
0.0
 11
410.443
 21
430.5889999999999
 31
0.0
  0
LINE
  5
481
330
1E
100
AcDbEntity
  8
0
100
AcDbLine
 10
400.4419999999999
 20
430.8259999999999
 30
0.0
 11
401.7669999999999
 21
430.8259999999999
 31
0.0
  0
LINE
  5
482
330
1E
100
AcDbEntity
  8
0
100
AcDbLine
 10
400.4419999999999
 20
430.8259999999999
 30
0.0
 11
400.443
 21
430.5889999999999
 31
0.0
  0
LINE
  5
483
330
1E
100
AcDbEntity
  8
0
100
AcDbLine
 10
400.9859999999999
 20
430.8169999999999
 30
0.0
 11
401.003
 21
434.448
 31
0.0
  0
LINE
  5
484
330
1E
100
AcDbEntity
  8
0
100
AcDbLine
 10
400.9859999999999
 20
430.8169999999999
 30
0.0
 11
401.193
 21
430.7419999999999
 31
0.0
  0
LINE
  5
485
330
1E
100
AcDbEntity
  8
0
100
AcDbLine
 10
390.986
 20
430.8169999999999
 30
0.0
 11
391.003
 21
434.448
 31
0.0
  0
LINE
  5
486
330
1E
100
AcDbEntity
  8
0
100
AcDbLine
 10
390.986
 20
430.8169999999999
 30
0.0
 11
391.19
 21
430.7419999999999
 31
0.0
  0
LINE
  5
487
330
1E
100
AcDbEntity
  8
0
100
AcDbLine
 10
381.193
 20
430.7419999999999
 30
0.0
 11
381.1959999999999
 21
434.8519999999999
 31
0.0
  0
LINE
  5
488
330
1E
100
AcDbEntity
  8
0
100
AcDbLine
 10
380.986
 20
430.8169999999999
 30
0.0
 11
381.003
 21
434.448
 31
0.0
  0
LINE
  5
489
330
1E
100
AcDbEntity
  8
0
100
AcDbLine
 10
380.986
 20
430.8169999999999
 30
0.0
 11
381.193
 21
430.7419999999999
 31
0.0
  0
LINE
  5
48A
330
1E
100
AcDbEntity
  8
0
100
AcDbLine
 10
383.2459999999999
 20
430.869
 30
0.0
 11
385.6769999999999
 21
430.869
 31
0.0
  0
LINE
  5
48B
330
1E
100
AcDbEntity
  8
0
100
AcDbLine
 10
474.9719999999999
 20
430.891
 30
0.0
 11
474.99
 21
434.522
 31
0.0
  0
LINE
  5
48C
330
1E
100
AcDbEntity
  8
0
100
AcDbLine
 10
474.9719999999999
 20
430.891
 30
0.0
 11
475.1769999999999
 21
430.815
 31
0.0
  0
LINE
  5
48D
330
1E
100
AcDbEntity
  8
0
100
AcDbLine
 10
480.037
 20
430.8619999999999
 30
0.0
 11
482.4679999999999
 21
430.8619999999999
 31
0.0
  0
LINE
  5
48E
330
1E
100
AcDbEntity
  8
0
100
AcDbLine
 10
470.698
 20
430.898
 30
0.0
 11
473.13
 21
430.898
 31
0.0
  0
LINE
  5
48F
330
1E
100
AcDbEntity
  8
0
100
AcDbLine
 10
473.13
 20
430.898
 30
0.0
 11
473.1449999999999
 21
430.558
 31
0.0
  0
LINE
  5
490
330
1E
100
AcDbEntity
  8
0
100
AcDbLine
 10
460.3309999999999
 20
430.898
 30
0.0
 11
462.7619999999999
 21
430.898
 31
0.0
  0
LINE
  5
491
330
1E
100
AcDbEntity
  8
0
100
AcDbLine
 10
474.428
 20
430.899
 30
0.0
 11
475.753
 21
430.899
 31
0.0
  0
LINE
  5
492
330
1E
100
AcDbEntity
  8
0
100
AcDbLine
 10
474.428
 20
430.899
 30
0.0
 11
474.4299999999999
 21
430.6619999999999
 31
0.0
  0
LINE
  5
493
330
1E
100
AcDbEntity
  8
0
100
AcDbLine
 10
462.7619999999999
 20
430.898
 30
0.0
 11
462.778
 21
430.558
 31
0.0
  0
LINE
  5
494
330
1E
100
AcDbEntity
  8
0
100
AcDbLine
 10
385.6769999999999
 20
430.869
 30
0.0
 11
385.693
 21
430.529
 31
0.0
  0
LINE
  5
495
330
1E
100
AcDbEntity
  8
0
100
AcDbLine
 10
380.4419999999999
 20
430.8259999999999
 30
0.0
 11
381.767
 21
430.8259999999999
 31
0.0
  0
LINE
  5
496
330
1E
100
AcDbEntity
  8
0
100
AcDbLine
 10
380.4419999999999
 20
430.8259999999999
 30
0.0
 11
380.443
 21
430.5889999999999
 31
0.0
  0
LINE
  5
497
330
1E
100
AcDbEntity
  8
0
100
AcDbLine
 10
375.1349999999999
 20
430.679
 30
0.0
 11
375.1419999999999
 21
430.9
 31
0.0
  0
LINE
  5
498
330
1E
100
AcDbEntity
  8
0
100
AcDbLine
 10
393.918
 20
430.933
 30
0.0
 11
394.94
 21
430.933
 31
0.0
  0
LINE
  5
499
330
1E
100
AcDbEntity
  8
0
100
AcDbLine
 10
464.719
 20
430.948
 30
0.0
 11
465.3399999999999
 21
430.973
 31
0.0
  0
LINE
  5
49A
330
1E
100
AcDbEntity
  8
0
100
AcDbLine
 10
454.279
 20
430.952
 30
0.0
 11
455.453
 21
432.106
 31
0.0
  0
LINE
  5
49B
330
1E
100
AcDbEntity
  8
0
100
AcDbLine
 10
453.685
 20
430.945
 30
0.0
 11
453.694
 21
430.515
 31
0.0
  0
LINE
  5
49C
330
1E
100
AcDbEntity
  8
0
100
AcDbLine
 10
453.685
 20
430.945
 30
0.0
 11
454.279
 21
430.952
 31
0.0
  0
LINE
  5
49D
330
1E
100
AcDbEntity
  8
0
100
AcDbLine
 10
394.94
 20
430.933
 30
0.0
 11
395.343
 21
431.367
 31
0.0
  0
LINE
  5
49E
330
1E
100
AcDbEntity
  8
0
100
AcDbLine
 10
373.8169999999999
 20
430.9
 30
0.0
 11
375.1419999999999
 21
430.9
 31
0.0
  0
LINE
  5
49F
330
1E
100
AcDbEntity
  8
0
100
AcDbLine
 10
373.8169999999999
 20
430.9
 30
0.0
 11
373.819
 21
430.663
 31
0.0
  0
LINE
  5
4A0
330
1E
100
AcDbEntity
  8
0
100
AcDbLine
 10
371.6319999999999
 20
430.8669999999999
 30
0.0
 11
371.649
 21
434.498
 31
0.0
  0
LINE
  5
4A1
330
1E
100
AcDbEntity
  8
0
100
AcDbLine
 10
371.6319999999999
 20
430.8669999999999
 30
0.0
 11
371.842
 21
430.884
 31
0.0
  0
LINE
  5
4A2
330
1E
100
AcDbEntity
  8
0
100
AcDbLine
 10
465.3399999999999
 20
430.973
 30
0.0
 11
465.836
 21
431.394
 31
0.0
  0
LINE
  5
4A3
330
1E
100
AcDbEntity
  8
0
100
AcDbLine
 10
364.1019999999999
 20
430.97
 30
0.0
 11
364.723
 21
430.9949999999999
 31
0.0
  0
LINE
  5
4A4
330
1E
100
AcDbEntity
  8
0
100
AcDbLine
 10
352.923
 20
430.952
 30
0.0
 11
354.0969999999999
 21
432.106
 31
0.0
  0
LINE
  5
4A5
330
1E
100
AcDbEntity
  8
0
100
AcDbLine
 10
352.3299999999999
 20
430.945
 30
0.0
 11
352.338
 21
430.515
 31
0.0
  0
LINE
  5
4A6
330
1E
100
AcDbEntity
  8
0
100
AcDbLine
 10
352.3299999999999
 20
430.945
 30
0.0
 11
352.923
 21
430.952
 31
0.0
  0
LINE
  5
4A7
330
1E
100
AcDbEntity
  8
0
100
AcDbLine
 10
343.605
 20
430.973
 30
0.0
 11
344.1539999999999
 21
431.4469999999999
 31
0.0
  0
LINE
  5
4A8
330
1E
100
AcDbEntity
  8
0
100
AcDbLine
 10
342.5659999999999
 20
430.973
 30
0.0
 11
343.605
 21
430.973
 31
0.0
  0
LINE
  5
4A9
330
1E
100
AcDbEntity
  8
0
100
AcDbLine
 10
332.18
 20
430.6759999999999
 30
0.0
 11
332.744
 21
430.6759999999999
 31
0.0
  0
LINE
  5
4AA
330
1E
100
AcDbEntity
  8
0
100
AcDbLine
 10
332.18
 20
430.6759999999999
 30
0.0
 11
333.975
 21
434.546
 31
0.0
  0
LINE
  5
4AB
330
1E
100
AcDbEntity
  8
0
100
AcDbLine
 10
323.605
 20
430.973
 30
0.0
 11
324.154
 21
431.4469999999999
 31
0.0
  0
LINE
  5
4AC
330
1E
100
AcDbEntity
  8
0
100
AcDbLine
 10
322.5659999999999
 20
430.973
 30
0.0
 11
323.605
 21
430.973
 31
0.0
  0
LINE
  5
4AD
330
1E
100
AcDbEntity
  8
0
100
AcDbLine
 10
322.255
 20
430.528
 30
0.0
 11
323.902
 21
430.513
 31
0.0
  0
LINE
  5
4AE
330
1E
100
AcDbEntity
  8
0
100
AcDbLine
 10
313.938
 20
430.513
 30
0.0
 11
314.724
 21
431.343
 31
0.0
  0
LINE
  5
4AF
330
1E
100
AcDbEntity
  8
0
100
AcDbLine
 10
313.6709999999999
 20
430.987
 30
0.0
 11
314.1159999999999
 21
431.4619999999999
 31
0.0
  0
LINE
  5
4B0
330
1E
100
AcDbEntity
  8
0
100
AcDbLine
 10
444.9119999999999
 20
431.0209999999999
 30
0.0
 11
445.461
 21
431.495
 31
0.0
  0
LINE
  5
4B1
330
1E
100
AcDbEntity
  8
0
100
AcDbLine
 10
443.874
 20
431.0209999999999
 30
0.0
 11
444.9119999999999
 21
431.0209999999999
 31
0.0
  0
LINE
  5
4B2
330
1E
100
AcDbEntity
  8
0
100
AcDbLine
 10
425.009
 20
431.0209999999999
 30
0.0
 11
425.558
 21
431.495
 31
0.0
  0
LINE
  5
4B3
330
1E
100
AcDbEntity
  8
0
100
AcDbLine
 10
423.971
 20
431.0209999999999
 30
0.0
 11
425.009
 21
431.0209999999999
 31
0.0
  0
LINE
  5
4B4
330
1E
100
AcDbEntity
  8
0
100
AcDbLine
 10
415.026
 20
431.036
 30
0.0
 11
415.472
 21
431.51
 31
0.0
  0
LINE
  5
4B5
330
1E
100
AcDbEntity
  8
0
100
AcDbLine
 10
413.8989999999999
 20
431.036
 30
0.0
 11
415.026
 21
431.036
 31
0.0
  0
LINE
  5
4B6
330
1E
100
AcDbEntity
  8
0
100
AcDbLine
 10
392.943
 20
431.258
 30
0.0
 11
393.283
 21
431.522
 31
0.0
  0
LINE
  5
4B7
330
1E
100
AcDbEntity
  8
0
100
AcDbLine
 10
392.943
 20
431.258
 30
0.0
 11
393.624
 21
430.5469999999999
 31
0.0
  0
LINE
  5
4B8
330
1E
100
AcDbEntity
  8
0
100
AcDbLine
 10
364.723
 20
430.9949999999999
 30
0.0
 11
365.219
 21
431.416
 31
0.0
  0
LINE
  5
4B9
330
1E
100
AcDbEntity
  8
0
100
AcDbLine
 10
312.543
 20
430.987
 30
0.0
 11
313.6709999999999
 21
430.987
 31
0.0
  0
LINE
  5
4BA
330
1E
100
AcDbEntity
  8
0
100
AcDbLine
 10
312.365
 20
430.543
 30
0.0
 11
313.938
 21
430.513
 31
0.0
  0
LINE
  5
4BB
330
1E
100
AcDbEntity
  8
0
100
AcDbLine
 10
304.586
 20
432.223
 30
0.0
 11
304.61
 21
431.8959999999999
 31
0.0
  0
LINE
  5
4BC
330
1E
100
AcDbEntity
  8
0
100
AcDbLine
 10
302.2499999999999
 20
432.223
 30
0.0
 11
303.738
 21
434.328
 31
0.0
  0
LINE
  5
4BD
330
1E
100
AcDbEntity
  8
0
100
AcDbLine
 10
302.2499999999999
 20
432.223
 30
0.0
 11
304.586
 21
432.223
 31
0.0
  0
LINE
  5
4BE
330
1E
100
AcDbEntity
  8
0
100
AcDbLine
 10
301.632
 20
431.9569999999999
 30
0.0
 11
303.908
 21
434.9079999999999
 31
0.0
  0
LINE
  5
4BF
330
1E
100
AcDbEntity
  8
0
100
AcDbLine
 10
301.632
 20
431.9569999999999
 30
0.0
 11
304.61
 21
431.8959999999999
 31
0.0
  0
LINE
  5
4C0
330
1E
100
AcDbEntity
  8
0
100
AcDbLine
 10
303.908
 20
434.9079999999999
 30
0.0
 11
304.041
 21
430.674
 31
0.0
  0
LINE
  5
4C1
330
1E
100
AcDbEntity
  8
0
100
AcDbLine
 10
311.4599999999999
 20
435.006
 30
0.0
 11
311.549
 21
433.1369999999999
 31
0.0
  0
LINE
  5
4C2
330
1E
100
AcDbEntity
  8
0
100
AcDbLine
 10
311.4599999999999
 20
435.006
 30
0.0
 11
314.4719999999999
 21
435.006
 31
0.0
  0
LINE
  5
4C3
330
1E
100
AcDbEntity
  8
0
100
AcDbLine
 10
311.549
 20
433.1369999999999
 30
0.0
 11
313.656
 21
433.108
 31
0.0
  0
LINE
  5
4C4
330
1E
100
AcDbEntity
  8
0
100
AcDbLine
 10
463.727
 20
431.345
 30
0.0
 11
463.801
 21
434.0969999999999
 31
0.0
  0
LINE
  5
4C5
330
1E
100
AcDbEntity
  8
0
100
AcDbLine
 10
463.727
 20
431.345
 30
0.0
 11
464.62
 21
430.526
 31
0.0
  0
LINE
  5
4C6
330
1E
100
AcDbEntity
  8
0
100
AcDbLine
 10
412.9199999999999
 20
431.332
 30
0.0
 11
413.721
 21
430.5909999999999
 31
0.0
  0
LINE
  5
4C7
330
1E
100
AcDbEntity
  8
0
100
AcDbLine
 10
412.9199999999999
 20
431.332
 30
0.0
 11
413.335
 21
431.629
 31
0.0
  0
LINE
  5
4C8
330
1E
100
AcDbEntity
  8
0
100
AcDbLine
 10
395.9469999999999
 20
431.289
 30
0.0
 11
395.978
 21
432.1409999999999
 31
0.0
  0
LINE
  5
4C9
330
1E
100
AcDbEntity
  8
0
100
AcDbLine
 10
464.198
 20
431.3699999999999
 30
0.0
 11
464.273
 21
434.023
 31
0.0
  0
LINE
  5
4CA
330
1E
100
AcDbEntity
  8
0
100
AcDbLine
 10
464.198
 20
431.3699999999999
 30
0.0
 11
464.719
 21
430.948
 31
0.0
  0
LINE
  5
4CB
330
1E
100
AcDbEntity
  8
0
100
AcDbLine
 10
395.343
 20
431.367
 30
0.0
 11
395.4049999999999
 21
432.0009999999999
 31
0.0
  0
LINE
  5
4CC
330
1E
100
AcDbEntity
  8
0
100
AcDbLine
 10
363.1099999999999
 20
431.367
 30
0.0
 11
363.184
 21
434.119
 31
0.0
  0
LINE
  5
4CD
330
1E
100
AcDbEntity
  8
0
100
AcDbLine
 10
363.1099999999999
 20
431.367
 30
0.0
 11
364.003
 21
430.548
 31
0.0
  0
LINE
  5
4CE
330
1E
100
AcDbEntity
  8
0
100
AcDbLine
 10
416.08
 20
431.392
 30
0.0
 11
416.08
 21
432.874
 31
0.0
  0
LINE
  5
4CF
330
1E
100
AcDbEntity
  8
0
100
AcDbLine
 10
465.836
 20
431.394
 30
0.0
 11
465.861
 21
433.874
 31
0.0
  0
LINE
  5
4D0
330
1E
100
AcDbEntity
  8
0
100
AcDbLine
 10
442.806
 20
431.4359999999999
 30
0.0
 11
442.8139999999999
 21
432.0509999999999
 31
0.0
  0
LINE
  5
4D1
330
1E
100
AcDbEntity
  8
0
100
AcDbLine
 10
442.806
 20
431.4359999999999
 30
0.0
 11
443.5619999999999
 21
430.5759999999999
 31
0.0
  0
LINE
  5
4D2
330
1E
100
AcDbEntity
  8
0
100
AcDbLine
 10
422.902
 20
431.4359999999999
 30
0.0
 11
423.6589999999999
 21
430.5759999999999
 31
0.0
  0
LINE
  5
4D3
330
1E
100
AcDbEntity
  8
0
100
AcDbLine
 10
393.283
 20
431.522
 30
0.0
 11
393.918
 21
430.933
 31
0.0
  0
LINE
  5
4D4
330
1E
100
AcDbEntity
  8
0
100
AcDbLine
 10
365.219
 20
431.416
 30
0.0
 11
365.243
 21
433.8959999999999
 31
0.0
  0
LINE
  5
4D5
330
1E
100
AcDbEntity
  8
0
100
AcDbLine
 10
363.5809999999999
 20
431.392
 30
0.0
 11
363.656
 21
434.045
 31
0.0
  0
LINE
  5
4D6
330
1E
100
AcDbEntity
  8
0
100
AcDbLine
 10
363.5809999999999
 20
431.392
 30
0.0
 11
364.1019999999999
 21
430.97
 31
0.0
  0
LINE
  5
4D7
330
1E
100
AcDbEntity
  8
0
100
AcDbLine
 10
342.018
 20
431.566
 30
0.0
 11
342.0249999999999
 21
432.003
 31
0.0
  0
LINE
  5
4D8
330
1E
100
AcDbEntity
  8
0
100
AcDbLine
 10
342.018
 20
431.566
 30
0.0
 11
342.5659999999999
 21
430.973
 31
0.0
  0
LINE
  5
4D9
330
1E
100
AcDbEntity
  8
0
100
AcDbLine
 10
341.498
 20
431.388
 30
0.0
 11
341.5059999999999
 21
432.003
 31
0.0
  0
LINE
  5
4DA
330
1E
100
AcDbEntity
  8
0
100
AcDbLine
 10
341.498
 20
431.388
 30
0.0
 11
342.255
 21
430.528
 31
0.0
  0
LINE
  5
4DB
330
1E
100
AcDbEntity
  8
0
100
AcDbLine
 10
321.498
 20
431.388
 30
0.0
 11
322.255
 21
430.528
 31
0.0
  0
LINE
  5
4DC
330
1E
100
AcDbEntity
  8
0
100
AcDbLine
 10
321.9879999999999
 20
432.5
 30
0.0
 11
323.679
 21
432.5
 31
0.0
  0
LINE
  5
4DD
330
1E
100
AcDbEntity
  8
0
100
AcDbLine
 10
321.9879999999999
 20
432.5
 30
0.0
 11
322.0029999999999
 21
432.945
 31
0.0
  0
LINE
  5
4DE
330
1E
100
AcDbEntity
  8
0
100
AcDbLine
 10
323.679
 20
432.5
 30
0.0
 11
324.154
 21
431.9659999999999
 31
0.0
  0
LINE
  5
4DF
330
1E
100
AcDbEntity
  8
0
100
AcDbLine
 10
342.0249999999999
 20
432.003
 30
0.0
 11
342.419
 21
432.48
 31
0.0
  0
LINE
  5
4E0
330
1E
100
AcDbEntity
  8
0
100
AcDbLine
 10
341.5059999999999
 20
432.003
 30
0.0
 11
342.0659999999999
 21
432.666
 31
0.0
  0
LINE
  5
4E1
330
1E
100
AcDbEntity
  8
0
100
AcDbLine
 10
443.325
 20
431.614
 30
0.0
 11
443.332
 21
432.0509999999999
 31
0.0
  0
LINE
  5
4E2
330
1E
100
AcDbEntity
  8
0
100
AcDbLine
 10
443.325
 20
431.614
 30
0.0
 11
443.874
 21
431.0209999999999
 31
0.0
  0
LINE
  5
4E3
330
1E
100
AcDbEntity
  8
0
100
AcDbLine
 10
423.4219999999999
 20
431.614
 30
0.0
 11
423.4509999999999
 21
433.364
 31
0.0
  0
LINE
  5
4E4
330
1E
100
AcDbEntity
  8
0
100
AcDbLine
 10
423.4219999999999
 20
431.614
 30
0.0
 11
423.971
 21
431.0209999999999
 31
0.0
  0
LINE
  5
4E5
330
1E
100
AcDbEntity
  8
0
100
AcDbLine
 10
480.037
 20
431.976
 30
0.0
 11
480.037
 21
430.8619999999999
 31
0.0
  0
LINE
  5
4E6
330
1E
100
AcDbEntity
  8
0
100
AcDbLine
 10
480.037
 20
431.976
 30
0.0
 11
480.6099999999999
 21
432.471
 31
0.0
  0
LINE
  5
4E7
330
1E
100
AcDbEntity
  8
0
100
AcDbLine
 10
456.0
 20
431.9799999999999
 30
0.0
 11
456.029
 21
434.0259999999999
 31
0.0
  0
LINE
  5
4E8
330
1E
100
AcDbEntity
  8
0
100
AcDbLine
 10
413.335
 20
431.629
 30
0.0
 11
413.8989999999999
 21
431.036
 31
0.0
  0
LINE
  5
4E9
330
1E
100
AcDbEntity
  8
0
100
AcDbLine
 10
402.883
 20
431.942
 30
0.0
 11
405.158
 21
434.893
 31
0.0
  0
LINE
  5
4EA
330
1E
100
AcDbEntity
  8
0
100
AcDbLine
 10
402.883
 20
431.942
 30
0.0
 11
405.8609999999999
 21
431.881
 31
0.0
  0
LINE
  5
4EB
330
1E
100
AcDbEntity
  8
0
100
AcDbLine
 10
470.698
 20
432.013
 30
0.0
 11
470.698
 21
430.898
 31
0.0
  0
LINE
  5
4EC
330
1E
100
AcDbEntity
  8
0
100
AcDbLine
 10
470.698
 20
432.013
 30
0.0
 11
471.2709999999999
 21
432.508
 31
0.0
  0
LINE
  5
4ED
330
1E
100
AcDbEntity
  8
0
100
AcDbLine
 10
460.3309999999999
 20
432.013
 30
0.0
 11
460.3309999999999
 21
430.898
 31
0.0
  0
LINE
  5
4EE
330
1E
100
AcDbEntity
  8
0
100
AcDbLine
 10
460.3309999999999
 20
432.013
 30
0.0
 11
460.904
 21
432.508
 31
0.0
  0
LINE
  5
4EF
330
1E
100
AcDbEntity
  8
0
100
AcDbLine
 10
479.573
 20
432.146
 30
0.0
 11
479.603
 21
430.5209999999999
 31
0.0
  0
LINE
  5
4F0
330
1E
100
AcDbEntity
  8
0
100
AcDbLine
 10
479.573
 20
432.146
 30
0.0
 11
480.2999999999999
 21
432.874
 31
0.0
  0
LINE
  5
4F1
330
1E
100
AcDbEntity
  8
0
100
AcDbLine
 10
470.234
 20
432.183
 30
0.0
 11
470.265
 21
430.558
 31
0.0
  0
LINE
  5
4F2
330
1E
100
AcDbEntity
  8
0
100
AcDbLine
 10
470.234
 20
432.183
 30
0.0
 11
470.962
 21
432.91
 31
0.0
  0
LINE
  5
4F3
330
1E
100
AcDbEntity
  8
0
100
AcDbLine
 10
459.8659999999999
 20
432.183
 30
0.0
 11
459.897
 21
430.558
 31
0.0
  0
LINE
  5
4F4
330
1E
100
AcDbEntity
  8
0
100
AcDbLine
 10
459.8659999999999
 20
432.183
 30
0.0
 11
460.594
 21
432.91
 31
0.0
  0
LINE
  5
4F5
330
1E
100
AcDbEntity
  8
0
100
AcDbLine
 10
455.453
 20
432.106
 30
0.0
 11
455.5069999999999
 21
433.855
 31
0.0
  0
LINE
  5
4F6
330
1E
100
AcDbEntity
  8
0
100
AcDbLine
 10
443.332
 20
432.0509999999999
 30
0.0
 11
443.7269999999999
 21
432.528
 31
0.0
  0
LINE
  5
4F7
330
1E
100
AcDbEntity
  8
0
100
AcDbLine
 10
442.8139999999999
 20
432.0509999999999
 30
0.0
 11
443.374
 21
432.7149999999999
 31
0.0
  0
LINE
  5
4F8
330
1E
100
AcDbEntity
  8
0
100
AcDbLine
 10
445.461
 20
432.014
 30
0.0
 11
445.461
 21
431.495
 31
0.0
  0
LINE
  5
4F9
330
1E
100
AcDbEntity
  8
0
100
AcDbLine
 10
425.558
 20
432.014
 30
0.0
 11
425.558
 21
431.495
 31
0.0
  0
LINE
  5
4FA
330
1E
100
AcDbEntity
  8
0
100
AcDbLine
 10
405.836
 20
432.208
 30
0.0
 11
405.8609999999999
 21
431.881
 31
0.0
  0
LINE
  5
4FB
330
1E
100
AcDbEntity
  8
0
100
AcDbLine
 10
403.5
 20
432.208
 30
0.0
 11
404.989
 21
434.313
 31
0.0
  0
LINE
  5
4FC
330
1E
100
AcDbEntity
  8
0
100
AcDbLine
 10
403.5
 20
432.208
 30
0.0
 11
405.836
 21
432.208
 31
0.0
  0
LINE
  5
4FD
330
1E
100
AcDbEntity
  8
0
100
AcDbLine
 10
383.2459999999999
 20
431.983
 30
0.0
 11
383.2459999999999
 21
430.869
 31
0.0
  0
LINE
  5
4FE
330
1E
100
AcDbEntity
  8
0
100
AcDbLine
 10
383.2459999999999
 20
431.983
 30
0.0
 11
383.819
 21
432.479
 31
0.0
  0
LINE
  5
4FF
330
1E
100
AcDbEntity
  8
0
100
AcDbLine
 10
382.7809999999999
 20
432.1539999999999
 30
0.0
 11
382.8119999999999
 21
430.529
 31
0.0
  0
LINE
  5
500
330
1E
100
AcDbEntity
  8
0
100
AcDbLine
 10
382.7809999999999
 20
432.1539999999999
 30
0.0
 11
383.509
 21
432.8809999999999
 31
0.0
  0
LINE
  5
501
330
1E
100
AcDbEntity
  8
0
100
AcDbLine
 10
354.644
 20
431.9799999999999
 30
0.0
 11
354.673
 21
434.0259999999999
 31
0.0
  0
LINE
  5
502
330
1E
100
AcDbEntity
  8
0
100
AcDbLine
 10
354.0969999999999
 20
432.106
 30
0.0
 11
354.1519999999999
 21
433.855
 31
0.0
  0
LINE
  5
503
330
1E
100
AcDbEntity
  8
0
100
AcDbLine
 10
344.658
 20
432.218
 30
0.0
 11
344.673
 21
431.3579999999999
 31
0.0
  0
LINE
  5
504
330
1E
100
AcDbEntity
  8
0
100
AcDbLine
 10
344.1539999999999
 20
431.9659999999999
 30
0.0
 11
344.1539999999999
 21
431.4469999999999
 31
0.0
  0
LINE
  5
505
330
1E
100
AcDbEntity
  8
0
100
AcDbLine
 10
342.419
 20
432.48
 30
0.0
 11
342.419
 21
432.9769999999999
 31
0.0
  0
LINE
  5
506
330
1E
100
AcDbEntity
  8
0
100
AcDbLine
 10
342.419
 20
432.48
 30
0.0
 11
343.679
 21
432.5
 31
0.0
  0
LINE
  5
507
330
1E
100
AcDbEntity
  8
0
100
AcDbLine
 10
453.588
 20
432.4589999999999
 30
0.0
 11
455.5019999999999
 21
432.476
 31
0.0
  0
LINE
  5
508
330
1E
100
AcDbEntity
  8
0
100
AcDbLine
 10
445.966
 20
432.267
 30
0.0
 11
445.98
 21
431.406
 31
0.0
  0
LINE
  5
509
330
1E
100
AcDbEntity
  8
0
100
AcDbLine
 10
426.0619999999999
 20
432.267
 30
0.0
 11
426.0769999999999
 21
431.406
 31
0.0
  0
LINE
  5
50A
330
1E
100
AcDbEntity
  8
0
100
AcDbLine
 10
455.5019999999999
 20
432.476
 30
0.0
 11
455.524
 21
432.9209999999999
 31
0.0
  0
LINE
  5
50B
330
1E
100
AcDbEntity
  8
0
100
AcDbLine
 10
471.2709999999999
 20
432.508
 30
0.0
 11
472.5569999999999
 21
432.5549999999999
 31
0.0
  0
LINE
  5
50C
330
1E
100
AcDbEntity
  8
0
100
AcDbLine
 10
460.904
 20
432.508
 30
0.0
 11
462.189
 21
432.5549999999999
 31
0.0
  0
LINE
  5
50D
330
1E
100
AcDbEntity
  8
0
100
AcDbLine
 10
443.7269999999999
 20
432.528
 30
0.0
 11
443.7269999999999
 21
433.0259999999999
 31
0.0
  0
LINE
  5
50E
330
1E
100
AcDbEntity
  8
0
100
AcDbLine
 10
443.7269999999999
 20
432.528
 30
0.0
 11
444.986
 21
432.5479999999999
 31
0.0
  0
LINE
  5
50F
330
1E
100
AcDbEntity
  8
0
100
AcDbLine
 10
394.9869999999999
 20
432.5429999999999
 30
0.0
 11
395.4049999999999
 21
432.0009999999999
 31
0.0
  0
LINE
  5
510
330
1E
100
AcDbEntity
  8
0
100
AcDbLine
 10
423.392
 20
432.5479999999999
 30
0.0
 11
425.083
 21
432.5479999999999
 31
0.0
  0
LINE
  5
511
330
1E
100
AcDbEntity
  8
0
100
AcDbLine
 10
423.392
 20
432.5479999999999
 30
0.0
 11
423.407
 21
432.993
 31
0.0
  0
LINE
  5
512
330
1E
100
AcDbEntity
  8
0
100
AcDbLine
 10
472.5569999999999
 20
432.5549999999999
 30
0.0
 11
473.362
 21
433.359
 31
0.0
  0
LINE
  5
513
330
1E
100
AcDbEntity
  8
0
100
AcDbLine
 10
462.189
 20
432.5549999999999
 30
0.0
 11
462.995
 21
433.359
 31
0.0
  0
LINE
  5
514
330
1E
100
AcDbEntity
  8
0
100
AcDbLine
 10
444.986
 20
432.5479999999999
 30
0.0
 11
445.461
 21
432.014
 31
0.0
  0
LINE
  5
515
330
1E
100
AcDbEntity
  8
0
100
AcDbLine
 10
444.986
 20
432.5479999999999
 30
0.0
 11
445.4489999999999
 21
432.756
 31
0.0
  0
LINE
  5
516
330
1E
100
AcDbEntity
  8
0
100
AcDbLine
 10
425.083
 20
432.5479999999999
 30
0.0
 11
425.558
 21
432.014
 31
0.0
  0
LINE
  5
517
330
1E
100
AcDbEntity
  8
0
100
AcDbLine
 10
394.3569999999999
 20
432.544
 30
0.0
 11
394.3569999999999
 21
432.7069999999999
 31
0.0
  0
LINE
  5
518
330
1E
100
AcDbEntity
  8
0
100
AcDbLine
 10
394.3569999999999
 20
432.544
 30
0.0
 11
394.9869999999999
 21
432.5429999999999
 31
0.0
  0
LINE
  5
519
330
1E
100
AcDbEntity
  8
0
100
AcDbLine
 10
385.104
 20
432.5249999999999
 30
0.0
 11
385.909
 21
433.33
 31
0.0
  0
LINE
  5
51A
330
1E
100
AcDbEntity
  8
0
100
AcDbLine
 10
383.819
 20
432.479
 30
0.0
 11
385.104
 21
432.5249999999999
 31
0.0
  0
LINE
  5
51B
330
1E
100
AcDbEntity
  8
0
100
AcDbLine
 10
354.1469999999999
 20
432.476
 30
0.0
 11
354.1679999999999
 21
432.9209999999999
 31
0.0
  0
LINE
  5
51C
330
1E
100
AcDbEntity
  8
0
100
AcDbLine
 10
352.233
 20
432.4589999999999
 30
0.0
 11
354.1469999999999
 21
432.476
 31
0.0
  0
LINE
  5
51D
330
1E
100
AcDbEntity
  8
0
100
AcDbLine
 10
343.679
 20
432.5
 30
0.0
 11
344.1539999999999
 21
431.9659999999999
 31
0.0
  0
LINE
  5
51E
330
1E
100
AcDbEntity
  8
0
100
AcDbLine
 10
343.679
 20
432.5
 30
0.0
 11
344.1409999999999
 21
432.708
 31
0.0
  0
LINE
  5
51F
330
1E
100
AcDbEntity
  8
0
100
AcDbLine
 10
324.658
 20
432.218
 30
0.0
 11
324.6729999999999
 21
431.3579999999999
 31
0.0
  0
LINE
  5
520
330
1E
100
AcDbEntity
  8
0
100
AcDbLine
 10
324.154
 20
431.9659999999999
 30
0.0
 11
324.154
 21
431.4469999999999
 31
0.0
  0
LINE
  5
521
330
1E
100
AcDbEntity
  8
0
100
AcDbLine
 10
322.0179999999999
 20
431.566
 30
0.0
 11
322.047
 21
433.3149999999999
 31
0.0
  0
LINE
  5
522
330
1E
100
AcDbEntity
  8
0
100
AcDbLine
 10
322.0179999999999
 20
431.566
 30
0.0
 11
322.5659999999999
 21
430.973
 31
0.0
  0
LINE
  5
523
330
1E
100
AcDbEntity
  8
0
100
AcDbLine
 10
314.724
 20
431.343
 30
0.0
 11
314.724
 21
432.8259999999999
 31
0.0
  0
LINE
  5
524
330
1E
100
AcDbEntity
  8
0
100
AcDbLine
 10
311.994
 20
434.531
 30
0.0
 11
312.009
 21
433.642
 31
0.0
  0
LINE
  5
525
330
1E
100
AcDbEntity
  8
0
100
AcDbLine
 10
311.994
 20
434.531
 30
0.0
 11
314.413
 21
434.531
 31
0.0
  0
LINE
  5
526
330
1E
100
AcDbEntity
  8
0
100
AcDbLine
 10
312.009
 20
433.642
 30
0.0
 11
313.938
 21
433.656
 31
0.0
  0
LINE
  5
527
330
1E
100
AcDbEntity
  8
0
100
AcDbLine
 10
322.0029999999999
 20
432.945
 30
0.0
 11
323.917
 21
432.989
 31
0.0
  0
LINE
  5
528
330
1E
100
AcDbEntity
  8
0
100
AcDbLine
 10
415.472
 20
432.667
 30
0.0
 11
415.472
 21
431.51
 31
0.0
  0
LINE
  5
529
330
1E
100
AcDbEntity
  8
0
100
AcDbLine
 10
395.44
 20
432.7069999999999
 30
0.0
 11
395.978
 21
433.359
 31
0.0
  0
LINE
  5
52A
330
1E
100
AcDbEntity
  8
0
100
AcDbLine
 10
395.44
 20
432.7069999999999
 30
0.0
 11
395.978
 21
432.1409999999999
 31
0.0
  0
LINE
  5
52B
330
1E
100
AcDbEntity
  8
0
100
AcDbLine
 10
394.3569999999999
 20
432.7069999999999
 30
0.0
 11
394.3719999999999
 21
432.8999999999999
 31
0.0
  0
LINE
  5
52C
330
1E
100
AcDbEntity
  8
0
100
AcDbLine
 10
342.0659999999999
 20
432.666
 30
0.0
 11
342.419
 21
432.48
 31
0.0
  0
LINE
  5
52D
330
1E
100
AcDbEntity
  8
0
100
AcDbLine
 10
342.0659999999999
 20
432.666
 30
0.0
 11
342.419
 21
432.9769999999999
 31
0.0
  0
LINE
  5
52E
330
1E
100
AcDbEntity
  8
0
100
AcDbLine
 10
342.419
 20
432.9769999999999
 30
0.0
 11
343.679
 21
432.957
 31
0.0
  0
LINE
  5
52F
330
1E
100
AcDbEntity
  8
0
100
AcDbLine
 10
343.679
 20
432.957
 30
0.0
 11
344.1539999999999
 21
433.4909999999999
 31
0.0
  0
LINE
  5
530
330
1E
100
AcDbEntity
  8
0
100
AcDbLine
 10
343.679
 20
432.957
 30
0.0
 11
344.1409999999999
 21
432.708
 31
0.0
  0
LINE
  5
531
330
1E
100
AcDbEntity
  8
0
100
AcDbLine
 10
343.679
 20
432.957
 30
0.0
 11
343.679
 21
432.5
 31
0.0
  0
LINE
  5
532
330
1E
100
AcDbEntity
  8
0
100
AcDbLine
 10
344.658
 20
433.239
 30
0.0
 11
344.673
 21
434.0989999999999
 31
0.0
  0
LINE
  5
533
330
1E
100
AcDbEntity
  8
0
100
AcDbLine
 10
443.374
 20
432.7149999999999
 30
0.0
 11
443.7269999999999
 21
433.0259999999999
 31
0.0
  0
LINE
  5
534
330
1E
100
AcDbEntity
  8
0
100
AcDbLine
 10
443.374
 20
432.7149999999999
 30
0.0
 11
443.7269999999999
 21
432.528
 31
0.0
  0
LINE
  5
535
330
1E
100
AcDbEntity
  8
0
100
AcDbLine
 10
470.962
 20
432.91
 30
0.0
 11
472.3709999999999
 21
432.957
 31
0.0
  0
LINE
  5
536
330
1E
100
AcDbEntity
  8
0
100
AcDbLine
 10
460.594
 20
432.91
 30
0.0
 11
462.004
 21
432.957
 31
0.0
  0
LINE
  5
537
330
1E
100
AcDbEntity
  8
0
100
AcDbLine
 10
445.4489999999999
 20
432.756
 30
0.0
 11
445.966
 21
433.2869999999999
 31
0.0
  0
LINE
  5
538
330
1E
100
AcDbEntity
  8
0
100
AcDbLine
 10
445.4489999999999
 20
432.756
 30
0.0
 11
445.966
 21
432.267
 31
0.0
  0
LINE
  5
539
330
1E
100
AcDbEntity
  8
0
100
AcDbLine
 10
394.3719999999999
 20
432.8999999999999
 30
0.0
 11
394.9869999999999
 21
432.957
 31
0.0
  0
LINE
  5
53A
330
1E
100
AcDbEntity
  8
0
100
AcDbLine
 10
453.833
 20
432.945
 30
0.0
 11
455.524
 21
432.9209999999999
 31
0.0
  0
LINE
  5
53B
330
1E
100
AcDbEntity
  8
0
100
AcDbLine
 10
384.918
 20
432.928
 30
0.0
 11
385.336
 21
433.469
 31
0.0
  0
LINE
  5
53C
330
1E
100
AcDbEntity
  8
0
100
AcDbLine
 10
383.509
 20
432.8809999999999
 30
0.0
 11
384.918
 21
432.928
 31
0.0
  0
LINE
  5
53D
330
1E
100
AcDbEntity
  8
0
100
AcDbLine
 10
423.407
 20
432.993
 30
0.0
 11
425.321
 21
433.0379999999999
 31
0.0
  0
LINE
  5
53E
330
1E
100
AcDbEntity
  8
0
100
AcDbLine
 10
472.3709999999999
 20
432.957
 30
0.0
 11
472.789
 21
433.499
 31
0.0
  0
LINE
  5
53F
330
1E
100
AcDbEntity
  8
0
100
AcDbLine
 10
462.004
 20
432.957
 30
0.0
 11
462.422
 21
433.499
 31
0.0
  0
LINE
  5
540
330
1E
100
AcDbEntity
  8
0
100
AcDbLine
 10
443.7269999999999
 20
433.0259999999999
 30
0.0
 11
444.986
 21
433.0049999999999
 31
0.0
  0
LINE
  5
541
330
1E
100
AcDbEntity
  8
0
100
AcDbLine
 10
444.986
 20
433.0049999999999
 30
0.0
 11
445.461
 21
433.539
 31
0.0
  0
LINE
  5
542
330
1E
100
AcDbEntity
  8
0
100
AcDbLine
 10
444.986
 20
433.0049999999999
 30
0.0
 11
445.4489999999999
 21
432.756
 31
0.0
  0
LINE
  5
543
330
1E
100
AcDbEntity
  8
0
100
AcDbLine
 10
444.986
 20
433.0049999999999
 30
0.0
 11
444.986
 21
432.5479999999999
 31
0.0
  0
LINE
  5
544
330
1E
100
AcDbEntity
  8
0
100
AcDbLine
 10
425.321
 20
433.0379999999999
 30
0.0
 11
426.0619999999999
 21
432.267
 31
0.0
  0
LINE
  5
545
330
1E
100
AcDbEntity
  8
0
100
AcDbLine
 10
452.857
 20
433.241
 30
0.0
 11
453.588
 21
432.4589999999999
 31
0.0
  0
LINE
  5
546
330
1E
100
AcDbEntity
  8
0
100
AcDbLine
 10
445.966
 20
433.2869999999999
 30
0.0
 11
445.98
 21
434.147
 31
0.0
  0
LINE
  5
547
330
1E
100
AcDbEntity
  8
0
100
AcDbLine
 10
412.9049999999999
 20
433.1859999999999
 30
0.0
 11
415.0119999999999
 21
433.156
 31
0.0
  0
LINE
  5
548
330
1E
100
AcDbEntity
  8
0
100
AcDbLine
 10
415.0119999999999
 20
433.156
 30
0.0
 11
415.472
 21
432.667
 31
0.0
  0
LINE
  5
549
330
1E
100
AcDbEntity
  8
0
100
AcDbLine
 10
394.9869999999999
 20
432.957
 30
0.0
 11
395.4049999999999
 21
433.499
 31
0.0
  0
LINE
  5
54A
330
1E
100
AcDbEntity
  8
0
100
AcDbLine
 10
352.4769999999999
 20
432.945
 30
0.0
 11
354.1679999999999
 21
432.9209999999999
 31
0.0
  0
LINE
  5
54B
330
1E
100
AcDbEntity
  8
0
100
AcDbLine
 10
351.5019999999999
 20
433.241
 30
0.0
 11
352.233
 21
432.4589999999999
 31
0.0
  0
LINE
  5
54C
330
1E
100
AcDbEntity
  8
0
100
AcDbLine
 10
344.1409999999999
 20
432.708
 30
0.0
 11
344.658
 21
432.218
 31
0.0
  0
LINE
  5
54D
330
1E
100
AcDbEntity
  8
0
100
AcDbLine
 10
344.1409999999999
 20
432.708
 30
0.0
 11
344.658
 21
433.239
 31
0.0
  0
LINE
  5
54E
330
1E
100
AcDbEntity
  8
0
100
AcDbLine
 10
323.917
 20
432.989
 30
0.0
 11
324.658
 21
432.218
 31
0.0
  0
LINE
  5
54F
330
1E
100
AcDbEntity
  8
0
100
AcDbLine
 10
342.0249999999999
 20
433.454
 30
0.0
 11
342.419
 21
432.9769999999999
 31
0.0
  0
LINE
  5
550
330
1E
100
AcDbEntity
  8
0
100
AcDbLine
 10
341.569
 20
433.3499999999999
 30
0.0
 11
342.0659999999999
 21
432.666
 31
0.0
  0
LINE
  5
551
330
1E
100
AcDbEntity
  8
0
100
AcDbLine
 10
344.1539999999999
 20
433.4909999999999
 30
0.0
 11
344.1539999999999
 21
434.0099999999999
 31
0.0
  0
LINE
  5
552
330
1E
100
AcDbEntity
  8
0
100
AcDbLine
 10
442.8759999999999
 20
433.399
 30
0.0
 11
443.374
 21
432.7149999999999
 31
0.0
  0
LINE
  5
553
330
1E
100
AcDbEntity
  8
0
100
AcDbLine
 10
423.4509999999999
 20
433.364
 30
0.0
 11
424.609
 21
434.535
 31
0.0
  0
LINE
  5
554
330
1E
100
AcDbEntity
  8
0
100
AcDbLine
 10
443.332
 20
433.503
 30
0.0
 11
443.7269999999999
 21
433.0259999999999
 31
0.0
  0
LINE
  5
555
330
1E
100
AcDbEntity
  8
0
100
AcDbLine
 10
453.365
 20
433.4859999999999
 30
0.0
 11
453.373
 21
434.0049999999999
 31
0.0
  0
LINE
  5
556
330
1E
100
AcDbEntity
  8
0
100
AcDbLine
 10
453.365
 20
433.4859999999999
 30
0.0
 11
453.833
 21
432.945
 31
0.0
  0
LINE
  5
557
330
1E
100
AcDbEntity
  8
0
100
AcDbLine
 10
445.461
 20
433.539
 30
0.0
 11
445.461
 21
434.058
 31
0.0
  0
LINE
  5
558
330
1E
100
AcDbEntity
  8
0
100
AcDbLine
 10
422.902
 20
433.4819999999999
 30
0.0
 11
424.3119999999999
 21
434.98
 31
0.0
  0
LINE
  5
559
330
1E
100
AcDbEntity
  8
0
100
AcDbLine
 10
422.902
 20
433.4819999999999
 30
0.0
 11
422.902
 21
431.4359999999999
 31
0.0
  0
LINE
  5
55A
330
1E
100
AcDbEntity
  8
0
100
AcDbLine
 10
352.0099999999999
 20
433.4859999999999
 30
0.0
 11
352.017
 21
434.0049999999999
 31
0.0
  0
LINE
  5
55B
330
1E
100
AcDbEntity
  8
0
100
AcDbLine
 10
352.0099999999999
 20
433.4859999999999
 30
0.0
 11
352.4769999999999
 21
432.945
 31
0.0
  0
LINE
  5
55C
330
1E
100
AcDbEntity
  8
0
100
AcDbLine
 10
322.047
 20
433.3149999999999
 30
0.0
 11
323.204
 21
434.4869999999999
 31
0.0
  0
LINE
  5
55D
330
1E
100
AcDbEntity
  8
0
100
AcDbLine
 10
321.498
 20
433.434
 30
0.0
 11
322.908
 21
434.931
 31
0.0
  0
LINE
  5
55E
330
1E
100
AcDbEntity
  8
0
100
AcDbLine
 10
321.498
 20
433.434
 30
0.0
 11
321.498
 21
431.388
 31
0.0
  0
LINE
  5
55F
330
1E
100
AcDbEntity
  8
0
100
AcDbLine
 10
323.204
 20
434.4869999999999
 30
0.0
 11
323.798
 21
434.501
 31
0.0
  0
LINE
  5
560
330
1E
100
AcDbEntity
  8
0
100
AcDbLine
 10
342.018
 20
433.8909999999999
 30
0.0
 11
342.0249999999999
 21
433.454
 31
0.0
  0
LINE
  5
561
330
1E
100
AcDbEntity
  8
0
100
AcDbLine
 10
342.018
 20
433.8909999999999
 30
0.0
 11
342.5659999999999
 21
434.484
 31
0.0
  0
LINE
  5
562
330
1E
100
AcDbEntity
  8
0
100
AcDbLine
 10
341.498
 20
434.069
 30
0.0
 11
341.569
 21
433.3499999999999
 31
0.0
  0
LINE
  5
563
330
1E
100
AcDbEntity
  8
0
100
AcDbLine
 10
341.498
 20
434.069
 30
0.0
 11
342.255
 21
434.929
 31
0.0
  0
LINE
  5
564
330
1E
100
AcDbEntity
  8
0
100
AcDbLine
 10
352.017
 20
434.0049999999999
 30
0.0
 11
352.573
 21
434.471
 31
0.0
  0
LINE
  5
565
330
1E
100
AcDbEntity
  8
0
100
AcDbLine
 10
351.499
 20
434.1009999999999
 30
0.0
 11
352.283
 21
434.935
 31
0.0
  0
LINE
  5
566
330
1E
100
AcDbEntity
  8
0
100
AcDbLine
 10
351.499
 20
434.1009999999999
 30
0.0
 11
351.5019999999999
 21
433.241
 31
0.0
  0
LINE
  5
567
330
1E
100
AcDbEntity
  8
0
100
AcDbLine
 10
343.605
 20
434.484
 30
0.0
 11
344.1539999999999
 21
434.0099999999999
 31
0.0
  0
LINE
  5
568
330
1E
100
AcDbEntity
  8
0
100
AcDbLine
 10
342.5659999999999
 20
434.484
 30
0.0
 11
343.605
 21
434.484
 31
0.0
  0
LINE
  5
569
330
1E
100
AcDbEntity
  8
0
100
AcDbLine
 10
352.573
 20
434.471
 30
0.0
 11
353.6109999999999
 21
434.4559999999999
 31
0.0
  0
LINE
  5
56A
330
1E
100
AcDbEntity
  8
0
100
AcDbLine
 10
363.656
 20
434.045
 30
0.0
 11
364.1769999999999
 21
434.466
 31
0.0
  0
LINE
  5
56B
330
1E
100
AcDbEntity
  8
0
100
AcDbLine
 10
363.184
 20
434.119
 30
0.0
 11
363.928
 21
434.938
 31
0.0
  0
LINE
  5
56C
330
1E
100
AcDbEntity
  8
0
100
AcDbLine
 10
360.801
 20
433.9819999999999
 30
0.0
 11
361.328
 21
434.473
 31
0.0
  0
LINE
  5
56D
330
1E
100
AcDbEntity
  8
0
100
AcDbLine
 10
360.6519999999999
 20
434.131
 30
0.0
 11
361.5209999999999
 21
434.8759999999999
 31
0.0
  0
LINE
  5
56E
330
1E
100
AcDbEntity
  8
0
100
AcDbLine
 10
360.6519999999999
 20
434.131
 30
0.0
 11
360.801
 21
433.9819999999999
 31
0.0
  0
LINE
  5
56F
330
1E
100
AcDbEntity
  8
0
100
AcDbLine
 10
413.365
 20
433.6899999999999
 30
0.0
 11
415.294
 21
433.7049999999999
 31
0.0
  0
LINE
  5
570
330
1E
100
AcDbEntity
  8
0
100
AcDbLine
 10
480.006
 20
433.9419999999999
 30
0.0
 11
480.6409999999999
 21
434.5299999999999
 31
0.0
  0
LINE
  5
571
330
1E
100
AcDbEntity
  8
0
100
AcDbLine
 10
443.325
 20
433.94
 30
0.0
 11
443.332
 21
433.503
 31
0.0
  0
LINE
  5
572
330
1E
100
AcDbEntity
  8
0
100
AcDbLine
 10
443.325
 20
433.94
 30
0.0
 11
443.874
 21
434.533
 31
0.0
  0
LINE
  5
573
330
1E
100
AcDbEntity
  8
0
100
AcDbLine
 10
415.294
 20
433.7049999999999
 30
0.0
 11
416.08
 21
432.874
 31
0.0
  0
LINE
  5
574
330
1E
100
AcDbEntity
  8
0
100
AcDbLine
 10
390.4769999999999
 20
433.957
 30
0.0
 11
391.003
 21
434.448
 31
0.0
  0
LINE
  5
575
330
1E
100
AcDbEntity
  8
0
100
AcDbLine
 10
430.4769999999999
 20
433.957
 30
0.0
 11
431.003
 21
434.448
 31
0.0
  0
LINE
  5
576
330
1E
100
AcDbEntity
  8
0
100
AcDbLine
 10
440.477
 20
433.957
 30
0.0
 11
441.003
 21
434.448
 31
0.0
  0
LINE
  5
577
330
1E
100
AcDbEntity
  8
0
100
AcDbLine
 10
450.4769999999999
 20
433.957
 30
0.0
 11
451.003
 21
434.448
 31
0.0
  0
LINE
  5
578
330
1E
100
AcDbEntity
  8
0
100
AcDbLine
 10
420.4769999999999
 20
433.957
 30
0.0
 11
421.003
 21
434.448
 31
0.0
  0
LINE
  5
579
330
1E
100
AcDbEntity
  8
0
100
AcDbLine
 10
470.6669999999999
 20
433.978
 30
0.0
 11
471.3019999999999
 21
434.5669999999999
 31
0.0
  0
LINE
  5
57A
330
1E
100
AcDbEntity
  8
0
100
AcDbLine
 10
460.3
 20
433.978
 30
0.0
 11
460.935
 21
434.5669999999999
 31
0.0
  0
LINE
  5
57B
330
1E
100
AcDbEntity
  8
0
100
AcDbLine
 10
410.477
 20
433.957
 30
0.0
 11
411.003
 21
434.448
 31
0.0
  0
LINE
  5
57C
330
1E
100
AcDbEntity
  8
0
100
AcDbLine
 10
400.4769999999999
 20
433.957
 30
0.0
 11
401.003
 21
434.448
 31
0.0
  0
LINE
  5
57D
330
1E
100
AcDbEntity
  8
0
100
AcDbLine
 10
464.273
 20
434.023
 30
0.0
 11
464.794
 21
434.444
 31
0.0
  0
LINE
  5
57E
330
1E
100
AcDbEntity
  8
0
100
AcDbLine
 10
474.4629999999999
 20
434.03
 30
0.0
 11
474.99
 21
434.522
 31
0.0
  0
LINE
  5
57F
330
1E
100
AcDbEntity
  8
0
100
AcDbLine
 10
453.373
 20
434.0049999999999
 30
0.0
 11
453.929
 21
434.471
 31
0.0
  0
LINE
  5
580
330
1E
100
AcDbEntity
  8
0
100
AcDbLine
 10
393.283
 20
433.978
 30
0.0
 11
393.918
 21
434.5669999999999
 31
0.0
  0
LINE
  5
581
330
1E
100
AcDbEntity
  8
0
100
AcDbLine
 10
383.215
 20
433.949
 30
0.0
 11
383.85
 21
434.5369999999999
 31
0.0
  0
LINE
  5
582
330
1E
100
AcDbEntity
  8
0
100
AcDbLine
 10
380.4769999999999
 20
433.957
 30
0.0
 11
381.003
 21
434.448
 31
0.0
  0
LINE
  5
583
330
1E
100
AcDbEntity
  8
0
100
AcDbLine
 10
463.801
 20
434.0969999999999
 30
0.0
 11
464.5459999999999
 21
434.915
 31
0.0
  0
LINE
  5
584
330
1E
100
AcDbEntity
  8
0
100
AcDbLine
 10
452.855
 20
434.1009999999999
 30
0.0
 11
453.638
 21
434.935
 31
0.0
  0
LINE
  5
585
330
1E
100
AcDbEntity
  8
0
100
AcDbLine
 10
452.855
 20
434.1009999999999
 30
0.0
 11
452.857
 21
433.241
 31
0.0
  0
LINE
  5
586
330
1E
100
AcDbEntity
  8
0
100
AcDbLine
 10
390.327
 20
434.1059999999999
 30
0.0
 11
391.1959999999999
 21
434.8519999999999
 31
0.0
  0
LINE
  5
587
330
1E
100
AcDbEntity
  8
0
100
AcDbLine
 10
390.327
 20
434.1059999999999
 30
0.0
 11
390.4769999999999
 21
433.957
 31
0.0
  0
LINE
  5
588
330
1E
100
AcDbEntity
  8
0
100
AcDbLine
 10
430.327
 20
434.1059999999999
 30
0.0
 11
431.196
 21
434.8519999999999
 31
0.0
  0
LINE
  5
589
330
1E
100
AcDbEntity
  8
0
100
AcDbLine
 10
430.327
 20
434.1059999999999
 30
0.0
 11
430.4769999999999
 21
433.957
 31
0.0
  0
LINE
  5
58A
330
1E
100
AcDbEntity
  8
0
100
AcDbLine
 10
440.327
 20
434.1059999999999
 30
0.0
 11
441.1959999999999
 21
434.8519999999999
 31
0.0
  0
LINE
  5
58B
330
1E
100
AcDbEntity
  8
0
100
AcDbLine
 10
440.327
 20
434.1059999999999
 30
0.0
 11
440.477
 21
433.957
 31
0.0
  0
LINE
  5
58C
330
1E
100
AcDbEntity
  8
0
100
AcDbLine
 10
450.3269999999999
 20
434.1059999999999
 30
0.0
 11
451.196
 21
434.8519999999999
 31
0.0
  0
LINE
  5
58D
330
1E
100
AcDbEntity
  8
0
100
AcDbLine
 10
450.3269999999999
 20
434.1059999999999
 30
0.0
 11
450.4769999999999
 21
433.957
 31
0.0
  0
LINE
  5
58E
330
1E
100
AcDbEntity
  8
0
100
AcDbLine
 10
420.3269999999999
 20
434.1059999999999
 30
0.0
 11
421.1959999999999
 21
434.8519999999999
 31
0.0
  0
LINE
  5
58F
330
1E
100
AcDbEntity
  8
0
100
AcDbLine
 10
420.3269999999999
 20
434.1059999999999
 30
0.0
 11
420.4769999999999
 21
433.957
 31
0.0
  0
LINE
  5
590
330
1E
100
AcDbEntity
  8
0
100
AcDbLine
 10
410.327
 20
434.1059999999999
 30
0.0
 11
411.1959999999999
 21
434.8519999999999
 31
0.0
  0
LINE
  5
591
330
1E
100
AcDbEntity
  8
0
100
AcDbLine
 10
410.327
 20
434.1059999999999
 30
0.0
 11
410.477
 21
433.957
 31
0.0
  0
LINE
  5
592
330
1E
100
AcDbEntity
  8
0
100
AcDbLine
 10
400.3269999999999
 20
434.1059999999999
 30
0.0
 11
401.196
 21
434.8519999999999
 31
0.0
  0
LINE
  5
593
330
1E
100
AcDbEntity
  8
0
100
AcDbLine
 10
400.3269999999999
 20
434.1059999999999
 30
0.0
 11
400.4769999999999
 21
433.957
 31
0.0
  0
LINE
  5
594
330
1E
100
AcDbEntity
  8
0
100
AcDbLine
 10
466.3069999999999
 20
434.147
 30
0.0
 11
466.3569999999999
 21
431.2949999999999
 31
0.0
  0
LINE
  5
595
330
1E
100
AcDbEntity
  8
0
100
AcDbLine
 10
472.7269999999999
 20
434.133
 30
0.0
 11
472.789
 21
433.499
 31
0.0
  0
LINE
  5
596
330
1E
100
AcDbEntity
  8
0
100
AcDbLine
 10
462.36
 20
434.133
 30
0.0
 11
462.422
 21
433.499
 31
0.0
  0
LINE
  5
597
330
1E
100
AcDbEntity
  8
0
100
AcDbLine
 10
442.806
 20
434.118
 30
0.0
 11
442.8759999999999
 21
433.399
 31
0.0
  0
LINE
  5
598
330
1E
100
AcDbEntity
  8
0
100
AcDbLine
 10
442.806
 20
434.118
 30
0.0
 11
443.5619999999999
 21
434.9779999999999
 31
0.0
  0
LINE
  5
599
330
1E
100
AcDbEntity
  8
0
100
AcDbLine
 10
395.343
 20
434.133
 30
0.0
 11
395.4049999999999
 21
433.499
 31
0.0
  0
LINE
  5
59A
330
1E
100
AcDbEntity
  8
0
100
AcDbLine
 10
385.2749999999999
 20
434.104
 30
0.0
 11
385.336
 21
433.469
 31
0.0
  0
LINE
  5
59B
330
1E
100
AcDbEntity
  8
0
100
AcDbLine
 10
380.3269999999999
 20
434.1059999999999
 30
0.0
 11
381.1959999999999
 21
434.8519999999999
 31
0.0
  0
LINE
  5
59C
330
1E
100
AcDbEntity
  8
0
100
AcDbLine
 10
380.3269999999999
 20
434.1059999999999
 30
0.0
 11
380.4769999999999
 21
433.957
 31
0.0
  0
LINE
  5
59D
330
1E
100
AcDbEntity
  8
0
100
AcDbLine
 10
373.8519999999999
 20
434.031
 30
0.0
 11
374.379
 21
434.5229999999999
 31
0.0
  0
LINE
  5
59E
330
1E
100
AcDbEntity
  8
0
100
AcDbLine
 10
371.123
 20
434.0069999999999
 30
0.0
 11
371.649
 21
434.498
 31
0.0
  0
LINE
  5
59F
330
1E
100
AcDbEntity
  8
0
100
AcDbLine
 10
364.1769999999999
 20
434.466
 30
0.0
 11
364.698
 21
434.466
 31
0.0
  0
LINE
  5
5A0
330
1E
100
AcDbEntity
  8
0
100
AcDbLine
 10
364.698
 20
434.466
 30
0.0
 11
365.243
 21
433.8959999999999
 31
0.0
  0
LINE
  5
5A1
330
1E
100
AcDbEntity
  8
0
100
AcDbLine
 10
365.69
 20
434.169
 30
0.0
 11
365.7399999999999
 21
431.3169999999999
 31
0.0
  0
LINE
  5
5A2
330
1E
100
AcDbEntity
  8
0
100
AcDbLine
 10
474.314
 20
434.18
 30
0.0
 11
475.183
 21
434.925
 31
0.0
  0
LINE
  5
5A3
330
1E
100
AcDbEntity
  8
0
100
AcDbLine
 10
474.314
 20
434.18
 30
0.0
 11
474.4629999999999
 21
434.03
 31
0.0
  0
LINE
  5
5A4
330
1E
100
AcDbEntity
  8
0
100
AcDbLine
 10
479.665
 20
434.2049999999999
 30
0.0
 11
480.3469999999999
 21
434.9169999999999
 31
0.0
  0
LINE
  5
5A5
330
1E
100
AcDbEntity
  8
0
100
AcDbLine
 10
479.665
 20
434.2049999999999
 30
0.0
 11
480.006
 21
433.9419999999999
 31
0.0
  0
LINE
  5
5A6
330
1E
100
AcDbEntity
  8
0
100
AcDbLine
 10
473.3309999999999
 20
434.2109999999999
 30
0.0
 11
473.362
 21
433.359
 31
0.0
  0
LINE
  5
5A7
330
1E
100
AcDbEntity
  8
0
100
AcDbLine
 10
462.964
 20
434.2109999999999
 30
0.0
 11
462.995
 21
433.359
 31
0.0
  0
LINE
  5
5A8
330
1E
100
AcDbEntity
  8
0
100
AcDbLine
 10
470.3269999999999
 20
434.2419999999999
 30
0.0
 11
471.008
 21
434.953
 31
0.0
  0
LINE
  5
5A9
330
1E
100
AcDbEntity
  8
0
100
AcDbLine
 10
470.3269999999999
 20
434.2419999999999
 30
0.0
 11
470.6669999999999
 21
433.978
 31
0.0
  0
LINE
  5
5AA
330
1E
100
AcDbEntity
  8
0
100
AcDbLine
 10
464.794
 20
434.444
 30
0.0
 11
465.315
 21
434.444
 31
0.0
  0
LINE
  5
5AB
330
1E
100
AcDbEntity
  8
0
100
AcDbLine
 10
465.315
 20
434.444
 30
0.0
 11
465.861
 21
433.874
 31
0.0
  0
LINE
  5
5AC
330
1E
100
AcDbEntity
  8
0
100
AcDbLine
 10
459.959
 20
434.2419999999999
 30
0.0
 11
460.6409999999999
 21
434.953
 31
0.0
  0
LINE
  5
5AD
330
1E
100
AcDbEntity
  8
0
100
AcDbLine
 10
459.959
 20
434.2419999999999
 30
0.0
 11
460.3
 21
433.978
 31
0.0
  0
LINE
  5
5AE
330
1E
100
AcDbEntity
  8
0
100
AcDbLine
 10
454.9669999999999
 20
434.4559999999999
 30
0.0
 11
455.5069999999999
 21
433.855
 31
0.0
  0
LINE
  5
5AF
330
1E
100
AcDbEntity
  8
0
100
AcDbLine
 10
453.929
 20
434.471
 30
0.0
 11
454.9669999999999
 21
434.4559999999999
 31
0.0
  0
LINE
  5
5B0
330
1E
100
AcDbEntity
  8
0
100
AcDbLine
 10
433.096
 20
434.458
 30
0.0
 11
435.3069999999999
 21
434.473
 31
0.0
  0
LINE
  5
5B1
330
1E
100
AcDbEntity
  8
0
100
AcDbLine
 10
433.096
 20
434.458
 30
0.0
 11
433.1109999999999
 21
434.888
 31
0.0
  0
LINE
  5
5B2
330
1E
100
AcDbEntity
  8
0
100
AcDbLine
 10
392.943
 20
434.2419999999999
 30
0.0
 11
393.624
 21
434.953
 31
0.0
  0
LINE
  5
5B3
330
1E
100
AcDbEntity
  8
0
100
AcDbLine
 10
392.943
 20
434.2419999999999
 30
0.0
 11
393.283
 21
433.978
 31
0.0
  0
LINE
  5
5B4
330
1E
100
AcDbEntity
  8
0
100
AcDbLine
 10
395.9469999999999
 20
434.2109999999999
 30
0.0
 11
395.978
 21
433.359
 31
0.0
  0
LINE
  5
5B5
330
1E
100
AcDbEntity
  8
0
100
AcDbLine
 10
382.874
 20
434.212
 30
0.0
 11
383.556
 21
434.924
 31
0.0
  0
LINE
  5
5B6
330
1E
100
AcDbEntity
  8
0
100
AcDbLine
 10
382.874
 20
434.212
 30
0.0
 11
383.215
 21
433.949
 31
0.0
  0
LINE
  5
5B7
330
1E
100
AcDbEntity
  8
0
100
AcDbLine
 10
385.878
 20
434.1809999999999
 30
0.0
 11
385.909
 21
433.33
 31
0.0
  0
LINE
  5
5B8
330
1E
100
AcDbEntity
  8
0
100
AcDbLine
 10
373.703
 20
434.1809999999999
 30
0.0
 11
374.5719999999999
 21
434.926
 31
0.0
  0
LINE
  5
5B9
330
1E
100
AcDbEntity
  8
0
100
AcDbLine
 10
373.703
 20
434.1809999999999
 30
0.0
 11
373.8519999999999
 21
434.031
 31
0.0
  0
LINE
  5
5BA
330
1E
100
AcDbEntity
  8
0
100
AcDbLine
 10
370.974
 20
434.156
 30
0.0
 11
371.842
 21
434.9009999999999
 31
0.0
  0
LINE
  5
5BB
330
1E
100
AcDbEntity
  8
0
100
AcDbLine
 10
370.974
 20
434.156
 30
0.0
 11
371.123
 21
434.0069999999999
 31
0.0
  0
LINE
  5
5BC
330
1E
100
AcDbEntity
  8
0
100
AcDbLine
 10
353.6109999999999
 20
434.4559999999999
 30
0.0
 11
354.1519999999999
 21
433.855
 31
0.0
  0
LINE
  5
5BD
330
1E
100
AcDbEntity
  8
0
100
AcDbLine
 10
342.255
 20
434.929
 30
0.0
 11
343.9019999999999
 21
434.944
 31
0.0
  0
LINE
  5
5BE
330
1E
100
AcDbEntity
  8
0
100
AcDbLine
 10
444.9119999999999
 20
434.533
 30
0.0
 11
445.461
 21
434.058
 31
0.0
  0
LINE
  5
5BF
330
1E
100
AcDbEntity
  8
0
100
AcDbLine
 10
443.874
 20
434.533
 30
0.0
 11
444.9119999999999
 21
434.533
 31
0.0
  0
LINE
  5
5C0
330
1E
100
AcDbEntity
  8
0
100
AcDbLine
 10
424.609
 20
434.535
 30
0.0
 11
425.2019999999999
 21
434.55
 31
0.0
  0
LINE
  5
5C1
330
1E
100
AcDbEntity
  8
0
100
AcDbLine
 10
383.85
 20
434.5369999999999
 30
0.0
 11
384.8719999999999
 21
434.5369999999999
 31
0.0
  0
LINE
  5
5C2
330
1E
100
AcDbEntity
  8
0
100
AcDbLine
 10
393.918
 20
434.5669999999999
 30
0.0
 11
394.94
 21
434.5669999999999
 31
0.0
  0
LINE
  5
5C3
330
1E
100
AcDbEntity
  8
0
100
AcDbLine
 10
460.935
 20
434.5669999999999
 30
0.0
 11
461.957
 21
434.5669999999999
 31
0.0
  0
LINE
  5
5C4
330
1E
100
AcDbEntity
  8
0
100
AcDbLine
 10
471.3019999999999
 20
434.5669999999999
 30
0.0
 11
472.324
 21
434.5669999999999
 31
0.0
  0
LINE
  5
5C5
330
1E
100
AcDbEntity
  8
0
100
AcDbLine
 10
472.324
 20
434.5669999999999
 30
0.0
 11
472.7269999999999
 21
434.133
 31
0.0
  0
LINE
  5
5C6
330
1E
100
AcDbEntity
  8
0
100
AcDbLine
 10
461.957
 20
434.5669999999999
 30
0.0
 11
462.36
 21
434.133
 31
0.0
  0
LINE
  5
5C7
330
1E
100
AcDbEntity
  8
0
100
AcDbLine
 10
433.1109999999999
 20
434.888
 30
0.0
 11
436.123
 21
434.948
 31
0.0
  0
LINE
  5
5C8
330
1E
100
AcDbEntity
  8
0
100
AcDbLine
 10
415.768
 20
434.579
 30
0.0
 11
415.828
 21
435.054
 31
0.0
  0
LINE
  5
5C9
330
1E
100
AcDbEntity
  8
0
100
AcDbLine
 10
413.35
 20
434.579
 30
0.0
 11
413.365
 21
433.6899999999999
 31
0.0
  0
LINE
  5
5CA
330
1E
100
AcDbEntity
  8
0
100
AcDbLine
 10
413.35
 20
434.579
 30
0.0
 11
415.768
 21
434.579
 31
0.0
  0
LINE
  5
5CB
330
1E
100
AcDbEntity
  8
0
100
AcDbLine
 10
455.285
 20
434.897
 30
0.0
 11
456.029
 21
434.0259999999999
 31
0.0
  0
LINE
  5
5CC
330
1E
100
AcDbEntity
  8
0
100
AcDbLine
 10
405.158
 20
434.893
 30
0.0
 11
405.2919999999999
 21
430.6589999999999
 31
0.0
  0
LINE
  5
5CD
330
1E
100
AcDbEntity
  8
0
100
AcDbLine
 10
394.94
 20
434.5669999999999
 30
0.0
 11
395.343
 21
434.133
 31
0.0
  0
LINE
  5
5CE
330
1E
100
AcDbEntity
  8
0
100
AcDbLine
 10
384.8719999999999
 20
434.5369999999999
 30
0.0
 11
385.2749999999999
 21
434.104
 31
0.0
  0
LINE
  5
5CF
330
1E
100
AcDbEntity
  8
0
100
AcDbLine
 10
361.5209999999999
 20
434.8759999999999
 30
0.0
 11
361.5209999999999
 21
430.86
 31
0.0
  0
LINE
  5
5D0
330
1E
100
AcDbEntity
  8
0
100
AcDbLine
 10
464.5459999999999
 20
434.915
 30
0.0
 11
465.538
 21
434.915
 31
0.0
  0
LINE
  5
5D1
330
1E
100
AcDbEntity
  8
0
100
AcDbLine
 10
465.538
 20
434.915
 30
0.0
 11
466.3069999999999
 21
434.147
 31
0.0
  0
LINE
  5
5D2
330
1E
100
AcDbEntity
  8
0
100
AcDbLine
 10
383.556
 20
434.924
 30
0.0
 11
385.12
 21
434.909
 31
0.0
  0
LINE
  5
5D3
330
1E
100
AcDbEntity
  8
0
100
AcDbLine
 10
385.12
 20
434.909
 30
0.0
 11
385.878
 21
434.1809999999999
 31
0.0
  0
LINE
  5
5D4
330
1E
100
AcDbEntity
  8
0
100
AcDbLine
 10
374.5719999999999
 20
434.926
 30
0.0
 11
374.5719999999999
 21
430.909
 31
0.0
  0
LINE
  5
5D5
330
1E
100
AcDbEntity
  8
0
100
AcDbLine
 10
371.842
 20
434.9009999999999
 30
0.0
 11
371.842
 21
430.884
 31
0.0
  0
LINE
  5
5D6
330
1E
100
AcDbEntity
  8
0
100
AcDbLine
 10
353.929
 20
434.897
 30
0.0
 11
354.673
 21
434.0259999999999
 31
0.0
  0
LINE
  5
5D7
330
1E
100
AcDbEntity
  8
0
100
AcDbLine
 10
331.7649999999999
 20
434.531
 30
0.0
 11
333.975
 21
434.546
 31
0.0
  0
LINE
  5
5D8
330
1E
100
AcDbEntity
  8
0
100
AcDbLine
 10
331.7649999999999
 20
434.531
 30
0.0
 11
331.7799999999999
 21
434.961
 31
0.0
  0
LINE
  5
5D9
330
1E
100
AcDbEntity
  8
0
100
AcDbLine
 10
323.783
 20
434.931
 30
0.0
 11
323.798
 21
434.501
 31
0.0
  0
LINE
  5
5DA
330
1E
100
AcDbEntity
  8
0
100
AcDbLine
 10
453.638
 20
434.935
 30
0.0
 11
455.285
 21
434.897
 31
0.0
  0
LINE
  5
5DB
330
1E
100
AcDbEntity
  8
0
100
AcDbLine
 10
472.5719999999999
 20
434.938
 30
0.0
 11
473.3309999999999
 21
434.2109999999999
 31
0.0
  0
LINE
  5
5DC
330
1E
100
AcDbEntity
  8
0
100
AcDbLine
 10
462.2049999999999
 20
434.938
 30
0.0
 11
462.964
 21
434.2109999999999
 31
0.0
  0
LINE
  5
5DD
330
1E
100
AcDbEntity
  8
0
100
AcDbLine
 10
395.188
 20
434.938
 30
0.0
 11
395.9469999999999
 21
434.2109999999999
 31
0.0
  0
LINE
  5
5DE
330
1E
100
AcDbEntity
  8
0
100
AcDbLine
 10
363.928
 20
434.938
 30
0.0
 11
364.921
 21
434.938
 31
0.0
  0
LINE
  5
5DF
330
1E
100
AcDbEntity
  8
0
100
AcDbLine
 10
471.008
 20
434.953
 30
0.0
 11
472.5719999999999
 21
434.938
 31
0.0
  0
LINE
  5
5E0
330
1E
100
AcDbEntity
  8
0
100
AcDbLine
 10
460.6409999999999
 20
434.953
 30
0.0
 11
462.2049999999999
 21
434.938
 31
0.0
  0
LINE
  5
5E1
330
1E
100
AcDbEntity
  8
0
100
AcDbLine
 10
443.5619999999999
 20
434.9779999999999
 30
0.0
 11
445.209
 21
434.992
 31
0.0
  0
LINE
  5
5E2
330
1E
100
AcDbEntity
  8
0
100
AcDbLine
 10
445.209
 20
434.992
 30
0.0
 11
445.98
 21
434.147
 31
0.0
  0
LINE
  5
5E3
330
1E
100
AcDbEntity
  8
0
100
AcDbLine
 10
425.1869999999999
 20
434.98
 30
0.0
 11
425.2019999999999
 21
434.55
 31
0.0
  0
LINE
  5
5E4
330
1E
100
AcDbEntity
  8
0
100
AcDbLine
 10
424.3119999999999
 20
434.98
 30
0.0
 11
425.1869999999999
 21
434.98
 31
0.0
  0
LINE
  5
5E5
330
1E
100
AcDbEntity
  8
0
100
AcDbLine
 10
412.8159999999999
 20
435.054
 30
0.0
 11
412.9049999999999
 21
433.1859999999999
 31
0.0
  0
LINE
  5
5E6
330
1E
100
AcDbEntity
  8
0
100
AcDbLine
 10
412.8159999999999
 20
435.054
 30
0.0
 11
415.828
 21
435.054
 31
0.0
  0
LINE
  5
5E7
330
1E
100
AcDbEntity
  8
0
100
AcDbLine
 10
393.624
 20
434.953
 30
0.0
 11
395.188
 21
434.938
 31
0.0
  0
LINE
  5
5E8
330
1E
100
AcDbEntity
  8
0
100
AcDbLine
 10
364.921
 20
434.938
 30
0.0
 11
365.69
 21
434.169
 31
0.0
  0
LINE
  5
5E9
330
1E
100
AcDbEntity
  8
0
100
AcDbLine
 10
343.9019999999999
 20
434.944
 30
0.0
 11
344.673
 21
434.0989999999999
 31
0.0
  0
LINE
  5
5EA
330
1E
100
AcDbEntity
  8
0
100
AcDbLine
 10
352.283
 20
434.935
 30
0.0
 11
353.929
 21
434.897
 31
0.0
  0
LINE
  5
5EB
330
1E
100
AcDbEntity
  8
0
100
AcDbLine
 10
331.7799999999999
 20
434.961
 30
0.0
 11
334.791
 21
435.02
 31
0.0
  0
LINE
  5
5EC
330
1E
100
AcDbEntity
  8
0
100
AcDbLine
 10
322.908
 20
434.931
 30
0.0
 11
323.783
 21
434.931
 31
0.0
  0
LINE
  5
5ED
330
1E
100
AcDbEntity
  8
0
100
AcDbLine
 10
314.413
 20
434.531
 30
0.0
 11
314.4719999999999
 21
435.006
 31
0.0
  0
LINE
  5
5EE
330
1E
100
AcDbEntity
  8
0
100
AcDbLine
 10
313.938
 20
433.656
 30
0.0
 11
314.724
 21
432.8259999999999
 31
0.0
  0
LINE
  5
5EF
330
1E
100
AcDbEntity
  8
0
100
AcDbLine
 10
313.656
 20
433.108
 30
0.0
 11
314.1159999999999
 21
432.618
 31
0.0
  0
LINE
  5
5F0
330
1E
100
AcDbEntity
  8
0
100
AcDbLine
 10
314.1159999999999
 20
432.618
 30
0.0
 11
314.1159999999999
 21
431.4619999999999
 31
0.0
  0
LINE
  5
5F1
330
1E
100
AcDbEntity
  8
0
100
AcDbLine
 10
311.979
 20
431.5809999999999
 30
0.0
 11
312.543
 21
430.987
 31
0.0
  0
LINE
  5
5F2
330
1E
100
AcDbEntity
  8
0
100
AcDbLine
 10
311.564
 20
431.284
 30
0.0
 11
312.365
 21
430.543
 31
0.0
  0
LINE
  5
5F3
330
1E
100
AcDbEntity
  8
0
100
AcDbLine
 10
311.564
 20
431.284
 30
0.0
 11
311.979
 21
431.5809999999999
 31
0.0
  0
LINE
  5
5F4
330
1E
100
AcDbEntity
  8
0
100
AcDbLine
 10
483.4999999999999
 20
388.0
 30
0.0
 11
483.4999999999999
 21
428.0
 31
0.0
  0
LINE
  5
5F5
330
1E
100
AcDbEntity
  8
0
100
AcDbLine
 10
482.5
 20
428.0
 30
0.0
 11
482.5
 21
388.0
 31
0.0
  0
LINE
  5
5F6
330
1E
100
AcDbEntity
  8
0
100
AcDbLine
 10
482.5
 20
428.0
 30
0.0
 11
483.4999999999999
 21
428.0
 31
0.0
  0
LINE
  5
5F7
330
1E
100
AcDbEntity
  8
0
100
AcDbLine
 10
482.5
 20
388.0
 30
0.0
 11
483.4999999999999
 21
388.0
 31
0.0
  0
LINE
  5
5F8
330
1E
100
AcDbEntity
  8
0
100
AcDbLine
 10
493.5
 20
388.0
 30
0.0
 11
493.5
 21
428.0
 31
0.0
  0
LINE
  5
5F9
330
1E
100
AcDbEntity
  8
0
100
AcDbLine
 10
492.4999999999999
 20
428.0
 30
0.0
 11
492.4999999999999
 21
388.0
 31
0.0
  0
LINE
  5
5FA
330
1E
100
AcDbEntity
  8
0
100
AcDbLine
 10
492.4999999999999
 20
428.0
 30
0.0
 11
493.5
 21
428.0
 31
0.0
  0
LINE
  5
5FB
330
1E
100
AcDbEntity
  8
0
100
AcDbLine
 10
492.4999999999999
 20
388.0
 30
0.0
 11
493.5
 21
388.0
 31
0.0
  0
LINE
  5
5FC
330
1E
100
AcDbEntity
  8
0
100
AcDbLine
 10
503.0
 20
408.4999999999999
 30
0.0
 11
503.0
 21
407.5
 31
0.0
  0
LINE
  5
5FD
330
1E
100
AcDbEntity
  8
0
100
AcDbLine
 10
494.2409999999999
 20
430.5469999999999
 30
0.0
 11
495.805
 21
430.5619999999999
 31
0.0
  0
LINE
  5
5FE
330
1E
100
AcDbEntity
  8
0
100
AcDbLine
 10
495.805
 20
430.5619999999999
 30
0.0
 11
496.564
 21
431.289
 31
0.0
  0
LINE
  5
5FF
330
1E
100
AcDbEntity
  8
0
100
AcDbLine
 10
483.534
 20
430.485
 30
0.0
 11
486.4139999999999
 21
430.485
 31
0.0
  0
LINE
  5
600
330
1E
100
AcDbEntity
  8
0
100
AcDbLine
 10
483.968
 20
430.825
 30
0.0
 11
486.399
 21
430.825
 31
0.0
  0
LINE
  5
601
330
1E
100
AcDbEntity
  8
0
100
AcDbLine
 10
486.399
 20
430.825
 30
0.0
 11
486.4139999999999
 21
430.485
 31
0.0
  0
LINE
  5
602
330
1E
100
AcDbEntity
  8
0
100
AcDbLine
 10
482.4679999999999
 20
430.8619999999999
 30
0.0
 11
482.484
 21
430.5209999999999
 31
0.0
  0
LINE
  5
603
330
1E
100
AcDbEntity
  8
0
100
AcDbLine
 10
485.8259999999999
 20
432.481
 30
0.0
 11
486.6309999999999
 21
433.286
 31
0.0
  0
LINE
  5
604
330
1E
100
AcDbEntity
  8
0
100
AcDbLine
 10
484.541
 20
432.4349999999999
 30
0.0
 11
485.8259999999999
 21
432.481
 31
0.0
  0
LINE
  5
605
330
1E
100
AcDbEntity
  8
0
100
AcDbLine
 10
483.968
 20
431.939
 30
0.0
 11
483.968
 21
430.825
 31
0.0
  0
LINE
  5
606
330
1E
100
AcDbEntity
  8
0
100
AcDbLine
 10
483.968
 20
431.939
 30
0.0
 11
484.541
 21
432.4349999999999
 31
0.0
  0
LINE
  5
607
330
1E
100
AcDbEntity
  8
0
100
AcDbLine
 10
483.503
 20
432.11
 30
0.0
 11
483.534
 21
430.485
 31
0.0
  0
LINE
  5
608
330
1E
100
AcDbEntity
  8
0
100
AcDbLine
 10
483.503
 20
432.11
 30
0.0
 11
484.231
 21
432.8369999999999
 31
0.0
  0
LINE
  5
609
330
1E
100
AcDbEntity
  8
0
100
AcDbLine
 10
484.231
 20
432.8369999999999
 30
0.0
 11
485.6399999999999
 21
432.884
 31
0.0
  0
LINE
  5
60A
330
1E
100
AcDbEntity
  8
0
100
AcDbLine
 10
481.895
 20
432.518
 30
0.0
 11
482.7009999999999
 21
433.323
 31
0.0
  0
LINE
  5
60B
330
1E
100
AcDbEntity
  8
0
100
AcDbLine
 10
480.6099999999999
 20
432.471
 30
0.0
 11
481.895
 21
432.518
 31
0.0
  0
LINE
  5
60C
330
1E
100
AcDbEntity
  8
0
100
AcDbLine
 10
480.6409999999999
 20
434.5299999999999
 30
0.0
 11
481.6629999999999
 21
434.5299999999999
 31
0.0
  0
LINE
  5
60D
330
1E
100
AcDbEntity
  8
0
100
AcDbLine
 10
480.3469999999999
 20
434.9169999999999
 30
0.0
 11
481.911
 21
434.9009999999999
 31
0.0
  0
LINE
  5
60E
330
1E
100
AcDbEntity
  8
0
100
AcDbLine
 10
481.6629999999999
 20
434.5299999999999
 30
0.0
 11
482.066
 21
434.0959999999999
 31
0.0
  0
LINE
  5
60F
330
1E
100
AcDbEntity
  8
0
100
AcDbLine
 10
483.9369999999999
 20
433.9049999999999
 30
0.0
 11
484.5719999999999
 21
434.493
 31
0.0
  0
LINE
  5
610
330
1E
100
AcDbEntity
  8
0
100
AcDbLine
 10
485.996
 20
434.06
 30
0.0
 11
486.058
 21
433.4249999999999
 31
0.0
  0
LINE
  5
611
330
1E
100
AcDbEntity
  8
0
100
AcDbLine
 10
485.6399999999999
 20
432.884
 30
0.0
 11
486.058
 21
433.4249999999999
 31
0.0
  0
LINE
  5
612
330
1E
100
AcDbEntity
  8
0
100
AcDbLine
 10
481.911
 20
434.9009999999999
 30
0.0
 11
482.67
 21
434.174
 31
0.0
  0
LINE
  5
613
330
1E
100
AcDbEntity
  8
0
100
AcDbLine
 10
483.596
 20
434.168
 30
0.0
 11
484.2769999999999
 21
434.8799999999999
 31
0.0
  0
LINE
  5
614
330
1E
100
AcDbEntity
  8
0
100
AcDbLine
 10
483.596
 20
434.168
 30
0.0
 11
483.9369999999999
 21
433.9049999999999
 31
0.0
  0
LINE
  5
615
330
1E
100
AcDbEntity
  8
0
100
AcDbLine
 10
484.5719999999999
 20
434.493
 30
0.0
 11
485.594
 21
434.493
 31
0.0
  0
LINE
  5
616
330
1E
100
AcDbEntity
  8
0
100
AcDbLine
 10
484.2769999999999
 20
434.8799999999999
 30
0.0
 11
485.841
 21
434.865
 31
0.0
  0
LINE
  5
617
330
1E
100
AcDbEntity
  8
0
100
AcDbLine
 10
485.841
 20
434.865
 30
0.0
 11
486.6
 21
434.1369999999999
 31
0.0
  0
LINE
  5
618
330
1E
100
AcDbEntity
  8
0
100
AcDbLine
 10
485.594
 20
434.493
 30
0.0
 11
485.996
 21
434.06
 31
0.0
  0
LINE
  5
619
330
1E
100
AcDbEntity
  8
0
100
AcDbLine
 10
486.6
 20
434.1369999999999
 30
0.0
 11
486.6309999999999
 21
433.286
 31
0.0
  0
LINE
  5
61A
330
1E
100
AcDbEntity
  8
0
100
AcDbLine
 10
482.67
 20
434.174
 30
0.0
 11
482.7009999999999
 21
433.323
 31
0.0
  0
LINE
  5
61B
330
1E
100
AcDbEntity
  8
0
100
AcDbLine
 10
482.066
 20
434.0959999999999
 30
0.0
 11
482.128
 21
433.462
 31
0.0
  0
LINE
  5
61C
330
1E
100
AcDbEntity
  8
0
100
AcDbLine
 10
481.7099999999999
 20
432.92
 30
0.0
 11
482.128
 21
433.462
 31
0.0
  0
LINE
  5
61D
330
1E
100
AcDbEntity
  8
0
100
AcDbLine
 10
480.2999999999999
 20
432.874
 30
0.0
 11
481.7099999999999
 21
432.92
 31
0.0
  0
LINE
  5
61E
330
1E
100
AcDbEntity
  8
0
100
AcDbLine
 10
489.9689999999999
 20
434.0519999999999
 30
0.0
 11
490.604
 21
434.64
 31
0.0
  0
LINE
  5
61F
330
1E
100
AcDbEntity
  8
0
100
AcDbLine
 10
489.629
 20
434.315
 30
0.0
 11
490.31
 21
435.027
 31
0.0
  0
LINE
  5
620
330
1E
100
AcDbEntity
  8
0
100
AcDbLine
 10
489.629
 20
434.315
 30
0.0
 11
489.9689999999999
 21
434.0519999999999
 31
0.0
  0
LINE
  5
621
330
1E
100
AcDbEntity
  8
0
100
AcDbLine
 10
490.604
 20
434.64
 30
0.0
 11
491.626
 21
434.64
 31
0.0
  0
LINE
  5
622
330
1E
100
AcDbEntity
  8
0
100
AcDbLine
 10
490.31
 20
435.027
 30
0.0
 11
491.874
 21
435.0119999999999
 31
0.0
  0
LINE
  5
623
330
1E
100
AcDbEntity
  8
0
100
AcDbLine
 10
491.626
 20
434.64
 30
0.0
 11
492.029
 21
434.2069999999999
 31
0.0
  0
LINE
  5
624
330
1E
100
AcDbEntity
  8
0
100
AcDbLine
 10
491.874
 20
435.0119999999999
 30
0.0
 11
492.633
 21
434.2839999999999
 31
0.0
  0
LINE
  5
625
330
1E
100
AcDbEntity
  8
0
100
AcDbLine
 10
492.029
 20
434.2069999999999
 30
0.0
 11
492.091
 21
433.5719999999999
 31
0.0
  0
LINE
  5
626
330
1E
100
AcDbEntity
  8
0
100
AcDbLine
 10
491.859
 20
432.628
 30
0.0
 11
492.6639999999999
 21
433.433
 31
0.0
  0
LINE
  5
627
330
1E
100
AcDbEntity
  8
0
100
AcDbLine
 10
491.673
 20
433.03
 30
0.0
 11
492.091
 21
433.5719999999999
 31
0.0
  0
LINE
  5
628
330
1E
100
AcDbEntity
  8
0
100
AcDbLine
 10
490.573
 20
432.582
 30
0.0
 11
491.859
 21
432.628
 31
0.0
  0
LINE
  5
629
330
1E
100
AcDbEntity
  8
0
100
AcDbLine
 10
490.2639999999999
 20
432.984
 30
0.0
 11
491.673
 21
433.03
 31
0.0
  0
LINE
  5
62A
330
1E
100
AcDbEntity
  8
0
100
AcDbLine
 10
490.0
 20
432.086
 30
0.0
 11
490.0
 21
430.9719999999999
 31
0.0
  0
LINE
  5
62B
330
1E
100
AcDbEntity
  8
0
100
AcDbLine
 10
490.0
 20
432.086
 30
0.0
 11
490.573
 21
432.582
 31
0.0
  0
LINE
  5
62C
330
1E
100
AcDbEntity
  8
0
100
AcDbLine
 10
489.536
 20
432.2569999999999
 30
0.0
 11
489.5669999999999
 21
430.6309999999999
 31
0.0
  0
LINE
  5
62D
330
1E
100
AcDbEntity
  8
0
100
AcDbLine
 10
489.536
 20
432.2569999999999
 30
0.0
 11
490.2639999999999
 21
432.984
 31
0.0
  0
LINE
  5
62E
330
1E
100
AcDbEntity
  8
0
100
AcDbLine
 10
490.0
 20
430.9719999999999
 30
0.0
 11
492.4319999999999
 21
430.9719999999999
 31
0.0
  0
LINE
  5
62F
330
1E
100
AcDbEntity
  8
0
100
AcDbLine
 10
493.901
 20
431.522
 30
0.0
 11
494.5359999999999
 21
430.933
 31
0.0
  0
LINE
  5
630
330
1E
100
AcDbEntity
  8
0
100
AcDbLine
 10
493.5599999999999
 20
431.258
 30
0.0
 11
493.901
 21
431.522
 31
0.0
  0
LINE
  5
631
330
1E
100
AcDbEntity
  8
0
100
AcDbLine
 10
493.5599999999999
 20
431.258
 30
0.0
 11
494.2409999999999
 21
430.5469999999999
 31
0.0
  0
LINE
  5
632
330
1E
100
AcDbEntity
  8
0
100
AcDbLine
 10
494.5359999999999
 20
430.933
 30
0.0
 11
495.558
 21
430.933
 31
0.0
  0
LINE
  5
633
330
1E
100
AcDbEntity
  8
0
100
AcDbLine
 10
494.974
 20
432.544
 30
0.0
 11
494.974
 21
432.7069999999999
 31
0.0
  0
LINE
  5
634
330
1E
100
AcDbEntity
  8
0
100
AcDbLine
 10
494.974
 20
432.544
 30
0.0
 11
495.604
 21
432.5429999999999
 31
0.0
  0
LINE
  5
635
330
1E
100
AcDbEntity
  8
0
100
AcDbLine
 10
493.901
 20
433.978
 30
0.0
 11
494.5359999999999
 21
434.5669999999999
 31
0.0
  0
LINE
  5
636
330
1E
100
AcDbEntity
  8
0
100
AcDbLine
 10
493.5599999999999
 20
434.2419999999999
 30
0.0
 11
494.2409999999999
 21
434.953
 31
0.0
  0
LINE
  5
637
330
1E
100
AcDbEntity
  8
0
100
AcDbLine
 10
493.5599999999999
 20
434.2419999999999
 30
0.0
 11
493.901
 21
433.978
 31
0.0
  0
LINE
  5
638
330
1E
100
AcDbEntity
  8
0
100
AcDbLine
 10
495.558
 20
430.933
 30
0.0
 11
495.96
 21
431.367
 31
0.0
  0
LINE
  5
639
330
1E
100
AcDbEntity
  8
0
100
AcDbLine
 10
495.96
 20
431.367
 30
0.0
 11
496.0219999999999
 21
432.0009999999999
 31
0.0
  0
LINE
  5
63A
330
1E
100
AcDbEntity
  8
0
100
AcDbLine
 10
495.604
 20
432.5429999999999
 30
0.0
 11
496.0219999999999
 21
432.0009999999999
 31
0.0
  0
LINE
  5
63B
330
1E
100
AcDbEntity
  8
0
100
AcDbLine
 10
496.564
 20
431.289
 30
0.0
 11
496.595
 21
432.1409999999999
 31
0.0
  0
LINE
  5
63C
330
1E
100
AcDbEntity
  8
0
100
AcDbLine
 10
496.0569999999999
 20
432.7069999999999
 30
0.0
 11
496.595
 21
433.359
 31
0.0
  0
LINE
  5
63D
330
1E
100
AcDbEntity
  8
0
100
AcDbLine
 10
496.0569999999999
 20
432.7069999999999
 30
0.0
 11
496.595
 21
432.1409999999999
 31
0.0
  0
LINE
  5
63E
330
1E
100
AcDbEntity
  8
0
100
AcDbLine
 10
496.564
 20
434.2109999999999
 30
0.0
 11
496.595
 21
433.359
 31
0.0
  0
LINE
  5
63F
330
1E
100
AcDbEntity
  8
0
100
AcDbLine
 10
495.96
 20
434.133
 30
0.0
 11
496.0219999999999
 21
433.499
 31
0.0
  0
LINE
  5
640
330
1E
100
AcDbEntity
  8
0
100
AcDbLine
 10
495.604
 20
432.957
 30
0.0
 11
496.0219999999999
 21
433.499
 31
0.0
  0
LINE
  5
641
330
1E
100
AcDbEntity
  8
0
100
AcDbLine
 10
494.989
 20
432.8999999999999
 30
0.0
 11
495.604
 21
432.957
 31
0.0
  0
LINE
  5
642
330
1E
100
AcDbEntity
  8
0
100
AcDbLine
 10
494.974
 20
432.7069999999999
 30
0.0
 11
494.989
 21
432.8999999999999
 31
0.0
  0
LINE
  5
643
330
1E
100
AcDbEntity
  8
0
100
AcDbLine
 10
494.5359999999999
 20
434.5669999999999
 30
0.0
 11
495.558
 21
434.5669999999999
 31
0.0
  0
LINE
  5
644
330
1E
100
AcDbEntity
  8
0
100
AcDbLine
 10
494.2409999999999
 20
434.953
 30
0.0
 11
495.805
 21
434.938
 31
0.0
  0
LINE
  5
645
330
1E
100
AcDbEntity
  8
0
100
AcDbLine
 10
495.805
 20
434.938
 30
0.0
 11
496.564
 21
434.2109999999999
 31
0.0
  0
LINE
  5
646
330
1E
100
AcDbEntity
  8
0
100
AcDbLine
 10
495.558
 20
434.5669999999999
 30
0.0
 11
495.96
 21
434.133
 31
0.0
  0
LINE
  5
647
330
1E
100
AcDbEntity
  8
0
100
AcDbLine
 10
492.633
 20
434.2839999999999
 30
0.0
 11
492.6639999999999
 21
433.433
 31
0.0
  0
LINE
  5
648
330
1E
100
AcDbEntity
  8
0
100
AcDbLine
 10
492.4319999999999
 20
430.9719999999999
 30
0.0
 11
492.4469999999999
 21
430.6309999999999
 31
0.0
  0
LINE
  5
649
330
1E
100
AcDbEntity
  8
0
100
AcDbLine
 10
489.5669999999999
 20
430.6309999999999
 30
0.0
 11
492.4469999999999
 21
430.6309999999999
 31
0.0
  0
LINE
  5
64A
330
1E
100
AcDbEntity
  8
0
100
AcDbLine
 10
480.0569999999999
 20
478.9399999999999
 30
0.0
 11
572.0679999999999
 21
475.759
 31
0.0
  0
LINE
  5
64B
330
1E
100
AcDbEntity
  8
0
100
AcDbLine
 10
577.4469999999999
 20
343.339
 30
0.0
 11
581.0159999999999
 21
344.144
 31
0.0
  0
LINE
  5
64C
330
1E
100
AcDbEntity
  8
0
100
AcDbLine
 10
572.0679999999999
 20
475.759
 30
0.0
 11
580.964
 21
474.044
 31
0.0
  0
LINE
  5
64D
330
1E
100
AcDbEntity
  8
0
100
AcDbLine
 10
387.999
 20
480.0
 30
0.0
 11
480.0569999999999
 21
478.9399999999999
 31
0.0
  0
LINE
  5
64E
330
1E
100
AcDbEntity
  8
0
100
AcDbLine
 10
581.0159999999999
 20
344.144
 30
0.0
 11
585.7669999999999
 21
346.661
 31
0.0
  0
LINE
  5
64F
330
1E
100
AcDbEntity
  8
0
100
AcDbLine
 10
585.7669999999999
 20
346.661
 30
0.0
 11
589.065
 21
348.5799999999999
 31
0.0
  0
LINE
  5
650
330
1E
100
AcDbEntity
  8
0
100
AcDbLine
 10
589.065
 20
348.5799999999999
 30
0.0
 11
592.738
 21
352.294
 31
0.0
  0
LINE
  5
651
330
1E
100
AcDbEntity
  8
0
100
AcDbLine
 10
580.964
 20
474.044
 30
0.0
 11
589.008
 21
469.863
 31
0.0
  0
LINE
  5
652
330
1E
100
AcDbEntity
  8
0
100
AcDbLine
 10
589.008
 20
469.863
 30
0.0
 11
595.197
 21
463.989
 31
0.0
  0
LINE
  5
653
330
1E
100
AcDbEntity
  8
0
100
AcDbLine
 10
597.7959999999999
 20
359.864
 30
0.0
 11
599.473
 21
363.4809999999999
 31
0.0
  0
LINE
  5
654
330
1E
100
AcDbEntity
  8
0
100
AcDbLine
 10
595.4119999999999
 20
355.23
 30
0.0
 11
597.7959999999999
 21
359.864
 31
0.0
  0
LINE
  5
655
330
1E
100
AcDbEntity
  8
0
100
AcDbLine
 10
592.738
 20
352.294
 30
0.0
 11
595.4119999999999
 21
355.23
 31
0.0
  0
LINE
  5
656
330
1E
100
AcDbEntity
  8
0
100
AcDbLine
 10
601.8469999999999
 20
448.435
 30
0.0
 11
604.244
 21
421.065
 31
0.0
  0
LINE
  5
657
330
1E
100
AcDbEntity
  8
0
100
AcDbLine
 10
660.8889999999998
 20
359.5119999999999
 30
0.0
 11
664.557
 21
312.1409999999999
 31
0.0
  0
LINE
  5
658
330
1E
100
AcDbEntity
  8
0
100
AcDbLine
 10
658.9730000000001
 20
367.735
 30
0.0
 11
660.8889999999998
 21
359.5119999999999
 31
0.0
  0
LINE
  5
659
330
1E
100
AcDbEntity
  8
0
100
AcDbLine
 10
604.3959999999999
 20
392.224
 30
0.0
 11
605.253
 21
391.098
 31
0.0
  0
LINE
  5
65A
330
1E
100
AcDbEntity
  8
0
100
AcDbLine
 10
606.9969999999999
 20
390.4349999999999
 30
0.0
 11
630.2709999999999
 21
389.1409999999999
 31
0.0
  0
LINE
  5
65B
330
1E
100
AcDbEntity
  8
0
100
AcDbLine
 10
605.253
 20
391.098
 30
0.0
 11
606.9969999999999
 21
390.4349999999999
 31
0.0
  0
LINE
  5
65C
330
1E
100
AcDbEntity
  8
0
100
AcDbLine
 10
630.2709999999999
 20
389.1409999999999
 30
0.0
 11
636.4069999999999
 21
388.1399999999999
 31
0.0
  0
LINE
  5
65D
330
1E
100
AcDbEntity
  8
0
100
AcDbLine
 10
642.2469999999999
 20
386.0059999999999
 30
0.0
 11
649.3330000000001
 21
381.429
 31
0.0
  0
LINE
  5
65E
330
1E
100
AcDbEntity
  8
0
100
AcDbLine
 10
649.3330000000001
 20
381.429
 30
0.0
 11
655.0369999999999
 21
375.203
 31
0.0
  0
LINE
  5
65F
330
1E
100
AcDbEntity
  8
0
100
AcDbLine
 10
636.4069999999999
 20
388.1399999999999
 30
0.0
 11
642.2469999999999
 21
386.0059999999999
 31
0.0
  0
LINE
  5
660
330
1E
100
AcDbEntity
  8
0
100
AcDbLine
 10
655.0369999999999
 20
375.203
 30
0.0
 11
658.9730000000001
 21
367.735
 31
0.0
  0
LINE
  5
661
330
1E
100
AcDbEntity
  8
0
100
AcDbLine
 10
604.145
 20
393.591
 30
0.0
 11
604.244
 21
421.065
 31
0.0
  0
LINE
  5
662
330
1E
100
AcDbEntity
  8
0
100
AcDbLine
 10
604.145
 20
393.591
 30
0.0
 11
604.3959999999999
 21
392.224
 31
0.0
  0
LINE
  5
663
330
1E
100
AcDbEntity
  8
0
100
AcDbLine
 10
595.197
 20
463.989
 30
0.0
 11
599.577
 21
456.6639999999999
 31
0.0
  0
LINE
  5
664
330
1E
100
AcDbEntity
  8
0
100
AcDbLine
 10
599.577
 20
456.6639999999999
 30
0.0
 11
601.8469999999999
 21
448.435
 31
0.0
  0
LINE
  5
668
330
1E
100
AcDbEntity
  8
0
100
AcDbLine
 10
387.999
 20
338.776
 30
0.0
 11
475.7249999999999
 21
339.8309999999999
 31
0.0
  0
LINE
  5
669
330
1E
100
AcDbEntity
  8
0
100
AcDbLine
 10
300.274
 20
339.8309999999999
 30
0.0
 11
387.999
 21
338.776
 31
0.0
  0
LINE
  5
66F
330
1E
100
AcDbEntity
  8
0
100
AcDbLine
 10
171.31
 20
416.966
 30
0.0
 11
171.2279783011886
 21
399.9108972189187
 31
0.0
  0
LINE
  5
670
330
1E
100
AcDbEntity
  8
0
100
AcDbLine
 10
171.2279783011886
 20
399.9108972189187
 30
0.0
 11
171.6059074485983
 21
387.4465123395436
 31
0.0
  0
LINE
  5
671
330
1E
100
AcDbEntity
  8
0
100
AcDbLine
 10
171.6059074485983
 20
387.4465123395436
 30
0.0
 11
172.9286594645332
 21
375.1709822368102
 31
0.0
  0
LINE
  5
672
330
1E
100
AcDbEntity
  8
0
100
AcDbLine
 10
172.9286594645332
 20
375.1709822368102
 30
0.0
 11
174.9338296905393
 21
365.5430442302665
 31
0.0
  0
LINE
  5
673
330
1E
100
AcDbEntity
  8
0
100
AcDbLine
 10
174.9338296905393
 20
365.5430442302665
 30
0.0
 11
176.284944355385
 21
360.0917301578999
 31
0.0
  0
LINE
  5
674
330
1E
100
AcDbEntity
  8
0
100
AcDbLine
 10
176.284944355385
 20
360.0917301578999
 30
0.0
 11
178.9371319691867
 21
354.5403927792649
 31
0.0
  0
LINE
  5
675
330
1E
100
AcDbEntity
  8
0
100
AcDbLine
 10
178.9371319691867
 20
354.5403927792649
 30
0.0
 11
181.7214935393963
 21
350.8422960583282
 31
0.0
  0
LINE
  5
676
330
1E
100
AcDbEntity
  8
0
100
AcDbLine
 10
181.7214935393963
 20
350.8422960583282
 30
0.0
 11
188.6812951987904
 21
347.4886349223481
 31
0.0
  0
LINE
  5
677
330
1E
100
AcDbEntity
  8
0
100
AcDbLine
 10
188.6812951987904
 20
347.4886349223481
 30
0.0
 11
196.3867886433849
 21
345.3770717952331
 31
0.0
  0
LINE
  5
678
330
1E
100
AcDbEntity
  8
0
100
AcDbLine
 10
196.3867886433849
 20
345.3770717952331
 30
0.0
 11
212.2949080550506
 21
343.3897170063135
 31
0.0
  0
LINE
  5
679
330
1E
100
AcDbEntity
  8
0
100
AcDbLine
 10
212.2949080550506
 20
343.3897170063135
 30
0.0
 11
234.2928553767101
 21
341.7749917325682
 31
0.0
  0
LINE
  5
67A
330
1E
100
AcDbEntity
  8
0
100
AcDbLine
 10
234.2928553767101
 20
341.7749917325682
 30
0.0
 11
265.2391157849642
 21
340.532895973997
 31
0.0
  0
LINE
  5
67B
330
1E
100
AcDbEntity
  8
0
100
AcDbLine
 10
265.2391157849642
 20
340.532895973997
 30
0.0
 11
297.1796365724958
 21
339.7876380687955
 31
0.0
  0
LINE
  5
67C
330
1E
100
AcDbEntity
  8
0
100
AcDbLine
 10
297.1796365724958
 20
339.7876380687955
 30
0.0
 11
300.274
 21
339.8309999999999
 31
0.0
  0
LINE
  5
67D
330
1E
100
AcDbEntity
  8
0
100
AcDbLine
 10
475.7249999999999
 20
339.8309999999999
 30
0.0
 11
572.01
 21
342.3309999999999
 31
0.0
  0
LINE
  5
67E
330
1E
100
AcDbEntity
  8
0
100
AcDbLine
 10
599.473
 20
363.4809999999999
 30
0.0
 11
602.1670564964388
 21
373.8532957362083
 31
0.0
  0
LINE
  5
67F
330
1E
100
AcDbEntity
  8
0
100
AcDbLine
 10
602.1670564964388
 20
373.8532957362083
 30
0.0
 11
603.6856222995347
 21
383.3640857011528
 31
0.0
  0
LINE
  5
680
330
1E
100
AcDbEntity
  8
0
100
AcDbLine
 10
603.6856222995347
 20
383.3640857011528
 30
0.0
 11
604.3959999999999
 21
392.224
 31
0.0
  0
LINE
  5
681
330
1E
100
AcDbEntity
  8
0
100
AcDbLine
 10
546.59
 20
125.26
 30
0.0
 11
528.7801907895932
 21
125.623658134672
 31
0.0
  0
LINE
  5
682
330
1E
100
AcDbEntity
  8
0
100
AcDbLine
 10
528.7801907895932
 20
125.623658134672
 30
0.0
 11
513.0448997086223
 21
126.6595088466103
 31
0.0
  0
LINE
  5
683
330
1E
100
AcDbEntity
  8
0
100
AcDbLine
 10
513.0448997086223
 20
126.6595088466103
 30
0.0
 11
495.3309184499917
 21
128.2603700606487
 31
0.0
  0
LINE
  5
684
330
1E
100
AcDbEntity
  8
0
100
AcDbLine
 10
495.3309184499917
 20
128.2603700606487
 30
0.0
 11
488.621
 21
129.912
 31
0.0
  0
LINE
  5
685
330
1E
100
AcDbEntity
  8
0
100
AcDbLine
 10
467.559
 20
149.767
 30
0.0
 11
465.8268607136064
 21
157.5885000778525
 31
0.0
  0
LINE
  5
686
330
1E
100
AcDbEntity
  8
0
100
AcDbLine
 10
465.8268607136064
 20
157.5885000778525
 30
0.0
 11
464.0951527999309
 21
175.652667784557
 31
0.0
  0
LINE
  5
687
330
1E
100
AcDbEntity
  8
0
100
AcDbLine
 10
464.0951527999309
 20
175.652667784557
 30
0.0
 11
461.9369740380279
 21
217.4477491411416
 31
0.0
  0
LINE
  5
688
330
1E
100
AcDbEntity
  8
0
100
AcDbLine
 10
461.9369740380279
 20
217.4477491411416
 30
0.0
 11
461.0325442658923
 21
260.8350055779442
 31
0.0
  0
LINE
  5
689
330
1E
100
AcDbEntity
  8
0
100
AcDbLine
 10
461.0325442658923
 20
260.8350055779442
 30
0.0
 11
461.3340216342171
 21
301.5105579248729
 31
0.0
  0
LINE
  5
68A
330
1E
100
AcDbEntity
  8
0
100
AcDbLine
 10
461.3340216342171
 20
301.5105579248729
 30
0.0
 11
462.7018440874739
 21
339.6077630893071
 31
0.0
  0
ENDSEC
  0
SECTION
  2
OBJECTS
  0
DICTIONARY
  5
C
330
0
100
AcDbDictionary
281
     1
  3
ACAD_GROUP
350
D
  3
ACAD_LAYOUT
350
19
  3
ACAD_MLINESTYLE
350
16
  3
ACAD_PLOTSETTINGS
350
18
  3
ACAD_PLOTSTYLENAME
350
E
  3
AcDbVariableDictionary
350
68C
  0
DICTIONARY
  5
D
102
{ACAD_REACTORS
330
C
102
}
330
C
100
AcDbDictionary
281
     1
  0
DICTIONARY
  5
19
102
{ACAD_REACTORS
330
C
102
}
330
C
100
AcDbDictionary
281
     1
  3
Layout1
350
1D
  3
Model
350
21
  0
DICTIONARY
  5
16
102
{ACAD_REACTORS
330
C
102
}
330
C
100
AcDbDictionary
281
     1
  3
Standard
350
17
  0
DICTIONARY
  5
18
102
{ACAD_REACTORS
330
C
102
}
330
C
100
AcDbDictionary
281
     1
  0
ACDBDICTIONARYWDFLT
  5
E
102
{ACAD_REACTORS
330
C
102
}
330
C
100
AcDbDictionary
281
     1
  3
Normal
350
F
100
AcDbDictionaryWithDefault
340
F
  0
DICTIONARY
  5
68C
102
{ACAD_REACTORS
330
C
102
}
330
C
100
AcDbDictionary
281
     1
  3
DIMASSOC
350
68D
  0
LAYOUT
  5
1D
102
{ACAD_REACTORS
330
19
102
}
330
19
100
AcDbPlotSettings
  1

  2
C:\Programme\AutoCAD LT 2002 Deu\plotters\DWF ePlot (optimized for plotting).pc3
  4

  6

 40
0.0
 41
0.0
 42
0.0
 43
0.0
 44
0.0
 45
0.0
 46
0.0
 47
0.0
 48
0.0
 49
0.0
140
0.0
141
0.0
142
1.0
143
1.0
 70
   688
 72
     0
 73
     0
 74
     5
  7

 75
    16
147
1.0
148
0.0
149
0.0
100
AcDbLayout
  1
Layout1
 70
     1
 71
     1
 10
0.0
 20
0.0
 11
12.0
 21
9.0
 12
0.0
 22
0.0
 32
0.0
 14
1.000000000000000E+20
 24
1.000000000000000E+20
 34
1.000000000000000E+20
 15
-1.000000000000000E+20
 25
-1.000000000000000E+20
 35
-1.000000000000000E+20
146
0.0
 13
0.0
 23
0.0
 33
0.0
 16
1.0
 26
0.0
 36
0.0
 17
0.0
 27
1.0
 37
0.0
 76
     0
330
1A
  0
LAYOUT
  5
21
102
{ACAD_REACTORS
330
19
102
}
330
19
100
AcDbPlotSettings
  1

  2
C:\Programme\AutoCAD LT 2002 Deu\plotters\DWF ePlot (optimized for plotting).pc3
  4

  6

 40
0.0
 41
0.0
 42
0.0
 43
0.0
 44
0.0
 45
0.0
 46
0.0
 47
0.0
 48
0.0
 49
0.0
140
0.0
141
0.0
142
1.0
143
1.0
 70
  1712
 72
     0
 73
     0
 74
     0
  7

 75
     0
147
1.0
148
0.0
149
0.0
100
AcDbLayout
  1
Model
 70
     1
 71
     0
 10
0.0
 20
0.0
 11
12.0
 21
9.0
 12
0.0
 22
0.0
 32
0.0
 14
0.0
 24
0.0
 34
0.0
 15
0.0
 25
0.0
 35
0.0
146
0.0
 13
0.0
 23
0.0
 33
0.0
 16
1.0
 26
0.0
 36
0.0
 17
0.0
 27
1.0
 37
0.0
 76
     0
330
1E
  0
MLINESTYLE
  5
17
102
{ACAD_REACTORS
330
16
102
}
330
16
100
AcDbMlineStyle
  2
STANDARD
 70
     0
  3

 62
   256
 51
90.0
 52
90.0
 71
     2
 49
0.5
 62
   256
  6
BYLAYER
 49
-0.5
 62
   256
  6
BYLAYER
  0
ACDBPLACEHOLDER
  5
F
102
{ACAD_REACTORS
330
E
102
}
330
E
  0
DICTIONARYVAR
  5
68D
102
{ACAD_REACTORS
330
68C
102
}
330
68C
100
DictionaryVariables
280
     0
  1
1
  0
ENDSEC
  0
EOF
