  0
SECTION
  2
HEADER
  9
$ACADVER
  1
AC1015
  9
$ACADMAINTVER
 70
    13
  9
$DWGCODEPAGE
  3
ANSI_1252
  9
$INSBASE
 10
0.0
 20
0.0
 30
0.0
  9
$EXTMIN
 10
0.0
 20
0.0000000000000065
 30
0.0
  9
$EXTMAX
 10
666.0
 20
480.0
 30
0.0
  9
$LIMMIN
 10
0.0
 20
0.0
  9
$LIMMAX
 10
12.0
 20
9.0
  9
$ORTHOMODE
 70
     0
  9
$REGENMODE
 70
     1
  9
$FILLMODE
 70
     1
  9
$QTEXTMODE
 70
     0
  9
$MIRRTEXT
 70
     1
  9
$LTSCALE
 40
1.0
  9
$ATTMODE
 70
     1
  9
$TEXTSIZE
 40
0.2
  9
$TRACEWID
 40
0.05
  9
$TEXTSTYLE
  7
Standard
  9
$CLAYER
  8
0
  9
$CELTYPE
  6
Continuous
  9
$CECOLOR
 62
   256
  9
$CELTSCALE
 40
1.0
  9
$DISPSILH
 70
     0
  9
$DIMSCALE
 40
1.0
  9
$DIMASZ
 40
0.18
  9
$DIMEXO
 40
0.0625
  9
$DIMDLI
 40
0.38
  9
$DIMRND
 40
0.0
  9
$DIMDLE
 40
0.0
  9
$DIMEXE
 40
0.18
  9
$DIMTP
 40
0.0
  9
$DIMTM
 40
0.0
  9
$DIMTXT
 40
0.18
  9
$DIMCEN
 40
0.09
  9
$DIMTSZ
 40
0.0
  9
$DIMTOL
 70
     0
  9
$DIMLIM
 70
     0
  9
$DIMTIH
 70
     1
  9
$DIMTOH
 70
     1
  9
$DIMSE1
 70
     0
  9
$DIMSE2
 70
     0
  9
$DIMTAD
 70
     0
  9
$DIMZIN
 70
     0
  9
$DIMBLK
  1

  9
$DIMASO
 70
     1
  9
$DIMSHO
 70
     1
  9
$DIMPOST
  1

  9
$DIMAPOST
  1

  9
$DIMALT
 70
     0
  9
$DIMALTD
 70
     2
  9
$DIMALTF
 40
25.4
  9
$DIMLFAC
 40
1.0
  9
$DIMTOFL
 70
     0
  9
$DIMTVP
 40
0.0
  9
$DIMTIX
 70
     0
  9
$DIMSOXD
 70
     0
  9
$DIMSAH
 70
     0
  9
$DIMBLK1
  1

  9
$DIMBLK2
  1

  9
$DIMSTYLE
  2
Standard
  9
$DIMCLRD
 70
     0
  9
$DIMCLRE
 70
     0
  9
$DIMCLRT
 70
     0
  9
$DIMTFAC
 40
1.0
  9
$DIMGAP
 40
0.09
  9
$DIMJUST
 70
     0
  9
$DIMSD1
 70
     0
  9
$DIMSD2
 70
     0
  9
$DIMTOLJ
 70
     1
  9
$DIMTZIN
 70
     0
  9
$DIMALTZ
 70
     0
  9
$DIMALTTZ
 70
     0
  9
$DIMUPT
 70
     0
  9
$DIMDEC
 70
     4
  9
$DIMTDEC
 70
     4
  9
$DIMALTU
 70
     2
  9
$DIMALTTD
 70
     2
  9
$DIMTXSTY
  7
Standard
  9
$DIMAUNIT
 70
     0
  9
$DIMADEC
 70
     0
  9
$DIMALTRND
 40
0.0
  9
$DIMAZIN
 70
     0
  9
$DIMDSEP
 70
    46
  9
$DIMATFIT
 70
     3
  9
$DIMFRAC
 70
     0
  9
$DIMLDRBLK
  1

  9
$DIMLUNIT
 70
     2
  9
$DIMLWD
 70
    -2
  9
$DIMLWE
 70
    -2
  9
$DIMTMOVE
 70
     0
  9
$LUNITS
 70
     2
  9
$LUPREC
 70
     4
  9
$SKETCHINC
 40
0.1
  9
$FILLETRAD
 40
0.0
  9
$AUNITS
 70
     0
  9
$AUPREC
 70
     0
  9
$MENU
  1
.
  9
$ELEVATION
 40
0.0
  9
$PELEVATION
 40
0.0
  9
$THICKNESS
 40
0.0
  9
$LIMCHECK
 70
     0
  9
$CHAMFERA
 40
0.0
  9
$CHAMFERB
 40
0.0
  9
$CHAMFERC
 40
0.0
  9
$CHAMFERD
 40
0.0
  9
$SKPOLY
 70
     0
  9
$TDCREATE
 40
2455508.389087812
  9
$TDUCREATE
 40
2455508.347421146
  9
$TDUPDATE
 40
2455508.405706921
  9
$TDUUPDATE
 40
2455508.364040254
  9
$TDINDWG
 40
0.0105060069
  9
$TDUSRTIMER
 40
0.0105060069
  9
$USRTIMER
 70
     1
  9
$ANGBASE
 50
0.0
  9
$ANGDIR
 70
     0
  9
$PDMODE
 70
     0
  9
$PDSIZE
 40
0.0
  9
$PLINEWID
 40
0.0
  9
$SPLFRAME
 70
     0
  9
$SPLINETYPE
 70
     6
  9
$SPLINESEGS
 70
     8
  9
$HANDSEED
  5
69D
  9
$SURFTAB1
 70
     6
  9
$SURFTAB2
 70
     6
  9
$SURFTYPE
 70
     6
  9
$SURFU
 70
     6
  9
$SURFV
 70
     6
  9
$UCSBASE
  2

  9
$UCSNAME
  2

  9
$UCSORG
 10
0.0
 20
0.0
 30
0.0
  9
$UCSXDIR
 10
1.0
 20
0.0
 30
0.0
  9
$UCSYDIR
 10
0.0
 20
1.0
 30
0.0
  9
$UCSORTHOREF
  2

  9
$UCSORTHOVIEW
 70
     1
  9
$UCSORGTOP
 10
0.0
 20
0.0
 30
0.0
  9
$UCSORGBOTTOM
 10
0.0
 20
0.0
 30
0.0
  9
$UCSORGLEFT
 10
0.0
 20
0.0
 30
0.0
  9
$UCSORGRIGHT
 10
0.0
 20
0.0
 30
0.0
  9
$UCSORGFRONT
 10
0.0
 20
0.0
 30
0.0
  9
$UCSORGBACK
 10
0.0
 20
0.0
 30
0.0
  9
$PUCSBASE
  2

  9
$PUCSNAME
  2

  9
$PUCSORG
 10
0.0
 20
0.0
 30
0.0
  9
$PUCSXDIR
 10
1.0
 20
0.0
 30
0.0
  9
$PUCSYDIR
 10
0.0
 20
1.0
 30
0.0
  9
$PUCSORTHOREF
  2

  9
$PUCSORTHOVIEW
 70
     0
  9
$PUCSORGTOP
 10
0.0
 20
0.0
 30
0.0
  9
$PUCSORGBOTTOM
 10
0.0
 20
0.0
 30
0.0
  9
$PUCSORGLEFT
 10
0.0
 20
0.0
 30
0.0
  9
$PUCSORGRIGHT
 10
0.0
 20
0.0
 30
0.0
  9
$PUCSORGFRONT
 10
0.0
 20
0.0
 30
0.0
  9
$PUCSORGBACK
 10
0.0
 20
0.0
 30
0.0
  9
$USERI1
 70
     0
  9
$USERI2
 70
     0
  9
$USERI3
 70
     0
  9
$USERI4
 70
     0
  9
$USERI5
 70
     0
  9
$USERR1
 40
0.0
  9
$USERR2
 40
0.0
  9
$USERR3
 40
0.0
  9
$USERR4
 40
0.0
  9
$USERR5
 40
0.0
  9
$WORLDVIEW
 70
     1
  9
$SHADEDGE
 70
     3
  9
$SHADEDIF
 70
    70
  9
$TILEMODE
 70
     1
  9
$MAXACTVP
 70
    64
  9
$PINSBASE
 10
0.0
 20
0.0
 30
0.0
  9
$PLIMCHECK
 70
     0
  9
$PEXTMIN
 10
1.000000000000000E+20
 20
1.000000000000000E+20
 30
1.000000000000000E+20
  9
$PEXTMAX
 10
-1.000000000000000E+20
 20
-1.000000000000000E+20
 30
-1.000000000000000E+20
  9
$PLIMMIN
 10
0.0
 20
0.0
  9
$PLIMMAX
 10
12.0
 20
9.0
  9
$UNITMODE
 70
     0
  9
$VISRETAIN
 70
     1
  9
$PLINEGEN
 70
     0
  9
$PSLTSCALE
 70
     1
  9
$TREEDEPTH
 70
  3020
  9
$CMLSTYLE
  2
Standard
  9
$CMLJUST
 70
     0
  9
$CMLSCALE
 40
1.0
  9
$PROXYGRAPHICS
 70
     1
  9
$MEASUREMENT
 70
     0
  9
$CELWEIGHT
370
    -1
  9
$ENDCAPS
280
     0
  9
$JOINSTYLE
280
     0
  9
$LWDISPLAY
290
     0
  9
$INSUNITS
 70
     0
  9
$HYPERLINKBASE
  1

  9
$STYLESHEET
  1

  9
$XEDIT
290
     1
  9
$CEPSNTYPE
380
     0
  9
$PSTYLEMODE
290
     1
  9
$FINGERPRINTGUID
  2
{730C29F2-D4A1-404C-90E3-4E3B0FEC7072}
  9
$VERSIONGUID
  2
{4C7B28AB-5B52-4A5A-82E7-F9A792BA2FD9}
  9
$EXTNAMES
290
     1
  9
$PSVPSCALE
 40
0.0
  9
$OLESTARTUP
290
     0
  0
ENDSEC
  0
SECTION
  2
CLASSES
  0
CLASS
  1
ACDBDICTIONARYWDFLT
  2
AcDbDictionaryWithDefault
  3
AutoCAD 2000
 90
        0
280
     0
281
     0
  0
CLASS
  1
ACDBPLACEHOLDER
  2
AcDbPlaceHolder
  3
AutoCAD 2000
 90
        0
280
     0
281
     0
  0
CLASS
  1
LAYOUT
  2
AcDbLayout
  3
AutoCAD 2000
 90
        0
280
     0
281
     0
  0
CLASS
  1
DICTIONARYVAR
  2
AcDbDictionaryVar
  3
AutoCAD 2000
 90
        0
280
     0
281
     0
  0
ENDSEC
  0
SECTION
  2
TABLES
  0
TABLE
  2
VPORT
  5
8
330
0
100
AcDbSymbolTable
 70
     7
  0
VPORT
  5
69C
330
8
100
AcDbSymbolTableRecord
100
AcDbViewportTableRecord
  2
*Active
 70
     0
 10
0.0
 20
0.0
 11
1.0
 21
1.0
 12
333.0
 22
240.0
 13
0.0
 23
0.0
 14
1.0
 24
1.0
 15
0.0
 25
0.0
 16
0.0
 26
0.0
 36
1.0
 17
0.0
 27
0.0
 37
0.0
 40
483.2468996617812
 41
2.073363431151241
 42
50.0
 43
0.0
 44
0.0
 50
0.0
 51
0.0
 71
     0
 72
   100
 73
     1
 74
     3
 75
     0
 76
     0
 77
     0
 78
     0
281
     0
 65
     1
110
0.0
120
0.0
130
0.0
111
1.0
121
0.0
131
0.0
112
0.0
122
1.0
132
0.0
 79
     1
146
0.0
  0
ENDTAB
  0
TABLE
  2
LTYPE
  5
5
330
0
100
AcDbSymbolTable
 70
     1
  0
LTYPE
  5
13
330
5
100
AcDbSymbolTableRecord
100
AcDbLinetypeTableRecord
  2
ByBlock
 70
     0
  3

 72
    65
 73
     0
 40
0.0
  0
LTYPE
  5
14
330
5
100
AcDbSymbolTableRecord
100
AcDbLinetypeTableRecord
  2
ByLayer
 70
     0
  3

 72
    65
 73
     0
 40
0.0
  0
LTYPE
  5
15
330
5
100
AcDbSymbolTableRecord
100
AcDbLinetypeTableRecord
  2
Continuous
 70
     0
  3
Solid line
 72
    65
 73
     0
 40
0.0
  0
ENDTAB
  0
TABLE
  2
LAYER
  5
2
330
0
100
AcDbSymbolTable
 70
     1
  0
LAYER
  5
10
330
2
100
AcDbSymbolTableRecord
100
AcDbLayerTableRecord
  2
0
 70
     0
 62
     7
  6
Continuous
370
    -3
390
F
  0
ENDTAB
  0
TABLE
  2
STYLE
  5
3
330
0
100
AcDbSymbolTable
 70
     1
  0
STYLE
  5
11
330
3
100
AcDbSymbolTableRecord
100
AcDbTextStyleTableRecord
  2
Standard
 70
     0
 40
0.0
 41
1.0
 50
0.0
 71
     0
 42
0.2
  3
txt
  4

  0
ENDTAB
  0
TABLE
  2
VIEW
  5
6
330
0
100
AcDbSymbolTable
 70
     0
  0
ENDTAB
  0
TABLE
  2
UCS
  5
7
330
0
100
AcDbSymbolTable
 70
     0
  0
ENDTAB
  0
TABLE
  2
APPID
  5
9
330
0
100
AcDbSymbolTable
 70
     1
  0
APPID
  5
12
330
9
100
AcDbSymbolTableRecord
100
AcDbRegAppTableRecord
  2
ACAD
 70
     0
  0
ENDTAB
  0
TABLE
  2
DIMSTYLE
  5
A
330
0
100
AcDbSymbolTable
 70
     1
100
AcDbDimStyleTable
 71
     0
  0
DIMSTYLE
105
66B
330
A
100
AcDbSymbolTableRecord
100
AcDbDimStyleTableRecord
  2
Standard
 70
     0
340
11
  0
ENDTAB
  0
TABLE
  2
BLOCK_RECORD
  5
1
330
0
100
AcDbSymbolTable
 70
     0
  0
BLOCK_RECORD
  5
1E
330
1
100
AcDbSymbolTableRecord
100
AcDbBlockTableRecord
  2
*Model_Space
340
21
  0
BLOCK_RECORD
  5
1A
330
1
100
AcDbSymbolTableRecord
100
AcDbBlockTableRecord
  2
*Paper_Space
340
1D
  0
ENDTAB
  0
ENDSEC
  0
SECTION
  2
BLOCKS
  0
BLOCK
  5
1F
330
1E
100
AcDbEntity
  8
0
100
AcDbBlockBegin
  2
*Model_Space
 70
     0
 10
0.0
 20
0.0
 30
0.0
  3
*Model_Space
  1

  0
ENDBLK
  5
20
330
1E
100
AcDbEntity
  8
0
100
AcDbBlockEnd
  0
BLOCK
  5
1B
330
1A
100
AcDbEntity
 67
     1
  8
0
100
AcDbBlockBegin
  2
*Paper_Space
 70
     0
 10
0.0
 20
0.0
 30
0.0
  3
*Paper_Space
  1

  0
ENDBLK
  5
1C
330
1A
100
AcDbEntity
 67
     1
  8
0
100
AcDbBlockEnd
  0
ENDSEC
  0
SECTION
  2
ENTITIES
  0
LINE
  5
22
330
1E
100
AcDbEntity
  8
0
100
AcDbLine
 10
7.783999999999999
 20
55.20399999999999
 30
0.0
 11
9.003999999999999
 21
46.459
 31
0.0
  0
LINE
  5
23
330
1E
100
AcDbEntity
  8
0
100
AcDbLine
 10
4.421
 20
92.916
 30
0.0
 11
7.783999999999999
 21
55.20399999999999
 31
0.0
  0
LINE
  5
24
330
1E
100
AcDbEntity
  8
0
100
AcDbLine
 10
0.291
 20
178.363
 30
0.0
 11
1.32
 21
145.1049999999999
 31
0.0
  0
LINE
  5
25
330
1E
100
AcDbEntity
  8
0
100
AcDbLine
 10
1.32
 20
145.1049999999999
 30
0.0
 11
4.421
 21
92.916
 31
0.0
  0
LINE
  5
26
330
1E
100
AcDbEntity
  8
0
100
AcDbLine
 10
1.32
 20
145.1049999999999
 30
0.0
 11
4.421
 21
92.916
 31
0.0
  0
LINE
  5
27
330
1E
100
AcDbEntity
  8
0
100
AcDbLine
 10
0.447
 20
244.896
 30
0.0
 11
2.314999999999999
 21
291.7559999999999
 31
0.0
  0
LINE
  5
28
330
1E
100
AcDbEntity
  8
0
100
AcDbLine
 10
2.314999999999999
 20
291.7559999999999
 30
0.0
 11
5.182
 21
333.1069999999999
 31
0.0
  0
LINE
  5
29
330
1E
100
AcDbEntity
  8
0
100
AcDbLine
 10
5.182
 20
333.1069999999999
 30
0.0
 11
7.98
 21
363.086
 31
0.0
  0
LINE
  5
2A
330
1E
100
AcDbEntity
  8
0
100
AcDbLine
 10
2.314999999999999
 20
291.7559999999999
 30
0.0
 11
5.182
 21
333.1069999999999
 31
0.0
  0
LINE
  5
2B
330
1E
100
AcDbEntity
  8
0
100
AcDbLine
 10
0.447
 20
244.896
 30
0.0
 11
2.314999999999999
 21
291.7559999999999
 31
0.0
  0
LINE
  5
2C
330
1E
100
AcDbEntity
  8
0
100
AcDbLine
 10
0.291
 20
178.363
 30
0.0
 11
1.32
 21
145.1049999999999
 31
0.0
  0
LINE
  5
2D
330
1E
100
AcDbEntity
  8
0
100
AcDbLine
 10
0.0
 20
211.629
 30
0.0
 11
0.447
 21
244.896
 31
0.0
  0
LINE
  5
2E
330
1E
100
AcDbEntity
  8
0
100
AcDbLine
 10
0.0
 20
211.629
 30
0.0
 11
0.291
 21
178.363
 31
0.0
  0
LINE
  5
31
330
1E
100
AcDbEntity
  8
0
100
AcDbLine
 10
9.003999999999999
 20
46.459
 30
0.0
 11
11.53499999999999
 21
38.098
 31
0.0
  0
LINE
  5
33
330
1E
100
AcDbEntity
  8
0
100
AcDbLine
 10
7.98
 20
363.086
 30
0.0
 11
8.545999999999999
 21
367.535
 31
0.0
  0
LINE
  5
34
330
1E
100
AcDbEntity
  8
0
100
AcDbLine
 10
8.545999999999999
 20
367.535
 30
0.0
 11
10.92999999999999
 21
376.717
 31
0.0
  0
LINE
  5
35
330
1E
100
AcDbEntity
  8
0
100
AcDbLine
 10
68.333
 20
4.189000000000009
 30
0.0
 11
170.644
 21
1.05000000000001
 31
0.0
  0
LINE
  5
36
330
1E
100
AcDbEntity
  8
0
100
AcDbLine
 10
57.466
 20
4.660000000000009
 30
0.0
 11
68.333
 21
4.189000000000009
 31
0.0
  0
LINE
  5
37
330
1E
100
AcDbEntity
  8
0
100
AcDbLine
 10
47.613
 20
6.229000000000009
 30
0.0
 11
57.466
 21
4.660000000000009
 31
0.0
  0
LINE
  5
38
330
1E
100
AcDbEntity
  8
0
100
AcDbLine
 10
40.843
 20
8.467000000000009
 30
0.0
 11
47.613
 21
6.229000000000009
 31
0.0
  0
LINE
  5
39
330
1E
100
AcDbEntity
  8
0
100
AcDbLine
 10
16.167
 20
29.032
 30
0.0
 11
20.741
 21
22.903
 31
0.0
  0
LINE
  5
3A
330
1E
100
AcDbEntity
  8
0
100
AcDbLine
 10
11.53499999999999
 20
38.098
 30
0.0
 11
16.167
 21
29.032
 31
0.0
  0
LINE
  5
3B
330
1E
100
AcDbEntity
  8
0
100
AcDbLine
 10
20.741
 20
22.903
 30
0.0
 11
27.418
 21
16.42
 31
0.0
  0
LINE
  5
3C
330
1E
100
AcDbEntity
  8
0
100
AcDbLine
 10
27.418
 20
16.42
 30
0.0
 11
34.43999999999999
 21
11.595
 31
0.0
  0
LINE
  5
3D
330
1E
100
AcDbEntity
  8
0
100
AcDbLine
 10
34.43999999999999
 20
11.595
 30
0.0
 11
40.843
 21
8.467000000000009
 31
0.0
  0
LINE
  5
3E
330
1E
100
AcDbEntity
  8
0
100
AcDbLine
 10
170.644
 20
1.05000000000001
 30
0.0
 11
272.9979999999999
 21
0.0000000000000065
 31
0.0
  0
LINE
  5
3F
330
1E
100
AcDbEntity
  8
0
100
AcDbLine
 10
170.644
 20
1.05000000000001
 30
0.0
 11
272.9979999999999
 21
0.0000000000000065
 31
0.0
  0
LINE
  5
40
330
1E
100
AcDbEntity
  8
0
100
AcDbLine
 10
272.9979999999999
 20
0.0000000000000065
 30
0.0
 11
375.3519999999999
 21
1.047000000000009
 31
0.0
  0
LINE
  5
41
330
1E
100
AcDbEntity
  8
0
100
AcDbLine
 10
469.9399999999999
 20
3.882000000000009
 30
0.0
 11
485.599
 21
4.524000000000009
 31
0.0
  0
LINE
  5
42
330
1E
100
AcDbEntity
  8
0
100
AcDbLine
 10
375.3519999999999
 20
1.047000000000009
 30
0.0
 11
469.9399999999999
 21
3.882000000000009
 31
0.0
  0
LINE
  5
43
330
1E
100
AcDbEntity
  8
0
100
AcDbLine
 10
505.152
 20
8.46900000000001
 30
0.0
 11
514.1729999999999
 21
13.201
 31
0.0
  0
LINE
  5
44
330
1E
100
AcDbEntity
  8
0
100
AcDbLine
 10
496.6459999999999
 20
5.813000000000009
 30
0.0
 11
505.152
 21
8.46900000000001
 31
0.0
  0
LINE
  5
45
330
1E
100
AcDbEntity
  8
0
100
AcDbLine
 10
485.599
 20
4.524000000000009
 30
0.0
 11
496.6459999999999
 21
5.813000000000009
 31
0.0
  0
LINE
  5
46
330
1E
100
AcDbEntity
  8
0
100
AcDbLine
 10
272.9979999999999
 20
0.0000000000000065
 30
0.0
 11
375.3519999999999
 21
1.047000000000009
 31
0.0
  0
LINE
  5
47
330
1E
100
AcDbEntity
  8
0
100
AcDbLine
 10
536.204
 20
43.26399999999999
 30
0.0
 11
537.993
 21
53.08600000000001
 31
0.0
  0
LINE
  5
48
330
1E
100
AcDbEntity
  8
0
100
AcDbLine
 10
534.456
 20
38.101
 30
0.0
 11
536.204
 21
43.26399999999999
 31
0.0
  0
LINE
  5
49
330
1E
100
AcDbEntity
  8
0
100
AcDbLine
 10
530.691
 20
30.42699999999999
 30
0.0
 11
534.456
 21
38.101
 31
0.0
  0
LINE
  5
4A
330
1E
100
AcDbEntity
  8
0
100
AcDbLine
 10
525.259
 20
22.903
 30
0.0
 11
530.691
 21
30.42699999999999
 31
0.0
  0
LINE
  5
4B
330
1E
100
AcDbEntity
  8
0
100
AcDbLine
 10
519.87
 20
17.503
 30
0.0
 11
525.259
 21
22.903
 31
0.0
  0
LINE
  5
4C
330
1E
100
AcDbEntity
  8
0
100
AcDbLine
 10
514.1729999999999
 20
13.201
 30
0.0
 11
519.87
 21
17.503
 31
0.0
  0
LINE
  5
4D
330
1E
100
AcDbEntity
  8
0
100
AcDbLine
 10
263.329
 20
202.842
 30
0.0
 11
268.105
 21
201.895
 31
0.0
  0
LINE
  5
4E
330
1E
100
AcDbEntity
  8
0
100
AcDbLine
 10
250.184
 20
209.3159999999999
 30
0.0
 11
254.329
 21
206.5129999999999
 31
0.0
  0
LINE
  5
4F
330
1E
100
AcDbEntity
  8
0
100
AcDbLine
 10
254.329
 20
206.5129999999999
 30
0.0
 11
258.671
 21
204.421
 31
0.0
  0
LINE
  5
50
330
1E
100
AcDbEntity
  8
0
100
AcDbLine
 10
258.671
 20
204.421
 30
0.0
 11
263.329
 21
202.842
 31
0.0
  0
LINE
  5
51
330
1E
100
AcDbEntity
  8
0
100
AcDbLine
 10
243.3159999999999
 20
216.184
 30
0.0
 11
246.513
 21
212.5129999999999
 31
0.0
  0
LINE
  5
52
330
1E
100
AcDbEntity
  8
0
100
AcDbLine
 10
246.513
 20
212.5129999999999
 30
0.0
 11
250.184
 21
209.3159999999999
 31
0.0
  0
LINE
  5
53
330
1E
100
AcDbEntity
  8
0
100
AcDbLine
 10
240.513
 20
220.3289999999999
 30
0.0
 11
243.3159999999999
 21
216.184
 31
0.0
  0
LINE
  5
54
330
1E
100
AcDbEntity
  8
0
100
AcDbLine
 10
238.4209999999999
 20
224.6709999999999
 30
0.0
 11
240.513
 21
220.3289999999999
 31
0.0
  0
LINE
  5
55
330
1E
100
AcDbEntity
  8
0
100
AcDbLine
 10
236.8419999999999
 20
229.329
 30
0.0
 11
238.4209999999999
 21
224.6709999999999
 31
0.0
  0
LINE
  5
56
330
1E
100
AcDbEntity
  8
0
100
AcDbLine
 10
243.3159999999999
 20
261.8159999999999
 30
0.0
 11
246.513
 21
265.487
 31
0.0
  0
LINE
  5
57
330
1E
100
AcDbEntity
  8
0
100
AcDbLine
 10
240.513
 20
257.6709999999999
 30
0.0
 11
243.3159999999999
 21
261.8159999999999
 31
0.0
  0
LINE
  5
58
330
1E
100
AcDbEntity
  8
0
100
AcDbLine
 10
238.4209999999999
 20
253.329
 30
0.0
 11
240.513
 21
257.6709999999999
 31
0.0
  0
LINE
  5
59
330
1E
100
AcDbEntity
  8
0
100
AcDbLine
 10
236.8419999999999
 20
248.6709999999999
 30
0.0
 11
238.4209999999999
 21
253.329
 31
0.0
  0
LINE
  5
5A
330
1E
100
AcDbEntity
  8
0
100
AcDbLine
 10
235.895
 20
243.895
 30
0.0
 11
236.8419999999999
 21
248.6709999999999
 31
0.0
  0
LINE
  5
5B
330
1E
100
AcDbEntity
  8
0
100
AcDbLine
 10
246.513
 20
265.487
 30
0.0
 11
250.184
 21
268.684
 31
0.0
  0
LINE
  5
5C
330
1E
100
AcDbEntity
  8
0
100
AcDbLine
 10
250.184
 20
268.684
 30
0.0
 11
254.329
 21
271.487
 31
0.0
  0
LINE
  5
5D
330
1E
100
AcDbEntity
  8
0
100
AcDbLine
 10
254.329
 20
271.487
 30
0.0
 11
258.671
 21
273.579
 31
0.0
  0
LINE
  5
5E
330
1E
100
AcDbEntity
  8
0
100
AcDbLine
 10
258.671
 20
273.579
 30
0.0
 11
263.329
 21
275.158
 31
0.0
  0
LINE
  5
5F
330
1E
100
AcDbEntity
  8
0
100
AcDbLine
 10
263.329
 20
275.158
 30
0.0
 11
268.105
 21
276.105
 31
0.0
  0
LINE
  5
60
330
1E
100
AcDbEntity
  8
0
100
AcDbLine
 10
235.895
 20
234.105
 30
0.0
 11
236.8419999999999
 21
229.329
 31
0.0
  0
LINE
  5
61
330
1E
100
AcDbEntity
  8
0
100
AcDbLine
 10
235.4999999999999
 20
239.0
 30
0.0
 11
235.895
 21
234.105
 31
0.0
  0
LINE
  5
62
330
1E
100
AcDbEntity
  8
0
100
AcDbLine
 10
235.4999999999999
 20
239.0
 30
0.0
 11
235.895
 21
243.895
 31
0.0
  0
LINE
  5
66
330
1E
100
AcDbEntity
  8
0
100
AcDbLine
 10
277.895
 20
201.895
 30
0.0
 11
282.6709999999999
 21
202.842
 31
0.0
  0
LINE
  5
67
330
1E
100
AcDbEntity
  8
0
100
AcDbLine
 10
273.0
 20
201.5
 30
0.0
 11
277.895
 21
201.895
 31
0.0
  0
LINE
  5
68
330
1E
100
AcDbEntity
  8
0
100
AcDbLine
 10
299.487
 20
212.5129999999999
 30
0.0
 11
302.684
 21
216.184
 31
0.0
  0
LINE
  5
69
330
1E
100
AcDbEntity
  8
0
100
AcDbLine
 10
302.684
 20
216.184
 30
0.0
 11
305.487
 21
220.3289999999999
 31
0.0
  0
LINE
  5
6A
330
1E
100
AcDbEntity
  8
0
100
AcDbLine
 10
305.487
 20
220.3289999999999
 30
0.0
 11
307.579
 21
224.6709999999999
 31
0.0
  0
LINE
  5
6B
330
1E
100
AcDbEntity
  8
0
100
AcDbLine
 10
307.579
 20
224.6709999999999
 30
0.0
 11
309.158
 21
229.329
 31
0.0
  0
LINE
  5
6C
330
1E
100
AcDbEntity
  8
0
100
AcDbLine
 10
309.158
 20
229.329
 30
0.0
 11
310.105
 21
234.105
 31
0.0
  0
LINE
  5
6D
330
1E
100
AcDbEntity
  8
0
100
AcDbLine
 10
307.579
 20
253.329
 30
0.0
 11
309.158
 21
248.6709999999999
 31
0.0
  0
LINE
  5
6E
330
1E
100
AcDbEntity
  8
0
100
AcDbLine
 10
309.158
 20
248.6709999999999
 30
0.0
 11
310.105
 21
243.895
 31
0.0
  0
LINE
  5
6F
330
1E
100
AcDbEntity
  8
0
100
AcDbLine
 10
310.105
 20
243.895
 30
0.0
 11
310.4999999999999
 21
239.0
 31
0.0
  0
LINE
  5
70
330
1E
100
AcDbEntity
  8
0
100
AcDbLine
 10
310.105
 20
234.105
 30
0.0
 11
310.4999999999999
 21
239.0
 31
0.0
  0
LINE
  5
71
330
1E
100
AcDbEntity
  8
0
100
AcDbLine
 10
295.8159999999999
 20
209.3159999999999
 30
0.0
 11
299.487
 21
212.5129999999999
 31
0.0
  0
LINE
  5
72
330
1E
100
AcDbEntity
  8
0
100
AcDbLine
 10
291.671
 20
206.5129999999999
 30
0.0
 11
295.8159999999999
 21
209.3159999999999
 31
0.0
  0
LINE
  5
73
330
1E
100
AcDbEntity
  8
0
100
AcDbLine
 10
287.329
 20
204.421
 30
0.0
 11
291.671
 21
206.5129999999999
 31
0.0
  0
LINE
  5
74
330
1E
100
AcDbEntity
  8
0
100
AcDbLine
 10
282.6709999999999
 20
202.842
 30
0.0
 11
287.329
 21
204.421
 31
0.0
  0
LINE
  5
75
330
1E
100
AcDbEntity
  8
0
100
AcDbLine
 10
268.105
 20
201.895
 30
0.0
 11
273.0
 21
201.5
 31
0.0
  0
LINE
  5
76
330
1E
100
AcDbEntity
  8
0
100
AcDbLine
 10
295.8159999999999
 20
268.684
 30
0.0
 11
299.487
 21
265.487
 31
0.0
  0
LINE
  5
77
330
1E
100
AcDbEntity
  8
0
100
AcDbLine
 10
291.671
 20
271.487
 30
0.0
 11
295.8159999999999
 21
268.684
 31
0.0
  0
LINE
  5
78
330
1E
100
AcDbEntity
  8
0
100
AcDbLine
 10
287.329
 20
273.579
 30
0.0
 11
291.671
 21
271.487
 31
0.0
  0
LINE
  5
79
330
1E
100
AcDbEntity
  8
0
100
AcDbLine
 10
282.6709999999999
 20
275.158
 30
0.0
 11
287.329
 21
273.579
 31
0.0
  0
LINE
  5
7A
330
1E
100
AcDbEntity
  8
0
100
AcDbLine
 10
277.895
 20
276.105
 30
0.0
 11
282.6709999999999
 21
275.158
 31
0.0
  0
LINE
  5
7B
330
1E
100
AcDbEntity
  8
0
100
AcDbLine
 10
299.487
 20
265.487
 30
0.0
 11
302.684
 21
261.8159999999999
 31
0.0
  0
LINE
  5
7C
330
1E
100
AcDbEntity
  8
0
100
AcDbLine
 10
302.684
 20
261.8159999999999
 30
0.0
 11
305.487
 21
257.6709999999999
 31
0.0
  0
LINE
  5
7D
330
1E
100
AcDbEntity
  8
0
100
AcDbLine
 10
305.487
 20
257.6709999999999
 30
0.0
 11
307.579
 21
253.329
 31
0.0
  0
LINE
  5
7E
330
1E
100
AcDbEntity
  8
0
100
AcDbLine
 10
273.0
 20
276.5
 30
0.0
 11
277.895
 21
276.105
 31
0.0
  0
LINE
  5
7F
330
1E
100
AcDbEntity
  8
0
100
AcDbLine
 10
268.105
 20
276.105
 30
0.0
 11
273.0
 21
276.5
 31
0.0
  0
LINE
  5
82
330
1E
100
AcDbEntity
  8
0
100
AcDbLine
 10
264.043
 20
202.6419999999999
 30
0.0
 11
264.417084368577
 21
202.6262512778389
 31
0.0
  0
LINE
  5
83
330
1E
100
AcDbEntity
  8
0
100
AcDbLine
 10
264.043
 20
202.6419999999999
 30
0.0
 11
264.389410094229
 21
202.631738618251
 31
0.0
  0
LINE
  5
88
330
1E
100
AcDbEntity
  8
0
100
AcDbLine
 10
467.559
 20
149.767
 30
0.0
 11
471.0099999999999
 21
142.911
 31
0.0
  0
LINE
  5
89
330
1E
100
AcDbEntity
  8
0
100
AcDbLine
 10
475.939
 20
137.1229999999999
 30
0.0
 11
481.884
 21
132.774
 31
0.0
  0
LINE
  5
8A
330
1E
100
AcDbEntity
  8
0
100
AcDbLine
 10
481.884
 20
132.774
 30
0.0
 11
488.621
 21
129.912
 31
0.0
  0
LINE
  5
8B
330
1E
100
AcDbEntity
  8
0
100
AcDbLine
 10
471.0099999999999
 20
142.911
 30
0.0
 11
475.939
 21
137.1229999999999
 31
0.0
  0
LINE
  5
8D
330
1E
100
AcDbEntity
  8
0
100
AcDbLine
 10
539.578
 20
69.237
 30
0.0
 11
543.562
 21
122.4849999999999
 31
0.0
  0
LINE
  5
8E
330
1E
100
AcDbEntity
  8
0
100
AcDbLine
 10
537.993
 20
53.08600000000001
 30
0.0
 11
539.578
 21
69.237
 31
0.0
  0
LINE
  5
92
330
1E
100
AcDbEntity
  8
0
100
AcDbLine
 10
543.562
 20
122.4849999999999
 30
0.0
 11
543.9479999999999
 21
123.7889999999999
 31
0.0
  0
LINE
  5
93
330
1E
100
AcDbEntity
  8
0
100
AcDbLine
 10
543.9479999999999
 20
123.7889999999999
 30
0.0
 11
544.876
 21
124.77
 31
0.0
  0
LINE
  5
94
330
1E
100
AcDbEntity
  8
0
100
AcDbLine
 10
544.876
 20
124.77
 30
0.0
 11
546.59
 21
125.26
 31
0.0
  0
LINE
  5
95
330
1E
100
AcDbEntity
  8
0
100
AcDbLine
 10
546.59
 20
125.26
 30
0.0
 11
563.003
 21
125.129
 31
0.0
  0
LINE
  5
96
330
1E
100
AcDbEntity
  8
0
100
AcDbLine
 10
563.003
 20
125.129
 30
0.0
 11
596.654
 21
125.6939999999999
 31
0.0
  0
LINE
  5
97
330
1E
100
AcDbEntity
  8
0
100
AcDbLine
 10
630.2709999999999
 20
127.3889999999999
 30
0.0
 11
638.5459999999999
 21
129.027
 31
0.0
  0
LINE
  5
98
330
1E
100
AcDbEntity
  8
0
100
AcDbLine
 10
596.654
 20
125.6939999999999
 30
0.0
 11
630.2709999999999
 21
127.3889999999999
 31
0.0
  0
LINE
  5
ED
330
1E
100
AcDbEntity
  8
0
100
AcDbLine
 10
652.5449999999999
 20
138.203
 30
0.0
 11
657.353
 21
145.1419999999999
 31
0.0
  0
LINE
  5
EE
330
1E
100
AcDbEntity
  8
0
100
AcDbLine
 10
646.1319999999999
 20
132.709
 30
0.0
 11
652.5449999999999
 21
138.203
 31
0.0
  0
LINE
  5
356
330
1E
100
AcDbEntity
  8
0
100
AcDbLine
 10
657.353
 20
145.1419999999999
 30
0.0
 11
659.6829999999999
 21
150.912
 31
0.0
  0
LINE
  5
357
330
1E
100
AcDbEntity
  8
0
100
AcDbLine
 10
664.78
 20
208.6409999999999
 30
0.0
 11
666.0
 21
260.392
 31
0.0
  0
LINE
  5
358
330
1E
100
AcDbEntity
  8
0
100
AcDbLine
 10
660.8889999999998
 20
157.017
 30
0.0
 11
664.78
 21
208.6409999999999
 31
0.0
  0
LINE
  5
359
330
1E
100
AcDbEntity
  8
0
100
AcDbLine
 10
664.557
 20
312.1409999999999
 30
0.0
 11
666.0
 21
260.392
 31
0.0
  0
LINE
  5
35A
330
1E
100
AcDbEntity
  8
0
100
AcDbLine
 10
659.6829999999999
 20
150.912
 30
0.0
 11
660.8889999999998
 21
157.017
 31
0.0
  0
LINE
  5
35B
330
1E
100
AcDbEntity
  8
0
100
AcDbLine
 10
638.5459999999999
 20
129.027
 30
0.0
 11
646.1319999999999
 21
132.709
 31
0.0
  0
LINE
  5
360
330
1E
100
AcDbEntity
  8
0
100
AcDbLine
 10
14.911
 20
385.327
 30
0.0
 11
19.268
 21
391.7569999999999
 31
0.0
  0
LINE
  5
361
330
1E
100
AcDbEntity
  8
0
100
AcDbLine
 10
10.92999999999999
 20
376.717
 30
0.0
 11
14.911
 21
385.327
 31
0.0
  0
LINE
  5
370
330
1E
100
AcDbEntity
  8
0
100
AcDbLine
 10
28.91199999999999
 20
401.175
 30
0.0
 11
33.668
 21
404.38
 31
0.0
  0
LINE
  5
371
330
1E
100
AcDbEntity
  8
0
100
AcDbLine
 10
24.52199999999999
 20
397.476
 30
0.0
 11
28.91199999999999
 21
401.175
 31
0.0
  0
LINE
  5
372
330
1E
100
AcDbEntity
  8
0
100
AcDbLine
 10
33.668
 20
404.38
 30
0.0
 11
38.74499999999999
 21
407.049
 31
0.0
  0
LINE
  5
373
330
1E
100
AcDbEntity
  8
0
100
AcDbLine
 10
44.08399999999999
 20
409.159
 30
0.0
 11
49.613
 21
410.6749999999999
 31
0.0
  0
LINE
  5
374
330
1E
100
AcDbEntity
  8
0
100
AcDbLine
 10
49.613
 20
410.6749999999999
 30
0.0
 11
55.278
 21
411.582
 31
0.0
  0
LINE
  5
375
330
1E
100
AcDbEntity
  8
0
100
AcDbLine
 10
38.74499999999999
 20
407.049
 30
0.0
 11
44.08399999999999
 21
409.159
 31
0.0
  0
LINE
  5
376
330
1E
100
AcDbEntity
  8
0
100
AcDbLine
 10
64.847
 20
412.088
 30
0.0
 11
97.59100000000001
 21
413.349
 31
0.0
  0
LINE
  5
377
330
1E
100
AcDbEntity
  8
0
100
AcDbLine
 10
97.59100000000001
 20
413.349
 30
0.0
 11
168.733
 21
415.3389999999999
 31
0.0
  0
LINE
  5
385
330
1E
100
AcDbEntity
  8
0
100
AcDbLine
 10
168.733
 20
415.3389999999999
 30
0.0
 11
170.43
 21
415.924
 31
0.0
  0
LINE
  5
386
330
1E
100
AcDbEntity
  8
0
100
AcDbLine
 10
171.31
 20
416.966
 30
0.0
 11
171.6549999999999
 21
418.285
 31
0.0
  0
LINE
  5
387
330
1E
100
AcDbEntity
  8
0
100
AcDbLine
 10
170.43
 20
415.924
 30
0.0
 11
171.31
 21
416.966
 31
0.0
  0
LINE
  5
38C
330
1E
100
AcDbEntity
  8
0
100
AcDbLine
 10
176.421
 20
456.6639999999999
 30
0.0
 11
180.804
 21
463.989
 31
0.0
  0
LINE
  5
38D
330
1E
100
AcDbEntity
  8
0
100
AcDbLine
 10
174.152
 20
448.435
 30
0.0
 11
176.421
 21
456.6639999999999
 31
0.0
  0
LINE
  5
38E
330
1E
100
AcDbEntity
  8
0
100
AcDbLine
 10
180.804
 20
463.989
 30
0.0
 11
186.994
 21
469.8649999999999
 31
0.0
  0
LINE
  5
3CD
330
1E
100
AcDbEntity
  8
0
100
AcDbLine
 10
186.994
 20
469.8649999999999
 30
0.0
 11
195.035
 21
474.044
 31
0.0
  0
LINE
  5
3CE
330
1E
100
AcDbEntity
  8
0
100
AcDbLine
 10
203.932
 20
475.76
 30
0.0
 11
295.942
 21
478.9399999999999
 31
0.0
  0
LINE
  5
3CF
330
1E
100
AcDbEntity
  8
0
100
AcDbLine
 10
295.942
 20
478.9399999999999
 30
0.0
 11
387.999
 21
480.0
 31
0.0
  0
LINE
  5
3D0
330
1E
100
AcDbEntity
  8
0
100
AcDbLine
 10
195.035
 20
474.044
 30
0.0
 11
203.932
 21
475.76
 31
0.0
  0
LINE
  5
3D1
330
1E
100
AcDbEntity
  8
0
100
AcDbLine
 10
172.524
 20
433.393
 30
0.0
 11
174.152
 21
448.435
 31
0.0
  0
LINE
  5
3D2
330
1E
100
AcDbEntity
  8
0
100
AcDbLine
 10
171.6549999999999
 20
418.285
 30
0.0
 11
172.524
 21
433.393
 31
0.0
  0
LINE
  5
3D3
330
1E
100
AcDbEntity
  8
0
100
AcDbLine
 10
55.278
 20
411.582
 30
0.0
 11
64.847
 21
412.088
 31
0.0
  0
LINE
  5
3D4
330
1E
100
AcDbEntity
  8
0
100
AcDbLine
 10
19.268
 20
391.7569999999999
 30
0.0
 11
24.52199999999999
 21
397.476
 31
0.0
  0
LINE
  5
3DC
330
1E
100
AcDbEntity
  8
0
100
AcDbLine
 10
572.01
 20
342.3309999999999
 30
0.0
 11
577.4469999999999
 21
343.339
 31
0.0
  0
LINE
  5
64A
330
1E
100
AcDbEntity
  8
0
100
AcDbLine
 10
480.0569999999999
 20
478.9399999999999
 30
0.0
 11
572.0679999999999
 21
475.759
 31
0.0
  0
LINE
  5
64B
330
1E
100
AcDbEntity
  8
0
100
AcDbLine
 10
577.4469999999999
 20
343.339
 30
0.0
 11
581.0159999999999
 21
344.144
 31
0.0
  0
LINE
  5
64C
330
1E
100
AcDbEntity
  8
0
100
AcDbLine
 10
572.0679999999999
 20
475.759
 30
0.0
 11
580.964
 21
474.044
 31
0.0
  0
LINE
  5
64D
330
1E
100
AcDbEntity
  8
0
100
AcDbLine
 10
387.999
 20
480.0
 30
0.0
 11
480.0569999999999
 21
478.9399999999999
 31
0.0
  0
LINE
  5
64E
330
1E
100
AcDbEntity
  8
0
100
AcDbLine
 10
581.0159999999999
 20
344.144
 30
0.0
 11
585.7669999999999
 21
346.661
 31
0.0
  0
LINE
  5
64F
330
1E
100
AcDbEntity
  8
0
100
AcDbLine
 10
585.7669999999999
 20
346.661
 30
0.0
 11
589.065
 21
348.5799999999999
 31
0.0
  0
LINE
  5
650
330
1E
100
AcDbEntity
  8
0
100
AcDbLine
 10
589.065
 20
348.5799999999999
 30
0.0
 11
592.738
 21
352.294
 31
0.0
  0
LINE
  5
651
330
1E
100
AcDbEntity
  8
0
100
AcDbLine
 10
580.964
 20
474.044
 30
0.0
 11
589.008
 21
469.863
 31
0.0
  0
LINE
  5
652
330
1E
100
AcDbEntity
  8
0
100
AcDbLine
 10
589.008
 20
469.863
 30
0.0
 11
595.197
 21
463.989
 31
0.0
  0
LINE
  5
653
330
1E
100
AcDbEntity
  8
0
100
AcDbLine
 10
597.7959999999999
 20
359.864
 30
0.0
 11
599.473
 21
363.4809999999999
 31
0.0
  0
LINE
  5
654
330
1E
100
AcDbEntity
  8
0
100
AcDbLine
 10
595.4119999999999
 20
355.23
 30
0.0
 11
597.7959999999999
 21
359.864
 31
0.0
  0
LINE
  5
655
330
1E
100
AcDbEntity
  8
0
100
AcDbLine
 10
592.738
 20
352.294
 30
0.0
 11
595.4119999999999
 21
355.23
 31
0.0
  0
LINE
  5
656
330
1E
100
AcDbEntity
  8
0
100
AcDbLine
 10
601.8469999999999
 20
448.435
 30
0.0
 11
604.244
 21
421.065
 31
0.0
  0
LINE
  5
657
330
1E
100
AcDbEntity
  8
0
100
AcDbLine
 10
660.8889999999998
 20
359.5119999999999
 30
0.0
 11
664.557
 21
312.1409999999999
 31
0.0
  0
LINE
  5
658
330
1E
100
AcDbEntity
  8
0
100
AcDbLine
 10
658.9730000000001
 20
367.735
 30
0.0
 11
660.8889999999998
 21
359.5119999999999
 31
0.0
  0
LINE
  5
659
330
1E
100
AcDbEntity
  8
0
100
AcDbLine
 10
604.3959999999999
 20
392.224
 30
0.0
 11
605.253
 21
391.098
 31
0.0
  0
LINE
  5
65A
330
1E
100
AcDbEntity
  8
0
100
AcDbLine
 10
606.9969999999999
 20
390.4349999999999
 30
0.0
 11
630.2709999999999
 21
389.1409999999999
 31
0.0
  0
LINE
  5
65B
330
1E
100
AcDbEntity
  8
0
100
AcDbLine
 10
605.253
 20
391.098
 30
0.0
 11
606.9969999999999
 21
390.4349999999999
 31
0.0
  0
LINE
  5
65C
330
1E
100
AcDbEntity
  8
0
100
AcDbLine
 10
630.2709999999999
 20
389.1409999999999
 30
0.0
 11
636.4069999999999
 21
388.1399999999999
 31
0.0
  0
LINE
  5
65D
330
1E
100
AcDbEntity
  8
0
100
AcDbLine
 10
642.2469999999999
 20
386.0059999999999
 30
0.0
 11
649.3330000000001
 21
381.429
 31
0.0
  0
LINE
  5
65E
330
1E
100
AcDbEntity
  8
0
100
AcDbLine
 10
649.3330000000001
 20
381.429
 30
0.0
 11
655.0369999999999
 21
375.203
 31
0.0
  0
LINE
  5
65F
330
1E
100
AcDbEntity
  8
0
100
AcDbLine
 10
636.4069999999999
 20
388.1399999999999
 30
0.0
 11
642.2469999999999
 21
386.0059999999999
 31
0.0
  0
LINE
  5
660
330
1E
100
AcDbEntity
  8
0
100
AcDbLine
 10
655.0369999999999
 20
375.203
 30
0.0
 11
658.9730000000001
 21
367.735
 31
0.0
  0
LINE
  5
661
330
1E
100
AcDbEntity
  8
0
100
AcDbLine
 10
604.145
 20
393.591
 30
0.0
 11
604.244
 21
421.065
 31
0.0
  0
LINE
  5
662
330
1E
100
AcDbEntity
  8
0
100
AcDbLine
 10
604.145
 20
393.591
 30
0.0
 11
604.3959999999999
 21
392.224
 31
0.0
  0
LINE
  5
663
330
1E
100
AcDbEntity
  8
0
100
AcDbLine
 10
595.197
 20
463.989
 30
0.0
 11
599.577
 21
456.6639999999999
 31
0.0
  0
LINE
  5
664
330
1E
100
AcDbEntity
  8
0
100
AcDbLine
 10
599.577
 20
456.6639999999999
 30
0.0
 11
601.8469999999999
 21
448.435
 31
0.0
  0
LINE
  5
668
330
1E
100
AcDbEntity
  8
0
100
AcDbLine
 10
387.999
 20
338.776
 30
0.0
 11
475.7249999999999
 21
339.8309999999999
 31
0.0
  0
LINE
  5
669
330
1E
100
AcDbEntity
  8
0
100
AcDbLine
 10
300.274
 20
339.8309999999999
 30
0.0
 11
387.999
 21
338.776
 31
0.0
  0
LINE
  5
66F
330
1E
100
AcDbEntity
  8
0
100
AcDbLine
 10
171.31
 20
416.966
 30
0.0
 11
171.2279783011886
 21
399.9108972189187
 31
0.0
  0
LINE
  5
670
330
1E
100
AcDbEntity
  8
0
100
AcDbLine
 10
171.2279783011886
 20
399.9108972189187
 30
0.0
 11
171.6059074485983
 21
387.4465123395436
 31
0.0
  0
LINE
  5
671
330
1E
100
AcDbEntity
  8
0
100
AcDbLine
 10
171.6059074485983
 20
387.4465123395436
 30
0.0
 11
172.9286594645332
 21
375.1709822368102
 31
0.0
  0
LINE
  5
672
330
1E
100
AcDbEntity
  8
0
100
AcDbLine
 10
172.9286594645332
 20
375.1709822368102
 30
0.0
 11
174.9338296905393
 21
365.5430442302665
 31
0.0
  0
LINE
  5
673
330
1E
100
AcDbEntity
  8
0
100
AcDbLine
 10
174.9338296905393
 20
365.5430442302665
 30
0.0
 11
176.284944355385
 21
360.0917301578999
 31
0.0
  0
LINE
  5
674
330
1E
100
AcDbEntity
  8
0
100
AcDbLine
 10
176.284944355385
 20
360.0917301578999
 30
0.0
 11
178.9371319691867
 21
354.5403927792649
 31
0.0
  0
LINE
  5
675
330
1E
100
AcDbEntity
  8
0
100
AcDbLine
 10
178.9371319691867
 20
354.5403927792649
 30
0.0
 11
181.7214935393963
 21
350.8422960583282
 31
0.0
  0
LINE
  5
676
330
1E
100
AcDbEntity
  8
0
100
AcDbLine
 10
181.7214935393963
 20
350.8422960583282
 30
0.0
 11
188.6812951987904
 21
347.4886349223481
 31
0.0
  0
LINE
  5
677
330
1E
100
AcDbEntity
  8
0
100
AcDbLine
 10
188.6812951987904
 20
347.4886349223481
 30
0.0
 11
196.3867886433849
 21
345.3770717952331
 31
0.0
  0
LINE
  5
678
330
1E
100
AcDbEntity
  8
0
100
AcDbLine
 10
196.3867886433849
 20
345.3770717952331
 30
0.0
 11
212.2949080550506
 21
343.3897170063135
 31
0.0
  0
LINE
  5
679
330
1E
100
AcDbEntity
  8
0
100
AcDbLine
 10
212.2949080550506
 20
343.3897170063135
 30
0.0
 11
234.2928553767101
 21
341.7749917325682
 31
0.0
  0
LINE
  5
67A
330
1E
100
AcDbEntity
  8
0
100
AcDbLine
 10
234.2928553767101
 20
341.7749917325682
 30
0.0
 11
265.2391157849642
 21
340.532895973997
 31
0.0
  0
LINE
  5
67B
330
1E
100
AcDbEntity
  8
0
100
AcDbLine
 10
265.2391157849642
 20
340.532895973997
 30
0.0
 11
297.1796365724958
 21
339.7876380687955
 31
0.0
  0
LINE
  5
67C
330
1E
100
AcDbEntity
  8
0
100
AcDbLine
 10
297.1796365724958
 20
339.7876380687955
 30
0.0
 11
300.274
 21
339.8309999999999
 31
0.0
  0
LINE
  5
67D
330
1E
100
AcDbEntity
  8
0
100
AcDbLine
 10
475.7249999999999
 20
339.8309999999999
 30
0.0
 11
572.01
 21
342.3309999999999
 31
0.0
  0
LINE
  5
67E
330
1E
100
AcDbEntity
  8
0
100
AcDbLine
 10
599.473
 20
363.4809999999999
 30
0.0
 11
602.1670564964388
 21
373.8532957362083
 31
0.0
  0
LINE
  5
67F
330
1E
100
AcDbEntity
  8
0
100
AcDbLine
 10
602.1670564964388
 20
373.8532957362083
 30
0.0
 11
603.6856222995347
 21
383.3640857011528
 31
0.0
  0
LINE
  5
680
330
1E
100
AcDbEntity
  8
0
100
AcDbLine
 10
603.6856222995347
 20
383.3640857011528
 30
0.0
 11
604.3959999999999
 21
392.224
 31
0.0
  0
LINE
  5
681
330
1E
100
AcDbEntity
  8
0
100
AcDbLine
 10
546.59
 20
125.26
 30
0.0
 11
528.7801907895932
 21
125.623658134672
 31
0.0
  0
LINE
  5
682
330
1E
100
AcDbEntity
  8
0
100
AcDbLine
 10
528.7801907895932
 20
125.623658134672
 30
0.0
 11
513.0448997086223
 21
126.6595088466103
 31
0.0
  0
LINE
  5
683
330
1E
100
AcDbEntity
  8
0
100
AcDbLine
 10
513.0448997086223
 20
126.6595088466103
 30
0.0
 11
495.3309184499917
 21
128.2603700606487
 31
0.0
  0
LINE
  5
684
330
1E
100
AcDbEntity
  8
0
100
AcDbLine
 10
495.3309184499917
 20
128.2603700606487
 30
0.0
 11
488.621
 21
129.912
 31
0.0
  0
LINE
  5
685
330
1E
100
AcDbEntity
  8
0
100
AcDbLine
 10
467.559
 20
149.767
 30
0.0
 11
465.8268607136064
 21
157.5885000778525
 31
0.0
  0
LINE
  5
686
330
1E
100
AcDbEntity
  8
0
100
AcDbLine
 10
465.8268607136064
 20
157.5885000778525
 30
0.0
 11
464.0951527999309
 21
175.652667784557
 31
0.0
  0
LINE
  5
687
330
1E
100
AcDbEntity
  8
0
100
AcDbLine
 10
464.0951527999309
 20
175.652667784557
 30
0.0
 11
461.9369740380279
 21
217.4477491411416
 31
0.0
  0
LINE
  5
688
330
1E
100
AcDbEntity
  8
0
100
AcDbLine
 10
461.9369740380279
 20
217.4477491411416
 30
0.0
 11
461.0325442658923
 21
260.8350055779442
 31
0.0
  0
LINE
  5
689
330
1E
100
AcDbEntity
  8
0
100
AcDbLine
 10
461.0325442658923
 20
260.8350055779442
 30
0.0
 11
461.3340216342171
 21
301.5105579248729
 31
0.0
  0
LINE
  5
68A
330
1E
100
AcDbEntity
  8
0
100
AcDbLine
 10
461.3340216342171
 20
301.5105579248729
 30
0.0
 11
462.7018440874739
 21
339.6077630893071
 31
0.0
  0
ENDSEC
  0
SECTION
  2
OBJECTS
  0
DICTIONARY
  5
C
330
0
100
AcDbDictionary
281
     1
  3
ACAD_GROUP
350
D
  3
ACAD_LAYOUT
350
19
  3
ACAD_MLINESTYLE
350
16
  3
ACAD_PLOTSETTINGS
350
18
  3
ACAD_PLOTSTYLENAME
350
E
  3
AcDbVariableDictionary
350
68C
  0
DICTIONARY
  5
D
102
{ACAD_REACTORS
330
C
102
}
330
C
100
AcDbDictionary
281
     1
  0
DICTIONARY
  5
19
102
{ACAD_REACTORS
330
C
102
}
330
C
100
AcDbDictionary
281
     1
  3
Layout1
350
1D
  3
Model
350
21
  0
DICTIONARY
  5
16
102
{ACAD_REACTORS
330
C
102
}
330
C
100
AcDbDictionary
281
     1
  3
Standard
350
17
  0
DICTIONARY
  5
18
102
{ACAD_REACTORS
330
C
102
}
330
C
100
AcDbDictionary
281
     1
  0
ACDBDICTIONARYWDFLT
  5
E
102
{ACAD_REACTORS
330
C
102
}
330
C
100
AcDbDictionary
281
     1
  3
Normal
350
F
100
AcDbDictionaryWithDefault
340
F
  0
DICTIONARY
  5
68C
102
{ACAD_REACTORS
330
C
102
}
330
C
100
AcDbDictionary
281
     1
  3
DIMASSOC
350
68D
  0
LAYOUT
  5
1D
102
{ACAD_REACTORS
330
19
102
}
330
19
100
AcDbPlotSettings
  1

  2
C:\Programme\AutoCAD LT 2002 Deu\plotters\DWF ePlot (optimized for plotting).pc3
  4

  6

 40
0.0
 41
0.0
 42
0.0
 43
0.0
 44
0.0
 45
0.0
 46
0.0
 47
0.0
 48
0.0
 49
0.0
140
0.0
141
0.0
142
1.0
143
1.0
 70
   688
 72
     0
 73
     0
 74
     5
  7

 75
    16
147
1.0
148
0.0
149
0.0
100
AcDbLayout
  1
Layout1
 70
     1
 71
     1
 10
0.0
 20
0.0
 11
12.0
 21
9.0
 12
0.0
 22
0.0
 32
0.0
 14
1.000000000000000E+20
 24
1.000000000000000E+20
 34
1.000000000000000E+20
 15
-1.000000000000000E+20
 25
-1.000000000000000E+20
 35
-1.000000000000000E+20
146
0.0
 13
0.0
 23
0.0
 33
0.0
 16
1.0
 26
0.0
 36
0.0
 17
0.0
 27
1.0
 37
0.0
 76
     0
330
1A
  0
LAYOUT
  5
21
102
{ACAD_REACTORS
330
19
102
}
330
19
100
AcDbPlotSettings
  1

  2
C:\Programme\AutoCAD LT 2002 Deu\plotters\DWF ePlot (optimized for plotting).pc3
  4

  6

 40
0.0
 41
0.0
 42
0.0
 43
0.0
 44
0.0
 45
0.0
 46
0.0
 47
0.0
 48
0.0
 49
0.0
140
0.0
141
0.0
142
1.0
143
1.0
 70
  1712
 72
     0
 73
     0
 74
     0
  7

 75
     0
147
1.0
148
0.0
149
0.0
100
AcDbLayout
  1
Model
 70
     1
 71
     0
 10
0.0
 20
0.0
 11
12.0
 21
9.0
 12
0.0
 22
0.0
 32
0.0
 14
0.0
 24
0.0
 34
0.0
 15
0.0
 25
0.0
 35
0.0
146
0.0
 13
0.0
 23
0.0
 33
0.0
 16
1.0
 26
0.0
 36
0.0
 17
0.0
 27
1.0
 37
0.0
 76
     0
330
1E
  0
MLINESTYLE
  5
17
102
{ACAD_REACTORS
330
16
102
}
330
16
100
AcDbMlineStyle
  2
STANDARD
 70
     0
  3

 62
   256
 51
90.0
 52
90.0
 71
     2
 49
0.5
 62
   256
  6
BYLAYER
 49
-0.5
 62
   256
  6
BYLAYER
  0
ACDBPLACEHOLDER
  5
F
102
{ACAD_REACTORS
330
E
102
}
330
E
  0
DICTIONARYVAR
  5
68D
102
{ACAD_REACTORS
330
68C
102
}
330
68C
100
DictionaryVariables
280
     0
  1
1
  0
ENDSEC
  0
EOF
