  0
SECTION
  2
HEADER
  9
$ACADVER
  1
AC1015
  9
$ACADMAINTVER
 70
    13
  9
$DWGCODEPAGE
  3
ANSI_1252
  9
$INSBASE
 10
0.0
 20
0.0
 30
0.0
  9
$EXTMIN
 10
0.0
 20
0.0000000000000101
 30
0.0
  9
$EXTMAX
 10
666.0
 20
183.332
 30
0.0
  9
$LIMMIN
 10
0.0
 20
0.0
  9
$LIMMAX
 10
12.0
 20
9.0
  9
$ORTHOMODE
 70
     0
  9
$REGENMODE
 70
     1
  9
$FILLMODE
 70
     1
  9
$QTEXTMODE
 70
     0
  9
$MIRRTEXT
 70
     1
  9
$LTSCALE
 40
1.0
  9
$ATTMODE
 70
     1
  9
$TEXTSIZE
 40
0.2
  9
$TRACEWID
 40
0.05
  9
$TEXTSTYLE
  7
Standard
  9
$CLAYER
  8
0
  9
$CELTYPE
  6
Continuous
  9
$CECOLOR
 62
   256
  9
$CELTSCALE
 40
1.0
  9
$DISPSILH
 70
     0
  9
$DIMSCALE
 40
1.0
  9
$DIMASZ
 40
0.18
  9
$DIMEXO
 40
0.0625
  9
$DIMDLI
 40
0.38
  9
$DIMRND
 40
0.0
  9
$DIMDLE
 40
0.0
  9
$DIMEXE
 40
0.18
  9
$DIMTP
 40
0.0
  9
$DIMTM
 40
0.0
  9
$DIMTXT
 40
0.18
  9
$DIMCEN
 40
0.09
  9
$DIMTSZ
 40
0.0
  9
$DIMTOL
 70
     0
  9
$DIMLIM
 70
     0
  9
$DIMTIH
 70
     1
  9
$DIMTOH
 70
     1
  9
$DIMSE1
 70
     0
  9
$DIMSE2
 70
     0
  9
$DIMTAD
 70
     0
  9
$DIMZIN
 70
     0
  9
$DIMBLK
  1

  9
$DIMASO
 70
     1
  9
$DIMSHO
 70
     1
  9
$DIMPOST
  1

  9
$DIMAPOST
  1

  9
$DIMALT
 70
     0
  9
$DIMALTD
 70
     2
  9
$DIMALTF
 40
25.4
  9
$DIMLFAC
 40
1.0
  9
$DIMTOFL
 70
     0
  9
$DIMTVP
 40
0.0
  9
$DIMTIX
 70
     0
  9
$DIMSOXD
 70
     0
  9
$DIMSAH
 70
     0
  9
$DIMBLK1
  1

  9
$DIMBLK2
  1

  9
$DIMSTYLE
  2
Standard
  9
$DIMCLRD
 70
     0
  9
$DIMCLRE
 70
     0
  9
$DIMCLRT
 70
     0
  9
$DIMTFAC
 40
1.0
  9
$DIMGAP
 40
0.09
  9
$DIMJUST
 70
     0
  9
$DIMSD1
 70
     0
  9
$DIMSD2
 70
     0
  9
$DIMTOLJ
 70
     1
  9
$DIMTZIN
 70
     0
  9
$DIMALTZ
 70
     0
  9
$DIMALTTZ
 70
     0
  9
$DIMUPT
 70
     0
  9
$DIMDEC
 70
     4
  9
$DIMTDEC
 70
     4
  9
$DIMALTU
 70
     2
  9
$DIMALTTD
 70
     2
  9
$DIMTXSTY
  7
Standard
  9
$DIMAUNIT
 70
     0
  9
$DIMADEC
 70
     0
  9
$DIMALTRND
 40
0.0
  9
$DIMAZIN
 70
     0
  9
$DIMDSEP
 70
    46
  9
$DIMATFIT
 70
     3
  9
$DIMFRAC
 70
     0
  9
$DIMLDRBLK
  1

  9
$DIMLUNIT
 70
     2
  9
$DIMLWD
 70
    -2
  9
$DIMLWE
 70
    -2
  9
$DIMTMOVE
 70
     0
  9
$LUNITS
 70
     2
  9
$LUPREC
 70
     4
  9
$SKETCHINC
 40
0.1
  9
$FILLETRAD
 40
0.0
  9
$AUNITS
 70
     0
  9
$AUPREC
 70
     0
  9
$MENU
  1
.
  9
$ELEVATION
 40
0.0
  9
$PELEVATION
 40
0.0
  9
$THICKNESS
 40
0.0
  9
$LIMCHECK
 70
     0
  9
$CHAMFERA
 40
0.0
  9
$CHAMFERB
 40
0.0
  9
$CHAMFERC
 40
0.0
  9
$CHAMFERD
 40
0.0
  9
$SKPOLY
 70
     0
  9
$TDCREATE
 40
2455508.389091250
  9
$TDUCREATE
 40
2455508.347424583
  9
$TDUPDATE
 40
2455508.396691076
  9
$TDUUPDATE
 40
2455508.355024409
  9
$TDINDWG
 40
0.0047150000
  9
$TDUSRTIMER
 40
0.0047150000
  9
$USRTIMER
 70
     1
  9
$ANGBASE
 50
0.0
  9
$ANGDIR
 70
     0
  9
$PDMODE
 70
     0
  9
$PDSIZE
 40
0.0
  9
$PLINEWID
 40
0.0
  9
$SPLFRAME
 70
     0
  9
$SPLINETYPE
 70
     6
  9
$SPLINESEGS
 70
     8
  9
$HANDSEED
  5
1EE
  9
$SURFTAB1
 70
     6
  9
$SURFTAB2
 70
     6
  9
$SURFTYPE
 70
     6
  9
$SURFU
 70
     6
  9
$SURFV
 70
     6
  9
$UCSBASE
  2

  9
$UCSNAME
  2

  9
$UCSORG
 10
0.0
 20
0.0
 30
0.0
  9
$UCSXDIR
 10
1.0
 20
0.0
 30
0.0
  9
$UCSYDIR
 10
0.0
 20
1.0
 30
0.0
  9
$UCSORTHOREF
  2

  9
$UCSORTHOVIEW
 70
     1
  9
$UCSORGTOP
 10
0.0
 20
0.0
 30
0.0
  9
$UCSORGBOTTOM
 10
0.0
 20
0.0
 30
0.0
  9
$UCSORGLEFT
 10
0.0
 20
0.0
 30
0.0
  9
$UCSORGRIGHT
 10
0.0
 20
0.0
 30
0.0
  9
$UCSORGFRONT
 10
0.0
 20
0.0
 30
0.0
  9
$UCSORGBACK
 10
0.0
 20
0.0
 30
0.0
  9
$PUCSBASE
  2

  9
$PUCSNAME
  2

  9
$PUCSORG
 10
0.0
 20
0.0
 30
0.0
  9
$PUCSXDIR
 10
1.0
 20
0.0
 30
0.0
  9
$PUCSYDIR
 10
0.0
 20
1.0
 30
0.0
  9
$PUCSORTHOREF
  2

  9
$PUCSORTHOVIEW
 70
     0
  9
$PUCSORGTOP
 10
0.0
 20
0.0
 30
0.0
  9
$PUCSORGBOTTOM
 10
0.0
 20
0.0
 30
0.0
  9
$PUCSORGLEFT
 10
0.0
 20
0.0
 30
0.0
  9
$PUCSORGRIGHT
 10
0.0
 20
0.0
 30
0.0
  9
$PUCSORGFRONT
 10
0.0
 20
0.0
 30
0.0
  9
$PUCSORGBACK
 10
0.0
 20
0.0
 30
0.0
  9
$USERI1
 70
     0
  9
$USERI2
 70
     0
  9
$USERI3
 70
     0
  9
$USERI4
 70
     0
  9
$USERI5
 70
     0
  9
$USERR1
 40
0.0
  9
$USERR2
 40
0.0
  9
$USERR3
 40
0.0
  9
$USERR4
 40
0.0
  9
$USERR5
 40
0.0
  9
$WORLDVIEW
 70
     1
  9
$SHADEDGE
 70
     3
  9
$SHADEDIF
 70
    70
  9
$TILEMODE
 70
     1
  9
$MAXACTVP
 70
    64
  9
$PINSBASE
 10
0.0
 20
0.0
 30
0.0
  9
$PLIMCHECK
 70
     0
  9
$PEXTMIN
 10
1.000000000000000E+20
 20
1.000000000000000E+20
 30
1.000000000000000E+20
  9
$PEXTMAX
 10
-1.000000000000000E+20
 20
-1.000000000000000E+20
 30
-1.000000000000000E+20
  9
$PLIMMIN
 10
0.0
 20
0.0
  9
$PLIMMAX
 10
12.0
 20
9.0
  9
$UNITMODE
 70
     0
  9
$VISRETAIN
 70
     1
  9
$PLINEGEN
 70
     0
  9
$PSLTSCALE
 70
     1
  9
$TREEDEPTH
 70
  3020
  9
$CMLSTYLE
  2
Standard
  9
$CMLJUST
 70
     0
  9
$CMLSCALE
 40
1.0
  9
$PROXYGRAPHICS
 70
     1
  9
$MEASUREMENT
 70
     0
  9
$CELWEIGHT
370
    -1
  9
$ENDCAPS
280
     0
  9
$JOINSTYLE
280
     0
  9
$LWDISPLAY
290
     0
  9
$INSUNITS
 70
     0
  9
$HYPERLINKBASE
  1

  9
$STYLESHEET
  1

  9
$XEDIT
290
     1
  9
$CEPSNTYPE
380
     0
  9
$PSTYLEMODE
290
     1
  9
$FINGERPRINTGUID
  2
{12DE773A-1601-4C1A-B5DD-1844F08E466C}
  9
$VERSIONGUID
  2
{43FBC720-2D7E-4A9D-AD2C-2477455DD92F}
  9
$EXTNAMES
290
     1
  9
$PSVPSCALE
 40
0.0
  9
$OLESTARTUP
290
     0
  0
ENDSEC
  0
SECTION
  2
CLASSES
  0
CLASS
  1
ACDBDICTIONARYWDFLT
  2
AcDbDictionaryWithDefault
  3
AutoCAD 2000
 90
        0
280
     0
281
     0
  0
CLASS
  1
ACDBPLACEHOLDER
  2
AcDbPlaceHolder
  3
AutoCAD 2000
 90
        0
280
     0
281
     0
  0
CLASS
  1
LAYOUT
  2
AcDbLayout
  3
AutoCAD 2000
 90
        0
280
     0
281
     0
  0
CLASS
  1
DICTIONARYVAR
  2
AcDbDictionaryVar
  3
AutoCAD 2000
 90
        0
280
     0
281
     0
  0
ENDSEC
  0
SECTION
  2
TABLES
  0
TABLE
  2
VPORT
  5
8
330
0
100
AcDbSymbolTable
 70
     2
  0
VPORT
  5
1ED
330
8
100
AcDbSymbolTableRecord
100
AcDbViewportTableRecord
  2
*Active
 70
     0
 10
0.0
 20
0.0
 11
1.0
 21
1.0
 12
333.0
 22
91.666
 13
0.0
 23
0.0
 14
1.0
 24
1.0
 15
0.0
 25
0.0
 16
0.0
 26
0.0
 36
1.0
 17
0.0
 27
0.0
 37
0.0
 40
322.2657891260707
 41
2.073363431151241
 42
50.0
 43
0.0
 44
0.0
 50
0.0
 51
0.0
 71
     0
 72
   100
 73
     1
 74
     3
 75
     0
 76
     0
 77
     0
 78
     0
281
     0
 65
     1
110
0.0
120
0.0
130
0.0
111
1.0
121
0.0
131
0.0
112
0.0
122
1.0
132
0.0
 79
     1
146
0.0
  0
ENDTAB
  0
TABLE
  2
LTYPE
  5
5
330
0
100
AcDbSymbolTable
 70
     1
  0
LTYPE
  5
13
330
5
100
AcDbSymbolTableRecord
100
AcDbLinetypeTableRecord
  2
ByBlock
 70
     0
  3

 72
    65
 73
     0
 40
0.0
  0
LTYPE
  5
14
330
5
100
AcDbSymbolTableRecord
100
AcDbLinetypeTableRecord
  2
ByLayer
 70
     0
  3

 72
    65
 73
     0
 40
0.0
  0
LTYPE
  5
15
330
5
100
AcDbSymbolTableRecord
100
AcDbLinetypeTableRecord
  2
Continuous
 70
     0
  3
Solid line
 72
    65
 73
     0
 40
0.0
  0
ENDTAB
  0
TABLE
  2
LAYER
  5
2
330
0
100
AcDbSymbolTable
 70
     1
  0
LAYER
  5
10
330
2
100
AcDbSymbolTableRecord
100
AcDbLayerTableRecord
  2
0
 70
     0
 62
     7
  6
Continuous
370
    -3
390
F
  0
ENDTAB
  0
TABLE
  2
STYLE
  5
3
330
0
100
AcDbSymbolTable
 70
     1
  0
STYLE
  5
11
330
3
100
AcDbSymbolTableRecord
100
AcDbTextStyleTableRecord
  2
Standard
 70
     0
 40
0.0
 41
1.0
 50
0.0
 71
     0
 42
0.2
  3
txt
  4

  0
ENDTAB
  0
TABLE
  2
VIEW
  5
6
330
0
100
AcDbSymbolTable
 70
     0
  0
ENDTAB
  0
TABLE
  2
UCS
  5
7
330
0
100
AcDbSymbolTable
 70
     0
  0
ENDTAB
  0
TABLE
  2
APPID
  5
9
330
0
100
AcDbSymbolTable
 70
     1
  0
APPID
  5
12
330
9
100
AcDbSymbolTableRecord
100
AcDbRegAppTableRecord
  2
ACAD
 70
     0
  0
ENDTAB
  0
TABLE
  2
DIMSTYLE
  5
A
330
0
100
AcDbSymbolTable
 70
     1
100
AcDbDimStyleTable
 71
     0
  0
DIMSTYLE
105
1E2
330
A
100
AcDbSymbolTableRecord
100
AcDbDimStyleTableRecord
  2
Standard
 70
     0
340
11
  0
ENDTAB
  0
TABLE
  2
BLOCK_RECORD
  5
1
330
0
100
AcDbSymbolTable
 70
     0
  0
BLOCK_RECORD
  5
1E
330
1
100
AcDbSymbolTableRecord
100
AcDbBlockTableRecord
  2
*Model_Space
340
21
  0
BLOCK_RECORD
  5
1A
330
1
100
AcDbSymbolTableRecord
100
AcDbBlockTableRecord
  2
*Paper_Space
340
1D
  0
ENDTAB
  0
ENDSEC
  0
SECTION
  2
BLOCKS
  0
BLOCK
  5
1F
330
1E
100
AcDbEntity
  8
0
100
AcDbBlockBegin
  2
*Model_Space
 70
     0
 10
0.0
 20
0.0
 30
0.0
  3
*Model_Space
  1

  0
ENDBLK
  5
20
330
1E
100
AcDbEntity
  8
0
100
AcDbBlockEnd
  0
BLOCK
  5
1B
330
1A
100
AcDbEntity
 67
     1
  8
0
100
AcDbBlockBegin
  2
*Paper_Space
 70
     0
 10
0.0
 20
0.0
 30
0.0
  3
*Paper_Space
  1

  0
ENDBLK
  5
1C
330
1A
100
AcDbEntity
 67
     1
  8
0
100
AcDbBlockEnd
  0
ENDSEC
  0
SECTION
  2
ENTITIES
  0
LINE
  5
22
330
1E
100
AcDbEntity
  8
0
100
AcDbLine
 10
0.447
 20
106.046
 30
0.0
 11
2.314999999999999
 21
106.046
 31
0.0
  0
LINE
  5
23
330
1E
100
AcDbEntity
  8
0
100
AcDbLine
 10
0.291
 20
106.046
 30
0.0
 11
1.32
 21
106.046
 31
0.0
  0
LINE
  5
24
330
1E
100
AcDbEntity
  8
0
100
AcDbLine
 10
2.314999999999999
 20
106.046
 30
0.0
 11
5.182
 21
106.046
 31
0.0
  0
LINE
  5
25
330
1E
100
AcDbEntity
  8
0
100
AcDbLine
 10
2.314999999999999
 20
106.046
 30
0.0
 11
5.182
 21
106.046
 31
0.0
  0
LINE
  5
26
330
1E
100
AcDbEntity
  8
0
100
AcDbLine
 10
0.447
 20
106.046
 30
0.0
 11
2.314999999999999
 21
106.046
 31
0.0
  0
LINE
  5
27
330
1E
100
AcDbEntity
  8
0
100
AcDbLine
 10
0.291
 20
106.046
 30
0.0
 11
1.32
 21
106.046
 31
0.0
  0
LINE
  5
28
330
1E
100
AcDbEntity
  8
0
100
AcDbLine
 10
1.32
 20
106.046
 30
0.0
 11
4.421
 21
106.046
 31
0.0
  0
LINE
  5
29
330
1E
100
AcDbEntity
  8
0
100
AcDbLine
 10
2.095
 20
118.3399999999999
 30
0.0
 11
2.956
 21
130.78
 31
0.0
  0
LINE
  5
2A
330
1E
100
AcDbEntity
  8
0
100
AcDbLine
 10
1.32
 20
106.046
 30
0.0
 11
4.421
 21
106.046
 31
0.0
  0
LINE
  5
2B
330
1E
100
AcDbEntity
  8
0
100
AcDbLine
 10
0.0
 20
106.046
 30
0.0
 11
2.095
 21
118.3399999999999
 31
0.0
  0
LINE
  5
2C
330
1E
100
AcDbEntity
  8
0
100
AcDbLine
 10
0.0
 20
106.046
 30
0.0
 11
0.447
 21
106.046
 31
0.0
  0
LINE
  5
2D
330
1E
100
AcDbEntity
  8
0
100
AcDbLine
 10
0.0
 20
106.046
 30
0.0
 11
0.291
 21
106.046
 31
0.0
  0
LINE
  5
2E
330
1E
100
AcDbEntity
  8
0
100
AcDbLine
 10
4.421
 20
106.046
 30
0.0
 11
7.783999999999999
 21
106.046
 31
0.0
  0
LINE
  5
2F
330
1E
100
AcDbEntity
  8
0
100
AcDbLine
 10
2.956
 20
130.78
 30
0.0
 11
3.447
 21
132.3489999999999
 31
0.0
  0
LINE
  5
30
330
1E
100
AcDbEntity
  8
0
100
AcDbLine
 10
3.447
 20
132.3489999999999
 30
0.0
 11
4.687
 21
133.425
 31
0.0
  0
LINE
  5
31
330
1E
100
AcDbEntity
  8
0
100
AcDbLine
 10
5.182
 20
106.046
 30
0.0
 11
7.98
 21
106.046
 31
0.0
  0
LINE
  5
32
330
1E
100
AcDbEntity
  8
0
100
AcDbLine
 10
7.98
 20
106.046
 30
0.0
 11
8.545999999999999
 21
106.046
 31
0.0
  0
LINE
  5
33
330
1E
100
AcDbEntity
  8
0
100
AcDbLine
 10
7.783999999999999
 20
106.046
 30
0.0
 11
9.003999999999999
 21
106.046
 31
0.0
  0
LINE
  5
34
330
1E
100
AcDbEntity
  8
0
100
AcDbLine
 10
9.003999999999999
 20
106.046
 30
0.0
 11
11.53499999999999
 21
106.046
 31
0.0
  0
LINE
  5
38
330
1E
100
AcDbEntity
  8
0
100
AcDbLine
 10
8.545999999999999
 20
106.046
 30
0.0
 11
10.92999999999999
 21
106.046
 31
0.0
  0
LINE
  5
39
330
1E
100
AcDbEntity
  8
0
100
AcDbLine
 10
4.687
 20
133.425
 30
0.0
 11
6.309999999999999
 21
133.685
 31
0.0
  0
LINE
  5
3E
330
1E
100
AcDbEntity
  8
0
100
AcDbLine
 10
6.309999999999999
 20
133.685
 30
0.0
 11
6.751
 21
133.686
 31
0.0
  0
LINE
  5
3F
330
1E
100
AcDbEntity
  8
0
100
AcDbLine
 10
6.309999999999999
 20
133.685
 30
0.0
 11
7.097999999999999
 21
133.685
 31
0.0
  0
LINE
  5
40
330
1E
100
AcDbEntity
  8
0
100
AcDbLine
 10
247.923
 20
0.0000000000000104
 30
0.0
 11
260.2139999999999
 21
0.0000000000000102
 31
0.0
  0
LINE
  5
41
330
1E
100
AcDbEntity
  8
0
100
AcDbLine
 10
260.2139999999999
 20
0.0000000000000102
 30
0.0
 11
272.997
 21
0.0000000000000101
 31
0.0
  0
LINE
  5
42
330
1E
100
AcDbEntity
  8
0
100
AcDbLine
 10
212.46
 20
0.0000000000000126
 30
0.0
 11
218.5149999999999
 21
0.000000000000012
 31
0.0
  0
LINE
  5
43
330
1E
100
AcDbEntity
  8
0
100
AcDbLine
 10
226.664
 20
0.0000000000000113
 30
0.0
 11
236.595
 21
0.0000000000000109
 31
0.0
  0
LINE
  5
44
330
1E
100
AcDbEntity
  8
0
100
AcDbLine
 10
218.5149999999999
 20
0.000000000000012
 30
0.0
 11
226.664
 21
0.0000000000000113
 31
0.0
  0
LINE
  5
45
330
1E
100
AcDbEntity
  8
0
100
AcDbLine
 10
236.595
 20
0.0000000000000109
 30
0.0
 11
247.923
 21
0.0000000000000104
 31
0.0
  0
LINE
  5
46
330
1E
100
AcDbEntity
  8
0
100
AcDbLine
 10
272.997
 20
0.0000000000000101
 30
0.0
 11
285.783
 21
0.0000000000000102
 31
0.0
  0
LINE
  5
47
330
1E
100
AcDbEntity
  8
0
100
AcDbLine
 10
208.733
 20
0.0000000000000134
 30
0.0
 11
212.46
 21
0.0000000000000126
 31
0.0
  0
LINE
  5
48
330
1E
100
AcDbEntity
  8
0
100
AcDbLine
 10
251.2669999999999
 20
0.0000000000000137
 30
0.0
 11
254.59
 21
0.0000000000000132
 31
0.0
  0
LINE
  5
49
330
1E
100
AcDbEntity
  8
0
100
AcDbLine
 10
254.59
 20
0.0000000000000132
 30
0.0
 11
259.661
 21
0.0000000000000129
 31
0.0
  0
LINE
  5
4A
330
1E
100
AcDbEntity
  8
0
100
AcDbLine
 10
259.661
 20
0.0000000000000129
 30
0.0
 11
265.997
 21
0.0000000000000128
 31
0.0
  0
LINE
  5
4B
330
1E
100
AcDbEntity
  8
0
100
AcDbLine
 10
265.997
 20
0.0000000000000128
 30
0.0
 11
272.997
 21
0.0000000000000128
 31
0.0
  0
LINE
  5
4C
330
1E
100
AcDbEntity
  8
0
100
AcDbLine
 10
285.783
 20
0.0000000000000102
 30
0.0
 11
298.074
 21
0.0000000000000104
 31
0.0
  0
LINE
  5
4D
330
1E
100
AcDbEntity
  8
0
100
AcDbLine
 10
291.4069999999999
 20
0.0000000000000132
 30
0.0
 11
294.7309999999999
 21
0.0000000000000137
 31
0.0
  0
LINE
  5
4E
330
1E
100
AcDbEntity
  8
0
100
AcDbLine
 10
286.336
 20
0.0000000000000129
 30
0.0
 11
291.4069999999999
 21
0.0000000000000132
 31
0.0
  0
LINE
  5
4F
330
1E
100
AcDbEntity
  8
0
100
AcDbLine
 10
280.0
 20
0.0000000000000128
 30
0.0
 11
286.336
 21
0.0000000000000129
 31
0.0
  0
LINE
  5
50
330
1E
100
AcDbEntity
  8
0
100
AcDbLine
 10
272.997
 20
0.0000000000000128
 30
0.0
 11
280.0
 21
0.0000000000000128
 31
0.0
  0
LINE
  5
51
330
1E
100
AcDbEntity
  8
0
100
AcDbLine
 10
189.1629999999999
 20
27.3009
 30
0.0
 11
193.622
 21
24.9078
 31
0.0
  0
LINE
  5
52
330
1E
100
AcDbEntity
  8
0
100
AcDbLine
 10
177.985179309904
 20
33.9073110331842
 30
0.0
 11
189.1629999999999
 21
27.3009
 31
0.0
  0
LINE
  5
53
330
1E
100
AcDbEntity
  8
0
100
AcDbLine
 10
193.622
 20
24.9078
 30
0.0
 11
200.293
 21
19.8886
 31
0.0
  0
LINE
  5
54
330
1E
100
AcDbEntity
  8
0
100
AcDbLine
 10
200.293
 20
19.8886
 30
0.0
 11
204.942
 21
12.9516
 31
0.0
  0
LINE
  5
55
330
1E
100
AcDbEntity
  8
0
100
AcDbLine
 10
208.732
 20
0.000000000000015
 30
0.0
 11
212.4609999999999
 21
0.0000000000000156
 31
0.0
  0
LINE
  5
56
330
1E
100
AcDbEntity
  8
0
100
AcDbLine
 10
212.4609999999999
 20
0.0000000000000156
 30
0.0
 11
218.5149999999999
 21
0.0000000000000164
 31
0.0
  0
LINE
  5
57
330
1E
100
AcDbEntity
  8
0
100
AcDbLine
 10
218.5149999999999
 20
0.0000000000000164
 30
0.0
 11
226.6649999999999
 21
0.0000000000000169
 31
0.0
  0
LINE
  5
58
330
1E
100
AcDbEntity
  8
0
100
AcDbLine
 10
226.6649999999999
 20
0.0000000000000169
 30
0.0
 11
236.595
 21
0.0000000000000176
 31
0.0
  0
LINE
  5
59
330
1E
100
AcDbEntity
  8
0
100
AcDbLine
 10
236.595
 20
0.0000000000000176
 30
0.0
 11
247.923
 21
0.0000000000000179
 31
0.0
  0
LINE
  5
5A
330
1E
100
AcDbEntity
  8
0
100
AcDbLine
 10
207.0469999999999
 20
4.871120000000019
 30
0.0
 11
207.474
 21
0.0000000000000142
 31
0.0
  0
LINE
  5
5B
330
1E
100
AcDbEntity
  8
0
100
AcDbLine
 10
207.0469999999999
 20
4.871120000000019
 30
0.0
 11
207.474
 21
0.000000000000014
 31
0.0
  0
LINE
  5
5C
330
1E
100
AcDbEntity
  8
0
100
AcDbLine
 10
247.923
 20
0.0000000000000179
 30
0.0
 11
260.2149999999999
 21
0.000000000000018
 31
0.0
  0
LINE
  5
5D
330
1E
100
AcDbEntity
  8
0
100
AcDbLine
 10
204.942
 20
12.9516
 30
0.0
 11
207.0469999999999
 21
4.871120000000019
 31
0.0
  0
LINE
  5
5E
330
1E
100
AcDbEntity
  8
0
100
AcDbLine
 10
207.474
 20
0.0000000000000142
 30
0.0
 11
208.733
 21
0.0000000000000134
 31
0.0
  0
LINE
  5
5F
330
1E
100
AcDbEntity
  8
0
100
AcDbLine
 10
207.474
 20
0.0000000000000142
 30
0.0
 11
208.732
 21
0.000000000000015
 31
0.0
  0
LINE
  5
60
330
1E
100
AcDbEntity
  8
0
100
AcDbLine
 10
291.8029999999999
 20
0.000000000000015
 30
0.0
 11
295.009
 21
0.0000000000000145
 31
0.0
  0
LINE
  5
61
330
1E
100
AcDbEntity
  8
0
100
AcDbLine
 10
295.009
 20
0.0000000000000145
 30
0.0
 11
295.992
 21
0.000000000000014
 31
0.0
  0
LINE
  5
62
330
1E
100
AcDbEntity
  8
0
100
AcDbLine
 10
280.2129999999999
 20
0.0000000000000155
 30
0.0
 11
286.6999999999999
 21
0.0000000000000153
 31
0.0
  0
LINE
  5
63
330
1E
100
AcDbEntity
  8
0
100
AcDbLine
 10
286.6999999999999
 20
0.0000000000000153
 30
0.0
 11
291.8029999999999
 21
0.000000000000015
 31
0.0
  0
LINE
  5
64
330
1E
100
AcDbEntity
  8
0
100
AcDbLine
 10
272.997
 20
0.0000000000000155
 30
0.0
 11
280.2129999999999
 21
0.0000000000000155
 31
0.0
  0
LINE
  5
65
330
1E
100
AcDbEntity
  8
0
100
AcDbLine
 10
272.999
 20
0.0000000000000182
 30
0.0
 11
285.7819999999999
 21
0.000000000000018
 31
0.0
  0
LINE
  5
66
330
1E
100
AcDbEntity
  8
0
100
AcDbLine
 10
260.2149999999999
 20
0.000000000000018
 30
0.0
 11
272.999
 21
0.0000000000000182
 31
0.0
  0
LINE
  5
67
330
1E
100
AcDbEntity
  8
0
100
AcDbLine
 10
285.7819999999999
 20
0.000000000000018
 30
0.0
 11
298.074
 21
0.0000000000000179
 31
0.0
  0
LINE
  5
68
330
1E
100
AcDbEntity
  8
0
100
AcDbLine
 10
265.7839999999999
 20
0.0000000000000155
 30
0.0
 11
272.997
 21
0.0000000000000155
 31
0.0
  0
LINE
  5
69
330
1E
100
AcDbEntity
  8
0
100
AcDbLine
 10
259.297
 20
0.0000000000000153
 30
0.0
 11
265.7839999999999
 21
0.0000000000000155
 31
0.0
  0
LINE
  5
6A
330
1E
100
AcDbEntity
  8
0
100
AcDbLine
 10
254.1949999999999
 20
0.000000000000015
 30
0.0
 11
259.297
 21
0.0000000000000153
 31
0.0
  0
LINE
  5
6B
330
1E
100
AcDbEntity
  8
0
100
AcDbLine
 10
250.9889999999999
 20
0.0000000000000145
 30
0.0
 11
254.1949999999999
 21
0.000000000000015
 31
0.0
  0
LINE
  5
6C
330
1E
100
AcDbEntity
  8
0
100
AcDbLine
 10
250.0049999999999
 20
0.000000000000014
 30
0.0
 11
251.2669999999999
 21
0.0000000000000137
 31
0.0
  0
LINE
  5
6D
330
1E
100
AcDbEntity
  8
0
100
AcDbLine
 10
250.0049999999999
 20
0.000000000000014
 30
0.0
 11
250.9889999999999
 21
0.0000000000000145
 31
0.0
  0
LINE
  5
6E
330
1E
100
AcDbEntity
  8
0
100
AcDbLine
 10
294.7309999999999
 20
0.0000000000000137
 30
0.0
 11
295.992
 21
0.000000000000014
 31
0.0
  0
LINE
  5
6F
330
1E
100
AcDbEntity
  8
0
100
AcDbLine
 10
309.4019999999999
 20
0.0000000000000109
 30
0.0
 11
319.3319999999999
 21
0.0000000000000113
 31
0.0
  0
LINE
  5
70
330
1E
100
AcDbEntity
  8
0
100
AcDbLine
 10
333.536
 20
0.0000000000000126
 30
0.0
 11
337.264
 21
0.0000000000000134
 31
0.0
  0
LINE
  5
71
330
1E
100
AcDbEntity
  8
0
100
AcDbLine
 10
327.482
 20
0.000000000000012
 30
0.0
 11
333.536
 21
0.0000000000000126
 31
0.0
  0
LINE
  5
72
330
1E
100
AcDbEntity
  8
0
100
AcDbLine
 10
319.3319999999999
 20
0.0000000000000113
 30
0.0
 11
327.482
 21
0.000000000000012
 31
0.0
  0
LINE
  5
73
330
1E
100
AcDbEntity
  8
0
100
AcDbLine
 10
298.074
 20
0.0000000000000104
 30
0.0
 11
309.4019999999999
 21
0.0000000000000109
 31
0.0
  0
LINE
  5
74
330
1E
100
AcDbEntity
  8
0
100
AcDbLine
 10
319.3319999999999
 20
0.0000000000000169
 30
0.0
 11
327.482
 21
0.0000000000000164
 31
0.0
  0
LINE
  5
75
330
1E
100
AcDbEntity
  8
0
100
AcDbLine
 10
298.074
 20
0.0000000000000179
 30
0.0
 11
309.4019999999999
 21
0.0000000000000176
 31
0.0
  0
LINE
  5
76
330
1E
100
AcDbEntity
  8
0
100
AcDbLine
 10
309.4019999999999
 20
0.0000000000000176
 30
0.0
 11
319.3319999999999
 21
0.0000000000000169
 31
0.0
  0
LINE
  5
77
330
1E
100
AcDbEntity
  8
0
100
AcDbLine
 10
333.5369999999999
 20
0.0000000000000156
 30
0.0
 11
337.265
 21
0.000000000000015
 31
0.0
  0
LINE
  5
78
330
1E
100
AcDbEntity
  8
0
100
AcDbLine
 10
327.482
 20
0.0000000000000164
 30
0.0
 11
333.5369999999999
 21
0.0000000000000156
 31
0.0
  0
LINE
  5
79
330
1E
100
AcDbEntity
  8
0
100
AcDbLine
 10
337.264
 20
0.0000000000000134
 30
0.0
 11
338.523
 21
0.0000000000000142
 31
0.0
  0
LINE
  5
7A
330
1E
100
AcDbEntity
  8
0
100
AcDbLine
 10
338.523
 20
0.0000000000000142
 30
0.0
 11
338.9499999999999
 21
4.871120000000019
 31
0.0
  0
LINE
  5
7B
330
1E
100
AcDbEntity
  8
0
100
AcDbLine
 10
338.523
 20
0.000000000000014
 30
0.0
 11
338.9499999999999
 21
4.871120000000019
 31
0.0
  0
LINE
  5
7C
330
1E
100
AcDbEntity
  8
0
100
AcDbLine
 10
341.055
 20
12.9516
 30
0.0
 11
345.704
 21
19.8886
 31
0.0
  0
LINE
  5
7D
330
1E
100
AcDbEntity
  8
0
100
AcDbLine
 10
338.9499999999999
 20
4.871120000000019
 30
0.0
 11
341.055
 21
12.9516
 31
0.0
  0
LINE
  5
7E
330
1E
100
AcDbEntity
  8
0
100
AcDbLine
 10
337.265
 20
0.000000000000015
 30
0.0
 11
338.523
 21
0.0000000000000142
 31
0.0
  0
LINE
  5
7F
330
1E
100
AcDbEntity
  8
0
100
AcDbLine
 10
372.5569999999999
 20
36.50889999999999
 30
0.0
 11
386.199
 21
45.23369999999999
 31
0.0
  0
LINE
  5
80
330
1E
100
AcDbEntity
  8
0
100
AcDbLine
 10
356.8349999999999
 20
27.3009
 30
0.0
 11
372.5569999999999
 21
36.50889999999999
 31
0.0
  0
LINE
  5
81
330
1E
100
AcDbEntity
  8
0
100
AcDbLine
 10
356.8349999999999
 20
27.3009
 30
0.0
 11
372.5569999999999
 21
36.50889999999999
 31
0.0
  0
LINE
  5
82
330
1E
100
AcDbEntity
  8
0
100
AcDbLine
 10
352.3759999999999
 20
24.9078
 30
0.0
 11
356.8349999999999
 21
27.3009
 31
0.0
  0
LINE
  5
83
330
1E
100
AcDbEntity
  8
0
100
AcDbLine
 10
345.704
 20
19.8886
 30
0.0
 11
352.3759999999999
 21
24.9078
 31
0.0
  0
LINE
  5
84
330
1E
100
AcDbEntity
  8
0
100
AcDbLine
 10
10.92999999999999
 20
106.046
 30
0.0
 11
14.911
 21
106.046
 31
0.0
  0
LINE
  5
85
330
1E
100
AcDbEntity
  8
0
100
AcDbLine
 10
21.146
 20
106.046
 30
0.0
 11
22.714
 21
106.046
 31
0.0
  0
LINE
  5
86
330
1E
100
AcDbEntity
  8
0
100
AcDbLine
 10
28.91199999999999
 20
106.046
 30
0.0
 11
33.668
 21
106.046
 31
0.0
  0
LINE
  5
87
330
1E
100
AcDbEntity
  8
0
100
AcDbLine
 10
24.52199999999999
 20
106.046
 30
0.0
 11
28.91199999999999
 21
106.046
 31
0.0
  0
LINE
  5
88
330
1E
100
AcDbEntity
  8
0
100
AcDbLine
 10
33.668
 20
106.046
 30
0.0
 11
38.74499999999999
 21
106.046
 31
0.0
  0
LINE
  5
89
330
1E
100
AcDbEntity
  8
0
100
AcDbLine
 10
14.911
 20
106.046
 30
0.0
 11
19.268
 21
106.046
 31
0.0
  0
LINE
  5
8A
330
1E
100
AcDbEntity
  8
0
100
AcDbLine
 10
14.675
 20
106.046
 30
0.0
 11
16.57499999999999
 21
106.046
 31
0.0
  0
LINE
  5
8B
330
1E
100
AcDbEntity
  8
0
100
AcDbLine
 10
14.675
 20
106.046
 30
0.0
 11
14.91
 21
106.046
 31
0.0
  0
LINE
  5
8C
330
1E
100
AcDbEntity
  8
0
100
AcDbLine
 10
16.167
 20
106.046
 30
0.0
 11
20.741
 21
106.046
 31
0.0
  0
LINE
  5
8D
330
1E
100
AcDbEntity
  8
0
100
AcDbLine
 10
11.53499999999999
 20
106.046
 30
0.0
 11
16.167
 21
106.046
 31
0.0
  0
LINE
  5
8E
330
1E
100
AcDbEntity
  8
0
100
AcDbLine
 10
20.46699999999999
 20
106.046
 30
0.0
 11
21.37099999999999
 21
106.046
 31
0.0
  0
LINE
  5
8F
330
1E
100
AcDbEntity
  8
0
100
AcDbLine
 10
20.741
 20
106.046
 30
0.0
 11
27.418
 21
106.046
 31
0.0
  0
LINE
  5
90
330
1E
100
AcDbEntity
  8
0
100
AcDbLine
 10
16.57499999999999
 20
106.046
 30
0.0
 11
20.46699999999999
 21
106.046
 31
0.0
  0
LINE
  5
91
330
1E
100
AcDbEntity
  8
0
100
AcDbLine
 10
21.37099999999999
 20
106.046
 30
0.0
 11
23.51599999999999
 21
106.046
 31
0.0
  0
LINE
  5
92
330
1E
100
AcDbEntity
  8
0
100
AcDbLine
 10
27.418
 20
106.046
 30
0.0
 11
34.43999999999999
 21
106.046
 31
0.0
  0
LINE
  5
93
330
1E
100
AcDbEntity
  8
0
100
AcDbLine
 10
28.686
 20
106.046
 30
0.0
 11
33.81
 21
106.046
 31
0.0
  0
LINE
  5
94
330
1E
100
AcDbEntity
  8
0
100
AcDbLine
 10
26.27
 20
106.046
 30
0.0
 11
28.686
 21
106.046
 31
0.0
  0
LINE
  5
95
330
1E
100
AcDbEntity
  8
0
100
AcDbLine
 10
25.19
 20
106.046
 30
0.0
 11
26.27
 21
106.046
 31
0.0
  0
LINE
  5
96
330
1E
100
AcDbEntity
  8
0
100
AcDbLine
 10
33.81
 20
106.046
 30
0.0
 11
40.711
 21
106.046
 31
0.0
  0
LINE
  5
97
330
1E
100
AcDbEntity
  8
0
100
AcDbLine
 10
23.51599999999999
 20
106.046
 30
0.0
 11
24.038
 21
106.046
 31
0.0
  0
LINE
  5
98
330
1E
100
AcDbEntity
  8
0
100
AcDbLine
 10
19.268
 20
106.046
 30
0.0
 11
24.52199999999999
 21
106.046
 31
0.0
  0
LINE
  5
99
330
1E
100
AcDbEntity
  8
0
100
AcDbLine
 10
38.74499999999999
 20
106.046
 30
0.0
 11
44.08399999999999
 21
106.046
 31
0.0
  0
LINE
  5
9A
330
1E
100
AcDbEntity
  8
0
100
AcDbLine
 10
34.43999999999999
 20
106.046
 30
0.0
 11
40.843
 21
106.046
 31
0.0
  0
LINE
  5
9B
330
1E
100
AcDbEntity
  8
0
100
AcDbLine
 10
24.038
 20
106.046
 30
0.0
 11
25.19
 21
106.046
 31
0.0
  0
LINE
  5
9C
330
1E
100
AcDbEntity
  8
0
100
AcDbLine
 10
44.08399999999999
 20
106.046
 30
0.0
 11
49.613
 21
106.046
 31
0.0
  0
LINE
  5
9D
330
1E
100
AcDbEntity
  8
0
100
AcDbLine
 10
49.613
 20
106.046
 30
0.0
 11
55.278
 21
106.046
 31
0.0
  0
LINE
  5
9E
330
1E
100
AcDbEntity
  8
0
100
AcDbLine
 10
56.6088976504666
 20
106.046
 30
0.0
 11
62.6417111051819
 21
103.8369308893579
 31
0.0
  0
LINE
  5
9F
330
1E
100
AcDbEntity
  8
0
100
AcDbLine
 10
56.6088976504666
 20
106.046
 30
0.0
 11
62.6417111051819
 21
103.8369308893579
 31
0.0
  0
LINE
  5
A0
330
1E
100
AcDbEntity
  8
0
100
AcDbLine
 10
57.466
 20
106.046
 30
0.0
 11
68.333
 21
106.046
 31
0.0
  0
LINE
  5
A1
330
1E
100
AcDbEntity
  8
0
100
AcDbLine
 10
47.613
 20
106.046
 30
0.0
 11
57.466
 21
106.046
 31
0.0
  0
LINE
  5
A2
330
1E
100
AcDbEntity
  8
0
100
AcDbLine
 10
40.843
 20
106.046
 30
0.0
 11
47.613
 21
106.046
 31
0.0
  0
LINE
  5
A3
330
1E
100
AcDbEntity
  8
0
100
AcDbLine
 10
55.278
 20
106.046
 30
0.0
 11
56.6088976504666
 21
106.046
 31
0.0
  0
LINE
  5
A4
330
1E
100
AcDbEntity
  8
0
100
AcDbLine
 10
40.711
 20
106.046
 30
0.0
 11
48.932
 21
106.046
 31
0.0
  0
LINE
  5
A5
330
1E
100
AcDbEntity
  8
0
100
AcDbLine
 10
48.932
 20
106.046
 30
0.0
 11
58.811
 21
106.046
 31
0.0
  0
LINE
  5
A7
330
1E
100
AcDbEntity
  8
0
100
AcDbLine
 10
106.435
 20
79.0674
 30
0.0
 11
109.3799999999999
 21
78.0339
 31
0.0
  0
LINE
  5
A9
330
1E
100
AcDbEntity
  8
0
100
AcDbLine
 10
109.3799999999999
 20
78.0339
 30
0.0
 11
110.877
 21
78.0339
 31
0.0
  0
LINE
  5
AA
330
1E
100
AcDbEntity
  8
0
100
AcDbLine
 10
110.877
 20
78.0339
 30
0.0
 11
403.1559999999999
 21
78.0339
 31
0.0
  0
LINE
  5
AB
330
1E
100
AcDbEntity
  8
0
100
AcDbLine
 10
111.152628443828
 20
78.0339
 30
0.0
 11
119.357
 21
72.7786
 31
0.0
  0
LINE
  5
AE
330
1E
100
AcDbEntity
  8
0
100
AcDbLine
 10
159.796
 20
45.2327
 30
0.0
 11
177.985179309904
 21
33.9073110331842
 31
0.0
  0
LINE
  5
AF
330
1E
100
AcDbEntity
  8
0
100
AcDbLine
 10
386.199
 20
45.23369999999999
 30
0.0
 11
399.397
 21
54.2376
 31
0.0
  0
LINE
  5
B0
330
1E
100
AcDbEntity
  8
0
100
AcDbLine
 10
119.357
 20
72.7786
 30
0.0
 11
132.2239999999999
 21
64.1779
 31
0.0
  0
LINE
  5
B1
330
1E
100
AcDbEntity
  8
0
100
AcDbLine
 10
132.2239999999999
 20
64.1779
 30
0.0
 11
146.5979999999999
 21
54.2386
 31
0.0
  0
LINE
  5
B2
330
1E
100
AcDbEntity
  8
0
100
AcDbLine
 10
403.1559999999999
 20
78.0339
 30
0.0
 11
435.12
 21
78.0339
 31
0.0
  0
LINE
  5
B3
330
1E
100
AcDbEntity
  8
0
100
AcDbLine
 10
146.5979999999999
 20
54.2386
 30
0.0
 11
159.796
 21
45.2327
 31
0.0
  0
LINE
  5
B4
330
1E
100
AcDbEntity
  8
0
100
AcDbLine
 10
132.2239999999999
 20
64.1779
 30
0.0
 11
146.5979999999999
 21
54.2386
 31
0.0
  0
LINE
  5
B5
330
1E
100
AcDbEntity
  8
0
100
AcDbLine
 10
399.397
 20
54.2376
 30
0.0
 11
409.5140259249689
 21
61.3018006127317
 31
0.0
  0
LINE
  5
B6
330
1E
100
AcDbEntity
  8
0
100
AcDbLine
 10
399.397
 20
54.2376
 30
0.0
 11
409.5140259249689
 21
61.3018006127317
 31
0.0
  0
LINE
  5
B7
330
1E
100
AcDbEntity
  8
0
100
AcDbLine
 10
409.5140259249689
 20
61.3018006127317
 30
0.0
 11
426.6399999999999
 21
72.7786
 31
0.0
  0
LINE
  5
B8
330
1E
100
AcDbEntity
  8
0
100
AcDbLine
 10
121.4629999999999
 20
78.0339
 30
0.0
 11
122.5129999999999
 21
78.0339
 31
0.0
  0
LINE
  5
B9
330
1E
100
AcDbEntity
  8
0
100
AcDbLine
 10
120.3639999999999
 20
78.0339
 30
0.0
 11
121.7289999999999
 21
78.0339
 31
0.0
  0
LINE
  5
BA
330
1E
100
AcDbEntity
  8
0
100
AcDbLine
 10
120.211
 20
78.0339
 30
0.0
 11
121.4629999999999
 21
78.0339
 31
0.0
  0
LINE
  5
BB
330
1E
100
AcDbEntity
  8
0
100
AcDbLine
 10
119.7999999999999
 20
78.0339
 30
0.0
 11
120.3639999999999
 21
78.0339
 31
0.0
  0
LINE
  5
BC
330
1E
100
AcDbEntity
  8
0
100
AcDbLine
 10
119.7999999999999
 20
78.0339
 30
0.0
 11
120.211
 21
78.0339
 31
0.0
  0
LINE
  5
BD
330
1E
100
AcDbEntity
  8
0
100
AcDbLine
 10
124.265
 20
78.0339
 30
0.0
 11
125.6299999999999
 21
78.0339
 31
0.0
  0
LINE
  5
BE
330
1E
100
AcDbEntity
  8
0
100
AcDbLine
 10
125.6299999999999
 20
78.0339
 30
0.0
 11
126.194
 21
78.0339
 31
0.0
  0
LINE
  5
BF
330
1E
100
AcDbEntity
  8
0
100
AcDbLine
 10
125.783
 20
78.0339
 30
0.0
 11
126.194
 21
78.0339
 31
0.0
  0
LINE
  5
C0
330
1E
100
AcDbEntity
  8
0
100
AcDbLine
 10
124.531
 20
78.0339
 30
0.0
 11
125.783
 21
78.0339
 31
0.0
  0
LINE
  5
C3
330
1E
100
AcDbEntity
  8
0
100
AcDbLine
 10
123.481
 20
78.0339
 30
0.0
 11
124.531
 21
78.0339
 31
0.0
  0
LINE
  5
C4
330
1E
100
AcDbEntity
  8
0
100
AcDbLine
 10
122.1459999999999
 20
78.0339
 30
0.0
 11
127.4939999999999
 21
78.0339
 31
0.0
  0
LINE
  5
C7
330
1E
100
AcDbEntity
  8
0
100
AcDbLine
 10
62.6417111051819
 20
103.8369308893579
 30
0.0
 11
79.89399999999999
 21
96.03480000000001
 31
0.0
  0
LINE
  5
C8
330
1E
100
AcDbEntity
  8
0
100
AcDbLine
 10
97.719
 20
86.31350000000001
 30
0.0
 11
104.5408449345639
 21
82.1956891167494
 31
0.0
  0
LINE
  5
C9
330
1E
100
AcDbEntity
  8
0
100
AcDbLine
 10
88.84999999999999
 20
91.33969999999999
 30
0.0
 11
97.719
 21
86.31350000000001
 31
0.0
  0
LINE
  5
CA
330
1E
100
AcDbEntity
  8
0
100
AcDbLine
 10
79.89399999999999
 20
96.03480000000001
 30
0.0
 11
88.84999999999999
 21
91.33969999999999
 31
0.0
  0
LINE
  5
CB
330
1E
100
AcDbEntity
  8
0
100
AcDbLine
 10
98.27600000000002
 20
105.1139999999999
 30
0.0
 11
104.665
 21
81.7415
 31
0.0
  0
LINE
  5
CC
330
1E
100
AcDbEntity
  8
0
100
AcDbLine
 10
62.6417111051819
 20
103.8369308893579
 30
0.0
 11
79.89399999999999
 21
96.03480000000001
 31
0.0
  0
LINE
  5
CD
330
1E
100
AcDbEntity
  8
0
100
AcDbLine
 10
104.665
 20
81.7415
 30
0.0
 11
106.435
 21
79.0674
 31
0.0
  0
LINE
  5
CF
330
1E
100
AcDbEntity
  8
0
100
AcDbLine
 10
419.804
 20
78.0339
 30
0.0
 11
420.2139999999999
 21
78.0339
 31
0.0
  0
LINE
  5
D0
330
1E
100
AcDbEntity
  8
0
100
AcDbLine
 10
419.804
 20
78.0339
 30
0.0
 11
420.3669999999999
 21
78.0339
 31
0.0
  0
LINE
  5
D1
330
1E
100
AcDbEntity
  8
0
100
AcDbLine
 10
421.466
 20
78.0339
 30
0.0
 11
422.515
 21
78.0339
 31
0.0
  0
LINE
  5
D2
330
1E
100
AcDbEntity
  8
0
100
AcDbLine
 10
424.267
 20
78.0339
 30
0.0
 11
425.633
 21
78.0339
 31
0.0
  0
LINE
  5
D3
330
1E
100
AcDbEntity
  8
0
100
AcDbLine
 10
425.633
 20
78.0339
 30
0.0
 11
426.1969999999999
 21
78.0339
 31
0.0
  0
LINE
  5
D4
330
1E
100
AcDbEntity
  8
0
100
AcDbLine
 10
424.5339999999999
 20
78.0339
 30
0.0
 11
425.7869999999999
 21
78.0339
 31
0.0
  0
LINE
  5
D5
330
1E
100
AcDbEntity
  8
0
100
AcDbLine
 10
423.484
 20
78.0339
 30
0.0
 11
424.5339999999999
 21
78.0339
 31
0.0
  0
LINE
  5
D6
330
1E
100
AcDbEntity
  8
0
100
AcDbLine
 10
420.3669999999999
 20
78.0339
 30
0.0
 11
421.7319999999999
 21
78.0339
 31
0.0
  0
LINE
  5
D7
330
1E
100
AcDbEntity
  8
0
100
AcDbLine
 10
420.2139999999999
 20
78.0339
 30
0.0
 11
421.466
 21
78.0339
 31
0.0
  0
LINE
  5
D8
330
1E
100
AcDbEntity
  8
0
100
AcDbLine
 10
423.8509999999999
 20
78.0339
 30
0.0
 11
429.0659999999999
 21
78.0339
 31
0.0
  0
LINE
  5
D9
330
1E
100
AcDbEntity
  8
0
100
AcDbLine
 10
425.7869999999999
 20
78.0339
 30
0.0
 11
426.1969999999999
 21
78.0339
 31
0.0
  0
LINE
  5
DA
330
1E
100
AcDbEntity
  8
0
100
AcDbLine
 10
426.6399999999999
 20
72.7786
 30
0.0
 11
434.845650591414
 21
78.0339
 31
0.0
  0
LINE
  5
DB
330
1E
100
AcDbEntity
  8
0
100
AcDbLine
 10
436.6169999999999
 20
78.0339
 30
0.0
 11
439.562
 21
79.0674
 31
0.0
  0
LINE
  5
DC
330
1E
100
AcDbEntity
  8
0
100
AcDbLine
 10
433.3339999999999
 20
78.0339
 30
0.0
 11
436.6169999999999
 21
78.0339
 31
0.0
  0
LINE
  5
DD
330
1E
100
AcDbEntity
  8
0
100
AcDbLine
 10
429.0659999999999
 20
78.0339
 30
0.0
 11
433.3339999999999
 21
78.0339
 31
0.0
  0
LINE
  5
DF
330
1E
100
AcDbEntity
  8
0
100
AcDbLine
 10
439.562
 20
79.0674
 30
0.0
 11
441.3319999999999
 21
81.7415
 31
0.0
  0
LINE
  5
E3
330
1E
100
AcDbEntity
  8
0
100
AcDbLine
 10
441.3319999999999
 20
81.7415
 30
0.0
 11
447.7009999999999
 21
105.295
 31
0.0
  0
LINE
  5
E4
330
1E
100
AcDbEntity
  8
0
100
AcDbLine
 10
441.454339609222
 20
82.19392989257409
 30
0.0
 11
448.2759999999999
 21
86.31350000000001
 31
0.0
  0
LINE
  5
E5
330
1E
100
AcDbEntity
  8
0
100
AcDbLine
 10
448.2759999999999
 20
86.31350000000001
 30
0.0
 11
461.6119999999999
 21
93.7298
 31
0.0
  0
LINE
  5
E6
330
1E
100
AcDbEntity
  8
0
100
AcDbLine
 10
467.3504363066349
 20
96.7250921020863
 30
0.0
 11
468.1119999999999
 21
97.06520000000001
 31
0.0
  0
LINE
  5
E7
330
1E
100
AcDbEntity
  8
0
100
AcDbLine
 10
461.6119999999999
 20
93.7298
 30
0.0
 11
467.3504363066349
 21
96.7250921020863
 31
0.0
  0
LINE
  5
E8
330
1E
100
AcDbEntity
  8
0
100
AcDbLine
 10
468.1119999999999
 20
97.06520000000001
 30
0.0
 11
471.97
 21
99.752
 31
0.0
  0
LINE
  5
E9
330
1E
100
AcDbEntity
  8
0
100
AcDbLine
 10
473.214
 20
101.2249999999999
 30
0.0
 11
476.174
 21
105.04
 31
0.0
  0
LINE
  5
EA
330
1E
100
AcDbEntity
  8
0
100
AcDbLine
 10
471.97
 20
99.752
 30
0.0
 11
473.214
 21
101.2249999999999
 31
0.0
  0
LINE
  5
EB
330
1E
100
AcDbEntity
  8
0
100
AcDbLine
 10
476.174
 20
105.04
 30
0.0
 11
476.6827472467669
 21
105.663902873568
 31
0.0
  0
LINE
  5
EC
330
1E
100
AcDbEntity
  8
0
100
AcDbLine
 10
476.6827472467683
 20
105.6639028735697
 30
0.0
 11
477.1552756827049
 21
106.046
 31
0.0
  0
LINE
  5
EE
330
1E
100
AcDbEntity
  8
0
100
AcDbLine
 10
447.7009999999999
 20
105.295
 30
0.0
 11
448.147806678383
 21
106.046
 31
0.0
  0
LINE
  5
F1
330
1E
100
AcDbEntity
  8
0
100
AcDbLine
 10
67.00499999999999
 20
106.046
 30
0.0
 11
70.131
 21
106.046
 31
0.0
  0
LINE
  5
F2
330
1E
100
AcDbEntity
  8
0
100
AcDbLine
 10
64.82300000000001
 20
106.046
 30
0.0
 11
67.00499999999999
 21
106.046
 31
0.0
  0
LINE
  5
F3
330
1E
100
AcDbEntity
  8
0
100
AcDbLine
 10
74.94199999999999
 20
106.046
 30
0.0
 11
169.167
 21
106.046
 31
0.0
  0
LINE
  5
F4
330
1E
100
AcDbEntity
  8
0
100
AcDbLine
 10
70.131
 20
106.046
 30
0.0
 11
74.94199999999999
 21
106.046
 31
0.0
  0
LINE
  5
F5
330
1E
100
AcDbEntity
  8
0
100
AcDbLine
 10
68.333
 20
106.046
 30
0.0
 11
170.644
 21
106.046
 31
0.0
  0
LINE
  5
F6
330
1E
100
AcDbEntity
  8
0
100
AcDbLine
 10
170.644
 20
106.046
 30
0.0
 11
272.9979999999999
 21
106.046
 31
0.0
  0
LINE
  5
F7
330
1E
100
AcDbEntity
  8
0
100
AcDbLine
 10
97.8011144067797
 20
106.046
 30
0.0
 11
98.27600000000002
 21
105.1139999999999
 31
0.0
  0
LINE
  5
F8
330
1E
100
AcDbEntity
  8
0
100
AcDbLine
 10
74.94199999999999
 20
106.046
 30
0.0
 11
169.167
 21
106.046
 31
0.0
  0
LINE
  5
F9
330
1E
100
AcDbEntity
  8
0
100
AcDbLine
 10
375.3519999999999
 20
106.046
 30
0.0
 11
469.9399999999999
 21
106.046
 31
0.0
  0
LINE
  5
FA
330
1E
100
AcDbEntity
  8
0
100
AcDbLine
 10
272.9979999999999
 20
106.046
 30
0.0
 11
375.3519999999999
 21
106.046
 31
0.0
  0
LINE
  5
FB
330
1E
100
AcDbEntity
  8
0
100
AcDbLine
 10
272.995
 20
106.046
 30
0.0
 11
375.7979999999999
 21
106.046
 31
0.0
  0
LINE
  5
FC
330
1E
100
AcDbEntity
  8
0
100
AcDbLine
 10
469.9399999999999
 20
106.046
 30
0.0
 11
485.599
 21
106.046
 31
0.0
  0
LINE
  5
FD
330
1E
100
AcDbEntity
  8
0
100
AcDbLine
 10
470.077
 20
106.046
 30
0.0
 11
474.1819999999999
 21
106.046
 31
0.0
  0
LINE
  5
FE
330
1E
100
AcDbEntity
  8
0
100
AcDbLine
 10
375.7979999999999
 20
106.046
 30
0.0
 11
470.077
 21
106.046
 31
0.0
  0
LINE
  5
FF
330
1E
100
AcDbEntity
  8
0
100
AcDbLine
 10
477.1552756827049
 20
106.046
 30
0.0
 11
480.0569999999999
 21
106.046
 31
0.0
  0
LINE
  5
100
330
1E
100
AcDbEntity
  8
0
100
AcDbLine
 10
480.0569999999999
 20
106.046
 30
0.0
 11
572.0679999999999
 21
106.046
 31
0.0
  0
LINE
  5
101
330
1E
100
AcDbEntity
  8
0
100
AcDbLine
 10
485.599
 20
106.046
 30
0.0
 11
496.6459999999999
 21
106.046
 31
0.0
  0
LINE
  5
102
330
1E
100
AcDbEntity
  8
0
100
AcDbLine
 10
480.188
 20
106.046
 30
0.0
 11
490.96
 21
106.046
 31
0.0
  0
LINE
  5
103
330
1E
100
AcDbEntity
  8
0
100
AcDbLine
 10
478.654
 20
106.046
 30
0.0
 11
480.188
 21
106.046
 31
0.0
  0
LINE
  5
104
330
1E
100
AcDbEntity
  8
0
100
AcDbLine
 10
474.1819999999999
 20
106.046
 30
0.0
 11
478.654
 21
106.046
 31
0.0
  0
LINE
  5
105
330
1E
100
AcDbEntity
  8
0
100
AcDbLine
 10
58.811
 20
106.046
 30
0.0
 11
64.82300000000001
 21
106.046
 31
0.0
  0
LINE
  5
106
330
1E
100
AcDbEntity
  8
0
100
AcDbLine
 10
572.0679999999999
 20
106.046
 30
0.0
 11
580.964
 21
106.046
 31
0.0
  0
LINE
  5
107
330
1E
100
AcDbEntity
  8
0
100
AcDbLine
 10
580.964
 20
106.046
 30
0.0
 11
589.008
 21
106.046
 31
0.0
  0
LINE
  5
108
330
1E
100
AcDbEntity
  8
0
100
AcDbLine
 10
589.9709999999999
 20
106.046
 30
0.0
 11
590.3179999999999
 21
106.046
 31
0.0
  0
LINE
  5
109
330
1E
100
AcDbEntity
  8
0
100
AcDbLine
 10
595.197
 20
106.046
 30
0.0
 11
599.577
 21
106.046
 31
0.0
  0
LINE
  5
10A
330
1E
100
AcDbEntity
  8
0
100
AcDbLine
 10
590.6069999999999
 20
106.046
 30
0.0
 11
591.353
 21
106.046
 31
0.0
  0
LINE
  5
10B
330
1E
100
AcDbEntity
  8
0
100
AcDbLine
 10
591.353
 20
106.046
 30
0.0
 11
591.7669999999999
 21
106.046
 31
0.0
  0
LINE
  5
10C
330
1E
100
AcDbEntity
  8
0
100
AcDbLine
 10
606.9969999999999
 20
106.046
 30
0.0
 11
630.2709999999999
 21
106.046
 31
0.0
  0
LINE
  5
10D
330
1E
100
AcDbEntity
  8
0
100
AcDbLine
 10
604.3959999999999
 20
106.046
 30
0.0
 11
605.253
 21
106.046
 31
0.0
  0
LINE
  5
10E
330
1E
100
AcDbEntity
  8
0
100
AcDbLine
 10
605.253
 20
106.046
 30
0.0
 11
606.9969999999999
 21
106.046
 31
0.0
  0
LINE
  5
10F
330
1E
100
AcDbEntity
  8
0
100
AcDbLine
 10
630.2709999999999
 20
106.046
 30
0.0
 11
636.4069999999999
 21
106.046
 31
0.0
  0
LINE
  5
110
330
1E
100
AcDbEntity
  8
0
100
AcDbLine
 10
636.4069999999999
 20
106.046
 30
0.0
 11
642.2469999999999
 21
106.046
 31
0.0
  0
LINE
  5
111
330
1E
100
AcDbEntity
  8
0
100
AcDbLine
 10
601.8469999999999
 20
106.046
 30
0.0
 11
604.244
 21
106.046
 31
0.0
  0
LINE
  5
112
330
1E
100
AcDbEntity
  8
0
100
AcDbLine
 10
604.145
 20
106.046
 30
0.0
 11
604.244
 21
106.046
 31
0.0
  0
LINE
  5
113
330
1E
100
AcDbEntity
  8
0
100
AcDbLine
 10
604.145
 20
106.046
 30
0.0
 11
604.3959999999999
 21
106.046
 31
0.0
  0
LINE
  5
114
330
1E
100
AcDbEntity
  8
0
100
AcDbLine
 10
589.008
 20
106.046
 30
0.0
 11
595.197
 21
106.046
 31
0.0
  0
LINE
  5
115
330
1E
100
AcDbEntity
  8
0
100
AcDbLine
 10
599.577
 20
106.046
 30
0.0
 11
601.8469999999999
 21
106.046
 31
0.0
  0
LINE
  5
116
330
1E
100
AcDbEntity
  8
0
100
AcDbLine
 10
642.2469999999999
 20
106.046
 30
0.0
 11
649.3330000000001
 21
106.046
 31
0.0
  0
LINE
  5
117
330
1E
100
AcDbEntity
  8
0
100
AcDbLine
 10
649.3330000000001
 20
106.046
 30
0.0
 11
655.0369999999999
 21
106.046
 31
0.0
  0
LINE
  5
118
330
1E
100
AcDbEntity
  8
0
100
AcDbLine
 10
646.315
 20
106.046
 30
0.0
 11
646.855
 21
106.046
 31
0.0
  0
LINE
  5
119
330
1E
100
AcDbEntity
  8
0
100
AcDbLine
 10
664.78
 20
106.046
 30
0.0
 11
666.0
 21
106.046
 31
0.0
  0
LINE
  5
11A
330
1E
100
AcDbEntity
  8
0
100
AcDbLine
 10
660.8889999999998
 20
106.046
 30
0.0
 11
664.557
 21
106.046
 31
0.0
  0
LINE
  5
11B
330
1E
100
AcDbEntity
  8
0
100
AcDbLine
 10
664.557
 20
106.046
 30
0.0
 11
666.0
 21
106.046
 31
0.0
  0
LINE
  5
11C
330
1E
100
AcDbEntity
  8
0
100
AcDbLine
 10
658.9730000000001
 20
106.046
 30
0.0
 11
660.8889999999998
 21
106.046
 31
0.0
  0
LINE
  5
11D
330
1E
100
AcDbEntity
  8
0
100
AcDbLine
 10
651.5539999999999
 20
106.046
 30
0.0
 11
651.6399999999999
 21
106.046
 31
0.0
  0
LINE
  5
11E
330
1E
100
AcDbEntity
  8
0
100
AcDbLine
 10
649.359
 20
106.046
 30
0.0
 11
651.6399999999999
 21
106.046
 31
0.0
  0
LINE
  5
11F
330
1E
100
AcDbEntity
  8
0
100
AcDbLine
 10
655.0369999999999
 20
106.046
 30
0.0
 11
658.9730000000001
 21
106.046
 31
0.0
  0
LINE
  5
120
330
1E
100
AcDbEntity
  8
0
100
AcDbLine
 10
636.445
 20
106.046
 30
0.0
 11
640.848
 21
106.046
 31
0.0
  0
LINE
  5
121
330
1E
100
AcDbEntity
  8
0
100
AcDbLine
 10
632.979
 20
106.046
 30
0.0
 11
636.445
 21
106.046
 31
0.0
  0
LINE
  5
122
330
1E
100
AcDbEntity
  8
0
100
AcDbLine
 10
576.346
 20
106.046
 30
0.0
 11
581.1599999999999
 21
106.046
 31
0.0
  0
LINE
  5
123
330
1E
100
AcDbEntity
  8
0
100
AcDbLine
 10
496.6459999999999
 20
106.046
 30
0.0
 11
505.152
 21
106.046
 31
0.0
  0
LINE
  5
124
330
1E
100
AcDbEntity
  8
0
100
AcDbLine
 10
497.068
 20
106.046
 30
0.0
 11
502.211
 21
106.046
 31
0.0
  0
LINE
  5
125
330
1E
100
AcDbEntity
  8
0
100
AcDbLine
 10
519.87
 20
106.046
 30
0.0
 11
525.259
 21
106.046
 31
0.0
  0
LINE
  5
126
330
1E
100
AcDbEntity
  8
0
100
AcDbLine
 10
525.259
 20
106.046
 30
0.0
 11
530.691
 21
106.046
 31
0.0
  0
LINE
  5
127
330
1E
100
AcDbEntity
  8
0
100
AcDbLine
 10
524.454
 20
106.046
 30
0.0
 11
525.621
 21
106.046
 31
0.0
  0
LINE
  5
128
330
1E
100
AcDbEntity
  8
0
100
AcDbLine
 10
522.479
 20
106.046
 30
0.0
 11
524.454
 21
106.046
 31
0.0
  0
LINE
  5
129
330
1E
100
AcDbEntity
  8
0
100
AcDbLine
 10
522.0539999999999
 20
106.046
 30
0.0
 11
522.479
 21
106.046
 31
0.0
  0
LINE
  5
12A
330
1E
100
AcDbEntity
  8
0
100
AcDbLine
 10
505.152
 20
106.046
 30
0.0
 11
514.1729999999999
 21
106.046
 31
0.0
  0
LINE
  5
12B
330
1E
100
AcDbEntity
  8
0
100
AcDbLine
 10
525.621
 20
106.046
 30
0.0
 11
529.314
 21
106.046
 31
0.0
  0
LINE
  5
12C
330
1E
100
AcDbEntity
  8
0
100
AcDbLine
 10
514.1729999999999
 20
106.046
 30
0.0
 11
519.87
 21
106.046
 31
0.0
  0
LINE
  5
12D
330
1E
100
AcDbEntity
  8
0
100
AcDbLine
 10
530.691
 20
106.046
 30
0.0
 11
534.456
 21
106.046
 31
0.0
  0
LINE
  5
12E
330
1E
100
AcDbEntity
  8
0
100
AcDbLine
 10
536.204
 20
106.046
 30
0.0
 11
537.993
 21
106.046
 31
0.0
  0
LINE
  5
12F
330
1E
100
AcDbEntity
  8
0
100
AcDbLine
 10
534.456
 20
106.046
 30
0.0
 11
536.204
 21
106.046
 31
0.0
  0
LINE
  5
130
330
1E
100
AcDbEntity
  8
0
100
AcDbLine
 10
539.578
 20
106.046
 30
0.0
 11
543.562
 21
106.046
 31
0.0
  0
LINE
  5
131
330
1E
100
AcDbEntity
  8
0
100
AcDbLine
 10
537.993
 20
106.046
 30
0.0
 11
539.578
 21
106.046
 31
0.0
  0
LINE
  5
132
330
1E
100
AcDbEntity
  8
0
100
AcDbLine
 10
543.562
 20
106.046
 30
0.0
 11
543.9479999999999
 21
106.046
 31
0.0
  0
LINE
  5
133
330
1E
100
AcDbEntity
  8
0
100
AcDbLine
 10
543.9479999999999
 20
106.046
 30
0.0
 11
544.876
 21
106.046
 31
0.0
  0
LINE
  5
134
330
1E
100
AcDbEntity
  8
0
100
AcDbLine
 10
544.876
 20
106.046
 30
0.0
 11
546.59
 21
106.046
 31
0.0
  0
LINE
  5
135
330
1E
100
AcDbEntity
  8
0
100
AcDbLine
 10
546.59
 20
106.046
 30
0.0
 11
563.003
 21
106.046
 31
0.0
  0
LINE
  5
136
330
1E
100
AcDbEntity
  8
0
100
AcDbLine
 10
563.003
 20
106.046
 30
0.0
 11
596.654
 21
106.046
 31
0.0
  0
LINE
  5
137
330
1E
100
AcDbEntity
  8
0
100
AcDbLine
 10
563.003
 20
106.046
 30
0.0
 11
581.585
 21
106.046
 31
0.0
  0
LINE
  5
138
330
1E
100
AcDbEntity
  8
0
100
AcDbLine
 10
536.226
 20
106.046
 30
0.0
 11
539.71
 21
106.046
 31
0.0
  0
LINE
  5
139
330
1E
100
AcDbEntity
  8
0
100
AcDbLine
 10
533.379
 20
106.046
 30
0.0
 11
536.226
 21
106.046
 31
0.0
  0
LINE
  5
13A
330
1E
100
AcDbEntity
  8
0
100
AcDbLine
 10
531.1539999999999
 20
106.046
 30
0.0
 11
533.379
 21
106.046
 31
0.0
  0
LINE
  5
13B
330
1E
100
AcDbEntity
  8
0
100
AcDbLine
 10
529.4999999999999
 20
106.046
 30
0.0
 11
531.1539999999999
 21
106.046
 31
0.0
  0
LINE
  5
13C
330
1E
100
AcDbEntity
  8
0
100
AcDbLine
 10
529.314
 20
106.046
 30
0.0
 11
529.4999999999999
 21
106.046
 31
0.0
  0
LINE
  5
13D
330
1E
100
AcDbEntity
  8
0
100
AcDbLine
 10
521.229
 20
106.046
 30
0.0
 11
522.0539999999999
 21
106.046
 31
0.0
  0
LINE
  5
13E
330
1E
100
AcDbEntity
  8
0
100
AcDbLine
 10
502.211
 20
106.046
 30
0.0
 11
510.0159999999999
 21
106.046
 31
0.0
  0
LINE
  5
13F
330
1E
100
AcDbEntity
  8
0
100
AcDbLine
 10
510.0159999999999
 20
106.046
 30
0.0
 11
516.0319999999999
 21
106.046
 31
0.0
  0
LINE
  5
140
330
1E
100
AcDbEntity
  8
0
100
AcDbLine
 10
630.2709999999999
 20
106.046
 30
0.0
 11
638.5459999999999
 21
106.046
 31
0.0
  0
LINE
  5
141
330
1E
100
AcDbEntity
  8
0
100
AcDbLine
 10
629.324
 20
106.046
 30
0.0
 11
632.3009999999999
 21
106.046
 31
0.0
  0
LINE
  5
142
330
1E
100
AcDbEntity
  8
0
100
AcDbLine
 10
596.654
 20
106.046
 30
0.0
 11
630.2709999999999
 21
106.046
 31
0.0
  0
LINE
  5
143
330
1E
100
AcDbEntity
  8
0
100
AcDbLine
 10
638.5459999999999
 20
106.046
 30
0.0
 11
646.1319999999999
 21
106.046
 31
0.0
  0
LINE
  5
144
330
1E
100
AcDbEntity
  8
0
100
AcDbLine
 10
646.1319999999999
 20
106.046
 30
0.0
 11
652.5449999999999
 21
106.046
 31
0.0
  0
LINE
  5
145
330
1E
100
AcDbEntity
  8
0
100
AcDbLine
 10
652.5449999999999
 20
106.046
 30
0.0
 11
657.353
 21
106.046
 31
0.0
  0
LINE
  5
146
330
1E
100
AcDbEntity
  8
0
100
AcDbLine
 10
646.1219999999999
 20
106.046
 30
0.0
 11
646.854
 21
106.046
 31
0.0
  0
LINE
  5
147
330
1E
100
AcDbEntity
  8
0
100
AcDbLine
 10
660.8889999999998
 20
106.046
 30
0.0
 11
664.78
 21
106.046
 31
0.0
  0
LINE
  5
148
330
1E
100
AcDbEntity
  8
0
100
AcDbLine
 10
657.353
 20
106.046
 30
0.0
 11
659.6829999999999
 21
106.046
 31
0.0
  0
LINE
  5
149
330
1E
100
AcDbEntity
  8
0
100
AcDbLine
 10
659.6829999999999
 20
106.046
 30
0.0
 11
660.8889999999998
 21
106.046
 31
0.0
  0
LINE
  5
14A
330
1E
100
AcDbEntity
  8
0
100
AcDbLine
 10
641.5289999999999
 20
106.046
 30
0.0
 11
644.693
 21
106.046
 31
0.0
  0
LINE
  5
14B
330
1E
100
AcDbEntity
  8
0
100
AcDbLine
 10
644.693
 20
106.046
 30
0.0
 11
646.1219999999999
 21
106.046
 31
0.0
  0
LINE
  5
14C
330
1E
100
AcDbEntity
  8
0
100
AcDbLine
 10
637.2809999999999
 20
106.046
 30
0.0
 11
641.5289999999999
 21
106.046
 31
0.0
  0
LINE
  5
14D
330
1E
100
AcDbEntity
  8
0
100
AcDbLine
 10
632.3009999999999
 20
106.046
 30
0.0
 11
637.2809999999999
 21
106.046
 31
0.0
  0
LINE
  5
14E
330
1E
100
AcDbEntity
  8
0
100
AcDbLine
 10
602.9819999999999
 20
106.046
 30
0.0
 11
629.324
 21
106.046
 31
0.0
  0
LINE
  5
15A
330
1E
100
AcDbEntity
  8
0
100
AcDbLine
 10
272.9979999999999
 20
133.5979999999999
 30
0.0
 11
339.3759999999999
 21
133.6119999999999
 31
0.0
  0
LINE
  5
15B
330
1E
100
AcDbEntity
  8
0
100
AcDbLine
 10
206.622
 20
133.6119999999999
 30
0.0
 11
272.9979999999999
 21
133.5979999999999
 31
0.0
  0
LINE
  5
15F
330
1E
100
AcDbEntity
  8
0
100
AcDbLine
 10
7.097999999999998
 20
133.685
 30
0.0
 11
118.527
 21
133.6649999999999
 31
0.0
  0
LINE
  5
160
330
1E
100
AcDbEntity
  8
0
100
AcDbLine
 10
118.527
 20
133.6649999999999
 30
0.0
 11
206.622
 21
133.6119999999999
 31
0.0
  0
LINE
  5
162
330
1E
100
AcDbEntity
  8
0
100
AcDbLine
 10
169.9924901161429
 20
133.6340371646949
 30
0.0
 11
170.9049999999999
 21
133.866
 31
0.0
  0
LINE
  5
165
330
1E
100
AcDbEntity
  8
0
100
AcDbLine
 10
172.258167629071
 20
135.7710920500259
 30
0.0
 11
173.164
 21
180.412
 31
0.0
  0
LINE
  5
167
330
1E
100
AcDbEntity
  8
0
100
AcDbLine
 10
173.688
 20
182.102
 30
0.0
 11
175.072
 21
183.2029999999999
 31
0.0
  0
LINE
  5
168
330
1E
100
AcDbEntity
  8
0
100
AcDbLine
 10
173.164
 20
180.412
 30
0.0
 11
173.688
 21
182.102
 31
0.0
  0
LINE
  5
16B
330
1E
100
AcDbEntity
  8
0
100
AcDbLine
 10
170.9049999999999
 20
133.866
 30
0.0
 11
172.0069999999999
 21
134.9189999999999
 31
0.0
  0
LINE
  5
181
330
1E
100
AcDbEntity
  8
0
100
AcDbLine
 10
175.072
 20
183.2029999999999
 30
0.0
 11
475.656
 21
183.332
 31
0.0
  0
LINE
  5
182
330
1E
100
AcDbEntity
  8
0
100
AcDbLine
 10
462.426516440361
 20
133.67242562618
 30
0.0
 11
463.011
 21
150.425
 31
0.0
  0
LINE
  5
183
330
1E
100
AcDbEntity
  8
0
100
AcDbLine
 10
427.4709999999999
 20
133.6649999999999
 30
0.0
 11
483.9599999999999
 21
133.677
 31
0.0
  0
LINE
  5
184
330
1E
100
AcDbEntity
  8
0
100
AcDbLine
 10
339.3759999999999
 20
133.6119999999999
 30
0.0
 11
427.4709999999999
 21
133.6649999999999
 31
0.0
  0
LINE
  5
185
330
1E
100
AcDbEntity
  8
0
100
AcDbLine
 10
463.011
 20
150.425
 30
0.0
 11
463.54
 21
152.1039999999999
 31
0.0
  0
LINE
  5
186
330
1E
100
AcDbEntity
  8
0
100
AcDbLine
 10
463.54
 20
152.1039999999999
 30
0.0
 11
464.923
 21
153.1959999999999
 31
0.0
  0
LINE
  5
188
330
1E
100
AcDbEntity
  8
0
100
AcDbLine
 10
464.923
 20
153.1959999999999
 30
0.0
 11
466.679
 21
153.322
 31
0.0
  0
LINE
  5
189
330
1E
100
AcDbEntity
  8
0
100
AcDbLine
 10
466.679
 20
153.322
 30
0.0
 11
592.034
 21
153.322
 31
0.0
  0
LINE
  5
18A
330
1E
100
AcDbEntity
  8
0
100
AcDbLine
 10
493.6209999999999
 20
133.6899999999999
 30
0.0
 11
499.7489999999999
 21
133.6899999999999
 31
0.0
  0
LINE
  5
18B
330
1E
100
AcDbEntity
  8
0
100
AcDbLine
 10
483.9599999999999
 20
133.677
 30
0.0
 11
493.6209999999999
 21
133.6899999999999
 31
0.0
  0
LINE
  5
18C
330
1E
100
AcDbEntity
  8
0
100
AcDbLine
 10
536.331
 20
133.687
 30
0.0
 11
537.3919999999999
 21
133.687
 31
0.0
  0
LINE
  5
18D
330
1E
100
AcDbEntity
  8
0
100
AcDbLine
 10
531.7769999999999
 20
133.685
 30
0.0
 11
536.331
 21
133.687
 31
0.0
  0
LINE
  5
18E
330
1E
100
AcDbEntity
  8
0
100
AcDbLine
 10
529.5059999999999
 20
133.6889999999999
 30
0.0
 11
531.7769999999999
 21
133.685
 31
0.0
  0
LINE
  5
18F
330
1E
100
AcDbEntity
  8
0
100
AcDbLine
 10
524.6269999999999
 20
133.6889999999999
 30
0.0
 11
529.5059999999999
 21
133.6889999999999
 31
0.0
  0
LINE
  5
190
330
1E
100
AcDbEntity
  8
0
100
AcDbLine
 10
518.644
 20
133.6899999999999
 30
0.0
 11
524.6269999999999
 21
133.6889999999999
 31
0.0
  0
LINE
  5
191
330
1E
100
AcDbEntity
  8
0
100
AcDbLine
 10
511.164
 20
133.6899999999999
 30
0.0
 11
518.644
 21
133.6899999999999
 31
0.0
  0
LINE
  5
192
330
1E
100
AcDbEntity
  8
0
100
AcDbLine
 10
505.6569999999999
 20
133.6899999999999
 30
0.0
 11
511.164
 21
133.6899999999999
 31
0.0
  0
LINE
  5
197
330
1E
100
AcDbEntity
  8
0
100
AcDbLine
 10
499.7489999999999
 20
133.6899999999999
 30
0.0
 11
505.6569999999999
 21
133.6899999999999
 31
0.0
  0
LINE
  5
198
330
1E
100
AcDbEntity
  8
0
100
AcDbLine
 10
663.863
 20
128.302
 30
0.0
 11
666.0
 21
106.046
 31
0.0
  0
LINE
  5
199
330
1E
100
AcDbEntity
  8
0
100
AcDbLine
 10
663.0189999999998
 20
150.425
 30
0.0
 11
663.863
 21
128.302
 31
0.0
  0
LINE
  5
1A1
330
1E
100
AcDbEntity
  8
0
100
AcDbLine
 10
592.034
 20
153.322
 30
0.0
 11
658.2889999999999
 21
153.322
 31
0.0
  0
LINE
  5
1A4
330
1E
100
AcDbEntity
  8
0
100
AcDbLine
 10
603.843
 20
153.6909999999999
 30
0.0
 11
605.3023164893621
 21
153.322
 31
0.0
  0
LINE
  5
1AE
330
1E
100
AcDbEntity
  8
0
100
AcDbLine
 10
662.486
 20
152.1039999999999
 30
0.0
 11
663.0189999999998
 21
150.425
 31
0.0
  0
LINE
  5
1AF
330
1E
100
AcDbEntity
  8
0
100
AcDbLine
 10
661.1039999999999
 20
153.1959999999999
 30
0.0
 11
662.486
 21
152.1039999999999
 31
0.0
  0
LINE
  5
1B0
330
1E
100
AcDbEntity
  8
0
100
AcDbLine
 10
659.3469999999999
 20
153.322
 30
0.0
 11
661.1039999999999
 21
153.1959999999999
 31
0.0
  0
LINE
  5
1B1
330
1E
100
AcDbEntity
  8
0
100
AcDbLine
 10
658.2889999999999
 20
153.322
 30
0.0
 11
659.3469999999999
 21
153.322
 31
0.0
  0
LINE
  5
1BB
330
1E
100
AcDbEntity
  8
0
100
AcDbLine
 10
602.835
 20
180.4109999999999
 30
0.0
 11
603.331867537868
 21
154.187043680962
 31
0.0
  0
LINE
  5
1BC
330
1E
100
AcDbEntity
  8
0
100
AcDbLine
 10
602.835
 20
180.4109999999999
 30
0.0
 11
603.331867537868
 21
154.187043680962
 31
0.0
  0
LINE
  5
1BD
330
1E
100
AcDbEntity
  8
0
100
AcDbLine
 10
603.331867537868
 20
154.1870436809621
 30
0.0
 11
603.843
 21
153.6909999999999
 31
0.0
  0
LINE
  5
1C9
330
1E
100
AcDbEntity
  8
0
100
AcDbLine
 10
602.311
 20
182.102
 30
0.0
 11
602.835
 21
180.4109999999999
 31
0.0
  0
LINE
  5
1CA
330
1E
100
AcDbEntity
  8
0
100
AcDbLine
 10
599.164
 20
183.332
 30
0.0
 11
600.927
 21
183.2029999999999
 31
0.0
  0
LINE
  5
1CB
330
1E
100
AcDbEntity
  8
0
100
AcDbLine
 10
600.927
 20
183.2029999999999
 30
0.0
 11
602.311
 21
182.102
 31
0.0
  0
LINE
  5
1DD
330
1E
100
AcDbEntity
  8
0
100
AcDbLine
 10
563.2719999999999
 20
183.332
 30
0.0
 11
599.164
 21
183.332
 31
0.0
  0
LINE
  5
1DE
330
1E
100
AcDbEntity
  8
0
100
AcDbLine
 10
475.656
 20
183.332
 30
0.0
 11
563.2719999999999
 21
183.332
 31
0.0
  0
LINE
  5
1E6
330
1E
100
AcDbEntity
  8
0
  6
Continuous
100
AcDbLine
 10
172.0069999999999
 20
134.9189999999999
 30
0.0
 11
172.258167629071
 21
135.7710920500259
 31
0.0
  0
ENDSEC
  0
SECTION
  2
OBJECTS
  0
DICTIONARY
  5
C
330
0
100
AcDbDictionary
281
     1
  3
ACAD_GROUP
350
D
  3
ACAD_LAYOUT
350
19
  3
ACAD_MLINESTYLE
350
16
  3
ACAD_PLOTSETTINGS
350
18
  3
ACAD_PLOTSTYLENAME
350
E
  3
AcDbVariableDictionary
350
1E8
  0
DICTIONARY
  5
D
102
{ACAD_REACTORS
330
C
102
}
330
C
100
AcDbDictionary
281
     1
  0
DICTIONARY
  5
19
102
{ACAD_REACTORS
330
C
102
}
330
C
100
AcDbDictionary
281
     1
  3
Layout1
350
1D
  3
Model
350
21
  0
DICTIONARY
  5
16
102
{ACAD_REACTORS
330
C
102
}
330
C
100
AcDbDictionary
281
     1
  3
Standard
350
17
  0
DICTIONARY
  5
18
102
{ACAD_REACTORS
330
C
102
}
330
C
100
AcDbDictionary
281
     1
  0
ACDBDICTIONARYWDFLT
  5
E
102
{ACAD_REACTORS
330
C
102
}
330
C
100
AcDbDictionary
281
     1
  3
Normal
350
F
100
AcDbDictionaryWithDefault
340
F
  0
DICTIONARY
  5
1E8
102
{ACAD_REACTORS
330
C
102
}
330
C
100
AcDbDictionary
281
     1
  3
DIMASSOC
350
1E9
  0
LAYOUT
  5
1D
102
{ACAD_REACTORS
330
19
102
}
330
19
100
AcDbPlotSettings
  1

  2
C:\Programme\AutoCAD LT 2002 Deu\plotters\DWF ePlot (optimized for plotting).pc3
  4

  6

 40
0.0
 41
0.0
 42
0.0
 43
0.0
 44
0.0
 45
0.0
 46
0.0
 47
0.0
 48
0.0
 49
0.0
140
0.0
141
0.0
142
1.0
143
1.0
 70
   688
 72
     0
 73
     0
 74
     5
  7

 75
    16
147
1.0
148
0.0
149
0.0
100
AcDbLayout
  1
Layout1
 70
     1
 71
     1
 10
0.0
 20
0.0
 11
12.0
 21
9.0
 12
0.0
 22
0.0
 32
0.0
 14
1.000000000000000E+20
 24
1.000000000000000E+20
 34
1.000000000000000E+20
 15
-1.000000000000000E+20
 25
-1.000000000000000E+20
 35
-1.000000000000000E+20
146
0.0
 13
0.0
 23
0.0
 33
0.0
 16
1.0
 26
0.0
 36
0.0
 17
0.0
 27
1.0
 37
0.0
 76
     0
330
1A
  0
LAYOUT
  5
21
102
{ACAD_REACTORS
330
19
102
}
330
19
100
AcDbPlotSettings
  1

  2
C:\Programme\AutoCAD LT 2002 Deu\plotters\DWF ePlot (optimized for plotting).pc3
  4

  6

 40
0.0
 41
0.0
 42
0.0
 43
0.0
 44
0.0
 45
0.0
 46
0.0
 47
0.0
 48
0.0
 49
0.0
140
0.0
141
0.0
142
1.0
143
1.0
 70
  1712
 72
     0
 73
     0
 74
     0
  7

 75
     0
147
1.0
148
0.0
149
0.0
100
AcDbLayout
  1
Model
 70
     1
 71
     0
 10
0.0
 20
0.0
 11
12.0
 21
9.0
 12
0.0
 22
0.0
 32
0.0
 14
0.0
 24
0.0
 34
0.0
 15
0.0
 25
0.0
 35
0.0
146
0.0
 13
0.0
 23
0.0
 33
0.0
 16
1.0
 26
0.0
 36
0.0
 17
0.0
 27
1.0
 37
0.0
 76
     0
330
1E
  0
MLINESTYLE
  5
17
102
{ACAD_REACTORS
330
16
102
}
330
16
100
AcDbMlineStyle
  2
STANDARD
 70
     0
  3

 62
   256
 51
90.0
 52
90.0
 71
     2
 49
0.5
 62
   256
  6
BYLAYER
 49
-0.5
 62
   256
  6
BYLAYER
  0
ACDBPLACEHOLDER
  5
F
102
{ACAD_REACTORS
330
E
102
}
330
E
  0
DICTIONARYVAR
  5
1E9
102
{ACAD_REACTORS
330
1E8
102
}
330
1E8
100
DictionaryVariables
280
     0
  1
1
  0
ENDSEC
  0
EOF
