  0
SECTION
  2
HEADER
  9
$ACADVER
  1
AC1015
  9
$ACADMAINTVER
 70
    13
  9
$DWGCODEPAGE
  3
ANSI_1252
  9
$INSBASE
 10
0.0
 20
0.0
 30
0.0
  9
$EXTMIN
 10
0.0
 20
0.0000000000000064
 30
0.0
  9
$EXTMAX
 10
866.0
 20
553.0
 30
0.0
  9
$LIMMIN
 10
0.0
 20
0.0
  9
$LIMMAX
 10
12.0
 20
9.0
  9
$ORTHOMODE
 70
     0
  9
$REGENMODE
 70
     1
  9
$FILLMODE
 70
     1
  9
$QTEXTMODE
 70
     0
  9
$MIRRTEXT
 70
     1
  9
$LTSCALE
 40
1.0
  9
$ATTMODE
 70
     1
  9
$TEXTSIZE
 40
0.2
  9
$TRACEWID
 40
0.05
  9
$TEXTSTYLE
  7
Standard
  9
$CLAYER
  8
0
  9
$CELTYPE
  6
Continuous
  9
$CECOLOR
 62
   256
  9
$CELTSCALE
 40
1.0
  9
$DISPSILH
 70
     0
  9
$DIMSCALE
 40
1.0
  9
$DIMASZ
 40
0.18
  9
$DIMEXO
 40
0.0625
  9
$DIMDLI
 40
0.38
  9
$DIMRND
 40
0.0
  9
$DIMDLE
 40
0.0
  9
$DIMEXE
 40
0.18
  9
$DIMTP
 40
0.0
  9
$DIMTM
 40
0.0
  9
$DIMTXT
 40
0.18
  9
$DIMCEN
 40
0.09
  9
$DIMTSZ
 40
0.0
  9
$DIMTOL
 70
     0
  9
$DIMLIM
 70
     0
  9
$DIMTIH
 70
     1
  9
$DIMTOH
 70
     1
  9
$DIMSE1
 70
     0
  9
$DIMSE2
 70
     0
  9
$DIMTAD
 70
     0
  9
$DIMZIN
 70
     0
  9
$DIMBLK
  1

  9
$DIMASO
 70
     1
  9
$DIMSHO
 70
     1
  9
$DIMPOST
  1

  9
$DIMAPOST
  1

  9
$DIMALT
 70
     0
  9
$DIMALTD
 70
     2
  9
$DIMALTF
 40
25.4
  9
$DIMLFAC
 40
1.0
  9
$DIMTOFL
 70
     0
  9
$DIMTVP
 40
0.0
  9
$DIMTIX
 70
     0
  9
$DIMSOXD
 70
     0
  9
$DIMSAH
 70
     0
  9
$DIMBLK1
  1

  9
$DIMBLK2
  1

  9
$DIMSTYLE
  2
Standard
  9
$DIMCLRD
 70
     0
  9
$DIMCLRE
 70
     0
  9
$DIMCLRT
 70
     0
  9
$DIMTFAC
 40
1.0
  9
$DIMGAP
 40
0.09
  9
$DIMJUST
 70
     0
  9
$DIMSD1
 70
     0
  9
$DIMSD2
 70
     0
  9
$DIMTOLJ
 70
     1
  9
$DIMTZIN
 70
     0
  9
$DIMALTZ
 70
     0
  9
$DIMALTTZ
 70
     0
  9
$DIMUPT
 70
     0
  9
$DIMDEC
 70
     4
  9
$DIMTDEC
 70
     4
  9
$DIMALTU
 70
     2
  9
$DIMALTTD
 70
     2
  9
$DIMTXSTY
  7
Standard
  9
$DIMAUNIT
 70
     0
  9
$DIMADEC
 70
     0
  9
$DIMALTRND
 40
0.0
  9
$DIMAZIN
 70
     0
  9
$DIMDSEP
 70
    46
  9
$DIMATFIT
 70
     3
  9
$DIMFRAC
 70
     0
  9
$DIMLDRBLK
  1

  9
$DIMLUNIT
 70
     2
  9
$DIMLWD
 70
    -2
  9
$DIMLWE
 70
    -2
  9
$DIMTMOVE
 70
     0
  9
$LUNITS
 70
     2
  9
$LUPREC
 70
     4
  9
$SKETCHINC
 40
0.1
  9
$FILLETRAD
 40
0.0
  9
$AUNITS
 70
     0
  9
$AUPREC
 70
     0
  9
$MENU
  1
.
  9
$ELEVATION
 40
0.0
  9
$PELEVATION
 40
0.0
  9
$THICKNESS
 40
0.0
  9
$LIMCHECK
 70
     0
  9
$CHAMFERA
 40
0.0
  9
$CHAMFERB
 40
0.0
  9
$CHAMFERC
 40
0.0
  9
$CHAMFERD
 40
0.0
  9
$SKPOLY
 70
     0
  9
$TDCREATE
 40
2455508.463235671
  9
$TDUCREATE
 40
2455508.421569004
  9
$TDUPDATE
 40
2455513.395961725
  9
$TDUUPDATE
 40
2455513.354295057
  9
$TDINDWG
 40
0.0064827431
  9
$TDUSRTIMER
 40
0.0064827431
  9
$USRTIMER
 70
     1
  9
$ANGBASE
 50
0.0
  9
$ANGDIR
 70
     0
  9
$PDMODE
 70
     0
  9
$PDSIZE
 40
0.0
  9
$PLINEWID
 40
0.0
  9
$SPLFRAME
 70
     0
  9
$SPLINETYPE
 70
     6
  9
$SPLINESEGS
 70
     8
  9
$HANDSEED
  5
822
  9
$SURFTAB1
 70
     6
  9
$SURFTAB2
 70
     6
  9
$SURFTYPE
 70
     6
  9
$SURFU
 70
     6
  9
$SURFV
 70
     6
  9
$UCSBASE
  2

  9
$UCSNAME
  2

  9
$UCSORG
 10
0.0
 20
0.0
 30
0.0
  9
$UCSXDIR
 10
1.0
 20
0.0
 30
0.0
  9
$UCSYDIR
 10
0.0
 20
1.0
 30
0.0
  9
$UCSORTHOREF
  2

  9
$UCSORTHOVIEW
 70
     1
  9
$UCSORGTOP
 10
0.0
 20
0.0
 30
0.0
  9
$UCSORGBOTTOM
 10
0.0
 20
0.0
 30
0.0
  9
$UCSORGLEFT
 10
0.0
 20
0.0
 30
0.0
  9
$UCSORGRIGHT
 10
0.0
 20
0.0
 30
0.0
  9
$UCSORGFRONT
 10
0.0
 20
0.0
 30
0.0
  9
$UCSORGBACK
 10
0.0
 20
0.0
 30
0.0
  9
$PUCSBASE
  2

  9
$PUCSNAME
  2

  9
$PUCSORG
 10
0.0
 20
0.0
 30
0.0
  9
$PUCSXDIR
 10
1.0
 20
0.0
 30
0.0
  9
$PUCSYDIR
 10
0.0
 20
1.0
 30
0.0
  9
$PUCSORTHOREF
  2

  9
$PUCSORTHOVIEW
 70
     0
  9
$PUCSORGTOP
 10
0.0
 20
0.0
 30
0.0
  9
$PUCSORGBOTTOM
 10
0.0
 20
0.0
 30
0.0
  9
$PUCSORGLEFT
 10
0.0
 20
0.0
 30
0.0
  9
$PUCSORGRIGHT
 10
0.0
 20
0.0
 30
0.0
  9
$PUCSORGFRONT
 10
0.0
 20
0.0
 30
0.0
  9
$PUCSORGBACK
 10
0.0
 20
0.0
 30
0.0
  9
$USERI1
 70
     0
  9
$USERI2
 70
     0
  9
$USERI3
 70
     0
  9
$USERI4
 70
     0
  9
$USERI5
 70
     0
  9
$USERR1
 40
0.0
  9
$USERR2
 40
0.0
  9
$USERR3
 40
0.0
  9
$USERR4
 40
0.0
  9
$USERR5
 40
0.0
  9
$WORLDVIEW
 70
     1
  9
$SHADEDGE
 70
     3
  9
$SHADEDIF
 70
    70
  9
$TILEMODE
 70
     1
  9
$MAXACTVP
 70
    64
  9
$PINSBASE
 10
0.0
 20
0.0
 30
0.0
  9
$PLIMCHECK
 70
     0
  9
$PEXTMIN
 10
1.000000000000000E+20
 20
1.000000000000000E+20
 30
1.000000000000000E+20
  9
$PEXTMAX
 10
-1.000000000000000E+20
 20
-1.000000000000000E+20
 30
-1.000000000000000E+20
  9
$PLIMMIN
 10
0.0
 20
0.0
  9
$PLIMMAX
 10
12.0
 20
9.0
  9
$UNITMODE
 70
     0
  9
$VISRETAIN
 70
     1
  9
$PLINEGEN
 70
     0
  9
$PSLTSCALE
 70
     1
  9
$TREEDEPTH
 70
  3020
  9
$CMLSTYLE
  2
Standard
  9
$CMLJUST
 70
     0
  9
$CMLSCALE
 40
1.0
  9
$PROXYGRAPHICS
 70
     1
  9
$MEASUREMENT
 70
     0
  9
$CELWEIGHT
370
    -1
  9
$ENDCAPS
280
     0
  9
$JOINSTYLE
280
     0
  9
$LWDISPLAY
290
     0
  9
$INSUNITS
 70
     0
  9
$HYPERLINKBASE
  1

  9
$STYLESHEET
  1

  9
$XEDIT
290
     1
  9
$CEPSNTYPE
380
     0
  9
$PSTYLEMODE
290
     1
  9
$FINGERPRINTGUID
  2
{6D1E579A-DAFC-4C75-8492-689341F2D560}
  9
$VERSIONGUID
  2
{0FCEDF7A-AAB9-4A00-943B-F5ADC7F0C1BD}
  9
$EXTNAMES
290
     1
  9
$PSVPSCALE
 40
0.0
  9
$OLESTARTUP
290
     0
  0
ENDSEC
  0
SECTION
  2
CLASSES
  0
CLASS
  1
ACDBDICTIONARYWDFLT
  2
AcDbDictionaryWithDefault
  3
AutoCAD 2000
 90
        0
280
     0
281
     0
  0
CLASS
  1
ACDBPLACEHOLDER
  2
AcDbPlaceHolder
  3
AutoCAD 2000
 90
        0
280
     0
281
     0
  0
CLASS
  1
LAYOUT
  2
AcDbLayout
  3
AutoCAD 2000
 90
        0
280
     0
281
     0
  0
CLASS
  1
DICTIONARYVAR
  2
AcDbDictionaryVar
  3
AutoCAD 2000
 90
        0
280
     0
281
     0
  0
ENDSEC
  0
SECTION
  2
TABLES
  0
TABLE
  2
VPORT
  5
8
330
0
100
AcDbSymbolTable
 70
     3
  0
VPORT
  5
821
330
8
100
AcDbSymbolTableRecord
100
AcDbViewportTableRecord
  2
*Active
 70
     0
 10
0.0
 20
0.0
 11
1.0
 21
1.0
 12
433.0
 22
276.5
 13
0.0
 23
0.0
 14
1.0
 24
1.0
 15
0.0
 25
0.0
 16
0.0
 26
0.0
 36
1.0
 17
0.0
 27
0.0
 37
0.0
 40
556.7406989853439
 41
2.073363431151241
 42
50.0
 43
0.0
 44
0.0
 50
0.0
 51
0.0
 71
     0
 72
   100
 73
     1
 74
     3
 75
     0
 76
     0
 77
     0
 78
     0
281
     0
 65
     1
110
0.0
120
0.0
130
0.0
111
1.0
121
0.0
131
0.0
112
0.0
122
1.0
132
0.0
 79
     1
146
0.0
  0
ENDTAB
  0
TABLE
  2
LTYPE
  5
5
330
0
100
AcDbSymbolTable
 70
     1
  0
LTYPE
  5
13
330
5
100
AcDbSymbolTableRecord
100
AcDbLinetypeTableRecord
  2
ByBlock
 70
     0
  3

 72
    65
 73
     0
 40
0.0
  0
LTYPE
  5
14
330
5
100
AcDbSymbolTableRecord
100
AcDbLinetypeTableRecord
  2
ByLayer
 70
     0
  3

 72
    65
 73
     0
 40
0.0
  0
LTYPE
  5
15
330
5
100
AcDbSymbolTableRecord
100
AcDbLinetypeTableRecord
  2
Continuous
 70
     0
  3
Solid line
 72
    65
 73
     0
 40
0.0
  0
ENDTAB
  0
TABLE
  2
LAYER
  5
2
330
0
100
AcDbSymbolTable
 70
     1
  0
LAYER
  5
10
330
2
100
AcDbSymbolTableRecord
100
AcDbLayerTableRecord
  2
0
 70
     0
 62
     7
  6
Continuous
370
    -3
390
F
  0
ENDTAB
  0
TABLE
  2
STYLE
  5
3
330
0
100
AcDbSymbolTable
 70
     1
  0
STYLE
  5
11
330
3
100
AcDbSymbolTableRecord
100
AcDbTextStyleTableRecord
  2
Standard
 70
     0
 40
0.0
 41
1.0
 50
0.0
 71
     0
 42
0.2
  3
txt
  4

  0
ENDTAB
  0
TABLE
  2
VIEW
  5
6
330
0
100
AcDbSymbolTable
 70
     0
  0
ENDTAB
  0
TABLE
  2
UCS
  5
7
330
0
100
AcDbSymbolTable
 70
     0
  0
ENDTAB
  0
TABLE
  2
APPID
  5
9
330
0
100
AcDbSymbolTable
 70
     1
  0
APPID
  5
12
330
9
100
AcDbSymbolTableRecord
100
AcDbRegAppTableRecord
  2
ACAD
 70
     0
  0
ENDTAB
  0
TABLE
  2
DIMSTYLE
  5
A
330
0
100
AcDbSymbolTable
 70
     1
100
AcDbDimStyleTable
 71
     0
  0
DIMSTYLE
105
7C5
330
A
100
AcDbSymbolTableRecord
100
AcDbDimStyleTableRecord
  2
Standard
 70
     0
340
11
  0
ENDTAB
  0
TABLE
  2
BLOCK_RECORD
  5
1
330
0
100
AcDbSymbolTable
 70
     1
  0
BLOCK_RECORD
  5
1E
330
1
100
AcDbSymbolTableRecord
100
AcDbBlockTableRecord
  2
*Model_Space
340
21
  0
BLOCK_RECORD
  5
1A
330
1
100
AcDbSymbolTableRecord
100
AcDbBlockTableRecord
  2
*Paper_Space
340
1D
  0
ENDTAB
  0
ENDSEC
  0
SECTION
  2
BLOCKS
  0
BLOCK
  5
1F
330
1E
100
AcDbEntity
  8
0
100
AcDbBlockBegin
  2
*Model_Space
 70
     0
 10
0.0
 20
0.0
 30
0.0
  3
*Model_Space
  1

  0
ENDBLK
  5
20
330
1E
100
AcDbEntity
  8
0
100
AcDbBlockEnd
  0
BLOCK
  5
1B
330
1A
100
AcDbEntity
 67
     1
  8
0
100
AcDbBlockBegin
  2
*Paper_Space
 70
     0
 10
0.0
 20
0.0
 30
0.0
  3
*Paper_Space
  1

  0
ENDBLK
  5
1C
330
1A
100
AcDbEntity
 67
     1
  8
0
100
AcDbBlockEnd
  0
ENDSEC
  0
SECTION
  2
ENTITIES
  0
LINE
  5
22
330
1E
100
AcDbEntity
  8
0
100
AcDbLine
 10
10.844
 20
53.272
 30
0.0
 11
13.928
 21
42.717
 31
0.0
  0
LINE
  5
23
330
1E
100
AcDbEntity
  8
0
100
AcDbLine
 10
13.928
 20
42.717
 30
0.0
 11
19.10999999999999
 21
33.022
 31
0.0
  0
LINE
  5
24
330
1E
100
AcDbEntity
  8
0
100
AcDbLine
 10
9.685999999999999
 20
62.321
 30
0.0
 11
10.844
 21
53.272
 31
0.0
  0
LINE
  5
25
330
1E
100
AcDbEntity
  8
0
100
AcDbLine
 10
3.978999999999999
 20
123.1579999999999
 30
0.0
 11
9.685999999999999
 21
62.321
 31
0.0
  0
LINE
  5
26
330
1E
100
AcDbEntity
  8
0
100
AcDbLine
 10
0.7530000000000001
 20
184.18
 30
0.0
 11
3.978999999999999
 21
123.1579999999999
 31
0.0
  0
LINE
  5
27
330
1E
100
AcDbEntity
  8
0
100
AcDbLine
 10
0.0
 20
245.2739999999999
 30
0.0
 11
1.730999999999999
 21
306.354
 31
0.0
  0
LINE
  5
28
330
1E
100
AcDbEntity
  8
0
100
AcDbLine
 10
0.0
 20
245.2739999999999
 30
0.0
 11
0.7530000000000001
 21
184.18
 31
0.0
  0
LINE
  5
29
330
1E
100
AcDbEntity
  8
0
100
AcDbLine
 10
19.10999999999999
 20
33.022
 30
0.0
 11
26.177
 21
24.60199999999999
 31
0.0
  0
LINE
  5
2A
330
1E
100
AcDbEntity
  8
0
100
AcDbLine
 10
26.177
 20
24.60199999999999
 30
0.0
 11
35.207
 21
17.595
 31
0.0
  0
LINE
  5
2B
330
1E
100
AcDbEntity
  8
0
100
AcDbLine
 10
35.207
 20
17.595
 30
0.0
 11
45.523
 21
12.689
 31
0.0
  0
LINE
  5
2C
330
1E
100
AcDbEntity
  8
0
100
AcDbLine
 10
45.523
 20
12.689
 30
0.0
 11
56.65600000000001
 21
10.10599999999999
 31
0.0
  0
LINE
  5
2F
330
1E
100
AcDbEntity
  8
0
100
AcDbLine
 10
373.043
 20
0.0000000000000065
 30
0.0
 11
443.5909999999999
 21
0.501000000000007
 31
0.0
  0
LINE
  5
30
330
1E
100
AcDbEntity
  8
0
100
AcDbLine
 10
260.2219999999999
 20
1.271000000000009
 30
0.0
 11
373.043
 21
0.0000000000000064
 31
0.0
  0
LINE
  5
31
330
1E
100
AcDbEntity
  8
0
100
AcDbLine
 10
260.2219999999999
 20
1.271000000000009
 30
0.0
 11
373.043
 21
0.0000000000000065
 31
0.0
  0
LINE
  5
32
330
1E
100
AcDbEntity
  8
0
100
AcDbLine
 10
443.5909999999999
 20
0.5010000000000061
 30
0.0
 11
555.689
 21
3.337000000000009
 31
0.0
  0
LINE
  5
33
330
1E
100
AcDbEntity
  8
0
100
AcDbLine
 10
443.5909999999999
 20
0.501000000000007
 30
0.0
 11
555.689
 21
3.337000000000009
 31
0.0
  0
LINE
  5
34
330
1E
100
AcDbEntity
  8
0
100
AcDbLine
 10
373.043
 20
0.0000000000000065
 30
0.0
 11
443.5909999999999
 21
0.501000000000007
 31
0.0
  0
LINE
  5
35
330
1E
100
AcDbEntity
  8
0
100
AcDbLine
 10
165.615
 20
4.302000000000009
 30
0.0
 11
260.2219999999999
 21
1.271000000000009
 31
0.0
  0
LINE
  5
36
330
1E
100
AcDbEntity
  8
0
100
AcDbLine
 10
165.615
 20
4.302000000000009
 30
0.0
 11
260.2219999999999
 21
1.271000000000009
 31
0.0
  0
LINE
  5
37
330
1E
100
AcDbEntity
  8
0
100
AcDbLine
 10
71.08
 20
9.122000000000008
 30
0.0
 11
165.615
 21
4.302000000000009
 31
0.0
  0
LINE
  5
38
330
1E
100
AcDbEntity
  8
0
100
AcDbLine
 10
60.868
 20
9.75100000000001
 30
0.0
 11
71.08
 21
9.122000000000008
 31
0.0
  0
LINE
  5
39
330
1E
100
AcDbEntity
  8
0
100
AcDbLine
 10
56.65600000000001
 20
10.10599999999999
 30
0.0
 11
60.868
 21
9.75100000000001
 31
0.0
  0
LINE
  5
3A
330
1E
100
AcDbEntity
  8
0
100
AcDbLine
 10
555.689
 20
3.337000000000009
 30
0.0
 11
675.0119999999999
 21
9.124000000000009
 31
0.0
  0
LINE
  5
3B
330
1E
100
AcDbEntity
  8
0
100
AcDbLine
 10
350.184
 20
259.3159999999999
 30
0.0
 11
354.329
 21
256.5129999999999
 31
0.0
  0
LINE
  5
3C
330
1E
100
AcDbEntity
  8
0
100
AcDbLine
 10
354.329
 20
256.5129999999999
 30
0.0
 11
358.671
 21
254.421
 31
0.0
  0
LINE
  5
3D
330
1E
100
AcDbEntity
  8
0
100
AcDbLine
 10
358.671
 20
254.421
 30
0.0
 11
363.329
 21
252.842
 31
0.0
  0
LINE
  5
3E
330
1E
100
AcDbEntity
  8
0
100
AcDbLine
 10
363.329
 20
252.842
 30
0.0
 11
368.105
 21
251.895
 31
0.0
  0
LINE
  5
3F
330
1E
100
AcDbEntity
  8
0
100
AcDbLine
 10
399.4869999999999
 20
262.5129999999999
 30
0.0
 11
402.6839999999999
 21
266.184
 31
0.0
  0
LINE
  5
40
330
1E
100
AcDbEntity
  8
0
100
AcDbLine
 10
395.8159999999999
 20
259.3159999999999
 30
0.0
 11
399.4869999999999
 21
262.5129999999999
 31
0.0
  0
LINE
  5
41
330
1E
100
AcDbEntity
  8
0
100
AcDbLine
 10
391.671
 20
256.5129999999999
 30
0.0
 11
395.8159999999999
 21
259.3159999999999
 31
0.0
  0
LINE
  5
42
330
1E
100
AcDbEntity
  8
0
100
AcDbLine
 10
387.329
 20
254.421
 30
0.0
 11
391.671
 21
256.5129999999999
 31
0.0
  0
LINE
  5
43
330
1E
100
AcDbEntity
  8
0
100
AcDbLine
 10
382.6709999999999
 20
252.842
 30
0.0
 11
387.329
 21
254.421
 31
0.0
  0
LINE
  5
44
330
1E
100
AcDbEntity
  8
0
100
AcDbLine
 10
377.895
 20
251.895
 30
0.0
 11
382.6709999999999
 21
252.842
 31
0.0
  0
LINE
  5
45
330
1E
100
AcDbEntity
  8
0
100
AcDbLine
 10
373.0
 20
251.5
 30
0.0
 11
377.895
 21
251.895
 31
0.0
  0
LINE
  5
46
330
1E
100
AcDbEntity
  8
0
100
AcDbLine
 10
368.105
 20
251.895
 30
0.0
 11
373.0
 21
251.5
 31
0.0
  0
LINE
  5
47
330
1E
100
AcDbEntity
  8
0
100
AcDbLine
 10
402.6839999999999
 20
266.184
 30
0.0
 11
405.4869999999999
 21
270.3289999999999
 31
0.0
  0
LINE
  5
48
330
1E
100
AcDbEntity
  8
0
100
AcDbLine
 10
405.4869999999999
 20
270.3289999999999
 30
0.0
 11
407.579
 21
274.6709999999999
 31
0.0
  0
LINE
  5
49
330
1E
100
AcDbEntity
  8
0
100
AcDbLine
 10
407.579
 20
274.6709999999999
 30
0.0
 11
409.158
 21
279.329
 31
0.0
  0
LINE
  5
4A
330
1E
100
AcDbEntity
  8
0
100
AcDbLine
 10
343.3159999999999
 20
266.184
 30
0.0
 11
346.513
 21
262.5129999999999
 31
0.0
  0
LINE
  5
4B
330
1E
100
AcDbEntity
  8
0
100
AcDbLine
 10
346.513
 20
262.5129999999999
 30
0.0
 11
350.184
 21
259.3159999999999
 31
0.0
  0
LINE
  5
4C
330
1E
100
AcDbEntity
  8
0
100
AcDbLine
 10
340.513
 20
270.3289999999999
 30
0.0
 11
343.3159999999999
 21
266.184
 31
0.0
  0
LINE
  5
4D
330
1E
100
AcDbEntity
  8
0
100
AcDbLine
 10
409.158
 20
279.329
 30
0.0
 11
410.1049999999999
 21
284.105
 31
0.0
  0
LINE
  5
4E
330
1E
100
AcDbEntity
  8
0
100
AcDbLine
 10
410.1049999999999
 20
284.105
 30
0.0
 11
410.5
 21
289.0
 31
0.0
  0
LINE
  5
4F
330
1E
100
AcDbEntity
  8
0
100
AcDbLine
 10
338.4209999999999
 20
274.6709999999999
 30
0.0
 11
340.513
 21
270.3289999999999
 31
0.0
  0
LINE
  5
50
330
1E
100
AcDbEntity
  8
0
100
AcDbLine
 10
336.8419999999999
 20
279.329
 30
0.0
 11
338.4209999999999
 21
274.6709999999999
 31
0.0
  0
LINE
  5
51
330
1E
100
AcDbEntity
  8
0
100
AcDbLine
 10
335.895
 20
284.105
 30
0.0
 11
336.8419999999999
 21
279.329
 31
0.0
  0
LINE
  5
53
330
1E
100
AcDbEntity
  8
0
100
AcDbLine
 10
4.831
 20
354.3099999999999
 30
0.0
 11
10.14799999999999
 21
408.189
 31
0.0
  0
LINE
  5
54
330
1E
100
AcDbEntity
  8
0
100
AcDbLine
 10
1.730999999999999
 20
306.354
 30
0.0
 11
4.831
 21
354.3099999999999
 31
0.0
  0
LINE
  5
55
330
1E
100
AcDbEntity
  8
0
100
AcDbLine
 10
343.3159999999999
 20
311.8159999999999
 30
0.0
 11
346.513
 21
315.487
 31
0.0
  0
LINE
  5
56
330
1E
100
AcDbEntity
  8
0
100
AcDbLine
 10
340.513
 20
307.6709999999999
 30
0.0
 11
343.3159999999999
 21
311.8159999999999
 31
0.0
  0
LINE
  5
57
330
1E
100
AcDbEntity
  8
0
100
AcDbLine
 10
338.4209999999999
 20
303.329
 30
0.0
 11
340.513
 21
307.6709999999999
 31
0.0
  0
LINE
  5
58
330
1E
100
AcDbEntity
  8
0
100
AcDbLine
 10
336.8419999999999
 20
298.671
 30
0.0
 11
338.4209999999999
 21
303.329
 31
0.0
  0
LINE
  5
59
330
1E
100
AcDbEntity
  8
0
100
AcDbLine
 10
335.895
 20
293.8949999999999
 30
0.0
 11
336.8419999999999
 21
298.671
 31
0.0
  0
LINE
  5
5A
330
1E
100
AcDbEntity
  8
0
100
AcDbLine
 10
346.513
 20
315.487
 30
0.0
 11
350.184
 21
318.684
 31
0.0
  0
LINE
  5
5B
330
1E
100
AcDbEntity
  8
0
100
AcDbLine
 10
350.184
 20
318.684
 30
0.0
 11
354.329
 21
321.487
 31
0.0
  0
LINE
  5
5C
330
1E
100
AcDbEntity
  8
0
100
AcDbLine
 10
354.329
 20
321.487
 30
0.0
 11
358.671
 21
323.579
 31
0.0
  0
LINE
  5
5D
330
1E
100
AcDbEntity
  8
0
100
AcDbLine
 10
358.671
 20
323.579
 30
0.0
 11
363.329
 21
325.158
 31
0.0
  0
LINE
  5
5E
330
1E
100
AcDbEntity
  8
0
100
AcDbLine
 10
363.329
 20
325.158
 30
0.0
 11
368.105
 21
326.105
 31
0.0
  0
LINE
  5
5F
330
1E
100
AcDbEntity
  8
0
100
AcDbLine
 10
395.8159999999999
 20
318.684
 30
0.0
 11
399.4869999999999
 21
315.487
 31
0.0
  0
LINE
  5
60
330
1E
100
AcDbEntity
  8
0
100
AcDbLine
 10
391.671
 20
321.487
 30
0.0
 11
395.8159999999999
 21
318.684
 31
0.0
  0
LINE
  5
61
330
1E
100
AcDbEntity
  8
0
100
AcDbLine
 10
387.329
 20
323.579
 30
0.0
 11
391.671
 21
321.487
 31
0.0
  0
LINE
  5
62
330
1E
100
AcDbEntity
  8
0
100
AcDbLine
 10
382.6709999999999
 20
325.158
 30
0.0
 11
387.329
 21
323.579
 31
0.0
  0
LINE
  5
63
330
1E
100
AcDbEntity
  8
0
100
AcDbLine
 10
377.895
 20
326.105
 30
0.0
 11
382.6709999999999
 21
325.158
 31
0.0
  0
LINE
  5
64
330
1E
100
AcDbEntity
  8
0
100
AcDbLine
 10
399.4869999999999
 20
315.487
 30
0.0
 11
402.6839999999999
 21
311.8159999999999
 31
0.0
  0
LINE
  5
65
330
1E
100
AcDbEntity
  8
0
100
AcDbLine
 10
402.6839999999999
 20
311.8159999999999
 30
0.0
 11
405.4869999999999
 21
307.6709999999999
 31
0.0
  0
LINE
  5
66
330
1E
100
AcDbEntity
  8
0
100
AcDbLine
 10
405.4869999999999
 20
307.6709999999999
 30
0.0
 11
407.579
 21
303.329
 31
0.0
  0
LINE
  5
67
330
1E
100
AcDbEntity
  8
0
100
AcDbLine
 10
407.579
 20
303.329
 30
0.0
 11
409.158
 21
298.671
 31
0.0
  0
LINE
  5
68
330
1E
100
AcDbEntity
  8
0
100
AcDbLine
 10
409.158
 20
298.671
 30
0.0
 11
410.1049999999999
 21
293.8949999999999
 31
0.0
  0
LINE
  5
69
330
1E
100
AcDbEntity
  8
0
100
AcDbLine
 10
410.1049999999999
 20
293.8949999999999
 30
0.0
 11
410.5
 21
289.0
 31
0.0
  0
LINE
  5
6A
330
1E
100
AcDbEntity
  8
0
100
AcDbLine
 10
373.0
 20
326.5
 30
0.0
 11
377.895
 21
326.105
 31
0.0
  0
LINE
  5
6B
330
1E
100
AcDbEntity
  8
0
100
AcDbLine
 10
368.105
 20
326.105
 30
0.0
 11
373.0
 21
326.5
 31
0.0
  0
LINE
  5
6C
330
1E
100
AcDbEntity
  8
0
100
AcDbLine
 10
335.4999999999999
 20
289.0
 30
0.0
 11
335.895
 21
284.105
 31
0.0
  0
LINE
  5
6D
330
1E
100
AcDbEntity
  8
0
100
AcDbLine
 10
335.4999999999999
 20
289.0
 30
0.0
 11
335.895
 21
293.8949999999999
 31
0.0
  0
LINE
  5
70
330
1E
100
AcDbEntity
  8
0
100
AcDbLine
 10
640.864
 20
285.6539999999999
 30
0.0
 11
641.356
 21
310.912
 31
0.0
  0
LINE
  5
71
330
1E
100
AcDbEntity
  8
0
100
AcDbLine
 10
640.864
 20
285.6539999999999
 30
0.0
 11
641.073
 21
260.3489999999999
 31
0.0
  0
LINE
  5
72
330
1E
100
AcDbEntity
  8
0
100
AcDbLine
 10
700.5589999999999
 20
12.689
 30
0.0
 11
710.878
 21
17.598
 31
0.0
  0
LINE
  5
73
330
1E
100
AcDbEntity
  8
0
100
AcDbLine
 10
710.878
 20
17.598
 30
0.0
 11
719.9019999999999
 21
24.60199999999999
 31
0.0
  0
LINE
  5
74
330
1E
100
AcDbEntity
  8
0
100
AcDbLine
 10
689.4339999999999
 20
10.10399999999999
 30
0.0
 11
700.5589999999999
 21
12.689
 31
0.0
  0
LINE
  5
75
330
1E
100
AcDbEntity
  8
0
100
AcDbLine
 10
685.2189999999999
 20
9.753000000000008
 30
0.0
 11
689.4339999999999
 21
10.10399999999999
 31
0.0
  0
LINE
  5
76
330
1E
100
AcDbEntity
  8
0
100
AcDbLine
 10
675.0119999999999
 20
9.124000000000009
 30
0.0
 11
685.2189999999999
 21
9.753000000000008
 31
0.0
  0
LINE
  5
78
330
1E
100
AcDbEntity
  8
0
100
AcDbLine
 10
650.957
 20
152.6929999999999
 30
0.0
 11
655.684
 21
145.067
 31
0.0
  0
LINE
  5
D8
330
1E
100
AcDbEntity
  8
0
100
AcDbLine
 10
655.684
 20
145.067
 30
0.0
 11
662.427
 21
139.013
 31
0.0
  0
LINE
  5
D9
330
1E
100
AcDbEntity
  8
0
100
AcDbLine
 10
662.427
 20
139.013
 30
0.0
 11
670.5739999999999
 21
135.117
 31
0.0
  0
LINE
  5
DA
330
1E
100
AcDbEntity
  8
0
100
AcDbLine
 10
641.356
 20
310.912
 30
0.0
 11
642.511
 21
335.824
 31
0.0
  0
LINE
  5
DB
330
1E
100
AcDbEntity
  8
0
100
AcDbLine
 10
10.14799999999999
 20
408.189
 30
0.0
 11
11.91999999999999
 21
417.846
 31
0.0
  0
LINE
  5
DC
330
1E
100
AcDbEntity
  8
0
100
AcDbLine
 10
29.76599999999999
 20
444.9919999999999
 30
0.0
 11
36.38199999999999
 21
449.5359999999999
 31
0.0
  0
LINE
  5
DD
330
1E
100
AcDbEntity
  8
0
100
AcDbLine
 10
23.919
 20
439.5019999999999
 30
0.0
 11
29.76599999999999
 21
444.9919999999999
 31
0.0
  0
LINE
  5
DE
330
1E
100
AcDbEntity
  8
0
100
AcDbLine
 10
16.637
 20
429.3859999999999
 30
0.0
 11
23.919
 21
439.5019999999999
 31
0.0
  0
LINE
  5
DF
330
1E
100
AcDbEntity
  8
0
100
AcDbLine
 10
11.91999999999999
 20
417.846
 30
0.0
 11
16.637
 21
429.3859999999999
 31
0.0
  0
LINE
  5
E0
330
1E
100
AcDbEntity
  8
0
100
AcDbLine
 10
36.38199999999999
 20
449.5359999999999
 30
0.0
 11
43.608
 21
453.0339999999999
 31
0.0
  0
LINE
  5
E1
330
1E
100
AcDbEntity
  8
0
100
AcDbLine
 10
51.269
 20
455.3939999999999
 30
0.0
 11
62.636
 21
456.794
 31
0.0
  0
LINE
  5
E2
330
1E
100
AcDbEntity
  8
0
100
AcDbLine
 10
127.5179999999999
 20
460.4
 30
0.0
 11
248.747
 21
464.89
 31
0.0
  0
LINE
  5
E3
330
1E
100
AcDbEntity
  8
0
100
AcDbLine
 10
62.636
 20
456.794
 30
0.0
 11
127.5179999999999
 21
460.4
 31
0.0
  0
LINE
  5
E5
330
1E
100
AcDbEntity
  8
0
100
AcDbLine
 10
43.608
 20
453.0339999999999
 30
0.0
 11
51.269
 21
455.3939999999999
 31
0.0
  0
LINE
  5
103
330
1E
100
AcDbEntity
  8
0
100
AcDbLine
 10
280.4599999999999
 20
466.127
 30
0.0
 11
281.3329999999999
 21
467.17
 31
0.0
  0
LINE
  5
104
330
1E
100
AcDbEntity
  8
0
100
AcDbLine
 10
278.7529999999999
 20
465.544
 30
0.0
 11
280.4599999999999
 21
466.127
 31
0.0
  0
LINE
  5
105
330
1E
100
AcDbEntity
  8
0
100
AcDbLine
 10
248.747
 20
464.89
 30
0.0
 11
278.7529999999999
 21
465.544
 31
0.0
  0
LINE
  5
109
330
1E
100
AcDbEntity
  8
0
100
AcDbLine
 10
281.6809999999999
 20
468.4919999999999
 30
0.0
 11
283.9929999999999
 21
497.0530000000001
 31
0.0
  0
LINE
  5
10A
330
1E
100
AcDbEntity
  8
0
100
AcDbLine
 10
281.3329999999999
 20
467.17
 30
0.0
 11
281.6809999999999
 21
468.4919999999999
 31
0.0
  0
LINE
  5
10B
330
1E
100
AcDbEntity
  8
0
100
AcDbLine
 10
286.2219999999999
 20
505.2929999999999
 30
0.0
 11
290.5699999999999
 21
512.6369999999999
 31
0.0
  0
LINE
  5
10C
330
1E
100
AcDbEntity
  8
0
100
AcDbLine
 10
283.9929999999999
 20
497.0530000000001
 30
0.0
 11
286.2219999999999
 21
505.2929999999999
 31
0.0
  0
LINE
  5
10D
330
1E
100
AcDbEntity
  8
0
100
AcDbLine
 10
290.5699999999999
 20
512.6369999999999
 30
0.0
 11
296.7399999999999
 21
518.5399999999999
 31
0.0
  0
LINE
  5
10E
330
1E
100
AcDbEntity
  8
0
100
AcDbLine
 10
296.7399999999999
 20
518.5399999999999
 30
0.0
 11
304.735
 21
522.745
 31
0.0
  0
LINE
  5
178
330
1E
100
AcDbEntity
  8
0
100
AcDbLine
 10
313.6
 20
524.5109999999999
 30
0.0
 11
418.299
 21
528.6249999999999
 31
0.0
  0
LINE
  5
179
330
1E
100
AcDbEntity
  8
0
100
AcDbLine
 10
418.299
 20
528.6249999999999
 30
0.0
 11
523.075
 21
530.0
 31
0.0
  0
LINE
  5
17A
330
1E
100
AcDbEntity
  8
0
100
AcDbLine
 10
304.735
 20
522.745
 30
0.0
 11
313.6
 21
524.5109999999999
 31
0.0
  0
LINE
  5
44F
330
1E
100
AcDbEntity
  8
0
100
AcDbLine
 10
627.8509999999999
 20
528.6249999999999
 30
0.0
 11
732.558
 21
524.5109999999999
 31
0.0
  0
LINE
  5
452
330
1E
100
AcDbEntity
  8
0
100
AcDbLine
 10
523.075
 20
530.0
 30
0.0
 11
627.8509999999999
 21
528.6249999999999
 31
0.0
  0
LINE
  5
457
330
1E
100
AcDbEntity
  8
0
100
AcDbLine
 10
719.9019999999999
 20
24.60199999999999
 30
0.0
 11
726.973
 21
33.021
 31
0.0
  0
LINE
  5
459
330
1E
100
AcDbEntity
  8
0
100
AcDbLine
 10
732.164
 20
42.715
 30
0.0
 11
735.241
 21
53.272
 31
0.0
  0
LINE
  5
45A
330
1E
100
AcDbEntity
  8
0
100
AcDbLine
 10
726.973
 20
33.021
 30
0.0
 11
732.164
 21
42.715
 31
0.0
  0
LINE
  5
45B
330
1E
100
AcDbEntity
  8
0
100
AcDbLine
 10
742.3760000000001
 20
126.912
 30
0.0
 11
742.7760000000001
 21
128.191
 31
0.0
  0
LINE
  5
45C
330
1E
100
AcDbEntity
  8
0
100
AcDbLine
 10
742.7760000000001
 20
128.191
 30
0.0
 11
743.69
 21
129.157
 31
0.0
  0
LINE
  5
45D
330
1E
100
AcDbEntity
  8
0
100
AcDbLine
 10
745.3789999999998
 20
129.6499999999999
 30
0.0
 11
753.1360000000001
 21
129.6229999999999
 31
0.0
  0
LINE
  5
45E
330
1E
100
AcDbEntity
  8
0
100
AcDbLine
 10
743.69
 20
129.157
 30
0.0
 11
745.3789999999998
 21
129.6499999999999
 31
0.0
  0
LINE
  5
45F
330
1E
100
AcDbEntity
  8
0
100
AcDbLine
 10
736.4069999999999
 20
62.321
 30
0.0
 11
742.3760000000001
 21
126.912
 31
0.0
  0
LINE
  5
460
330
1E
100
AcDbEntity
  8
0
100
AcDbLine
 10
735.241
 20
53.272
 30
0.0
 11
736.4069999999999
 21
62.321
 31
0.0
  0
LINE
  5
4A8
330
1E
100
AcDbEntity
  8
0
100
AcDbLine
 10
732.4930000000001
 20
393.593
 30
0.0
 11
737.8680000000001
 21
394.6219999999999
 31
0.0
  0
LINE
  5
4AA
330
1E
100
AcDbEntity
  8
0
100
AcDbLine
 10
753.1360000000001
 20
129.6229999999999
 30
0.0
 11
790.8549999999999
 21
130.33
 31
0.0
  0
LINE
  5
4AB
330
1E
100
AcDbEntity
  8
0
100
AcDbLine
 10
790.8549999999999
 20
130.33
 30
0.0
 11
828.5239999999998
 21
132.462
 31
0.0
  0
LINE
  5
7A0
330
1E
100
AcDbEntity
  8
0
100
AcDbLine
 10
844.345
 20
137.9099999999999
 30
0.0
 11
850.7100000000001
 21
143.452
 31
0.0
  0
LINE
  5
7A1
330
1E
100
AcDbEntity
  8
0
100
AcDbLine
 10
836.7829999999999
 20
134.1599999999999
 30
0.0
 11
844.345
 21
137.9099999999999
 31
0.0
  0
LINE
  5
7A2
330
1E
100
AcDbEntity
  8
0
100
AcDbLine
 10
855.4639999999999
 20
150.429
 30
0.0
 11
858.811
 21
161.406
 31
0.0
  0
LINE
  5
7A3
330
1E
100
AcDbEntity
  8
0
100
AcDbLine
 10
858.811
 20
161.406
 30
0.0
 11
863.733
 21
212.932
 31
0.0
  0
LINE
  5
7A4
330
1E
100
AcDbEntity
  8
0
100
AcDbLine
 10
863.733
 20
212.932
 30
0.0
 11
866.0
 21
264.6399999999999
 31
0.0
  0
LINE
  5
7A5
330
1E
100
AcDbEntity
  8
0
100
AcDbLine
 10
865.6
 20
316.4049999999999
 30
0.0
 11
866.0
 21
264.6399999999999
 31
0.0
  0
LINE
  5
7A6
330
1E
100
AcDbEntity
  8
0
100
AcDbLine
 10
863.1629999999999
 20
360.338
 30
0.0
 11
865.6
 21
316.4049999999999
 31
0.0
  0
LINE
  5
7A7
330
1E
100
AcDbEntity
  8
0
100
AcDbLine
 10
850.7100000000001
 20
143.452
 30
0.0
 11
855.4639999999999
 21
150.429
 31
0.0
  0
LINE
  5
7A8
330
1E
100
AcDbEntity
  8
0
100
AcDbLine
 10
828.5239999999998
 20
132.462
 30
0.0
 11
836.7829999999999
 21
134.1599999999999
 31
0.0
  0
LINE
  5
7AA
330
1E
100
AcDbEntity
  8
0
100
AcDbLine
 10
746.178
 20
397.981
 30
0.0
 11
751.108
 21
401.285
 31
0.0
  0
LINE
  5
7AB
330
1E
100
AcDbEntity
  8
0
100
AcDbLine
 10
742.4589999999999
 20
395.8439999999999
 30
0.0
 11
746.178
 21
397.981
 31
0.0
  0
LINE
  5
7AC
330
1E
100
AcDbEntity
  8
0
100
AcDbLine
 10
737.8680000000001
 20
394.6219999999999
 30
0.0
 11
742.4589999999999
 21
395.8439999999999
 31
0.0
  0
LINE
  5
7AD
330
1E
100
AcDbEntity
  8
0
100
AcDbLine
 10
732.558
 20
524.5109999999999
 30
0.0
 11
741.416
 21
522.745
 31
0.0
  0
LINE
  5
7AE
330
1E
100
AcDbEntity
  8
0
100
AcDbLine
 10
741.416
 20
522.745
 30
0.0
 11
749.4229999999999
 21
518.5399999999999
 31
0.0
  0
LINE
  5
7AF
330
1E
100
AcDbEntity
  8
0
100
AcDbLine
 10
751.108
 20
401.285
 30
0.0
 11
753.125
 21
403.6469999999999
 31
0.0
  0
LINE
  5
7B0
330
1E
100
AcDbEntity
  8
0
100
AcDbLine
 10
764.0249999999999
 20
438.5569999999999
 30
0.0
 11
764.5
 21
437.174
 31
0.0
  0
LINE
  5
7B1
330
1E
100
AcDbEntity
  8
0
100
AcDbLine
 10
764.5
 20
437.174
 30
0.0
 11
765.559
 21
436.183
 31
0.0
  0
LINE
  5
7B2
330
1E
100
AcDbEntity
  8
0
100
AcDbLine
 10
764.021
 20
439.013
 30
0.0
 11
764.4919999999999
 21
468.078
 31
0.0
  0
LINE
  5
7B3
330
1E
100
AcDbEntity
  8
0
100
AcDbLine
 10
764.021
 20
439.013
 30
0.0
 11
764.0249999999999
 21
438.5569999999999
 31
0.0
  0
LINE
  5
7B4
330
1E
100
AcDbEntity
  8
0
100
AcDbLine
 10
762.166
 20
497.0530000000001
 30
0.0
 11
764.4919999999999
 21
468.078
 31
0.0
  0
LINE
  5
7B5
330
1E
100
AcDbEntity
  8
0
100
AcDbLine
 10
753.125
 20
403.6469999999999
 30
0.0
 11
757.4559999999999
 21
409.295
 31
0.0
  0
LINE
  5
7B6
330
1E
100
AcDbEntity
  8
0
100
AcDbLine
 10
858.811
 20
404.1209999999999
 30
0.0
 11
863.1629999999999
 21
360.338
 31
0.0
  0
LINE
  5
7B7
330
1E
100
AcDbEntity
  8
0
100
AcDbLine
 10
828.5199999999999
 20
433.0659999999999
 30
0.0
 11
839.6289999999998
 21
430.231
 31
0.0
  0
LINE
  5
7B8
330
1E
100
AcDbEntity
  8
0
100
AcDbLine
 10
766.9589999999999
 20
435.808
 30
0.0
 11
828.5199999999999
 21
433.0659999999999
 31
0.0
  0
LINE
  5
7B9
330
1E
100
AcDbEntity
  8
0
100
AcDbLine
 10
846.812
 20
425.803
 30
0.0
 11
852.637
 21
419.6909999999999
 31
0.0
  0
LINE
  5
7BA
330
1E
100
AcDbEntity
  8
0
100
AcDbLine
 10
852.637
 20
419.6909999999999
 30
0.0
 11
856.723
 21
412.3059999999999
 31
0.0
  0
LINE
  5
7BB
330
1E
100
AcDbEntity
  8
0
100
AcDbLine
 10
839.6289999999998
 20
430.231
 30
0.0
 11
846.812
 21
425.803
 31
0.0
  0
LINE
  5
7BC
330
1E
100
AcDbEntity
  8
0
100
AcDbLine
 10
856.723
 20
412.3059999999999
 30
0.0
 11
858.811
 21
404.1209999999999
 31
0.0
  0
LINE
  5
7BD
330
1E
100
AcDbEntity
  8
0
100
AcDbLine
 10
765.559
 20
436.183
 30
0.0
 11
766.9589999999999
 21
435.808
 31
0.0
  0
LINE
  5
7BE
330
1E
100
AcDbEntity
  8
0
100
AcDbLine
 10
755.581
 20
512.6369999999999
 30
0.0
 11
759.941
 21
505.2929999999999
 31
0.0
  0
LINE
  5
7BF
330
1E
100
AcDbEntity
  8
0
100
AcDbLine
 10
749.4229999999999
 20
518.5399999999999
 30
0.0
 11
755.581
 21
512.6369999999999
 31
0.0
  0
LINE
  5
7C0
330
1E
100
AcDbEntity
  8
0
100
AcDbLine
 10
759.941
 20
505.2929999999999
 30
0.0
 11
762.166
 21
497.0530000000001
 31
0.0
  0
LINE
  5
7C9
330
1E
100
AcDbEntity
  8
0
  6
Continuous
100
AcDbLine
 10
281.6809999999999
 20
468.4919999999999
 30
0.0
 11
281.569
 21
462.152
 31
0.0
  0
LINE
  5
7CA
330
1E
100
AcDbEntity
  8
0
  6
Continuous
100
AcDbLine
 10
281.569
 20
462.152
 30
0.0
 11
282.4884083945753
 21
444.4952233748781
 31
0.0
  0
LINE
  5
7CB
330
1E
100
AcDbEntity
  8
0
  6
Continuous
100
AcDbLine
 10
282.4884083945753
 20
444.4952233748781
 30
0.0
 11
283.5134416822075
 21
431.2854224837263
 31
0.0
  0
LINE
  5
7CC
330
1E
100
AcDbEntity
  8
0
  6
Continuous
100
AcDbLine
 10
283.5134416822075
 20
431.2854224837263
 30
0.0
 11
284.4900027681651
 21
419.9174372745696
 31
0.0
  0
LINE
  5
7CD
330
1E
100
AcDbEntity
  8
0
  6
Continuous
100
AcDbLine
 10
284.4900027681651
 20
419.9174372745696
 30
0.0
 11
286.23553780367
 21
409.5593755023806
 31
0.0
  0
LINE
  5
7CE
330
1E
100
AcDbEntity
  8
0
  6
Continuous
100
AcDbLine
 10
286.23553780367
 20
409.5593755023806
 30
0.0
 11
289.6573177149893
 21
399.8232501238942
 31
0.0
  0
LINE
  5
7CF
330
1E
100
AcDbEntity
  8
0
  6
Continuous
100
AcDbLine
 10
289.6573177149893
 20
399.8232501238942
 30
0.0
 11
297.2439179062175
 21
392.2410795388159
 31
0.0
  0
LINE
  5
7D0
330
1E
100
AcDbEntity
  8
0
  6
Continuous
100
AcDbLine
 10
297.2439179062175
 20
392.2410795388159
 30
0.0
 11
306.9981152082628
 21
389.5331610290199
 31
0.0
  0
LINE
  5
7D1
330
1E
100
AcDbEntity
  8
0
  6
Continuous
100
AcDbLine
 10
306.9981152082628
 20
389.5331610290199
 30
0.0
 11
330.5707614787011
 21
388.7207848549064
 31
0.0
  0
LINE
  5
7D2
330
1E
100
AcDbEntity
  8
0
  6
Continuous
100
AcDbLine
 10
330.5707614787011
 20
388.7207848549064
 30
0.0
 11
397.7663517651354
 21
389.5331610290199
 31
0.0
  0
LINE
  5
7D3
330
1E
100
AcDbEntity
  8
0
  6
Continuous
100
AcDbLine
 10
397.7663517651354
 20
389.5331610290199
 30
0.0
 11
478.509438161308
 21
389.2623685568658
 31
0.0
  0
LINE
  5
7D4
330
1E
100
AcDbEntity
  8
0
  6
Continuous
100
AcDbLine
 10
478.509438161308
 20
389.2623685568658
 30
0.0
 11
554.7711615848511
 21
389.6818280442371
 31
0.0
  0
LINE
  5
7D5
330
1E
100
AcDbEntity
  8
0
  6
Continuous
100
AcDbLine
 10
554.7711615848511
 20
389.6818280442371
 30
0.0
 11
632.6943393973338
 21
391.0443303166182
 31
0.0
  0
LINE
  5
7D6
330
1E
100
AcDbEntity
  8
0
  6
Continuous
100
AcDbLine
 10
632.6943393973338
 20
391.0443303166182
 30
0.0
 11
710.7610199639616
 21
393.0522257867594
 31
0.0
  0
LINE
  5
7D7
330
1E
100
AcDbEntity
  8
0
  6
Continuous
100
AcDbLine
 10
710.7610199639616
 20
393.0522257867594
 30
0.0
 11
732.4930000000001
 21
393.593
 31
0.0
  0
LINE
  5
7D8
330
1E
100
AcDbEntity
  8
0
  6
Continuous
100
AcDbLine
 10
757.4559999999999
 20
409.295
 30
0.0
 11
760.9877489399596
 21
417.6489589618349
 31
0.0
  0
LINE
  5
7D9
330
1E
100
AcDbEntity
  8
0
  6
Continuous
100
AcDbLine
 10
760.9877489399596
 20
417.6489589618349
 30
0.0
 11
762.9250657431071
 21
429.5529174218558
 31
0.0
  0
LINE
  5
7DA
330
1E
100
AcDbEntity
  8
0
  6
Continuous
100
AcDbLine
 10
762.9250657431071
 20
429.5529174218558
 30
0.0
 11
764.0249999999999
 21
438.5569999999999
 31
0.0
  0
LINE
  5
7DB
330
1E
100
AcDbEntity
  8
0
  6
Continuous
100
AcDbLine
 10
642.511
 20
335.824
 30
0.0
 11
646.1098287374134
 21
391.2252909690717
 31
0.0
  0
LINE
  5
7DC
330
1E
100
AcDbEntity
  8
0
  6
Continuous
100
AcDbLine
 10
670.5739999999999
 20
135.117
 30
0.0
 11
707.5232324729645
 21
132.1629129235273
 31
0.0
  0
LINE
  5
7DD
330
1E
100
AcDbEntity
  8
0
  6
Continuous
100
AcDbLine
 10
707.5232324729645
 20
132.1629129235273
 30
0.0
 11
745.3789999999998
 21
129.6499999999999
 31
0.0
  0
LINE
  5
7DE
330
1E
100
AcDbEntity
  8
0
  6
Continuous
100
AcDbLine
 10
641.073
 20
260.3489999999999
 30
0.0
 11
643.971799721135
 21
176.0010670451501
 31
0.0
  0
LINE
  5
7DF
330
1E
100
AcDbEntity
  8
0
  6
Continuous
100
AcDbLine
 10
643.971799721135
 20
176.0010670451501
 30
0.0
 11
645.8815550109484
 21
164.5492244758399
 31
0.0
  0
LINE
  5
7E0
330
1E
100
AcDbEntity
  8
0
  6
Continuous
100
AcDbLine
 10
645.8815550109484
 20
164.5492244758399
 30
0.0
 11
650.957
 21
152.6929999999999
 31
0.0
  0
LINE
  5
807
330
1E
100
AcDbEntity
  8
0
100
AcDbLine
 10
208.3279999999999
 20
553.0
 30
0.0
 11
657.4479999999998
 21
553.0
 31
0.0
  0
LINE
  5
808
330
1E
100
AcDbEntity
  8
0
100
AcDbLine
 10
202.0
 20
484.501
 30
0.0
 11
202.0
 21
553.0
 31
0.0
  0
LINE
  5
809
330
1E
100
AcDbEntity
  8
0
100
AcDbLine
 10
202.0
 20
553.0
 30
0.0
 11
202.0
 21
484.501
 31
0.0
  0
LINE
  5
80A
330
1E
100
AcDbEntity
  8
0
100
AcDbLine
 10
194.1049999999997
 20
467.1859999999999
 30
0.0
 11
196.9059999999999
 21
470.005
 31
0.0
  0
LINE
  5
80B
330
1E
100
AcDbEntity
  8
0
100
AcDbLine
 10
189.5889999999999
 20
464.336
 30
0.0
 11
194.1049999999997
 21
467.1859999999999
 31
0.0
  0
LINE
  5
80C
330
1E
100
AcDbEntity
  8
0
100
AcDbLine
 10
196.9059999999999
 20
470.005
 30
0.0
 11
200.6459999999999
 21
476.642
 31
0.0
  0
LINE
  5
80D
330
1E
100
AcDbEntity
  8
0
100
AcDbLine
 10
200.6459999999999
 20
476.642
 30
0.0
 11
202.0
 21
484.501
 31
0.0
  0
LINE
  5
80E
330
1E
100
AcDbEntity
  8
0
100
AcDbLine
 10
204.5269999999998
 20
553.0
 30
0.0
 11
205.3329999999998
 21
553.0
 31
0.0
  0
LINE
  5
80F
330
1E
100
AcDbEntity
  8
0
100
AcDbLine
 10
202.0
 20
553.0
 30
0.0
 11
202.3309999999999
 21
553.0
 31
0.0
  0
LINE
  5
810
330
1E
100
AcDbEntity
  8
0
100
AcDbLine
 10
202.3309999999999
 20
553.0
 30
0.0
 11
204.5269999999998
 21
553.0
 31
0.0
  0
LINE
  5
811
330
1E
100
AcDbEntity
  8
0
100
AcDbLine
 10
205.3329999999998
 20
553.0
 30
0.0
 11
205.7349999999999
 21
553.0
 31
0.0
  0
LINE
  5
812
330
1E
100
AcDbEntity
  8
0
100
AcDbLine
 10
205.7349999999999
 20
553.0
 30
0.0
 11
206.8319999999999
 21
553.0
 31
0.0
  0
LINE
  5
813
330
1E
100
AcDbEntity
  8
0
100
AcDbLine
 10
206.8319999999999
 20
553.0
 30
0.0
 11
208.3279999999999
 21
553.0
 31
0.0
  0
LINE
  5
814
330
1E
100
AcDbEntity
  8
0
100
AcDbLine
 10
189.5889999999999
 20
464.336
 30
0.0
 11
183.5844220650665
 21
462.5473362952134
 31
0.0
  0
LINE
  5
815
330
1E
100
AcDbEntity
  8
0
100
AcDbLine
 10
667.5339999999998
 20
537.2040000000001
 30
0.0
 11
670.2249999999999
 21
533.915
 31
0.0
  0
LINE
  5
816
330
1E
100
AcDbEntity
  8
0
100
AcDbLine
 10
663.7789999999999
 20
549.83
 30
0.0
 11
665.1009999999996
 21
542.0880000000001
 31
0.0
  0
LINE
  5
817
330
1E
100
AcDbEntity
  8
0
100
AcDbLine
 10
665.1009999999996
 20
542.0880000000001
 30
0.0
 11
667.5339999999998
 21
537.2040000000001
 31
0.0
  0
LINE
  5
818
330
1E
100
AcDbEntity
  8
0
100
AcDbLine
 10
660.0439999999998
 20
553.0
 30
0.0
 11
663.4459999999998
 21
553.0
 31
0.0
  0
LINE
  5
819
330
1E
100
AcDbEntity
  8
0
100
AcDbLine
 10
657.4479999999998
 20
553.0
 30
0.0
 11
658.9469999999998
 21
553.0
 31
0.0
  0
LINE
  5
81A
330
1E
100
AcDbEntity
  8
0
100
AcDbLine
 10
658.9469999999998
 20
553.0
 30
0.0
 11
660.0439999999998
 21
553.0
 31
0.0
  0
LINE
  5
81B
330
1E
100
AcDbEntity
  8
0
100
AcDbLine
 10
663.7789999999999
 20
553.0
 30
0.0
 11
663.7789999999999
 21
549.83
 31
0.0
  0
LINE
  5
81C
330
1E
100
AcDbEntity
  8
0
100
AcDbLine
 10
663.7789999999999
 20
549.83
 30
0.0
 11
663.7789999999999
 21
553.0
 31
0.0
  0
LINE
  5
81D
330
1E
100
AcDbEntity
  8
0
100
AcDbLine
 10
663.4459999999998
 20
553.0
 30
0.0
 11
663.7789999999999
 21
553.0
 31
0.0
  0
LINE
  5
81E
330
1E
100
AcDbEntity
  8
0
100
AcDbLine
 10
676.19
 20
529.754
 30
0.0
 11
684.5589999999997
 21
526.396909117824
 31
0.0
  0
LINE
  5
81F
330
1E
100
AcDbEntity
  8
0
100
AcDbLine
 10
670.2249999999999
 20
533.915
 30
0.0
 11
676.19
 21
529.754
 31
0.0
  0
ENDSEC
  0
SECTION
  2
OBJECTS
  0
DICTIONARY
  5
C
330
0
100
AcDbDictionary
281
     1
  3
ACAD_GROUP
350
D
  3
ACAD_LAYOUT
350
19
  3
ACAD_MLINESTYLE
350
16
  3
ACAD_PLOTSETTINGS
350
18
  3
ACAD_PLOTSTYLENAME
350
E
  3
AcDbVariableDictionary
350
7E2
  0
DICTIONARY
  5
D
102
{ACAD_REACTORS
330
C
102
}
330
C
100
AcDbDictionary
281
     1
  0
DICTIONARY
  5
19
102
{ACAD_REACTORS
330
C
102
}
330
C
100
AcDbDictionary
281
     1
  3
Layout1
350
1D
  3
Model
350
21
  0
DICTIONARY
  5
16
102
{ACAD_REACTORS
330
C
102
}
330
C
100
AcDbDictionary
281
     1
  3
Standard
350
17
  0
DICTIONARY
  5
18
102
{ACAD_REACTORS
330
C
102
}
330
C
100
AcDbDictionary
281
     1
  0
ACDBDICTIONARYWDFLT
  5
E
102
{ACAD_REACTORS
330
C
102
}
330
C
100
AcDbDictionary
281
     1
  3
Normal
350
F
100
AcDbDictionaryWithDefault
340
F
  0
DICTIONARY
  5
7E2
102
{ACAD_REACTORS
330
C
102
}
330
C
100
AcDbDictionary
281
     1
  3
DIMASSOC
350
7E3
  0
LAYOUT
  5
1D
102
{ACAD_REACTORS
330
19
102
}
330
19
100
AcDbPlotSettings
  1

  2
C:\Programme\AutoCAD LT 2002 Deu\plotters\DWF ePlot (optimized for plotting).pc3
  4

  6

 40
0.0
 41
0.0
 42
0.0
 43
0.0
 44
0.0
 45
0.0
 46
0.0
 47
0.0
 48
0.0
 49
0.0
140
0.0
141
0.0
142
1.0
143
1.0
 70
   688
 72
     0
 73
     0
 74
     5
  7

 75
    16
147
1.0
148
0.0
149
0.0
100
AcDbLayout
  1
Layout1
 70
     1
 71
     1
 10
0.0
 20
0.0
 11
12.0
 21
9.0
 12
0.0
 22
0.0
 32
0.0
 14
1.000000000000000E+20
 24
1.000000000000000E+20
 34
1.000000000000000E+20
 15
-1.000000000000000E+20
 25
-1.000000000000000E+20
 35
-1.000000000000000E+20
146
0.0
 13
0.0
 23
0.0
 33
0.0
 16
1.0
 26
0.0
 36
0.0
 17
0.0
 27
1.0
 37
0.0
 76
     0
330
1A
  0
LAYOUT
  5
21
102
{ACAD_REACTORS
330
19
102
}
330
19
100
AcDbPlotSettings
  1

  2
C:\Programme\AutoCAD LT 2002 Deu\plotters\DWF ePlot (optimized for plotting).pc3
  4

  6

 40
0.0
 41
0.0
 42
0.0
 43
0.0
 44
0.0
 45
0.0
 46
0.0
 47
0.0
 48
0.0
 49
0.0
140
0.0
141
0.0
142
1.0
143
1.0
 70
  1712
 72
     0
 73
     0
 74
     0
  7

 75
     0
147
1.0
148
0.0
149
0.0
100
AcDbLayout
  1
Model
 70
     1
 71
     0
 10
0.0
 20
0.0
 11
12.0
 21
9.0
 12
0.0
 22
0.0
 32
0.0
 14
0.0
 24
0.0
 34
0.0
 15
0.0
 25
0.0
 35
0.0
146
0.0
 13
0.0
 23
0.0
 33
0.0
 16
1.0
 26
0.0
 36
0.0
 17
0.0
 27
1.0
 37
0.0
 76
     0
330
1E
  0
MLINESTYLE
  5
17
102
{ACAD_REACTORS
330
16
102
}
330
16
100
AcDbMlineStyle
  2
STANDARD
 70
     0
  3

 62
   256
 51
90.0
 52
90.0
 71
     2
 49
0.5
 62
   256
  6
BYLAYER
 49
-0.5
 62
   256
  6
BYLAYER
  0
ACDBPLACEHOLDER
  5
F
102
{ACAD_REACTORS
330
E
102
}
330
E
  0
DICTIONARYVAR
  5
7E3
102
{ACAD_REACTORS
330
7E2
102
}
330
7E2
100
DictionaryVariables
280
     0
  1
1
  0
ENDSEC
  0
EOF
