  0
SECTION
  2
HEADER
  9
$ACADVER
  1
AC1015
  9
$ACADMAINTVER
 70
    13
  9
$DWGCODEPAGE
  3
ANSI_1252
  9
$INSBASE
 10
0.0
 20
0.0
 30
0.0
  9
$EXTMIN
 10
0.0000000000000064
 20
0.0000000000000089
 30
0.0
  9
$EXTMAX
 10
530.0
 20
183.404
 30
0.0
  9
$LIMMIN
 10
0.0
 20
0.0
  9
$LIMMAX
 10
12.0
 20
9.0
  9
$ORTHOMODE
 70
     0
  9
$REGENMODE
 70
     1
  9
$FILLMODE
 70
     1
  9
$QTEXTMODE
 70
     0
  9
$MIRRTEXT
 70
     1
  9
$LTSCALE
 40
1.0
  9
$ATTMODE
 70
     1
  9
$TEXTSIZE
 40
0.2
  9
$TRACEWID
 40
0.05
  9
$TEXTSTYLE
  7
Standard
  9
$CLAYER
  8
0
  9
$CELTYPE
  6
Continuous
  9
$CECOLOR
 62
   256
  9
$CELTSCALE
 40
1.0
  9
$DISPSILH
 70
     0
  9
$DIMSCALE
 40
1.0
  9
$DIMASZ
 40
0.18
  9
$DIMEXO
 40
0.0625
  9
$DIMDLI
 40
0.38
  9
$DIMRND
 40
0.0
  9
$DIMDLE
 40
0.0
  9
$DIMEXE
 40
0.18
  9
$DIMTP
 40
0.0
  9
$DIMTM
 40
0.0
  9
$DIMTXT
 40
0.18
  9
$DIMCEN
 40
0.09
  9
$DIMTSZ
 40
0.0
  9
$DIMTOL
 70
     0
  9
$DIMLIM
 70
     0
  9
$DIMTIH
 70
     1
  9
$DIMTOH
 70
     1
  9
$DIMSE1
 70
     0
  9
$DIMSE2
 70
     0
  9
$DIMTAD
 70
     0
  9
$DIMZIN
 70
     0
  9
$DIMBLK
  1

  9
$DIMASO
 70
     1
  9
$DIMSHO
 70
     1
  9
$DIMPOST
  1

  9
$DIMAPOST
  1

  9
$DIMALT
 70
     0
  9
$DIMALTD
 70
     2
  9
$DIMALTF
 40
25.4
  9
$DIMLFAC
 40
1.0
  9
$DIMTOFL
 70
     0
  9
$DIMTVP
 40
0.0
  9
$DIMTIX
 70
     0
  9
$DIMSOXD
 70
     0
  9
$DIMSAH
 70
     0
  9
$DIMBLK1
  1

  9
$DIMBLK2
  1

  9
$DIMSTYLE
  2
Standard
  9
$DIMCLRD
 70
     0
  9
$DIMCLRE
 70
     0
  9
$DIMCLRT
 70
     0
  9
$DIMTFAC
 40
1.0
  9
$DIMGAP
 40
0.09
  9
$DIMJUST
 70
     0
  9
$DIMSD1
 70
     0
  9
$DIMSD2
 70
     0
  9
$DIMTOLJ
 70
     1
  9
$DIMTZIN
 70
     0
  9
$DIMALTZ
 70
     0
  9
$DIMALTTZ
 70
     0
  9
$DIMUPT
 70
     0
  9
$DIMDEC
 70
     4
  9
$DIMTDEC
 70
     4
  9
$DIMALTU
 70
     2
  9
$DIMALTTD
 70
     2
  9
$DIMTXSTY
  7
Standard
  9
$DIMAUNIT
 70
     0
  9
$DIMADEC
 70
     0
  9
$DIMALTRND
 40
0.0
  9
$DIMAZIN
 70
     0
  9
$DIMDSEP
 70
    46
  9
$DIMATFIT
 70
     3
  9
$DIMFRAC
 70
     0
  9
$DIMLDRBLK
  1

  9
$DIMLUNIT
 70
     2
  9
$DIMLWD
 70
    -2
  9
$DIMLWE
 70
    -2
  9
$DIMTMOVE
 70
     0
  9
$LUNITS
 70
     2
  9
$LUPREC
 70
     4
  9
$SKETCHINC
 40
0.1
  9
$FILLETRAD
 40
0.0
  9
$AUNITS
 70
     0
  9
$AUPREC
 70
     0
  9
$MENU
  1
.
  9
$ELEVATION
 40
0.0
  9
$PELEVATION
 40
0.0
  9
$THICKNESS
 40
0.0
  9
$LIMCHECK
 70
     0
  9
$CHAMFERA
 40
0.0
  9
$CHAMFERB
 40
0.0
  9
$CHAMFERC
 40
0.0
  9
$CHAMFERD
 40
0.0
  9
$SKPOLY
 70
     0
  9
$TDCREATE
 40
2455508.445016447
  9
$TDUCREATE
 40
2455508.403349780
  9
$TDUPDATE
 40
2455508.452798564
  9
$TDUUPDATE
 40
2455508.411131898
  9
$TDINDWG
 40
0.0077821181
  9
$TDUSRTIMER
 40
0.0077821181
  9
$USRTIMER
 70
     1
  9
$ANGBASE
 50
0.0
  9
$ANGDIR
 70
     0
  9
$PDMODE
 70
     0
  9
$PDSIZE
 40
0.0
  9
$PLINEWID
 40
0.0
  9
$SPLFRAME
 70
     0
  9
$SPLINETYPE
 70
     6
  9
$SPLINESEGS
 70
     8
  9
$HANDSEED
  5
19C
  9
$SURFTAB1
 70
     6
  9
$SURFTAB2
 70
     6
  9
$SURFTYPE
 70
     6
  9
$SURFU
 70
     6
  9
$SURFV
 70
     6
  9
$UCSBASE
  2

  9
$UCSNAME
  2

  9
$UCSORG
 10
0.0
 20
0.0
 30
0.0
  9
$UCSXDIR
 10
1.0
 20
0.0
 30
0.0
  9
$UCSYDIR
 10
0.0
 20
1.0
 30
0.0
  9
$UCSORTHOREF
  2

  9
$UCSORTHOVIEW
 70
     1
  9
$UCSORGTOP
 10
0.0
 20
0.0
 30
0.0
  9
$UCSORGBOTTOM
 10
0.0
 20
0.0
 30
0.0
  9
$UCSORGLEFT
 10
0.0
 20
0.0
 30
0.0
  9
$UCSORGRIGHT
 10
0.0
 20
0.0
 30
0.0
  9
$UCSORGFRONT
 10
0.0
 20
0.0
 30
0.0
  9
$UCSORGBACK
 10
0.0
 20
0.0
 30
0.0
  9
$PUCSBASE
  2

  9
$PUCSNAME
  2

  9
$PUCSORG
 10
0.0
 20
0.0
 30
0.0
  9
$PUCSXDIR
 10
1.0
 20
0.0
 30
0.0
  9
$PUCSYDIR
 10
0.0
 20
1.0
 30
0.0
  9
$PUCSORTHOREF
  2

  9
$PUCSORTHOVIEW
 70
     0
  9
$PUCSORGTOP
 10
0.0
 20
0.0
 30
0.0
  9
$PUCSORGBOTTOM
 10
0.0
 20
0.0
 30
0.0
  9
$PUCSORGLEFT
 10
0.0
 20
0.0
 30
0.0
  9
$PUCSORGRIGHT
 10
0.0
 20
0.0
 30
0.0
  9
$PUCSORGFRONT
 10
0.0
 20
0.0
 30
0.0
  9
$PUCSORGBACK
 10
0.0
 20
0.0
 30
0.0
  9
$USERI1
 70
     0
  9
$USERI2
 70
     0
  9
$USERI3
 70
     0
  9
$USERI4
 70
     0
  9
$USERI5
 70
     0
  9
$USERR1
 40
0.0
  9
$USERR2
 40
0.0
  9
$USERR3
 40
0.0
  9
$USERR4
 40
0.0
  9
$USERR5
 40
0.0
  9
$WORLDVIEW
 70
     1
  9
$SHADEDGE
 70
     3
  9
$SHADEDIF
 70
    70
  9
$TILEMODE
 70
     1
  9
$MAXACTVP
 70
    64
  9
$PINSBASE
 10
0.0
 20
0.0
 30
0.0
  9
$PLIMCHECK
 70
     0
  9
$PEXTMIN
 10
1.000000000000000E+20
 20
1.000000000000000E+20
 30
1.000000000000000E+20
  9
$PEXTMAX
 10
-1.000000000000000E+20
 20
-1.000000000000000E+20
 30
-1.000000000000000E+20
  9
$PLIMMIN
 10
0.0
 20
0.0
  9
$PLIMMAX
 10
12.0
 20
9.0
  9
$UNITMODE
 70
     0
  9
$VISRETAIN
 70
     1
  9
$PLINEGEN
 70
     0
  9
$PSLTSCALE
 70
     1
  9
$TREEDEPTH
 70
  3020
  9
$CMLSTYLE
  2
Standard
  9
$CMLJUST
 70
     0
  9
$CMLSCALE
 40
1.0
  9
$PROXYGRAPHICS
 70
     1
  9
$MEASUREMENT
 70
     0
  9
$CELWEIGHT
370
    -1
  9
$ENDCAPS
280
     0
  9
$JOINSTYLE
280
     0
  9
$LWDISPLAY
290
     0
  9
$INSUNITS
 70
     0
  9
$HYPERLINKBASE
  1

  9
$STYLESHEET
  1

  9
$XEDIT
290
     1
  9
$CEPSNTYPE
380
     0
  9
$PSTYLEMODE
290
     1
  9
$FINGERPRINTGUID
  2
{7C2A3D3D-2EA9-4EE5-AF75-1D2C0018F7C6}
  9
$VERSIONGUID
  2
{65AC7BB7-CDB9-4B5A-A56A-77833E3F2510}
  9
$EXTNAMES
290
     1
  9
$PSVPSCALE
 40
0.0
  9
$OLESTARTUP
290
     0
  0
ENDSEC
  0
SECTION
  2
CLASSES
  0
CLASS
  1
ACDBDICTIONARYWDFLT
  2
AcDbDictionaryWithDefault
  3
AutoCAD 2000
 90
        0
280
     0
281
     0
  0
CLASS
  1
ACDBPLACEHOLDER
  2
AcDbPlaceHolder
  3
AutoCAD 2000
 90
        0
280
     0
281
     0
  0
CLASS
  1
LAYOUT
  2
AcDbLayout
  3
AutoCAD 2000
 90
        0
280
     0
281
     0
  0
CLASS
  1
DICTIONARYVAR
  2
AcDbDictionaryVar
  3
AutoCAD 2000
 90
        0
280
     0
281
     0
  0
ENDSEC
  0
SECTION
  2
TABLES
  0
TABLE
  2
VPORT
  5
8
330
0
100
AcDbSymbolTable
 70
     3
  0
VPORT
  5
19B
330
8
100
AcDbSymbolTableRecord
100
AcDbViewportTableRecord
  2
*Active
 70
     0
 10
0.0
 20
0.0
 11
1.0
 21
1.0
 12
265.0
 22
91.70200000000003
 13
0.0
 23
0.0
 14
1.0
 24
1.0
 15
0.0
 25
0.0
 16
0.0
 26
0.0
 36
1.0
 17
0.0
 27
0.0
 37
0.0
 40
256.4577601153416
 41
2.073363431151241
 42
50.0
 43
0.0
 44
0.0
 50
0.0
 51
0.0
 71
     0
 72
   100
 73
     1
 74
     3
 75
     0
 76
     0
 77
     0
 78
     0
281
     0
 65
     1
110
0.0
120
0.0
130
0.0
111
1.0
121
0.0
131
0.0
112
0.0
122
1.0
132
0.0
 79
     1
146
0.0
  0
ENDTAB
  0
TABLE
  2
LTYPE
  5
5
330
0
100
AcDbSymbolTable
 70
     1
  0
LTYPE
  5
13
330
5
100
AcDbSymbolTableRecord
100
AcDbLinetypeTableRecord
  2
ByBlock
 70
     0
  3

 72
    65
 73
     0
 40
0.0
  0
LTYPE
  5
14
330
5
100
AcDbSymbolTableRecord
100
AcDbLinetypeTableRecord
  2
ByLayer
 70
     0
  3

 72
    65
 73
     0
 40
0.0
  0
LTYPE
  5
15
330
5
100
AcDbSymbolTableRecord
100
AcDbLinetypeTableRecord
  2
Continuous
 70
     0
  3
Solid line
 72
    65
 73
     0
 40
0.0
  0
ENDTAB
  0
TABLE
  2
LAYER
  5
2
330
0
100
AcDbSymbolTable
 70
     1
  0
LAYER
  5
10
330
2
100
AcDbSymbolTableRecord
100
AcDbLayerTableRecord
  2
0
 70
     0
 62
     7
  6
Continuous
370
    -3
390
F
  0
ENDTAB
  0
TABLE
  2
STYLE
  5
3
330
0
100
AcDbSymbolTable
 70
     1
  0
STYLE
  5
11
330
3
100
AcDbSymbolTableRecord
100
AcDbTextStyleTableRecord
  2
Standard
 70
     0
 40
0.0
 41
1.0
 50
0.0
 71
     0
 42
0.2
  3
txt
  4

  0
ENDTAB
  0
TABLE
  2
VIEW
  5
6
330
0
100
AcDbSymbolTable
 70
     0
  0
ENDTAB
  0
TABLE
  2
UCS
  5
7
330
0
100
AcDbSymbolTable
 70
     0
  0
ENDTAB
  0
TABLE
  2
APPID
  5
9
330
0
100
AcDbSymbolTable
 70
     1
  0
APPID
  5
12
330
9
100
AcDbSymbolTableRecord
100
AcDbRegAppTableRecord
  2
ACAD
 70
     0
  0
ENDTAB
  0
TABLE
  2
DIMSTYLE
  5
A
330
0
100
AcDbSymbolTable
 70
     1
100
AcDbDimStyleTable
 71
     0
  0
DIMSTYLE
105
191
330
A
100
AcDbSymbolTableRecord
100
AcDbDimStyleTableRecord
  2
Standard
 70
     0
340
11
  0
ENDTAB
  0
TABLE
  2
BLOCK_RECORD
  5
1
330
0
100
AcDbSymbolTable
 70
     0
  0
BLOCK_RECORD
  5
1E
330
1
100
AcDbSymbolTableRecord
100
AcDbBlockTableRecord
  2
*Model_Space
340
21
  0
BLOCK_RECORD
  5
1A
330
1
100
AcDbSymbolTableRecord
100
AcDbBlockTableRecord
  2
*Paper_Space
340
1D
  0
ENDTAB
  0
ENDSEC
  0
SECTION
  2
BLOCKS
  0
BLOCK
  5
1F
330
1E
100
AcDbEntity
  8
0
100
AcDbBlockBegin
  2
*Model_Space
 70
     0
 10
0.0
 20
0.0
 30
0.0
  3
*Model_Space
  1

  0
ENDBLK
  5
20
330
1E
100
AcDbEntity
  8
0
100
AcDbBlockEnd
  0
BLOCK
  5
1B
330
1A
100
AcDbEntity
 67
     1
  8
0
100
AcDbBlockBegin
  2
*Paper_Space
 70
     0
 10
0.0
 20
0.0
 30
0.0
  3
*Paper_Space
  1

  0
ENDBLK
  5
1C
330
1A
100
AcDbEntity
 67
     1
  8
0
100
AcDbBlockEnd
  0
ENDSEC
  0
SECTION
  2
ENTITIES
  0
LINE
  5
22
330
1E
100
AcDbEntity
  8
0
100
AcDbLine
 10
0.0000000000000065
 20
106.047
 30
0.0
 11
0.501000000000007
 21
106.047
 31
0.0
  0
LINE
  5
23
330
1E
100
AcDbEntity
  8
0
100
AcDbLine
 10
0.5010000000000061
 20
106.047
 30
0.0
 11
3.337000000000009
 21
106.047
 31
0.0
  0
LINE
  5
24
330
1E
100
AcDbEntity
  8
0
100
AcDbLine
 10
1.271000000000009
 20
106.047
 30
0.0
 11
4.302000000000009
 21
106.047
 31
0.0
  0
LINE
  5
25
330
1E
100
AcDbEntity
  8
0
100
AcDbLine
 10
1.271000000000009
 20
106.047
 30
0.0
 11
4.302000000000009
 21
106.047
 31
0.0
  0
LINE
  5
26
330
1E
100
AcDbEntity
  8
0
100
AcDbLine
 10
4.302000000000009
 20
106.047
 30
0.0
 11
9.122000000000008
 21
106.047
 31
0.0
  0
LINE
  5
27
330
1E
100
AcDbEntity
  8
0
100
AcDbLine
 10
9.122000000000008
 20
106.047
 30
0.0
 11
9.75100000000001
 21
106.047
 31
0.0
  0
LINE
  5
28
330
1E
100
AcDbEntity
  8
0
100
AcDbLine
 10
0.501000000000007
 20
106.047
 30
0.0
 11
3.337000000000009
 21
106.047
 31
0.0
  0
LINE
  5
29
330
1E
100
AcDbEntity
  8
0
100
AcDbLine
 10
0.0000000000000064
 20
106.047
 30
0.0
 11
2.06200000000001
 21
118.311
 31
0.0
  0
LINE
  5
2A
330
1E
100
AcDbEntity
  8
0
100
AcDbLine
 10
0.0000000000000064
 20
106.047
 30
0.0
 11
1.271000000000009
 21
106.047
 31
0.0
  0
LINE
  5
2B
330
1E
100
AcDbEntity
  8
0
100
AcDbLine
 10
0.0000000000000065
 20
106.047
 30
0.0
 11
0.501000000000007
 21
106.047
 31
0.0
  0
LINE
  5
2C
330
1E
100
AcDbEntity
  8
0
100
AcDbLine
 10
0.0000000000000065
 20
106.047
 30
0.0
 11
2.06200000000001
 21
118.311
 31
0.0
  0
LINE
  5
2D
330
1E
100
AcDbEntity
  8
0
100
AcDbLine
 10
0.0000000000000065
 20
106.047
 30
0.0
 11
1.271000000000009
 21
106.047
 31
0.0
  0
LINE
  5
2E
330
1E
100
AcDbEntity
  8
0
100
AcDbLine
 10
9.75100000000001
 20
106.047
 30
0.0
 11
10.10599999999999
 21
106.047
 31
0.0
  0
LINE
  5
2F
330
1E
100
AcDbEntity
  8
0
100
AcDbLine
 10
10.10599999999999
 20
106.047
 30
0.0
 11
12.689
 21
106.047
 31
0.0
  0
LINE
  5
30
330
1E
100
AcDbEntity
  8
0
100
AcDbLine
 10
12.689
 20
106.047
 30
0.0
 11
17.598
 21
106.047
 31
0.0
  0
LINE
  5
31
330
1E
100
AcDbEntity
  8
0
100
AcDbLine
 10
12.689
 20
106.047
 30
0.0
 11
17.595
 21
106.047
 31
0.0
  0
LINE
  5
32
330
1E
100
AcDbEntity
  8
0
100
AcDbLine
 10
10.10399999999999
 20
106.047
 30
0.0
 11
12.689
 21
106.047
 31
0.0
  0
LINE
  5
33
330
1E
100
AcDbEntity
  8
0
100
AcDbLine
 10
9.753000000000008
 20
106.047
 30
0.0
 11
10.10399999999999
 21
106.047
 31
0.0
  0
LINE
  5
34
330
1E
100
AcDbEntity
  8
0
100
AcDbLine
 10
9.124000000000009
 20
106.047
 30
0.0
 11
9.753000000000008
 21
106.047
 31
0.0
  0
LINE
  5
35
330
1E
100
AcDbEntity
  8
0
100
AcDbLine
 10
3.337000000000009
 20
106.047
 30
0.0
 11
9.124000000000009
 21
106.047
 31
0.0
  0
LINE
  5
36
330
1E
100
AcDbEntity
  8
0
100
AcDbLine
 10
17.595
 20
106.047
 30
0.0
 11
24.60199999999999
 21
106.047
 31
0.0
  0
LINE
  5
37
330
1E
100
AcDbEntity
  8
0
100
AcDbLine
 10
17.598
 20
106.047
 30
0.0
 11
24.60199999999999
 21
106.047
 31
0.0
  0
LINE
  5
38
330
1E
100
AcDbEntity
  8
0
100
AcDbLine
 10
13.924
 20
106.047
 30
0.0
 11
14.956
 21
106.047
 31
0.0
  0
LINE
  5
39
330
1E
100
AcDbEntity
  8
0
100
AcDbLine
 10
14.956
 20
106.047
 30
0.0
 11
17.873
 21
106.047
 31
0.0
  0
LINE
  5
3A
330
1E
100
AcDbEntity
  8
0
100
AcDbLine
 10
17.873
 20
106.047
 30
0.0
 11
22.92699999999999
 21
106.047
 31
0.0
  0
LINE
  5
3B
330
1E
100
AcDbEntity
  8
0
100
AcDbLine
 10
2.06200000000001
 20
118.311
 30
0.0
 11
2.961000000000009
 21
130.7229999999999
 31
0.0
  0
LINE
  5
3C
330
1E
100
AcDbEntity
  8
0
100
AcDbLine
 10
2.961000000000009
 20
130.7229999999999
 30
0.0
 11
3.072000000000009
 21
131.455
 31
0.0
  0
LINE
  5
3D
330
1E
100
AcDbEntity
  8
0
100
AcDbLine
 10
3.072000000000009
 20
131.455
 30
0.0
 11
3.460000000000009
 21
132.306
 31
0.0
  0
LINE
  5
3E
330
1E
100
AcDbEntity
  8
0
100
AcDbLine
 10
3.335717629287049
 20
131.911733481285
 30
0.0
 11
3.504391480073899
 21
132.203860311334
 31
0.0
  0
LINE
  5
3F
330
1E
100
AcDbEntity
  8
0
100
AcDbLine
 10
3.460000000000009
 20
132.306
 30
0.0
 11
3.818000000000009
 21
132.747
 31
0.0
  0
LINE
  5
40
330
1E
100
AcDbEntity
  8
0
100
AcDbLine
 10
3.818000000000009
 20
132.747
 30
0.0
 11
4.727000000000009
 21
133.382
 31
0.0
  0
LINE
  5
41
330
1E
100
AcDbEntity
  8
0
100
AcDbLine
 10
4.727000000000009
 20
133.382
 30
0.0
 11
5.117000000000009
 21
133.526
 31
0.0
  0
LINE
  5
42
330
1E
100
AcDbEntity
  8
0
100
AcDbLine
 10
5.117000000000009
 20
133.526
 30
0.0
 11
6.374000000000009
 21
133.62
 31
0.0
  0
LINE
  5
43
330
1E
100
AcDbEntity
  8
0
100
AcDbLine
 10
6.489000000000009
 20
133.623
 30
0.0
 11
6.576281984521499
 21
133.6106047076339
 31
0.0
  0
LINE
  5
44
330
1E
100
AcDbEntity
  8
0
100
AcDbLine
 10
6.489000000000009
 20
133.623
 30
0.0
 11
6.576281984521499
 21
133.6106047076339
 31
0.0
  0
LINE
  5
45
330
1E
100
AcDbEntity
  8
0
100
AcDbLine
 10
6.717000000000009
 20
133.6279999999999
 30
0.0
 11
6.833626359133789
 21
133.6112558248589
 31
0.0
  0
LINE
  5
46
330
1E
100
AcDbEntity
  8
0
100
AcDbLine
 10
6.717000000000009
 20
133.6279999999999
 30
0.0
 11
6.833626359133789
 21
133.6112558248589
 31
0.0
  0
LINE
  5
47
330
1E
100
AcDbEntity
  8
0
100
AcDbLine
 10
6.717000000000009
 20
133.6279999999999
 30
0.0
 11
7.061000000000009
 21
133.6359999999999
 31
0.0
  0
LINE
  5
48
330
1E
100
AcDbEntity
  8
0
100
AcDbLine
 10
6.374000000000009
 20
133.62
 30
0.0
 11
6.489000000000009
 21
133.623
 31
0.0
  0
LINE
  5
49
330
1E
100
AcDbEntity
  8
0
100
AcDbLine
 10
6.713000000000009
 20
133.6279999999999
 30
0.0
 11
7.058000000000009
 21
133.6359999999999
 31
0.0
  0
LINE
  5
4A
330
1E
100
AcDbEntity
  8
0
100
AcDbLine
 10
7.061000000000009
 20
133.6359999999999
 30
0.0
 11
7.525000000000009
 21
133.647
 31
0.0
  0
LINE
  5
4B
330
1E
100
AcDbEntity
  8
0
100
AcDbLine
 10
7.058000000000009
 20
133.6359999999999
 30
0.0
 11
7.523000000000009
 21
133.647
 31
0.0
  0
LINE
  5
4C
330
1E
100
AcDbEntity
  8
0
100
AcDbLine
 10
8.803000000000009
 20
133.6719999999999
 30
0.0
 11
9.620000000000009
 21
133.6829999999999
 31
0.0
  0
LINE
  5
4D
330
1E
100
AcDbEntity
  8
0
100
AcDbLine
 10
7.525000000000009
 20
133.647
 30
0.0
 11
8.803000000000009
 21
133.6719999999999
 31
0.0
  0
LINE
  5
4E
330
1E
100
AcDbEntity
  8
0
100
AcDbLine
 10
11.01799999999999
 20
133.6969999999999
 30
0.0
 11
15.46499999999999
 21
133.702
 31
0.0
  0
LINE
  5
4F
330
1E
100
AcDbEntity
  8
0
100
AcDbLine
 10
9.620000000000009
 20
133.6829999999999
 30
0.0
 11
11.01599999999999
 21
133.6969999999999
 31
0.0
  0
LINE
  5
50
330
1E
100
AcDbEntity
  8
0
100
AcDbLine
 10
9.620000000000009
 20
133.6829999999999
 30
0.0
 11
11.01799999999999
 21
133.6969999999999
 31
0.0
  0
LINE
  5
51
330
1E
100
AcDbEntity
  8
0
100
AcDbLine
 10
7.523000000000009
 20
133.647
 30
0.0
 11
7.57395770151711
 21
133.6479577015159
 31
0.0
  0
LINE
  5
52
330
1E
100
AcDbEntity
  8
0
100
AcDbLine
 10
7.523000000000009
 20
133.647
 30
0.0
 11
7.57395770151712
 21
133.6479577015159
 31
0.0
  0
LINE
  5
53
330
1E
100
AcDbEntity
  8
0
100
AcDbLine
 10
16.383
 20
133.7069999999999
 30
0.0
 11
19.984
 21
133.6999999999999
 31
0.0
  0
LINE
  5
54
330
1E
100
AcDbEntity
  8
0
100
AcDbLine
 10
15.46499999999999
 20
133.702
 30
0.0
 11
16.383
 21
133.7069999999999
 31
0.0
  0
LINE
  5
55
330
1E
100
AcDbEntity
  8
0
100
AcDbLine
 10
19.984
 20
133.6999999999999
 30
0.0
 11
25.651
 21
133.6949999999999
 31
0.0
  0
LINE
  5
56
330
1E
100
AcDbEntity
  8
0
100
AcDbLine
 10
16.384
 20
133.7069999999999
 30
0.0
 11
19.98499999999999
 21
133.6999999999999
 31
0.0
  0
LINE
  5
57
330
1E
100
AcDbEntity
  8
0
100
AcDbLine
 10
22.92699999999999
 20
106.047
 30
0.0
 11
23.389
 21
106.047
 31
0.0
  0
LINE
  5
58
330
1E
100
AcDbEntity
  8
0
100
AcDbLine
 10
272.5719999999999
 20
0.000000000000014
 30
0.0
 11
288.2679999999999
 21
0.000000000000013
 31
0.0
  0
LINE
  5
59
330
1E
100
AcDbEntity
  8
0
100
AcDbLine
 10
272.3899999999999
 20
0.000000000000014
 30
0.0
 11
272.5719999999999
 21
0.000000000000014
 31
0.0
  0
LINE
  5
5A
330
1E
100
AcDbEntity
  8
0
100
AcDbLine
 10
222.3829999999999
 20
3.41050000000002
 30
0.0
 11
223.1599999999999
 21
0.0000000000000172
 31
0.0
  0
LINE
  5
5B
330
1E
100
AcDbEntity
  8
0
100
AcDbLine
 10
222.3829999999999
 20
3.41050000000002
 30
0.0
 11
223.1599999999999
 21
0.000000000000017
 31
0.0
  0
LINE
  5
5C
330
1E
100
AcDbEntity
  8
0
100
AcDbLine
 10
222.44
 20
3.40750000000002
 30
0.0
 11
223.1599999999999
 21
0.0000000000000172
 31
0.0
  0
LINE
  5
5D
330
1E
100
AcDbEntity
  8
0
100
AcDbLine
 10
222.44
 20
3.40750000000002
 30
0.0
 11
223.1599999999999
 21
0.000000000000017
 31
0.0
  0
LINE
  5
5E
330
1E
100
AcDbEntity
  8
0
100
AcDbLine
 10
223.1599999999999
 20
0.000000000000017
 30
0.0
 11
226.944
 21
0.0000000000000167
 31
0.0
  0
LINE
  5
5F
330
1E
100
AcDbEntity
  8
0
100
AcDbLine
 10
223.1599999999999
 20
0.000000000000017
 30
0.0
 11
226.9429999999999
 21
0.0000000000000167
 31
0.0
  0
LINE
  5
60
330
1E
100
AcDbEntity
  8
0
100
AcDbLine
 10
226.944
 20
0.0000000000000167
 30
0.0
 11
234.2919999999999
 21
0.0000000000000163
 31
0.0
  0
LINE
  5
61
330
1E
100
AcDbEntity
  8
0
100
AcDbLine
 10
244.7759999999999
 20
0.0000000000000157
 30
0.0
 11
257.7879999999999
 21
0.0000000000000149
 31
0.0
  0
LINE
  5
62
330
1E
100
AcDbEntity
  8
0
100
AcDbLine
 10
257.7879999999999
 20
0.0000000000000149
 30
0.0
 11
272.3899999999999
 21
0.000000000000014
 31
0.0
  0
LINE
  5
63
330
1E
100
AcDbEntity
  8
0
100
AcDbLine
 10
257.7879999999999
 20
0.0000000000000149
 30
0.0
 11
272.5719999999999
 21
0.000000000000014
 31
0.0
  0
LINE
  5
64
330
1E
100
AcDbEntity
  8
0
100
AcDbLine
 10
234.2919999999999
 20
0.0000000000000163
 30
0.0
 11
244.7759999999999
 21
0.0000000000000157
 31
0.0
  0
LINE
  5
65
330
1E
100
AcDbEntity
  8
0
100
AcDbLine
 10
220.042
 20
11.99629999999999
 30
0.0
 11
222.3829999999999
 21
3.41050000000002
 31
0.0
  0
LINE
  5
66
330
1E
100
AcDbEntity
  8
0
100
AcDbLine
 10
267.107
 20
0.0000000000000143
 30
0.0
 11
272.3899999999999
 21
0.000000000000014
 31
0.0
  0
LINE
  5
67
330
1E
100
AcDbEntity
  8
0
100
AcDbLine
 10
267.1079999999999
 20
0.0000000000000143
 30
0.0
 11
272.3899999999999
 21
0.000000000000014
 31
0.0
  0
LINE
  5
68
330
1E
100
AcDbEntity
  8
0
100
AcDbLine
 10
311.29
 20
0.0000000000000116
 30
0.0
 11
318.747
 21
0.0000000000000111
 31
0.0
  0
LINE
  5
69
330
1E
100
AcDbEntity
  8
0
100
AcDbLine
 10
353.3749999999999
 20
0.0000000000000089
 30
0.0
 11
354.927770939837
 21
11.42458463231539
 31
0.0
  0
LINE
  5
6B
330
1E
100
AcDbEntity
  8
0
100
AcDbLine
 10
342.2449999999999
 20
0.0000000000000097
 30
0.0
 11
349.5919999999999
 21
0.0000000000000092
 31
0.0
  0
LINE
  5
6C
330
1E
100
AcDbEntity
  8
0
100
AcDbLine
 10
349.5919999999999
 20
0.0000000000000092
 30
0.0
 11
353.3749999999999
 21
0.000000000000009
 31
0.0
  0
LINE
  5
6D
330
1E
100
AcDbEntity
  8
0
100
AcDbLine
 10
342.244
 20
0.0000000000000097
 30
0.0
 11
349.5919999999999
 21
0.0000000000000092
 31
0.0
  0
LINE
  5
6E
330
1E
100
AcDbEntity
  8
0
100
AcDbLine
 10
331.759
 20
0.0000000000000103
 30
0.0
 11
342.244
 21
0.0000000000000097
 31
0.0
  0
LINE
  5
6F
330
1E
100
AcDbEntity
  8
0
100
AcDbLine
 10
331.759
 20
0.0000000000000103
 30
0.0
 11
342.2449999999999
 21
0.0000000000000097
 31
0.0
  0
LINE
  5
70
330
1E
100
AcDbEntity
  8
0
100
AcDbLine
 10
318.747
 20
0.0000000000000111
 30
0.0
 11
331.759
 21
0.0000000000000103
 31
0.0
  0
LINE
  5
71
330
1E
100
AcDbEntity
  8
0
100
AcDbLine
 10
303.9629999999999
 20
0.000000000000012
 30
0.0
 11
318.747
 21
0.0000000000000111
 31
0.0
  0
LINE
  5
72
330
1E
100
AcDbEntity
  8
0
100
AcDbLine
 10
303.9629999999999
 20
0.000000000000012
 30
0.0
 11
309.642
 21
0.0000000000000117
 31
0.0
  0
LINE
  5
73
330
1E
100
AcDbEntity
  8
0
100
AcDbLine
 10
288.2679999999999
 20
0.000000000000013
 30
0.0
 11
303.9629999999999
 21
0.000000000000012
 31
0.0
  0
LINE
  5
74
330
1E
100
AcDbEntity
  8
0
100
AcDbLine
 10
288.269
 20
0.000000000000013
 30
0.0
 11
303.9629999999999
 21
0.000000000000012
 31
0.0
  0
LINE
  5
75
330
1E
100
AcDbEntity
  8
0
100
AcDbLine
 10
289.3879999999999
 20
0.0000000000000129
 30
0.0
 11
297.8469999999999
 21
0.0000000000000124
 31
0.0
  0
LINE
  5
76
330
1E
100
AcDbEntity
  8
0
100
AcDbLine
 10
297.8469999999999
 20
0.0000000000000124
 30
0.0
 11
304.937
 21
0.000000000000012
 31
0.0
  0
LINE
  5
78
330
1E
100
AcDbEntity
  8
0
100
AcDbLine
 10
354.927770939837
 20
11.42458463231539
 30
0.0
 11
358.0149999999999
 21
20.528
 31
0.0
  0
LINE
  5
79
330
1E
100
AcDbEntity
  8
0
100
AcDbLine
 10
304.937
 20
0.000000000000012
 30
0.0
 11
309.642
 21
0.0000000000000117
 31
0.0
  0
LINE
  5
7A
330
1E
100
AcDbEntity
  8
0
100
AcDbLine
 10
309.642
 20
0.0000000000000117
 30
0.0
 11
311.29
 21
0.0000000000000116
 31
0.0
  0
LINE
  5
7B
330
1E
100
AcDbEntity
  8
0
100
AcDbLine
 10
280.239
 20
0.0000000000000135
 30
0.0
 11
288.2679999999999
 21
0.000000000000013
 31
0.0
  0
LINE
  5
7C
330
1E
100
AcDbEntity
  8
0
100
AcDbLine
 10
280.239
 20
0.0000000000000135
 30
0.0
 11
289.3879999999999
 21
0.0000000000000129
 31
0.0
  0
LINE
  5
7D
330
1E
100
AcDbEntity
  8
0
100
AcDbLine
 10
280.239
 20
0.0000000000000135
 30
0.0
 11
288.2679999999999
 21
0.000000000000013
 31
0.0
  0
LINE
  5
7E
330
1E
100
AcDbEntity
  8
0
100
AcDbLine
 10
54.785
 20
87.74460000000001
 30
0.0
 11
56.551
 21
85.07040000000001
 31
0.0
  0
LINE
  5
7F
330
1E
100
AcDbEntity
  8
0
100
AcDbLine
 10
54.76576207286701
 20
87.81736173822849
 30
0.0
 11
54.785
 21
87.74460000000001
 31
0.0
  0
LINE
  5
80
330
1E
100
AcDbEntity
  8
0
100
AcDbLine
 10
54.76576207286701
 20
87.81736173822849
 30
0.0
 11
54.785
 21
87.74460000000001
 31
0.0
  0
LINE
  5
81
330
1E
100
AcDbEntity
  8
0
100
AcDbLine
 10
54.786
 20
87.74460000000001
 30
0.0
 11
56.551
 21
85.07040000000001
 31
0.0
  0
LINE
  5
82
330
1E
100
AcDbEntity
  8
0
100
AcDbLine
 10
60.02600000000001
 20
84.037
 30
0.0
 11
63.23
 21
84.037
 31
0.0
  0
LINE
  5
83
330
1E
100
AcDbEntity
  8
0
100
AcDbLine
 10
59.56
 20
84.037
 30
0.0
 11
60.02600000000001
 21
84.037
 31
0.0
  0
LINE
  5
84
330
1E
100
AcDbEntity
  8
0
100
AcDbLine
 10
59.56
 20
84.037
 30
0.0
 11
61.934
 21
84.037
 31
0.0
  0
LINE
  5
85
330
1E
100
AcDbEntity
  8
0
100
AcDbLine
 10
98.59831647641371
 20
84.037
 30
0.0
 11
103.695
 21
81.33779999999999
 31
0.0
  0
LINE
  5
86
330
1E
100
AcDbEntity
  8
0
100
AcDbLine
 10
103.695
 20
81.33779999999999
 30
0.0
 11
134.126
 21
63.49199999999999
 31
0.0
  0
LINE
  5
88
330
1E
100
AcDbEntity
  8
0
100
AcDbLine
 10
134.126
 20
63.49199999999999
 30
0.0
 11
155.025
 21
51.19749999999999
 31
0.0
  0
LINE
  5
89
330
1E
100
AcDbEntity
  8
0
100
AcDbLine
 10
120.859
 20
84.037
 30
0.0
 11
129.9989999999999
 21
84.037
 31
0.0
  0
LINE
  5
8B
330
1E
100
AcDbEntity
  8
0
100
AcDbLine
 10
129.9989999999999
 20
84.037
 30
0.0
 11
140.837
 21
84.037
 31
0.0
  0
LINE
  5
8C
330
1E
100
AcDbEntity
  8
0
100
AcDbLine
 10
98.7554477635656
 20
84.037
 30
0.0
 11
103.695
 21
81.33779999999999
 31
0.0
  0
LINE
  5
8D
330
1E
100
AcDbEntity
  8
0
100
AcDbLine
 10
70.27899999999999
 20
84.037
 30
0.0
 11
71.532
 21
84.037
 31
0.0
  0
LINE
  5
8E
330
1E
100
AcDbEntity
  8
0
100
AcDbLine
 10
69.86799999999999
 20
84.037
 30
0.0
 11
70.432
 21
84.037
 31
0.0
  0
LINE
  5
8F
330
1E
100
AcDbEntity
  8
0
100
AcDbLine
 10
69.86799999999999
 20
84.037
 30
0.0
 11
70.27899999999999
 21
84.037
 31
0.0
  0
LINE
  5
90
330
1E
100
AcDbEntity
  8
0
100
AcDbLine
 10
73.55199999999999
 20
84.037
 30
0.0
 11
74.60300000000001
 21
84.037
 31
0.0
  0
LINE
  5
91
330
1E
100
AcDbEntity
  8
0
100
AcDbLine
 10
74.60300000000001
 20
84.037
 30
0.0
 11
75.85600000000001
 21
84.037
 31
0.0
  0
LINE
  5
92
330
1E
100
AcDbEntity
  8
0
100
AcDbLine
 10
74.336
 20
84.037
 30
0.0
 11
75.703
 21
84.037
 31
0.0
  0
LINE
  5
93
330
1E
100
AcDbEntity
  8
0
100
AcDbLine
 10
71.532
 20
84.037
 30
0.0
 11
72.583
 21
84.037
 31
0.0
  0
LINE
  5
94
330
1E
100
AcDbEntity
  8
0
100
AcDbLine
 10
70.432
 20
84.037
 30
0.0
 11
71.79899999999999
 21
84.037
 31
0.0
  0
LINE
  5
95
330
1E
100
AcDbEntity
  8
0
100
AcDbLine
 10
71.79899999999999
 20
84.037
 30
0.0
 11
73.55199999999999
 21
84.037
 31
0.0
  0
LINE
  5
96
330
1E
100
AcDbEntity
  8
0
100
AcDbLine
 10
75.85600000000001
 20
84.037
 30
0.0
 11
76.268
 21
84.037
 31
0.0
  0
LINE
  5
97
330
1E
100
AcDbEntity
  8
0
100
AcDbLine
 10
74.73399999999999
 20
84.037
 30
0.0
 11
80.617
 21
84.037
 31
0.0
  0
LINE
  5
98
330
1E
100
AcDbEntity
  8
0
100
AcDbLine
 10
98.75508937913501
 20
84.037
 30
0.0
 11
103.695
 21
81.33779999999999
 31
0.0
  0
LINE
  5
99
330
1E
100
AcDbEntity
  8
0
100
AcDbLine
 10
188.21
 20
33.1606
 30
0.0
 11
190.967
 21
31.829
 31
0.0
  0
LINE
  5
9B
330
1E
100
AcDbEntity
  8
0
100
AcDbLine
 10
190.967
 20
31.829
 30
0.0
 11
207.4399999999999
 21
24.1646
 31
0.0
  0
LINE
  5
9C
330
1E
100
AcDbEntity
  8
0
100
AcDbLine
 10
155.025
 20
51.19749999999999
 30
0.0
 11
165.835
 21
45.02979999999999
 31
0.0
  0
LINE
  5
9D
330
1E
100
AcDbEntity
  8
0
100
AcDbLine
 10
165.835
 20
45.02979999999999
 30
0.0
 11
177.8179999999999
 21
38.83409999999999
 31
0.0
  0
LINE
  5
9E
330
1E
100
AcDbEntity
  8
0
100
AcDbLine
 10
177.8179999999999
 20
38.83409999999999
 30
0.0
 11
188.21
 21
33.1606
 31
0.0
  0
LINE
  5
9F
330
1E
100
AcDbEntity
  8
0
100
AcDbLine
 10
335.348
 20
84.037
 30
0.0
 11
342.828
 21
84.037
 31
0.0
  0
LINE
  5
A0
330
1E
100
AcDbEntity
  8
0
100
AcDbLine
 10
335.348
 20
84.037
 30
0.0
 11
347.6639999999999
 21
84.037
 31
0.0
  0
LINE
  5
A1
330
1E
100
AcDbEntity
  8
0
100
AcDbLine
 10
350.1269999999999
 20
84.037
 30
0.0
 11
350.665
 21
84.037
 31
0.0
  0
LINE
  5
A2
330
1E
100
AcDbEntity
  8
0
100
AcDbLine
 10
350.1269999999999
 20
84.037
 30
0.0
 11
350.545
 21
84.037
 31
0.0
  0
LINE
  5
A3
330
1E
100
AcDbEntity
  8
0
100
AcDbLine
 10
350.545
 20
84.037
 30
0.0
 11
351.793
 21
84.037
 31
0.0
  0
LINE
  5
A4
330
1E
100
AcDbEntity
  8
0
100
AcDbLine
 10
350.665
 20
84.037
 30
0.0
 11
351.998
 21
84.037
 31
0.0
  0
LINE
  5
A5
330
1E
100
AcDbEntity
  8
0
100
AcDbLine
 10
346.604
 20
84.037
 30
0.0
 11
352.5479999999999
 21
84.037
 31
0.0
  0
LINE
  5
A6
330
1E
100
AcDbEntity
  8
0
100
AcDbLine
 10
342.828
 20
84.037
 30
0.0
 11
346.604
 21
84.037
 31
0.0
  0
LINE
  5
A7
330
1E
100
AcDbEntity
  8
0
100
AcDbLine
 10
351.793
 20
84.037
 30
0.0
 11
352.929
 21
84.037
 31
0.0
  0
LINE
  5
A8
330
1E
100
AcDbEntity
  8
0
100
AcDbLine
 10
351.998
 20
84.037
 30
0.0
 11
353.7269999999999
 21
84.037
 31
0.0
  0
LINE
  5
AB
330
1E
100
AcDbEntity
  8
0
100
AcDbLine
 10
214.8409999999999
 20
19.2185
 30
0.0
 11
220.042
 21
11.99629999999999
 31
0.0
  0
LINE
  5
AC
330
1E
100
AcDbEntity
  8
0
100
AcDbLine
 10
207.4399999999999
 20
24.1646
 30
0.0
 11
214.8409999999999
 21
19.2185
 31
0.0
  0
LINE
  5
AD
330
1E
100
AcDbEntity
  8
0
100
AcDbLine
 10
347.6639999999999
 20
84.037
 30
0.0
 11
360.983
 21
84.037
 31
0.0
  0
LINE
  5
AE
330
1E
100
AcDbEntity
  8
0
100
AcDbLine
 10
140.837
 20
84.037
 30
0.0
 11
335.348
 21
84.037
 31
0.0
  0
LINE
  5
AF
330
1E
100
AcDbEntity
  8
0
100
AcDbLine
 10
80.617
 20
84.037
 30
0.0
 11
335.348
 21
84.037
 31
0.0
  0
LINE
  5
B0
330
1E
100
AcDbEntity
  8
0
100
AcDbLine
 10
354.658
 20
84.037
 30
0.0
 11
355.9909999999999
 21
84.037
 31
0.0
  0
LINE
  5
B1
330
1E
100
AcDbEntity
  8
0
100
AcDbLine
 10
353.7269999999999
 20
84.037
 30
0.0
 11
354.863
 21
84.037
 31
0.0
  0
LINE
  5
B2
330
1E
100
AcDbEntity
  8
0
100
AcDbLine
 10
354.863
 20
84.037
 30
0.0
 11
356.1109999999999
 21
84.037
 31
0.0
  0
LINE
  5
B4
330
1E
100
AcDbEntity
  8
0
100
AcDbLine
 10
358.0149999999999
 20
20.528
 30
0.0
 11
364.526
 21
27.9093
 31
0.0
  0
LINE
  5
B5
330
1E
100
AcDbEntity
  8
0
100
AcDbLine
 10
356.1109999999999
 20
84.037
 30
0.0
 11
356.529
 21
84.037
 31
0.0
  0
LINE
  5
B6
330
1E
100
AcDbEntity
  8
0
100
AcDbLine
 10
358.745
 20
84.037
 30
0.0
 11
363.194
 21
84.037
 31
0.0
  0
LINE
  5
B8
330
1E
100
AcDbEntity
  8
0
100
AcDbLine
 10
352.929
 20
84.037
 30
0.0
 11
354.658
 21
84.037
 31
0.0
  0
LINE
  5
B9
330
1E
100
AcDbEntity
  8
0
100
AcDbLine
 10
352.5479999999999
 20
84.037
 30
0.0
 11
358.745
 21
84.037
 31
0.0
  0
LINE
  5
BA
330
1E
100
AcDbEntity
  8
0
100
AcDbLine
 10
68.503
 20
84.037
 30
0.0
 11
74.73399999999999
 21
84.037
 31
0.0
  0
LINE
  5
BB
330
1E
100
AcDbEntity
  8
0
100
AcDbLine
 10
63.23
 20
84.037
 30
0.0
 11
68.503
 21
84.037
 31
0.0
  0
LINE
  5
C2
330
1E
100
AcDbEntity
  8
0
100
AcDbLine
 10
56.551
 20
85.07040000000001
 30
0.0
 11
59.56
 21
84.037
 31
0.0
  0
LINE
  5
C3
330
1E
100
AcDbEntity
  8
0
100
AcDbLine
 10
380.2219999999999
 20
41.6493
 30
0.0
 11
393.679
 21
56.0657
 31
0.0
  0
LINE
  5
C4
330
1E
100
AcDbEntity
  8
0
100
AcDbLine
 10
377.4519999999999
 20
39.0722
 30
0.0
 11
380.2219999999999
 21
41.6493
 31
0.0
  0
LINE
  5
C5
330
1E
100
AcDbEntity
  8
0
100
AcDbLine
 10
364.526
 20
27.9093
 30
0.0
 11
377.4519999999999
 21
39.0722
 31
0.0
  0
LINE
  5
C6
330
1E
100
AcDbEntity
  8
0
100
AcDbLine
 10
395.7619999999999
 20
59.089
 30
0.0
 11
396.758
 21
61.0809
 31
0.0
  0
LINE
  5
C7
330
1E
100
AcDbEntity
  8
0
100
AcDbLine
 10
396.758
 20
61.0809
 30
0.0
 11
397.014
 21
61.9083
 31
0.0
  0
LINE
  5
C8
330
1E
100
AcDbEntity
  8
0
100
AcDbLine
 10
397.014
 20
61.9083
 30
0.0
 11
398.299
 21
65.89100000000001
 31
0.0
  0
LINE
  5
D1
330
1E
100
AcDbEntity
  8
0
100
AcDbLine
 10
398.299
 20
65.89100000000001
 30
0.0
 11
399.6359999999999
 21
70.0218
 31
0.0
  0
LINE
  5
D2
330
1E
100
AcDbEntity
  8
0
100
AcDbLine
 10
401.313
 20
75.7183
 30
0.0
 11
402.2417846986179
 21
78.9590729181986
 31
0.0
  0
LINE
  5
D3
330
1E
100
AcDbEntity
  8
0
100
AcDbLine
 10
399.6359999999999
 20
70.0218
 30
0.0
 11
401.313
 21
75.7183
 31
0.0
  0
LINE
  5
D5
330
1E
100
AcDbEntity
  8
0
100
AcDbLine
 10
402.2417846986179
 20
78.9590729181986
 30
0.0
 11
403.6509999999999
 21
81.9861
 31
0.0
  0
LINE
  5
D6
330
1E
100
AcDbEntity
  8
0
100
AcDbLine
 10
364.4589999999999
 20
84.037
 30
0.0
 11
366.5659999999999
 21
84.5052
 31
0.0
  0
LINE
  5
D7
330
1E
100
AcDbEntity
  8
0
100
AcDbLine
 10
368.279
 20
85.8238
 30
0.0
 11
369.2749999999999
 21
87.74460000000001
 31
0.0
  0
LINE
  5
D8
330
1E
100
AcDbEntity
  8
0
100
AcDbLine
 10
366.5659999999999
 20
84.5052
 30
0.0
 11
368.279
 21
85.8238
 31
0.0
  0
LINE
  5
D9
330
1E
100
AcDbEntity
  8
0
100
AcDbLine
 10
363.194
 20
84.037
 30
0.0
 11
364.4589999999999
 21
84.037
 31
0.0
  0
LINE
  5
DB
330
1E
100
AcDbEntity
  8
0
100
AcDbLine
 10
371.067186212202
 20
94.39992304899028
 30
0.0
 11
373.043
 21
97.88110000000001
 31
0.0
  0
LINE
  5
DF
330
1E
100
AcDbEntity
  8
0
100
AcDbLine
 10
369.2749999999999
 20
87.74460000000001
 30
0.0
 11
371.0208845071119
 21
94.28438825667459
 31
0.0
  0
LINE
  5
E0
330
1E
100
AcDbEntity
  8
0
100
AcDbLine
 10
407.6592979552649
 20
88.0334321491181
 30
0.0
 11
415.778
 21
96.10230000000001
 31
0.0
  0
LINE
  5
E1
330
1E
100
AcDbEntity
  8
0
100
AcDbLine
 10
422.2199999999999
 20
101.088
 30
0.0
 11
428.248
 21
105.041
 31
0.0
  0
LINE
  5
E2
330
1E
100
AcDbEntity
  8
0
100
AcDbLine
 10
415.778
 20
96.10230000000001
 30
0.0
 11
422.2199999999999
 21
101.088
 31
0.0
  0
LINE
  5
E3
330
1E
100
AcDbEntity
  8
0
100
AcDbLine
 10
405.731
 20
85.35259999999999
 30
0.0
 11
407.6592979552663
 21
88.0334321491196
 31
0.0
  0
LINE
  5
E4
330
1E
100
AcDbEntity
  8
0
100
AcDbLine
 10
403.6509999999999
 20
81.9861
 30
0.0
 11
405.731
 21
85.35259999999999
 31
0.0
  0
LINE
  5
E5
330
1E
100
AcDbEntity
  8
0
100
AcDbLine
 10
505.2929999999999
 20
106.047
 30
0.0
 11
512.6369999999999
 21
106.047
 31
0.0
  0
LINE
  5
E6
330
1E
100
AcDbEntity
  8
0
100
AcDbLine
 10
511.1839999999999
 20
106.047
 30
0.0
 11
514.338
 21
106.047
 31
0.0
  0
LINE
  5
E7
330
1E
100
AcDbEntity
  8
0
100
AcDbLine
 10
510.8569999999999
 20
106.047
 30
0.0
 11
511.1839999999999
 21
106.047
 31
0.0
  0
LINE
  5
E8
330
1E
100
AcDbEntity
  8
0
100
AcDbLine
 10
510.859
 20
106.047
 30
0.0
 11
511.1839999999999
 21
106.047
 31
0.0
  0
LINE
  5
E9
330
1E
100
AcDbEntity
  8
0
100
AcDbLine
 10
428.248
 20
105.041
 30
0.0
 11
430.057180767643
 21
106.047
 31
0.0
  0
LINE
  5
EA
330
1E
100
AcDbEntity
  8
0
100
AcDbLine
 10
393.679
 20
56.0657
 30
0.0
 11
395.7619999999999
 21
59.089
 31
0.0
  0
LINE
  5
EB
330
1E
100
AcDbEntity
  8
0
100
AcDbLine
 10
514.338
 20
106.047
 30
0.0
 11
516.154
 21
106.047
 31
0.0
  0
LINE
  5
EC
330
1E
100
AcDbEntity
  8
0
100
AcDbLine
 10
512.6369999999999
 20
106.047
 30
0.0
 11
518.5399999999999
 21
106.047
 31
0.0
  0
LINE
  5
ED
330
1E
100
AcDbEntity
  8
0
100
AcDbLine
 10
518.5399999999999
 20
106.047
 30
0.0
 11
522.745
 21
106.047
 31
0.0
  0
LINE
  5
EE
330
1E
100
AcDbEntity
  8
0
100
AcDbLine
 10
524.5109999999999
 20
106.047
 30
0.0
 11
528.6249999999999
 21
106.047
 31
0.0
  0
LINE
  5
EF
330
1E
100
AcDbEntity
  8
0
100
AcDbLine
 10
528.6249999999999
 20
106.047
 30
0.0
 11
530.0
 21
106.047
 31
0.0
  0
LINE
  5
F0
330
1E
100
AcDbEntity
  8
0
100
AcDbLine
 10
522.745
 20
106.047
 30
0.0
 11
524.5109999999999
 21
106.047
 31
0.0
  0
LINE
  5
F1
330
1E
100
AcDbEntity
  8
0
100
AcDbLine
 10
502.708
 20
106.047
 30
0.0
 11
508.0049999999999
 21
106.047
 31
0.0
  0
LINE
  5
F2
330
1E
100
AcDbEntity
  8
0
100
AcDbLine
 10
23.389
 20
106.047
 30
0.0
 11
24.47699999999999
 21
106.047
 31
0.0
  0
LINE
  5
F3
330
1E
100
AcDbEntity
  8
0
100
AcDbLine
 10
24.60199999999999
 20
106.047
 30
0.0
 11
33.021
 21
106.047
 31
0.0
  0
LINE
  5
F4
330
1E
100
AcDbEntity
  8
0
100
AcDbLine
 10
24.60199999999999
 20
106.047
 30
0.0
 11
33.022
 21
106.047
 31
0.0
  0
LINE
  5
F5
330
1E
100
AcDbEntity
  8
0
100
AcDbLine
 10
24.47699999999999
 20
106.047
 30
0.0
 11
24.868
 21
106.047
 31
0.0
  0
LINE
  5
F6
330
1E
100
AcDbEntity
  8
0
100
AcDbLine
 10
24.868
 20
106.047
 30
0.0
 11
27.74
 21
106.047
 31
0.0
  0
LINE
  5
F7
330
1E
100
AcDbEntity
  8
0
100
AcDbLine
 10
33.022
 20
106.047
 30
0.0
 11
42.717
 21
106.047
 31
0.0
  0
LINE
  5
F8
330
1E
100
AcDbEntity
  8
0
100
AcDbLine
 10
39.60399999999999
 20
106.047
 30
0.0
 11
46.947
 21
106.047
 31
0.0
  0
LINE
  5
F9
330
1E
100
AcDbEntity
  8
0
100
AcDbLine
 10
33.42499999999999
 20
106.047
 30
0.0
 11
39.60399999999999
 21
106.047
 31
0.0
  0
LINE
  5
FA
330
1E
100
AcDbEntity
  8
0
100
AcDbLine
 10
27.74
 20
106.047
 30
0.0
 11
33.42499999999999
 21
106.047
 31
0.0
  0
LINE
  5
FB
330
1E
100
AcDbEntity
  8
0
100
AcDbLine
 10
49.69537618344479
 20
106.047
 30
0.0
 11
54.786
 21
87.74460000000001
 31
0.0
  0
LINE
  5
FC
330
1E
100
AcDbEntity
  8
0
100
AcDbLine
 10
42.717
 20
106.047
 30
0.0
 11
49.69537618344479
 21
106.047
 31
0.0
  0
LINE
  5
FD
330
1E
100
AcDbEntity
  8
0
100
AcDbLine
 10
46.947
 20
106.047
 30
0.0
 11
49.69537618344479
 21
106.047
 31
0.0
  0
LINE
  5
FE
330
1E
100
AcDbEntity
  8
0
100
AcDbLine
 10
42.715
 20
106.047
 30
0.0
 11
53.272
 21
106.047
 31
0.0
  0
LINE
  5
FF
330
1E
100
AcDbEntity
  8
0
100
AcDbLine
 10
33.021
 20
106.047
 30
0.0
 11
42.715
 21
106.047
 31
0.0
  0
LINE
  5
100
330
1E
100
AcDbEntity
  8
0
100
AcDbLine
 10
126.912
 20
106.047
 30
0.0
 11
128.191
 21
106.047
 31
0.0
  0
LINE
  5
101
330
1E
100
AcDbEntity
  8
0
100
AcDbLine
 10
128.191
 20
106.047
 30
0.0
 11
129.157
 21
106.047
 31
0.0
  0
LINE
  5
102
330
1E
100
AcDbEntity
  8
0
100
AcDbLine
 10
129.157
 20
106.047
 30
0.0
 11
129.6499999999999
 21
106.047
 31
0.0
  0
LINE
  5
103
330
1E
100
AcDbEntity
  8
0
100
AcDbLine
 10
129.6229999999999
 20
106.047
 30
0.0
 11
130.33
 21
106.047
 31
0.0
  0
LINE
  5
104
330
1E
100
AcDbEntity
  8
0
100
AcDbLine
 10
129.6229999999999
 20
106.047
 30
0.0
 11
131.7529999999999
 21
128.1929999999999
 31
0.0
  0
LINE
  5
105
330
1E
100
AcDbEntity
  8
0
100
AcDbLine
 10
137.9099999999999
 20
106.047
 30
0.0
 11
143.452
 21
106.047
 31
0.0
  0
LINE
  5
106
330
1E
100
AcDbEntity
  8
0
100
AcDbLine
 10
134.1599999999999
 20
106.047
 30
0.0
 11
137.9099999999999
 21
106.047
 31
0.0
  0
LINE
  5
107
330
1E
100
AcDbEntity
  8
0
100
AcDbLine
 10
130.33
 20
106.047
 30
0.0
 11
132.462
 21
106.047
 31
0.0
  0
LINE
  5
108
330
1E
100
AcDbEntity
  8
0
100
AcDbLine
 10
132.462
 20
106.047
 30
0.0
 11
134.1599999999999
 21
106.047
 31
0.0
  0
LINE
  5
109
330
1E
100
AcDbEntity
  8
0
100
AcDbLine
 10
62.321
 20
106.047
 30
0.0
 11
126.912
 21
106.047
 31
0.0
  0
LINE
  5
10A
330
1E
100
AcDbEntity
  8
0
100
AcDbLine
 10
41.54600000000001
 20
133.6889999999999
 30
0.0
 11
54.318
 21
133.692
 31
0.0
  0
LINE
  5
10B
330
1E
100
AcDbEntity
  8
0
100
AcDbLine
 10
41.5450954933322
 20
133.6890002572789
 30
0.0
 11
54.318
 21
133.692
 31
0.0
  0
LINE
  5
10D
330
1E
100
AcDbEntity
  8
0
100
AcDbLine
 10
131.7529999999999
 20
128.1929999999999
 30
0.0
 11
132.606
 21
150.426
 31
0.0
  0
LINE
  5
10E
330
1E
100
AcDbEntity
  8
0
100
AcDbLine
 10
67.39799999999999
 20
133.6889999999999
 30
0.0
 11
129.352
 21
133.6999999999999
 31
0.0
  0
LINE
  5
10F
330
1E
100
AcDbEntity
  8
0
100
AcDbLine
 10
54.318
 20
133.692
 30
0.0
 11
67.39799999999999
 21
133.6889999999999
 31
0.0
  0
LINE
  5
110
330
1E
100
AcDbEntity
  8
0
100
AcDbLine
 10
53.272
 20
106.047
 30
0.0
 11
62.321
 21
106.047
 31
0.0
  0
LINE
  5
111
330
1E
100
AcDbEntity
  8
0
100
AcDbLine
 10
150.429
 20
106.047
 30
0.0
 11
161.406
 21
106.047
 31
0.0
  0
LINE
  5
112
330
1E
100
AcDbEntity
  8
0
100
AcDbLine
 10
161.406
 20
106.047
 30
0.0
 11
212.932
 21
106.047
 31
0.0
  0
LINE
  5
113
330
1E
100
AcDbEntity
  8
0
100
AcDbLine
 10
212.932
 20
106.047
 30
0.0
 11
264.6399999999999
 21
106.047
 31
0.0
  0
LINE
  5
114
330
1E
100
AcDbEntity
  8
0
100
AcDbLine
 10
264.6399999999999
 20
106.047
 30
0.0
 11
316.4049999999999
 21
106.047
 31
0.0
  0
LINE
  5
115
330
1E
100
AcDbEntity
  8
0
100
AcDbLine
 10
360.338
 20
106.047
 30
0.0
 11
404.1209999999999
 21
106.047
 31
0.0
  0
LINE
  5
116
330
1E
100
AcDbEntity
  8
0
100
AcDbLine
 10
316.4049999999999
 20
106.047
 30
0.0
 11
360.338
 21
106.047
 31
0.0
  0
LINE
  5
117
330
1E
100
AcDbEntity
  8
0
100
AcDbLine
 10
143.452
 20
106.047
 30
0.0
 11
150.429
 21
106.047
 31
0.0
  0
LINE
  5
118
330
1E
100
AcDbEntity
  8
0
100
AcDbLine
 10
143.346
 20
106.047
 30
0.0
 11
143.586
 21
106.047
 31
0.0
  0
LINE
  5
119
330
1E
100
AcDbEntity
  8
0
100
AcDbLine
 10
129.352
 20
133.6999999999999
 30
0.0
 11
131.4159999999999
 21
134.24
 31
0.0
  0
LINE
  5
11A
330
1E
100
AcDbEntity
  8
0
100
AcDbLine
 10
131.4159999999999
 20
134.24
 30
0.0
 11
132.0342609354719
 21
135.5239195525809
 31
0.0
  0
LINE
  5
11B
330
1E
100
AcDbEntity
  8
0
100
AcDbLine
 10
130.8377210081949
 20
134.088706077725
 30
0.0
 11
131.763343748672
 21
134.96131587943
 31
0.0
  0
LINE
  5
11C
330
1E
100
AcDbEntity
  8
0
100
AcDbLine
 10
30.999
 20
133.692
 30
0.0
 11
41.54600000000001
 21
133.6889999999999
 31
0.0
  0
LINE
  5
11D
330
1E
100
AcDbEntity
  8
0
100
AcDbLine
 10
25.651
 20
133.6949999999999
 30
0.0
 11
30.999
 21
133.692
 31
0.0
  0
LINE
  5
11E
330
1E
100
AcDbEntity
  8
0
100
AcDbLine
 10
134.216
 20
153.056
 30
0.0
 11
135.781
 21
153.394
 31
0.0
  0
LINE
  5
123
330
1E
100
AcDbEntity
  8
0
100
AcDbLine
 10
133.047
 20
151.963
 30
0.0
 11
134.216
 21
153.056
 31
0.0
  0
LINE
  5
124
330
1E
100
AcDbEntity
  8
0
100
AcDbLine
 10
132.606
 20
150.426
 30
0.0
 11
133.047
 21
151.963
 31
0.0
  0
LINE
  5
125
330
1E
100
AcDbEntity
  8
0
100
AcDbLine
 10
135.781
 20
153.394
 30
0.0
 11
226.644
 21
153.322
 31
0.0
  0
LINE
  5
127
330
1E
100
AcDbEntity
  8
0
100
AcDbLine
 10
226.644
 20
153.322
 30
0.0
 11
282.764
 21
153.322
 31
0.0
  0
LINE
  5
132
330
1E
100
AcDbEntity
  8
0
100
AcDbLine
 10
282.764
 20
153.322
 30
0.0
 11
338.8809999999999
 21
153.322
 31
0.0
  0
LINE
  5
133
330
1E
100
AcDbEntity
  8
0
100
AcDbLine
 10
387.849836617566
 20
153.322
 30
0.0
 11
388.358
 21
180.4129999999999
 31
0.0
  0
LINE
  5
135
330
1E
100
AcDbEntity
  8
0
100
AcDbLine
 10
338.8809999999999
 20
153.322
 30
0.0
 11
394.8209999999999
 21
153.322
 31
0.0
  0
LINE
  5
137
330
1E
100
AcDbEntity
  8
0
100
AcDbLine
 10
388.79
 20
181.9589999999999
 30
0.0
 11
389.959
 21
183.063
 31
0.0
  0
LINE
  5
138
330
1E
100
AcDbEntity
  8
0
100
AcDbLine
 10
393.119
 20
106.047
 30
0.0
 11
395.1549999999999
 21
106.047
 31
0.0
  0
LINE
  5
139
330
1E
100
AcDbEntity
  8
0
100
AcDbLine
 10
393.119
 20
106.047
 30
0.0
 11
398.231
 21
106.047
 31
0.0
  0
LINE
  5
13A
330
1E
100
AcDbEntity
  8
0
100
AcDbLine
 10
395.1549999999999
 20
106.047
 30
0.0
 11
398.231
 21
106.047
 31
0.0
  0
LINE
  5
13D
330
1E
100
AcDbEntity
  8
0
100
AcDbLine
 10
389.959
 20
183.063
 30
0.0
 11
391.5299999999999
 21
183.404
 31
0.0
  0
LINE
  5
13E
330
1E
100
AcDbEntity
  8
0
100
AcDbLine
 10
394.8209999999999
 20
153.322
 30
0.0
 11
403.1859999999999
 21
153.5409999999999
 31
0.0
  0
LINE
  5
13F
330
1E
100
AcDbEntity
  8
0
100
AcDbLine
 10
404.1209999999999
 20
106.047
 30
0.0
 11
412.3059999999999
 21
106.047
 31
0.0
  0
LINE
  5
140
330
1E
100
AcDbEntity
  8
0
100
AcDbLine
 10
403.1859999999999
 20
153.5409999999999
 30
0.0
 11
410.943
 21
153.84
 31
0.0
  0
LINE
  5
141
330
1E
100
AcDbEntity
  8
0
100
AcDbLine
 10
419.6909999999999
 20
106.047
 30
0.0
 11
425.803
 21
106.047
 31
0.0
  0
LINE
  5
142
330
1E
100
AcDbEntity
  8
0
100
AcDbLine
 10
412.3059999999999
 20
106.047
 30
0.0
 11
419.6909999999999
 21
106.047
 31
0.0
  0
LINE
  5
143
330
1E
100
AcDbEntity
  8
0
100
AcDbLine
 10
430.231
 20
106.047
 30
0.0
 11
433.0659999999999
 21
106.047
 31
0.0
  0
LINE
  5
144
330
1E
100
AcDbEntity
  8
0
100
AcDbLine
 10
433.0659999999999
 20
106.047
 30
0.0
 11
435.808
 21
106.047
 31
0.0
  0
LINE
  5
145
330
1E
100
AcDbEntity
  8
0
100
AcDbLine
 10
437.174
 20
106.047
 30
0.0
 11
438.5569999999999
 21
106.047
 31
0.0
  0
LINE
  5
146
330
1E
100
AcDbEntity
  8
0
100
AcDbLine
 10
436.183
 20
106.047
 30
0.0
 11
437.174
 21
106.047
 31
0.0
  0
LINE
  5
147
330
1E
100
AcDbEntity
  8
0
100
AcDbLine
 10
430.057180767643
 20
106.047
 30
0.0
 11
432.6309999999999
 21
106.047
 31
0.0
  0
LINE
  5
148
330
1E
100
AcDbEntity
  8
0
100
AcDbLine
 10
430.057180767643
 20
106.047
 30
0.0
 11
439.5019999999999
 21
106.047
 31
0.0
  0
LINE
  5
149
330
1E
100
AcDbEntity
  8
0
100
AcDbLine
 10
432.6309999999999
 20
106.047
 30
0.0
 11
437.449
 21
106.047
 31
0.0
  0
LINE
  5
14A
330
1E
100
AcDbEntity
  8
0
100
AcDbLine
 10
425.803
 20
106.047
 30
0.0
 11
430.231
 21
106.047
 31
0.0
  0
LINE
  5
14B
330
1E
100
AcDbEntity
  8
0
100
AcDbLine
 10
435.808
 20
106.047
 30
0.0
 11
436.183
 21
106.047
 31
0.0
  0
LINE
  5
14C
330
1E
100
AcDbEntity
  8
0
100
AcDbLine
 10
438.5569999999999
 20
106.047
 30
0.0
 11
439.013
 21
106.047
 31
0.0
  0
LINE
  5
14D
330
1E
100
AcDbEntity
  8
0
100
AcDbLine
 10
439.013
 20
106.047
 30
0.0
 11
468.078
 21
106.047
 31
0.0
  0
LINE
  5
14E
330
1E
100
AcDbEntity
  8
0
100
AcDbLine
 10
439.5019999999999
 20
106.047
 30
0.0
 11
444.9919999999999
 21
106.047
 31
0.0
  0
LINE
  5
14F
330
1E
100
AcDbEntity
  8
0
100
AcDbLine
 10
441.953
 20
106.047
 30
0.0
 11
443.043
 21
106.047
 31
0.0
  0
LINE
  5
150
330
1E
100
AcDbEntity
  8
0
100
AcDbLine
 10
449.725
 20
106.047
 30
0.0
 11
451.198
 21
106.047
 31
0.0
  0
LINE
  5
151
330
1E
100
AcDbEntity
  8
0
100
AcDbLine
 10
444.9919999999999
 20
106.047
 30
0.0
 11
449.5359999999999
 21
106.047
 31
0.0
  0
LINE
  5
152
330
1E
100
AcDbEntity
  8
0
100
AcDbLine
 10
449.5359999999999
 20
106.047
 30
0.0
 11
453.0339999999999
 21
106.047
 31
0.0
  0
LINE
  5
153
330
1E
100
AcDbEntity
  8
0
100
AcDbLine
 10
443.51
 20
106.047
 30
0.0
 11
449.725
 21
106.047
 31
0.0
  0
LINE
  5
154
330
1E
100
AcDbEntity
  8
0
100
AcDbLine
 10
451.238
 20
106.047
 30
0.0
 11
452.5719999999999
 21
106.047
 31
0.0
  0
LINE
  5
155
330
1E
100
AcDbEntity
  8
0
100
AcDbLine
 10
458.074
 20
106.047
 30
0.0
 11
462.204
 21
106.047
 31
0.0
  0
LINE
  5
156
330
1E
100
AcDbEntity
  8
0
100
AcDbLine
 10
460.4
 20
106.047
 30
0.0
 11
464.89
 21
106.047
 31
0.0
  0
LINE
  5
157
330
1E
100
AcDbEntity
  8
0
100
AcDbLine
 10
455.3939999999999
 20
106.047
 30
0.0
 11
456.794
 21
106.047
 31
0.0
  0
LINE
  5
158
330
1E
100
AcDbEntity
  8
0
100
AcDbLine
 10
456.794
 20
106.047
 30
0.0
 11
460.4
 21
106.047
 31
0.0
  0
LINE
  5
159
330
1E
100
AcDbEntity
  8
0
100
AcDbLine
 10
464.4269999999999
 20
106.047
 30
0.0
 11
495.345
 21
106.047
 31
0.0
  0
LINE
  5
15A
330
1E
100
AcDbEntity
  8
0
100
AcDbLine
 10
468.078
 20
106.047
 30
0.0
 11
497.0530000000001
 21
106.047
 31
0.0
  0
LINE
  5
15B
330
1E
100
AcDbEntity
  8
0
100
AcDbLine
 10
466.127
 20
106.047
 30
0.0
 11
467.17
 21
106.047
 31
0.0
  0
LINE
  5
15C
330
1E
100
AcDbEntity
  8
0
100
AcDbLine
 10
465.544
 20
106.047
 30
0.0
 11
466.127
 21
106.047
 31
0.0
  0
LINE
  5
15D
330
1E
100
AcDbEntity
  8
0
100
AcDbLine
 10
464.89
 20
106.047
 30
0.0
 11
465.544
 21
106.047
 31
0.0
  0
LINE
  5
15E
330
1E
100
AcDbEntity
  8
0
100
AcDbLine
 10
462.204
 20
106.047
 30
0.0
 11
464.4269999999999
 21
106.047
 31
0.0
  0
LINE
  5
15F
330
1E
100
AcDbEntity
  8
0
100
AcDbLine
 10
453.0339999999999
 20
106.047
 30
0.0
 11
455.3939999999999
 21
106.047
 31
0.0
  0
LINE
  5
160
330
1E
100
AcDbEntity
  8
0
100
AcDbLine
 10
495.345
 20
106.047
 30
0.0
 11
502.708
 21
106.047
 31
0.0
  0
LINE
  5
161
330
1E
100
AcDbEntity
  8
0
100
AcDbLine
 10
468.4919999999999
 20
106.047
 30
0.0
 11
495.345
 21
106.047
 31
0.0
  0
LINE
  5
162
330
1E
100
AcDbEntity
  8
0
100
AcDbLine
 10
467.17
 20
106.047
 30
0.0
 11
468.4919999999999
 21
106.047
 31
0.0
  0
LINE
  5
163
330
1E
100
AcDbEntity
  8
0
100
AcDbLine
 10
452.5719999999999
 20
106.047
 30
0.0
 11
454.473
 21
106.047
 31
0.0
  0
LINE
  5
164
330
1E
100
AcDbEntity
  8
0
100
AcDbLine
 10
454.473
 20
106.047
 30
0.0
 11
458.074
 21
106.047
 31
0.0
  0
LINE
  5
165
330
1E
100
AcDbEntity
  8
0
100
AcDbLine
 10
443.043
 20
106.047
 30
0.0
 11
443.51
 21
106.047
 31
0.0
  0
LINE
  5
166
330
1E
100
AcDbEntity
  8
0
100
AcDbLine
 10
497.0530000000001
 20
106.047
 30
0.0
 11
505.2929999999999
 21
106.047
 31
0.0
  0
LINE
  5
167
330
1E
100
AcDbEntity
  8
0
100
AcDbLine
 10
502.708
 20
106.047
 30
0.0
 11
505.2929999999999
 21
106.047
 31
0.0
  0
LINE
  5
168
330
1E
100
AcDbEntity
  8
0
100
AcDbLine
 10
441.194
 20
106.047
 30
0.0
 11
441.953
 21
106.047
 31
0.0
  0
LINE
  5
169
330
1E
100
AcDbEntity
  8
0
100
AcDbLine
 10
437.449
 20
106.047
 30
0.0
 11
441.194
 21
106.047
 31
0.0
  0
LINE
  5
171
330
1E
100
AcDbEntity
  8
0
100
AcDbLine
 10
528.494
 20
180.4129999999999
 30
0.0
 11
530.0
 21
106.047
 31
0.0
  0
LINE
  5
172
330
1E
100
AcDbEntity
  8
0
100
AcDbLine
 10
526.8919999999999
 20
183.063
 30
0.0
 11
528.061
 21
181.9589999999999
 31
0.0
  0
LINE
  5
173
330
1E
100
AcDbEntity
  8
0
100
AcDbLine
 10
528.061
 20
181.9589999999999
 30
0.0
 11
528.494
 21
180.4129999999999
 31
0.0
  0
LINE
  5
177
330
1E
100
AcDbEntity
  8
0
100
AcDbLine
 10
458.4259999999999
 20
183.333
 30
0.0
 11
526.8919999999999
 21
183.063
 31
0.0
  0
LINE
  5
178
330
1E
100
AcDbEntity
  8
0
100
AcDbLine
 10
391.5299999999999
 20
183.404
 30
0.0
 11
458.4259999999999
 21
183.333
 31
0.0
  0
LINE
  5
18D
330
1E
100
AcDbEntity
  8
0
100
AcDbLine
 10
388.358
 20
180.4129999999999
 30
0.0
 11
388.79
 21
181.9589999999999
 31
0.0
  0
LINE
  5
18E
330
1E
100
AcDbEntity
  8
0
100
AcDbLine
 10
508.0049999999999
 20
106.047
 30
0.0
 11
510.859
 21
106.047
 31
0.0
  0
LINE
  5
18F
330
1E
100
AcDbEntity
  8
0
100
AcDbLine
 10
508.0049999999999
 20
106.047
 30
0.0
 11
510.8569999999999
 21
106.047
 31
0.0
  0
LINE
  5
195
330
1E
100
AcDbEntity
  8
0
  6
Continuous
100
AcDbLine
 10
373.043
 20
97.88110000000001
 30
0.0
 11
376.5414980354905
 21
101.8849422814681
 31
0.0
  0
LINE
  5
196
330
1E
100
AcDbEntity
  8
0
  6
Continuous
100
AcDbLine
 10
376.5414980354905
 20
101.8849422814681
 30
0.0
 11
380.5551131318356
 21
104.8933968359564
 31
0.0
  0
LINE
  5
197
330
1E
100
AcDbEntity
  8
0
  6
Continuous
100
AcDbLine
 10
380.5551131318356
 20
104.8933968359564
 30
0.0
 11
382.6365931214186
 21
106.0265349692876
 31
0.0
  0
ENDSEC
  0
SECTION
  2
OBJECTS
  0
DICTIONARY
  5
C
330
0
100
AcDbDictionary
281
     1
  3
ACAD_GROUP
350
D
  3
ACAD_LAYOUT
350
19
  3
ACAD_MLINESTYLE
350
16
  3
ACAD_PLOTSETTINGS
350
18
  3
ACAD_PLOTSTYLENAME
350
E
  3
AcDbVariableDictionary
350
199
  0
DICTIONARY
  5
D
102
{ACAD_REACTORS
330
C
102
}
330
C
100
AcDbDictionary
281
     1
  0
DICTIONARY
  5
19
102
{ACAD_REACTORS
330
C
102
}
330
C
100
AcDbDictionary
281
     1
  3
Layout1
350
1D
  3
Model
350
21
  0
DICTIONARY
  5
16
102
{ACAD_REACTORS
330
C
102
}
330
C
100
AcDbDictionary
281
     1
  3
Standard
350
17
  0
DICTIONARY
  5
18
102
{ACAD_REACTORS
330
C
102
}
330
C
100
AcDbDictionary
281
     1
  0
ACDBDICTIONARYWDFLT
  5
E
102
{ACAD_REACTORS
330
C
102
}
330
C
100
AcDbDictionary
281
     1
  3
Normal
350
F
100
AcDbDictionaryWithDefault
340
F
  0
DICTIONARY
  5
199
102
{ACAD_REACTORS
330
C
102
}
330
C
100
AcDbDictionary
281
     1
  3
DIMASSOC
350
19A
  0
LAYOUT
  5
1D
102
{ACAD_REACTORS
330
19
102
}
330
19
100
AcDbPlotSettings
  1

  2
C:\Programme\AutoCAD LT 2002 Deu\plotters\DWF ePlot (optimized for plotting).pc3
  4

  6

 40
0.0
 41
0.0
 42
0.0
 43
0.0
 44
0.0
 45
0.0
 46
0.0
 47
0.0
 48
0.0
 49
0.0
140
0.0
141
0.0
142
1.0
143
1.0
 70
   688
 72
     0
 73
     0
 74
     5
  7

 75
    16
147
1.0
148
0.0
149
0.0
100
AcDbLayout
  1
Layout1
 70
     1
 71
     1
 10
0.0
 20
0.0
 11
12.0
 21
9.0
 12
0.0
 22
0.0
 32
0.0
 14
1.000000000000000E+20
 24
1.000000000000000E+20
 34
1.000000000000000E+20
 15
-1.000000000000000E+20
 25
-1.000000000000000E+20
 35
-1.000000000000000E+20
146
0.0
 13
0.0
 23
0.0
 33
0.0
 16
1.0
 26
0.0
 36
0.0
 17
0.0
 27
1.0
 37
0.0
 76
     0
330
1A
  0
LAYOUT
  5
21
102
{ACAD_REACTORS
330
19
102
}
330
19
100
AcDbPlotSettings
  1

  2
C:\Programme\AutoCAD LT 2002 Deu\plotters\DWF ePlot (optimized for plotting).pc3
  4

  6

 40
0.0
 41
0.0
 42
0.0
 43
0.0
 44
0.0
 45
0.0
 46
0.0
 47
0.0
 48
0.0
 49
0.0
140
0.0
141
0.0
142
1.0
143
1.0
 70
  1712
 72
     0
 73
     0
 74
     0
  7

 75
     0
147
1.0
148
0.0
149
0.0
100
AcDbLayout
  1
Model
 70
     1
 71
     0
 10
0.0
 20
0.0
 11
12.0
 21
9.0
 12
0.0
 22
0.0
 32
0.0
 14
0.0
 24
0.0
 34
0.0
 15
0.0
 25
0.0
 35
0.0
146
0.0
 13
0.0
 23
0.0
 33
0.0
 16
1.0
 26
0.0
 36
0.0
 17
0.0
 27
1.0
 37
0.0
 76
     0
330
1E
  0
MLINESTYLE
  5
17
102
{ACAD_REACTORS
330
16
102
}
330
16
100
AcDbMlineStyle
  2
STANDARD
 70
     0
  3

 62
   256
 51
90.0
 52
90.0
 71
     2
 49
0.5
 62
   256
  6
BYLAYER
 49
-0.5
 62
   256
  6
BYLAYER
  0
ACDBPLACEHOLDER
  5
F
102
{ACAD_REACTORS
330
E
102
}
330
E
  0
DICTIONARYVAR
  5
19A
102
{ACAD_REACTORS
330
199
102
}
330
199
100
DictionaryVariables
280
     0
  1
1
  0
ENDSEC
  0
EOF
