  0
SECTION
  2
HEADER
  9
$ACADVER
  1
AC1015
  9
$ACADMAINTVER
 70
    13
  9
$DWGCODEPAGE
  3
ANSI_1252
  9
$INSBASE
 10
0.0
 20
0.0
 30
0.0
  9
$EXTMIN
 10
0.2500000000000035
 20
-0.0465000000000032
 30
0.0
  9
$EXTMAX
 10
210.25
 20
117.9535
 30
0.0
  9
$LIMMIN
 10
0.0
 20
0.0
  9
$LIMMAX
 10
12.0
 20
9.0
  9
$ORTHOMODE
 70
     0
  9
$REGENMODE
 70
     1
  9
$FILLMODE
 70
     1
  9
$QTEXTMODE
 70
     0
  9
$MIRRTEXT
 70
     1
  9
$LTSCALE
 40
1.0
  9
$ATTMODE
 70
     1
  9
$TEXTSIZE
 40
0.2
  9
$TRACEWID
 40
0.05
  9
$TEXTSTYLE
  7
Standard
  9
$CLAYER
  8
0
  9
$CELTYPE
  6
Continuous
  9
$CECOLOR
 62
   256
  9
$CELTSCALE
 40
1.0
  9
$DISPSILH
 70
     0
  9
$DIMSCALE
 40
1.0
  9
$DIMASZ
 40
0.18
  9
$DIMEXO
 40
0.0625
  9
$DIMDLI
 40
0.38
  9
$DIMRND
 40
0.0
  9
$DIMDLE
 40
0.0
  9
$DIMEXE
 40
0.18
  9
$DIMTP
 40
0.0
  9
$DIMTM
 40
0.0
  9
$DIMTXT
 40
0.18
  9
$DIMCEN
 40
0.09
  9
$DIMTSZ
 40
0.0
  9
$DIMTOL
 70
     0
  9
$DIMLIM
 70
     0
  9
$DIMTIH
 70
     1
  9
$DIMTOH
 70
     1
  9
$DIMSE1
 70
     0
  9
$DIMSE2
 70
     0
  9
$DIMTAD
 70
     0
  9
$DIMZIN
 70
     0
  9
$DIMBLK
  1

  9
$DIMASO
 70
     1
  9
$DIMSHO
 70
     1
  9
$DIMPOST
  1

  9
$DIMAPOST
  1

  9
$DIMALT
 70
     0
  9
$DIMALTD
 70
     2
  9
$DIMALTF
 40
25.4
  9
$DIMLFAC
 40
1.0
  9
$DIMTOFL
 70
     0
  9
$DIMTVP
 40
0.0
  9
$DIMTIX
 70
     0
  9
$DIMSOXD
 70
     0
  9
$DIMSAH
 70
     0
  9
$DIMBLK1
  1

  9
$DIMBLK2
  1

  9
$DIMSTYLE
  2
Standard
  9
$DIMCLRD
 70
     0
  9
$DIMCLRE
 70
     0
  9
$DIMCLRT
 70
     0
  9
$DIMTFAC
 40
1.0
  9
$DIMGAP
 40
0.09
  9
$DIMJUST
 70
     0
  9
$DIMSD1
 70
     0
  9
$DIMSD2
 70
     0
  9
$DIMTOLJ
 70
     1
  9
$DIMTZIN
 70
     0
  9
$DIMALTZ
 70
     0
  9
$DIMALTTZ
 70
     0
  9
$DIMUPT
 70
     0
  9
$DIMDEC
 70
     4
  9
$DIMTDEC
 70
     4
  9
$DIMALTU
 70
     2
  9
$DIMALTTD
 70
     2
  9
$DIMTXSTY
  7
Standard
  9
$DIMAUNIT
 70
     0
  9
$DIMADEC
 70
     0
  9
$DIMALTRND
 40
0.0
  9
$DIMAZIN
 70
     0
  9
$DIMDSEP
 70
    46
  9
$DIMATFIT
 70
     3
  9
$DIMFRAC
 70
     0
  9
$DIMLDRBLK
  1

  9
$DIMLUNIT
 70
     2
  9
$DIMLWD
 70
    -2
  9
$DIMLWE
 70
    -2
  9
$DIMTMOVE
 70
     0
  9
$LUNITS
 70
     2
  9
$LUPREC
 70
     4
  9
$SKETCHINC
 40
0.1
  9
$FILLETRAD
 40
0.0
  9
$AUNITS
 70
     0
  9
$AUPREC
 70
     0
  9
$MENU
  1
.
  9
$ELEVATION
 40
0.0
  9
$PELEVATION
 40
0.0
  9
$THICKNESS
 40
0.0
  9
$LIMCHECK
 70
     0
  9
$CHAMFERA
 40
0.0
  9
$CHAMFERB
 40
0.0
  9
$CHAMFERC
 40
0.0
  9
$CHAMFERD
 40
0.0
  9
$SKPOLY
 70
     0
  9
$TDCREATE
 40
2455508.781995613
  9
$TDUCREATE
 40
2455508.740328947
  9
$TDUPDATE
 40
2455508.785568032
  9
$TDUUPDATE
 40
2455508.743901366
  9
$TDINDWG
 40
0.0035724190
  9
$TDUSRTIMER
 40
0.0035724190
  9
$USRTIMER
 70
     1
  9
$ANGBASE
 50
0.0
  9
$ANGDIR
 70
     0
  9
$PDMODE
 70
     0
  9
$PDSIZE
 40
0.0
  9
$PLINEWID
 40
0.0
  9
$SPLFRAME
 70
     0
  9
$SPLINETYPE
 70
     6
  9
$SPLINESEGS
 70
     8
  9
$HANDSEED
  5
7C1
  9
$SURFTAB1
 70
     6
  9
$SURFTAB2
 70
     6
  9
$SURFTYPE
 70
     6
  9
$SURFU
 70
     6
  9
$SURFV
 70
     6
  9
$UCSBASE
  2

  9
$UCSNAME
  2

  9
$UCSORG
 10
0.0
 20
0.0
 30
0.0
  9
$UCSXDIR
 10
1.0
 20
0.0
 30
0.0
  9
$UCSYDIR
 10
0.0
 20
1.0
 30
0.0
  9
$UCSORTHOREF
  2

  9
$UCSORTHOVIEW
 70
     1
  9
$UCSORGTOP
 10
0.0
 20
0.0
 30
0.0
  9
$UCSORGBOTTOM
 10
0.0
 20
0.0
 30
0.0
  9
$UCSORGLEFT
 10
0.0
 20
0.0
 30
0.0
  9
$UCSORGRIGHT
 10
0.0
 20
0.0
 30
0.0
  9
$UCSORGFRONT
 10
0.0
 20
0.0
 30
0.0
  9
$UCSORGBACK
 10
0.0
 20
0.0
 30
0.0
  9
$PUCSBASE
  2

  9
$PUCSNAME
  2

  9
$PUCSORG
 10
0.0
 20
0.0
 30
0.0
  9
$PUCSXDIR
 10
1.0
 20
0.0
 30
0.0
  9
$PUCSYDIR
 10
0.0
 20
1.0
 30
0.0
  9
$PUCSORTHOREF
  2

  9
$PUCSORTHOVIEW
 70
     0
  9
$PUCSORGTOP
 10
0.0
 20
0.0
 30
0.0
  9
$PUCSORGBOTTOM
 10
0.0
 20
0.0
 30
0.0
  9
$PUCSORGLEFT
 10
0.0
 20
0.0
 30
0.0
  9
$PUCSORGRIGHT
 10
0.0
 20
0.0
 30
0.0
  9
$PUCSORGFRONT
 10
0.0
 20
0.0
 30
0.0
  9
$PUCSORGBACK
 10
0.0
 20
0.0
 30
0.0
  9
$USERI1
 70
     0
  9
$USERI2
 70
     0
  9
$USERI3
 70
     0
  9
$USERI4
 70
     0
  9
$USERI5
 70
     0
  9
$USERR1
 40
0.0
  9
$USERR2
 40
0.0
  9
$USERR3
 40
0.0
  9
$USERR4
 40
0.0
  9
$USERR5
 40
0.0
  9
$WORLDVIEW
 70
     1
  9
$SHADEDGE
 70
     3
  9
$SHADEDIF
 70
    70
  9
$TILEMODE
 70
     1
  9
$MAXACTVP
 70
    64
  9
$PINSBASE
 10
0.0
 20
0.0
 30
0.0
  9
$PLIMCHECK
 70
     0
  9
$PEXTMIN
 10
1.000000000000000E+20
 20
1.000000000000000E+20
 30
1.000000000000000E+20
  9
$PEXTMAX
 10
-1.000000000000000E+20
 20
-1.000000000000000E+20
 30
-1.000000000000000E+20
  9
$PLIMMIN
 10
0.0
 20
0.0
  9
$PLIMMAX
 10
12.0
 20
9.0
  9
$UNITMODE
 70
     0
  9
$VISRETAIN
 70
     1
  9
$PLINEGEN
 70
     0
  9
$PSLTSCALE
 70
     1
  9
$TREEDEPTH
 70
  3020
  9
$CMLSTYLE
  2
Standard
  9
$CMLJUST
 70
     0
  9
$CMLSCALE
 40
1.0
  9
$PROXYGRAPHICS
 70
     1
  9
$MEASUREMENT
 70
     0
  9
$CELWEIGHT
370
    -1
  9
$ENDCAPS
280
     0
  9
$JOINSTYLE
280
     0
  9
$LWDISPLAY
290
     0
  9
$INSUNITS
 70
     0
  9
$HYPERLINKBASE
  1

  9
$STYLESHEET
  1

  9
$XEDIT
290
     1
  9
$CEPSNTYPE
380
     0
  9
$PSTYLEMODE
290
     1
  9
$FINGERPRINTGUID
  2
{748915F3-174D-4296-817B-DBDB7EEE96D9}
  9
$VERSIONGUID
  2
{18D91DFA-8DEB-4F38-96E0-1C2B1B62EE6C}
  9
$EXTNAMES
290
     1
  9
$PSVPSCALE
 40
0.0
  9
$OLESTARTUP
290
     0
  0
ENDSEC
  0
SECTION
  2
CLASSES
  0
CLASS
  1
ACDBDICTIONARYWDFLT
  2
AcDbDictionaryWithDefault
  3
AutoCAD 2000
 90
        0
280
     0
281
     0
  0
CLASS
  1
ACDBPLACEHOLDER
  2
AcDbPlaceHolder
  3
AutoCAD 2000
 90
        0
280
     0
281
     0
  0
CLASS
  1
LAYOUT
  2
AcDbLayout
  3
AutoCAD 2000
 90
        0
280
     0
281
     0
  0
CLASS
  1
DICTIONARYVAR
  2
AcDbDictionaryVar
  3
AutoCAD 2000
 90
        0
280
     0
281
     0
  0
ENDSEC
  0
SECTION
  2
TABLES
  0
TABLE
  2
VPORT
  5
8
330
0
100
AcDbSymbolTable
 70
     4
  0
VPORT
  5
7C0
330
8
100
AcDbSymbolTableRecord
100
AcDbViewportTableRecord
  2
*Active
 70
     0
 10
0.0
 20
0.0
 11
1.0
 21
1.0
 12
105.2499999999999
 22
58.9535
 13
0.0
 23
0.0
 14
1.0
 24
1.0
 15
0.0
 25
0.0
 16
0.0
 26
0.0
 36
1.0
 17
0.0
 27
0.0
 37
0.0
 40
118.7981961668545
 41
2.073363431151241
 42
50.0
 43
0.0
 44
0.0
 50
0.0
 51
0.0
 71
     0
 72
   100
 73
     1
 74
     3
 75
     0
 76
     0
 77
     0
 78
     0
281
     0
 65
     1
110
0.0
120
0.0
130
0.0
111
1.0
121
0.0
131
0.0
112
0.0
122
1.0
132
0.0
 79
     1
146
0.0
  0
ENDTAB
  0
TABLE
  2
LTYPE
  5
5
330
0
100
AcDbSymbolTable
 70
     1
  0
LTYPE
  5
13
330
5
100
AcDbSymbolTableRecord
100
AcDbLinetypeTableRecord
  2
ByBlock
 70
     0
  3

 72
    65
 73
     0
 40
0.0
  0
LTYPE
  5
14
330
5
100
AcDbSymbolTableRecord
100
AcDbLinetypeTableRecord
  2
ByLayer
 70
     0
  3

 72
    65
 73
     0
 40
0.0
  0
LTYPE
  5
15
330
5
100
AcDbSymbolTableRecord
100
AcDbLinetypeTableRecord
  2
Continuous
 70
     0
  3
Solid line
 72
    65
 73
     0
 40
0.0
  0
ENDTAB
  0
TABLE
  2
LAYER
  5
2
330
0
100
AcDbSymbolTable
 70
     1
  0
LAYER
  5
10
330
2
100
AcDbSymbolTableRecord
100
AcDbLayerTableRecord
  2
0
 70
     0
 62
     7
  6
Continuous
370
    -3
390
F
  0
ENDTAB
  0
TABLE
  2
STYLE
  5
3
330
0
100
AcDbSymbolTable
 70
     1
  0
STYLE
  5
11
330
3
100
AcDbSymbolTableRecord
100
AcDbTextStyleTableRecord
  2
Standard
 70
     0
 40
0.0
 41
1.0
 50
0.0
 71
     0
 42
0.2
  3
txt
  4

  0
ENDTAB
  0
TABLE
  2
VIEW
  5
6
330
0
100
AcDbSymbolTable
 70
     0
  0
ENDTAB
  0
TABLE
  2
UCS
  5
7
330
0
100
AcDbSymbolTable
 70
     0
  0
ENDTAB
  0
TABLE
  2
APPID
  5
9
330
0
100
AcDbSymbolTable
 70
     1
  0
APPID
  5
12
330
9
100
AcDbSymbolTableRecord
100
AcDbRegAppTableRecord
  2
ACAD
 70
     0
  0
ENDTAB
  0
TABLE
  2
DIMSTYLE
  5
A
330
0
100
AcDbSymbolTable
 70
     1
100
AcDbDimStyleTable
 71
     0
  0
DIMSTYLE
105
3BE
330
A
100
AcDbSymbolTableRecord
100
AcDbDimStyleTableRecord
  2
Standard
 70
     0
340
11
  0
ENDTAB
  0
TABLE
  2
BLOCK_RECORD
  5
1
330
0
100
AcDbSymbolTable
 70
     1
  0
BLOCK_RECORD
  5
1E
330
1
100
AcDbSymbolTableRecord
100
AcDbBlockTableRecord
  2
*Model_Space
340
21
  0
BLOCK_RECORD
  5
1A
330
1
100
AcDbSymbolTableRecord
100
AcDbBlockTableRecord
  2
*Paper_Space
340
1D
  0
ENDTAB
  0
ENDSEC
  0
SECTION
  2
BLOCKS
  0
BLOCK
  5
1F
330
1E
100
AcDbEntity
  8
0
100
AcDbBlockBegin
  2
*Model_Space
 70
     0
 10
0.0
 20
0.0
 30
0.0
  3
*Model_Space
  1

  0
ENDBLK
  5
20
330
1E
100
AcDbEntity
  8
0
100
AcDbBlockEnd
  0
BLOCK
  5
1B
330
1A
100
AcDbEntity
 67
     1
  8
0
100
AcDbBlockBegin
  2
*Paper_Space
 70
     0
 10
0.0
 20
0.0
 30
0.0
  3
*Paper_Space
  1

  0
ENDBLK
  5
1C
330
1A
100
AcDbEntity
 67
     1
  8
0
100
AcDbBlockEnd
  0
ENDSEC
  0
SECTION
  2
ENTITIES
  0
LINE
  5
25
330
1E
100
AcDbEntity
  8
0
100
AcDbLine
 10
164.4379999999999
 20
62.4221
 30
0.0
 11
166.1669999999999
 21
4.516809999999999
 31
0.0
  0
LINE
  5
30
330
1E
100
AcDbEntity
  8
0
100
AcDbLine
 10
166.1669999999999
 20
4.516809999999999
 30
0.0
 11
166.614
 21
2.27014
 31
0.0
  0
LINE
  5
31
330
1E
100
AcDbEntity
  8
0
100
AcDbLine
 10
166.614
 20
2.27014
 30
0.0
 11
167.13
 21
1.232059999999999
 31
0.0
  0
LINE
  5
32
330
1E
100
AcDbEntity
  8
0
100
AcDbLine
 10
169.467
 20
-0.0465000000000032
 30
0.0
 11
170.0
 21
0.0608509999999967
 31
0.0
  0
LINE
  5
33
330
1E
100
AcDbEntity
  8
0
100
AcDbLine
 10
169.124
 20
-0.0388360000000032
 30
0.0
 11
169.3149999999999
 21
-0.0224370000000032
 31
0.0
  0
LINE
  5
34
330
1E
100
AcDbEntity
  8
0
100
AcDbLine
 10
168.174
 20
0.267777999999997
 30
0.0
 11
168.745
 21
-0.0014640000000032
 31
0.0
  0
LINE
  5
35
330
1E
100
AcDbEntity
  8
0
100
AcDbLine
 10
168.174
 20
0.267777999999997
 30
0.0
 11
168.745
 21
-0.0014640000000032
 31
0.0
  0
LINE
  5
36
330
1E
100
AcDbEntity
  8
0
100
AcDbLine
 10
170.6279999999999
 20
0.221602999999997
 30
0.0
 11
170.6843058643079
 21
0.246230151414196
 31
0.0
  0
LINE
  5
37
330
1E
100
AcDbEntity
  8
0
100
AcDbLine
 10
170.6279999999999
 20
0.221602999999997
 30
0.0
 11
170.889
 21
0.301681999999997
 31
0.0
  0
LINE
  5
38
330
1E
100
AcDbEntity
  8
0
100
AcDbLine
 10
170.6279999999999
 20
0.221602999999997
 30
0.0
 11
170.6843058643079
 21
0.246230151414196
 31
0.0
  0
LINE
  5
39
330
1E
100
AcDbEntity
  8
0
100
AcDbLine
 10
170.889
 20
0.301681999999997
 30
0.0
 11
171.7659999999999
 21
1.03662
 31
0.0
  0
LINE
  5
3A
330
1E
100
AcDbEntity
  8
0
100
AcDbLine
 10
171.7659999999999
 20
1.03662
 30
0.0
 11
171.926
 21
1.31071
 31
0.0
  0
LINE
  5
3B
330
1E
100
AcDbEntity
  8
0
100
AcDbLine
 10
170.0
 20
0.0608509999999967
 30
0.0
 11
170.6279999999999
 21
0.221602999999997
 31
0.0
  0
LINE
  5
3C
330
1E
100
AcDbEntity
  8
0
100
AcDbLine
 10
171.7759999999999
 20
1.09864
 30
0.0
 11
171.926
 21
1.31071
 31
0.0
  0
LINE
  5
3D
330
1E
100
AcDbEntity
  8
0
100
AcDbLine
 10
168.745
 20
-0.0014640000000032
 30
0.0
 11
169.124
 21
-0.0388360000000032
 31
0.0
  0
LINE
  5
3E
330
1E
100
AcDbEntity
  8
0
100
AcDbLine
 10
169.3149999999999
 20
-0.0224370000000032
 30
0.0
 11
169.467
 21
-0.0465000000000032
 31
0.0
  0
LINE
  5
3F
330
1E
100
AcDbEntity
  8
0
100
AcDbLine
 10
167.529
 20
0.711527999999997
 30
0.0
 11
168.174
 21
0.267777999999997
 31
0.0
  0
LINE
  5
40
330
1E
100
AcDbEntity
  8
0
100
AcDbLine
 10
171.926
 20
1.31071
 30
0.0
 11
172.1709999999999
 21
1.79457
 31
0.0
  0
LINE
  5
41
330
1E
100
AcDbEntity
  8
0
100
AcDbLine
 10
172.1709999999999
 20
1.79457
 30
0.0
 11
172.3829999999999
 21
2.125129999999999
 31
0.0
  0
LINE
  5
42
330
1E
100
AcDbEntity
  8
0
100
AcDbLine
 10
172.3829999999999
 20
2.125129999999999
 30
0.0
 11
172.647
 21
2.6486
 31
0.0
  0
LINE
  5
43
330
1E
100
AcDbEntity
  8
0
100
AcDbLine
 10
172.8529999999999
 20
3.09382
 30
0.0
 11
173.1209999999999
 21
4.451469999999999
 31
0.0
  0
LINE
  5
44
330
1E
100
AcDbEntity
  8
0
100
AcDbLine
 10
173.1209999999999
 20
4.451469999999999
 30
0.0
 11
173.4949999999999
 21
6.354639999999999
 31
0.0
  0
LINE
  5
49
330
1E
100
AcDbEntity
  8
0
100
AcDbLine
 10
173.4949999999999
 20
6.354639999999996
 30
0.0
 11
176.4
 21
55.0365
 31
0.0
  0
LINE
  5
4B
330
1E
100
AcDbEntity
  8
0
100
AcDbLine
 10
176.4
 20
55.0365
 30
0.0
 11
176.607
 21
57.5409
 31
0.0
  0
LINE
  5
4C
330
1E
100
AcDbEntity
  8
0
100
AcDbLine
 10
176.3909999999999
 20
54.8072
 30
0.0
 11
176.4
 21
55.0365
 31
0.0
  0
LINE
  5
4D
330
1E
100
AcDbEntity
  8
0
100
AcDbLine
 10
176.6199999999999
 20
57.6062
 30
0.0
 11
176.9129999999999
 21
59.4611
 31
0.0
  0
LINE
  5
4E
330
1E
100
AcDbEntity
  8
0
100
AcDbLine
 10
176.607
 20
57.5409
 30
0.0
 11
176.6509999999999
 21
57.7997
 31
0.0
  0
LINE
  5
4F
330
1E
100
AcDbEntity
  8
0
100
AcDbLine
 10
176.9129999999999
 20
59.4611
 30
0.0
 11
177.547
 21
61.2436
 31
0.0
  0
LINE
  5
50
330
1E
100
AcDbEntity
  8
0
100
AcDbLine
 10
176.6509999999999
 20
57.7997
 30
0.0
 11
176.6948813345679
 21
58.0802525170281
 31
0.0
  0
LINE
  5
51
330
1E
100
AcDbEntity
  8
0
100
AcDbLine
 10
176.6509999999999
 20
57.7997
 30
0.0
 11
176.6948813345679
 21
58.0802525170281
 31
0.0
  0
LINE
  5
52
330
1E
100
AcDbEntity
  8
0
100
AcDbLine
 10
177.6999999999999
 20
61.7393
 30
0.0
 11
177.803
 21
61.98699999999999
 31
0.0
  0
LINE
  5
53
330
1E
100
AcDbEntity
  8
0
100
AcDbLine
 10
177.893
 20
62.33
 30
0.0
 11
178.974
 21
64.32640000000001
 31
0.0
  0
LINE
  5
55
330
1E
100
AcDbEntity
  8
0
100
AcDbLine
 10
177.803
 20
61.98699999999999
 30
0.0
 11
177.893
 21
62.33
 31
0.0
  0
LINE
  5
56
330
1E
100
AcDbEntity
  8
0
100
AcDbLine
 10
177.547
 20
61.2436
 30
0.0
 11
177.6999999999999
 21
61.7393
 31
0.0
  0
LINE
  5
57
330
1E
100
AcDbEntity
  8
0
100
AcDbLine
 10
172.647
 20
2.6486
 30
0.0
 11
172.713115081767
 21
2.82707336761771
 31
0.0
  0
LINE
  5
58
330
1E
100
AcDbEntity
  8
0
100
AcDbLine
 10
172.647
 20
2.6486
 30
0.0
 11
172.8529999999999
 21
3.09382
 31
0.0
  0
LINE
  5
59
330
1E
100
AcDbEntity
  8
0
100
AcDbLine
 10
167.13
 20
1.232059999999999
 30
0.0
 11
167.529
 21
0.711527999999997
 31
0.0
  0
LINE
  5
5A
330
1E
100
AcDbEntity
  8
0
100
AcDbLine
 10
178.974
 20
64.32640000000001
 30
0.0
 11
180.3459999999999
 21
65.7594
 31
0.0
  0
LINE
  5
5C
330
1E
100
AcDbEntity
  8
0
100
AcDbLine
 10
180.3459999999999
 20
65.7594
 30
0.0
 11
182.1419999999999
 21
66.99679999999999
 31
0.0
  0
LINE
  5
5F
330
1E
100
AcDbEntity
  8
0
100
AcDbLine
 10
200.461
 20
66.04649999999999
 30
0.0
 11
200.4909999999999
 21
65.7833
 31
0.0
  0
LINE
  5
60
330
1E
100
AcDbEntity
  8
0
100
AcDbLine
 10
200.461
 20
66.04649999999999
 30
0.0
 11
200.461
 21
66.565
 31
0.0
  0
LINE
  5
66
330
1E
100
AcDbEntity
  8
0
100
AcDbLine
 10
22.024
 20
73.6842
 30
0.0
 11
22.315
 21
73.89790000000001
 31
0.0
  0
LINE
  5
72
330
1E
100
AcDbEntity
  8
0
100
AcDbLine
 10
22.315
 20
73.89790000000001
 30
0.0
 11
22.396
 21
73.9656
 31
0.0
  0
LINE
  5
74
330
1E
100
AcDbEntity
  8
0
100
AcDbLine
 10
0.2500000000000035
 20
80.9553
 30
0.0
 11
22.024
 21
73.6842
 31
0.0
  0
LINE
  5
75
330
1E
100
AcDbEntity
  8
0
100
AcDbLine
 10
22.585
 20
74.311
 30
0.0
 11
22.7424760498326
 21
74.6064763685023
 31
0.0
  0
LINE
  5
76
330
1E
100
AcDbEntity
  8
0
100
AcDbLine
 10
22.585
 20
74.311
 30
0.0
 11
25.142
 21
79.0194
 31
0.0
  0
LINE
  5
77
330
1E
100
AcDbEntity
  8
0
100
AcDbLine
 10
22.396
 20
73.9656
 30
0.0
 11
22.585
 21
74.311
 31
0.0
  0
LINE
  5
7D
330
1E
100
AcDbEntity
  8
0
100
AcDbLine
 10
25.142
 20
79.0194
 30
0.0
 11
27.54
 21
82.58320000000001
 31
0.0
  0
LINE
  5
88
330
1E
100
AcDbEntity
  8
0
100
AcDbLine
 10
164.25
 20
77.5887
 30
0.0
 11
164.349
 21
80.7722
 31
0.0
  0
LINE
  5
89
330
1E
100
AcDbEntity
  8
0
100
AcDbLine
 10
164.25
 20
77.5887
 30
0.0
 11
164.4379999999999
 21
62.4221
 31
0.0
  0
LINE
  5
8B
330
1E
100
AcDbEntity
  8
0
100
AcDbLine
 10
0.250000000000004
 20
80.9553
 30
0.0
 11
2.032
 21
85.11459999999999
 31
0.0
  0
LINE
  5
90
330
1E
100
AcDbEntity
  8
0
100
AcDbLine
 10
0.250000000000004
 20
80.9553
 30
0.0
 11
2.032
 21
85.11459999999999
 31
0.0
  0
LINE
  5
91
330
1E
100
AcDbEntity
  8
0
100
AcDbLine
 10
0.250000000000004
 20
80.9553
 30
0.0
 11
0.2730000000000039
 21
81.00669999999999
 31
0.0
  0
LINE
  5
94
330
1E
100
AcDbEntity
  8
0
100
AcDbLine
 10
2.032
 20
85.11459999999999
 30
0.0
 11
4.059999999999999
 21
88.6245
 31
0.0
  0
LINE
  5
95
330
1E
100
AcDbEntity
  8
0
100
AcDbLine
 10
27.54
 20
82.58320000000001
 30
0.0
 11
29.481
 21
84.2312
 31
0.0
  0
LINE
  5
96
330
1E
100
AcDbEntity
  8
0
100
AcDbLine
 10
50.217
 20
84.3241
 30
0.0
 11
164.3260696702059
 21
71.45190074391781
 31
0.0
  0
LINE
  5
97
330
1E
100
AcDbEntity
  8
0
100
AcDbLine
 10
29.481
 20
84.2312
 30
0.0
 11
30.769
 21
84.9826
 31
0.0
  0
LINE
  5
98
330
1E
100
AcDbEntity
  8
0
100
AcDbLine
 10
30.769
 20
84.9826
 30
0.0
 11
31.368
 21
85.21689999999999
 31
0.0
  0
LINE
  5
9A
330
1E
100
AcDbEntity
  8
0
100
AcDbLine
 10
31.368
 20
85.21689999999999
 30
0.0
 11
32.075
 21
85.51869999999999
 31
0.0
  0
LINE
  5
9B
330
1E
100
AcDbEntity
  8
0
100
AcDbLine
 10
50.217
 20
84.3241
 30
0.0
 11
164.3260696702059
 21
71.45190074391781
 31
0.0
  0
LINE
  5
9D
330
1E
100
AcDbEntity
  8
0
100
AcDbLine
 10
4.161
 20
88.77460000000001
 30
0.0
 11
6.593999999999999
 21
91.9321
 31
0.0
  0
LINE
  5
9E
330
1E
100
AcDbEntity
  8
0
100
AcDbLine
 10
4.161
 20
88.77460000000001
 30
0.0
 11
6.593999999999929
 21
91.93209999999991
 31
0.0
  0
LINE
  5
9F
330
1E
100
AcDbEntity
  8
0
100
AcDbLine
 10
4.161
 20
88.77460000000001
 30
0.0
 11
4.3792355541042
 21
89.05344075720899
 31
0.0
  0
LINE
  5
A0
330
1E
100
AcDbEntity
  8
0
100
AcDbLine
 10
4.161
 20
88.77460000000001
 30
0.0
 11
4.379235554104189
 21
89.05344075720899
 31
0.0
  0
LINE
  5
A1
330
1E
100
AcDbEntity
  8
0
100
AcDbLine
 10
4.108
 20
88.70090000000001
 30
0.0
 11
4.161
 21
88.77460000000001
 31
0.0
  0
LINE
  5
A2
330
1E
100
AcDbEntity
  8
0
100
AcDbLine
 10
4.059999999999999
 20
88.6245
 30
0.0
 11
4.108
 21
88.70090000000001
 31
0.0
  0
LINE
  5
A3
330
1E
100
AcDbEntity
  8
0
100
AcDbLine
 10
33.606
 20
85.8389
 30
0.0
 11
34.455
 21
85.8983
 31
0.0
  0
LINE
  5
A4
330
1E
100
AcDbEntity
  8
0
100
AcDbLine
 10
32.58599999999999
 20
85.6089
 30
0.0
 11
33.606
 21
85.8389
 31
0.0
  0
LINE
  5
A5
330
1E
100
AcDbEntity
  8
0
100
AcDbLine
 10
32.075
 20
85.51869999999999
 30
0.0
 11
32.58599999999999
 21
85.6089
 31
0.0
  0
LINE
  5
A6
330
1E
100
AcDbEntity
  8
0
100
AcDbLine
 10
37.07
 20
85.7839
 30
0.0
 11
50.217
 21
84.3241
 31
0.0
  0
LINE
  5
A8
330
1E
100
AcDbEntity
  8
0
100
AcDbLine
 10
34.981
 20
85.94939999999999
 30
0.0
 11
36.30599999999999
 21
85.86820000000001
 31
0.0
  0
LINE
  5
A9
330
1E
100
AcDbEntity
  8
0
100
AcDbLine
 10
34.455
 20
85.8983
 30
0.0
 11
34.981
 21
85.94939999999999
 31
0.0
  0
LINE
  5
AA
330
1E
100
AcDbEntity
  8
0
100
AcDbLine
 10
36.30599999999999
 20
85.86820000000001
 30
0.0
 11
36.43399999999999
 21
85.8567
 31
0.0
  0
LINE
  5
AB
330
1E
100
AcDbEntity
  8
0
100
AcDbLine
 10
36.43399999999999
 20
85.8567
 30
0.0
 11
37.07
 21
85.7839
 31
0.0
  0
LINE
  5
AC
330
1E
100
AcDbEntity
  8
0
100
AcDbLine
 10
164.6069999999999
 20
85.2471
 30
0.0
 11
165.039
 21
88.9079
 31
0.0
  0
LINE
  5
AD
330
1E
100
AcDbEntity
  8
0
100
AcDbLine
 10
165.182
 20
89.6738
 30
0.0
 11
165.3549999999999
 21
90.31539999999999
 31
0.0
  0
LINE
  5
AE
330
1E
100
AcDbEntity
  8
0
100
AcDbLine
 10
165.039
 20
88.9079
 30
0.0
 11
165.182
 21
89.6738
 31
0.0
  0
LINE
  5
AF
330
1E
100
AcDbEntity
  8
0
100
AcDbLine
 10
6.593999999999999
 20
91.9321
 30
0.0
 11
9.292999999999999
 21
94.89360000000001
 31
0.0
  0
LINE
  5
B0
330
1E
100
AcDbEntity
  8
0
100
AcDbLine
 10
165.3549999999999
 20
90.31539999999999
 30
0.0
 11
165.995
 21
92.2879
 31
0.0
  0
LINE
  5
B1
330
1E
100
AcDbEntity
  8
0
100
AcDbLine
 10
165.995
 20
92.2879
 30
0.0
 11
166.148
 21
92.73789999999999
 31
0.0
  0
LINE
  5
B2
330
1E
100
AcDbEntity
  8
0
100
AcDbLine
 10
166.148
 20
92.73789999999999
 30
0.0
 11
166.6109999999999
 21
93.76890000000001
 31
0.0
  0
LINE
  5
B3
330
1E
100
AcDbEntity
  8
0
100
AcDbLine
 10
166.6109999999999
 20
93.76890000000001
 30
0.0
 11
166.867
 21
94.3274
 31
0.0
  0
LINE
  5
B4
330
1E
100
AcDbEntity
  8
0
100
AcDbLine
 10
9.292999999999999
 20
94.89360000000001
 30
0.0
 11
12.271
 21
97.4421
 31
0.0
  0
LINE
  5
B5
330
1E
100
AcDbEntity
  8
0
100
AcDbLine
 10
166.867
 20
94.3274
 30
0.0
 11
167.4009999999999
 21
95.2339
 31
0.0
  0
LINE
  5
B6
330
1E
100
AcDbEntity
  8
0
100
AcDbLine
 10
167.4009999999999
 20
95.2339
 30
0.0
 11
167.98
 21
96.0644
 31
0.0
  0
LINE
  5
B7
330
1E
100
AcDbEntity
  8
0
100
AcDbLine
 10
164.349
 20
80.7722
 30
0.0
 11
164.6069999999999
 21
85.2471
 31
0.0
  0
LINE
  5
B8
330
1E
100
AcDbEntity
  8
0
100
AcDbLine
 10
168.369
 20
96.5726
 30
0.0
 11
168.7509999999999
 21
96.9536
 31
0.0
  0
LINE
  5
B9
330
1E
100
AcDbEntity
  8
0
100
AcDbLine
 10
167.98
 20
96.0644
 30
0.0
 11
168.1166843024769
 21
96.22365885922041
 31
0.0
  0
LINE
  5
BA
330
1E
100
AcDbEntity
  8
0
100
AcDbLine
 10
167.98
 20
96.0644
 30
0.0
 11
168.369
 21
96.5726
 31
0.0
  0
LINE
  5
BB
330
1E
100
AcDbEntity
  8
0
100
AcDbLine
 10
12.271
 20
97.4421
 30
0.0
 11
12.389
 21
97.5401
 31
0.0
  0
LINE
  5
BC
330
1E
100
AcDbEntity
  8
0
100
AcDbLine
 10
12.389
 20
97.5401
 30
0.0
 11
12.50599999999999
 21
97.62220000000001
 31
0.0
  0
LINE
  5
BD
330
1E
100
AcDbEntity
  8
0
100
AcDbLine
 10
12.50599999999999
 20
97.62220000000001
 30
0.0
 11
15.697
 21
99.7811
 31
0.0
  0
LINE
  5
BE
330
1E
100
AcDbEntity
  8
0
100
AcDbLine
 10
12.50599999999999
 20
97.62220000000001
 30
0.0
 11
12.90853396710059
 21
97.8920575635648
 31
0.0
  0
LINE
  5
BF
330
1E
100
AcDbEntity
  8
0
100
AcDbLine
 10
12.50599999999999
 20
97.62220000000001
 30
0.0
 11
12.90853396710059
 21
97.89205756356491
 31
0.0
  0
LINE
  5
C0
330
1E
100
AcDbEntity
  8
0
100
AcDbLine
 10
168.7509999999999
 20
96.9536
 30
0.0
 11
169.229
 21
97.3948
 31
0.0
  0
LINE
  5
C1
330
1E
100
AcDbEntity
  8
0
100
AcDbLine
 10
169.229
 20
97.3948
 30
0.0
 11
170.46
 21
98.3014
 31
0.0
  0
LINE
  5
C2
330
1E
100
AcDbEntity
  8
0
100
AcDbLine
 10
170.46
 20
98.3014
 30
0.0
 11
170.516
 21
98.34139999999999
 31
0.0
  0
LINE
  5
C3
330
1E
100
AcDbEntity
  8
0
100
AcDbLine
 10
170.516
 20
98.34139999999999
 30
0.0
 11
170.6559999999999
 21
98.4087
 31
0.0
  0
LINE
  5
C4
330
1E
100
AcDbEntity
  8
0
100
AcDbLine
 10
168.580610055517
 20
96.7598008594971
 30
0.0
 11
168.7509999999999
 21
96.9536
 31
0.0
  0
LINE
  5
C5
330
1E
100
AcDbEntity
  8
0
100
AcDbLine
 10
183.5099999999999
 20
67.28100000000001
 30
0.0
 11
188.009
 21
67.7068
 31
0.0
  0
LINE
  5
C6
330
1E
100
AcDbEntity
  8
0
100
AcDbLine
 10
182.1419999999999
 20
66.99679999999999
 30
0.0
 11
183.5099999999999
 21
67.28100000000001
 31
0.0
  0
LINE
  5
C7
330
1E
100
AcDbEntity
  8
0
100
AcDbLine
 10
188.009
 20
67.7068
 30
0.0
 11
188.5399999999999
 21
67.633
 31
0.0
  0
LINE
  5
C8
330
1E
100
AcDbEntity
  8
0
100
AcDbLine
 10
188.517
 20
67.6302
 30
0.0
 11
188.786370229124
 21
67.61228835790849
 31
0.0
  0
LINE
  5
C9
330
1E
100
AcDbEntity
  8
0
100
AcDbLine
 10
192.932
 20
97.39319999999999
 30
0.0
 11
193.9449999999999
 21
95.1974
 31
0.0
  0
LINE
  5
CA
330
1E
100
AcDbEntity
  8
0
100
AcDbLine
 10
193.9449999999999
 20
95.1974
 30
0.0
 11
194.8129999999999
 21
93.31470000000001
 31
0.0
  0
LINE
  5
CB
330
1E
100
AcDbEntity
  8
0
100
AcDbLine
 10
192.755697441071
 20
97.77455781706592
 30
0.0
 11
193.0059999999999
 21
97.95580000000001
 31
0.0
  0
LINE
  5
CC
330
1E
100
AcDbEntity
  8
0
100
AcDbLine
 10
193.05
 20
97.98650000000002
 30
0.0
 11
194.8039999999999
 21
98.76739999999999
 31
0.0
  0
LINE
  5
CD
330
1E
100
AcDbEntity
  8
0
100
AcDbLine
 10
193.0059999999999
 20
97.95580000000001
 30
0.0
 11
193.05
 21
97.98650000000002
 31
0.0
  0
LINE
  5
CE
330
1E
100
AcDbEntity
  8
0
100
AcDbLine
 10
198.964
 20
69.2535
 30
0.0
 11
198.965
 21
68.1127
 31
0.0
  0
LINE
  5
CF
330
1E
100
AcDbEntity
  8
0
100
AcDbLine
 10
198.964
 20
69.2535
 30
0.0
 11
198.964
 21
71.3287
 31
0.0
  0
LINE
  5
D0
330
1E
100
AcDbEntity
  8
0
100
AcDbLine
 10
198.964
 20
71.3287
 30
0.0
 11
198.965
 21
73.8615
 31
0.0
  0
LINE
  5
D1
330
1E
100
AcDbEntity
  8
0
100
AcDbLine
 10
198.96
 20
79.40389999999999
 30
0.0
 11
198.965
 21
76.75629999999999
 31
0.0
  0
LINE
  5
D2
330
1E
100
AcDbEntity
  8
0
100
AcDbLine
 10
198.705
 20
82.4623
 30
0.0
 11
198.96
 21
79.40389999999999
 31
0.0
  0
LINE
  5
D3
330
1E
100
AcDbEntity
  8
0
100
AcDbLine
 10
198.3529999999999
 20
84.29120000000001
 30
0.0
 11
198.705
 21
82.4623
 31
0.0
  0
LINE
  5
D4
330
1E
100
AcDbEntity
  8
0
100
AcDbLine
 10
195.899
 20
90.95640000000001
 30
0.0
 11
197.0979999999999
 21
88.29579999999999
 31
0.0
  0
LINE
  5
D5
330
1E
100
AcDbEntity
  8
0
100
AcDbLine
 10
194.8129999999999
 20
93.31470000000001
 30
0.0
 11
195.899
 21
90.95640000000001
 31
0.0
  0
LINE
  5
D6
330
1E
100
AcDbEntity
  8
0
100
AcDbLine
 10
197.0979999999999
 20
88.29579999999999
 30
0.0
 11
197.9449999999999
 21
85.89260000000001
 31
0.0
  0
LINE
  5
D7
330
1E
100
AcDbEntity
  8
0
100
AcDbLine
 10
197.9449999999999
 20
85.89260000000001
 30
0.0
 11
198.3529999999999
 21
84.29120000000001
 31
0.0
  0
LINE
  5
D8
330
1E
100
AcDbEntity
  8
0
100
AcDbLine
 10
198.965
 20
67.4999132673267
 30
0.0
 11
200.294
 21
67.03199999999999
 31
0.0
  0
LINE
  5
D9
330
1E
100
AcDbEntity
  8
0
100
AcDbLine
 10
198.965
 20
66.7566
 30
0.0
 11
198.965
 21
67.27800000000001
 31
0.0
  0
LINE
  5
DA
330
1E
100
AcDbEntity
  8
0
100
AcDbLine
 10
200.369
 20
67.00369999999999
 30
0.0
 11
200.461
 21
66.92044
 31
0.0
  0
LINE
  5
DB
330
1E
100
AcDbEntity
  8
0
100
AcDbLine
 10
200.3569999999999
 20
67.01109999999999
 30
0.0
 11
200.461
 21
66.91688376623379
 31
0.0
  0
LINE
  5
DC
330
1E
100
AcDbEntity
  8
0
100
AcDbLine
 10
200.294
 20
67.03199999999999
 30
0.0
 11
200.3569999999999
 21
67.01109999999999
 31
0.0
  0
LINE
  5
DD
330
1E
100
AcDbEntity
  8
0
100
AcDbLine
 10
200.294
 20
67.03199999999999
 30
0.0
 11
200.3569999999999
 21
67.0142
 31
0.0
  0
LINE
  5
DE
330
1E
100
AcDbEntity
  8
0
100
AcDbLine
 10
198.965
 20
67.27800000000001
 30
0.0
 11
198.965
 21
68.1127
 31
0.0
  0
LINE
  5
DF
330
1E
100
AcDbEntity
  8
0
100
AcDbLine
 10
198.965
 20
73.8615
 30
0.0
 11
198.965
 21
76.75629999999999
 31
0.0
  0
LINE
  5
E9
330
1E
100
AcDbEntity
  8
0
100
AcDbLine
 10
200.449
 20
96.3512
 30
0.0
 11
200.4599999999999
 21
98.84910000000001
 31
0.0
  0
LINE
  5
EA
330
1E
100
AcDbEntity
  8
0
100
AcDbLine
 10
200.449
 20
96.3512
 30
0.0
 11
200.4669999999999
 21
93.69660000000001
 31
0.0
  0
LINE
  5
EB
330
1E
100
AcDbEntity
  8
0
100
AcDbLine
 10
198.972
 20
68.779
 30
0.0
 11
200.46222349592
 21
68.79343625458949
 31
0.0
  0
LINE
  5
EC
330
1E
100
AcDbEntity
  8
0
100
AcDbLine
 10
198.972
 20
68.779
 30
0.0
 11
200.4622250511159
 21
68.79526364556089
 31
0.0
  0
LINE
  5
ED
330
1E
100
AcDbEntity
  8
0
100
AcDbLine
 10
200.4599999999999
 20
98.84910000000001
 30
0.0
 11
200.461
 21
100.6594999999999
 31
0.0
  0
LINE
  5
EE
330
1E
100
AcDbEntity
  8
0
100
AcDbLine
 10
195.08088583658
 20
98.8475731083519
 30
0.0
 11
195.2559999999999
 21
98.92220000000001
 31
0.0
  0
LINE
  5
EF
330
1E
100
AcDbEntity
  8
0
100
AcDbLine
 10
194.8039999999999
 20
98.76739999999999
 30
0.0
 11
195.2559999999999
 21
98.92220000000001
 31
0.0
  0
LINE
  5
F0
330
1E
100
AcDbEntity
  8
0
100
AcDbLine
 10
192.187
 20
99.0047
 30
0.0
 11
192.932
 21
97.39319999999999
 31
0.0
  0
LINE
  5
F1
330
1E
100
AcDbEntity
  8
0
100
AcDbLine
 10
195.2559999999999
 20
98.92220000000001
 30
0.0
 11
196.2369999999999
 21
99.20430000000001
 31
0.0
  0
LINE
  5
F2
330
1E
100
AcDbEntity
  8
0
100
AcDbLine
 10
188.5399999999999
 20
67.633
 30
0.0
 11
198.965
 21
66.7566
 31
0.0
  0
LINE
  5
F3
330
1E
100
AcDbEntity
  8
0
100
AcDbLine
 10
196.2369999999999
 20
99.20430000000001
 30
0.0
 11
196.9289999999999
 21
99.38270000000001
 31
0.0
  0
LINE
  5
F4
330
1E
100
AcDbEntity
  8
0
100
AcDbLine
 10
196.2369999999999
 20
99.20430000000001
 30
0.0
 11
196.4148883910899
 21
99.2411887053778
 31
0.0
  0
LINE
  5
F5
330
1E
100
AcDbEntity
  8
0
100
AcDbLine
 10
197.584778375857
 20
99.46872314242741
 30
0.0
 11
197.807
 21
99.50969999999999
 31
0.0
  0
LINE
  5
F6
330
1E
100
AcDbEntity
  8
0
100
AcDbLine
 10
196.9289999999999
 20
99.38270000000001
 30
0.0
 11
197.807
 21
99.50969999999999
 31
0.0
  0
LINE
  5
F7
330
1E
100
AcDbEntity
  8
0
100
AcDbLine
 10
197.807
 20
99.50969999999999
 30
0.0
 11
198.6449999999999
 21
99.60779999999999
 31
0.0
  0
LINE
  5
F8
330
1E
100
AcDbEntity
  8
0
100
AcDbLine
 10
198.6449999999999
 20
99.60779999999999
 30
0.0
 11
199.5459999999999
 21
99.6387
 31
0.0
  0
LINE
  5
F9
330
1E
100
AcDbEntity
  8
0
100
AcDbLine
 10
199.5459999999999
 20
99.6387
 30
0.0
 11
200.460440434341
 21
99.64646233080911
 31
0.0
  0
LINE
  5
FA
330
1E
100
AcDbEntity
  8
0
100
AcDbLine
 10
199.5459999999999
 20
99.6387
 30
0.0
 11
199.8303666447409
 21
99.63262476476129
 31
0.0
  0
LINE
  5
FB
330
1E
100
AcDbEntity
  8
0
100
AcDbLine
 10
174.085
 20
99.5663
 30
0.0
 11
183.689
 21
100.3765
 31
0.0
  0
LINE
  5
FC
330
1E
100
AcDbEntity
  8
0
100
AcDbLine
 10
173.8879999999999
 20
99.51920000000001
 30
0.0
 11
174.085
 21
99.5663
 31
0.0
  0
LINE
  5
FD
330
1E
100
AcDbEntity
  8
0
100
AcDbLine
 10
173.7556842701339
 20
99.4811049530765
 30
0.0
 11
173.8879999999999
 21
99.51920000000001
 31
0.0
  0
LINE
  5
FE
330
1E
100
AcDbEntity
  8
0
100
AcDbLine
 10
172.08
 20
99.04760000000001
 30
0.0
 11
173.8879999999999
 21
99.51920000000001
 31
0.0
  0
LINE
  5
FF
330
1E
100
AcDbEntity
  8
0
100
AcDbLine
 10
170.6559999999999
 20
98.4087
 30
0.0
 11
172.08
 21
99.04760000000001
 31
0.0
  0
LINE
  5
100
330
1E
100
AcDbEntity
  8
0
100
AcDbLine
 10
170.6559999999999
 20
98.4087
 30
0.0
 11
170.7763187208659
 21
98.4589428904575
 31
0.0
  0
LINE
  5
101
330
1E
100
AcDbEntity
  8
0
100
AcDbLine
 10
200.461
 20
66.565
 30
0.0
 11
200.461
 21
66.04649999999999
 31
0.0
  0
LINE
  5
102
330
1E
100
AcDbEntity
  8
0
100
AcDbLine
 10
200.461
 20
66.565
 30
0.0
 11
200.461
 21
67.3558
 31
0.0
  0
LINE
  5
103
330
1E
100
AcDbEntity
  8
0
100
AcDbLine
 10
202.326790257591
 20
64.09546862852138
 30
0.0
 11
204.915
 21
51.7916
 31
0.0
  0
LINE
  5
105
330
1E
100
AcDbEntity
  8
0
100
AcDbLine
 10
202.05
 20
64.58369999999999
 30
0.0
 11
202.326790257591
 21
64.09546862852138
 31
0.0
  0
LINE
  5
107
330
1E
100
AcDbEntity
  8
0
100
AcDbLine
 10
201.392
 20
65.2298
 30
0.0
 11
202.05
 21
64.58369999999999
 31
0.0
  0
LINE
  5
10C
330
1E
100
AcDbEntity
  8
0
100
AcDbLine
 10
200.4909999999999
 20
65.7833
 30
0.0
 11
201.392
 21
65.2298
 31
0.0
  0
LINE
  5
10D
330
1E
100
AcDbEntity
  8
0
100
AcDbLine
 10
200.461
 20
67.3558
 30
0.0
 11
200.461
 21
66.565
 31
0.0
  0
LINE
  5
10E
330
1E
100
AcDbEntity
  8
0
100
AcDbLine
 10
200.461
 20
67.3558
 30
0.0
 11
200.46222349592
 21
68.79343625458949
 31
0.0
  0
LINE
  5
110
330
1E
100
AcDbEntity
  8
0
100
AcDbLine
 10
200.461
 20
67.3558
 30
0.0
 11
200.4669999999999
 21
93.69660000000001
 31
0.0
  0
LINE
  5
111
330
1E
100
AcDbEntity
  8
0
100
AcDbLine
 10
200.461
 20
67.3558
 30
0.0
 11
200.4669999999999
 21
93.69660000000001
 31
0.0
  0
LINE
  5
112
330
1E
100
AcDbEntity
  8
0
100
AcDbLine
 10
15.697
 20
99.7811
 30
0.0
 11
17.327
 21
100.6944999999999
 31
0.0
  0
LINE
  5
113
330
1E
100
AcDbEntity
  8
0
100
AcDbLine
 10
198.225
 20
100.6504999999999
 30
0.0
 11
198.6229999999999
 21
100.7005
 31
0.0
  0
LINE
  5
114
330
1E
100
AcDbEntity
  8
0
100
AcDbLine
 10
191.636
 20
100.1935
 30
0.0
 11
192.187
 21
99.0047
 31
0.0
  0
LINE
  5
115
330
1E
100
AcDbEntity
  8
0
100
AcDbLine
 10
183.689
 20
100.3765
 30
0.0
 11
191.247
 21
101.0124999999999
 31
0.0
  0
LINE
  5
117
330
1E
100
AcDbEntity
  8
0
100
AcDbLine
 10
17.327
 20
100.6944999999999
 30
0.0
 11
19.115
 21
101.6594999999999
 31
0.0
  0
LINE
  5
118
330
1E
100
AcDbEntity
  8
0
100
AcDbLine
 10
25.474
 20
104.1074999999999
 30
0.0
 11
25.912
 21
104.2514999999999
 31
0.0
  0
LINE
  5
119
330
1E
100
AcDbEntity
  8
0
100
AcDbLine
 10
25.912
 20
104.2514999999999
 30
0.0
 11
26.74599999999999
 21
104.4634999999999
 31
0.0
  0
LINE
  5
11A
330
1E
100
AcDbEntity
  8
0
100
AcDbLine
 10
26.74599999999999
 20
104.4634999999999
 30
0.0
 11
29.248
 21
104.9995
 31
0.0
  0
LINE
  5
11B
330
1E
100
AcDbEntity
  8
0
100
AcDbLine
 10
29.248
 20
104.9995
 30
0.0
 11
31.221
 21
105.2464999999999
 31
0.0
  0
LINE
  5
120
330
1E
100
AcDbEntity
  8
0
100
AcDbLine
 10
35.86199999999999
 20
105.5854999999999
 30
0.0
 11
189.9343082379869
 21
100.9020379782159
 31
0.0
  0
LINE
  5
125
330
1E
100
AcDbEntity
  8
0
100
AcDbLine
 10
35.563
 20
105.5725
 30
0.0
 11
35.86199999999999
 21
105.5854999999999
 31
0.0
  0
LINE
  5
126
330
1E
100
AcDbEntity
  8
0
100
AcDbLine
 10
35.563
 20
105.5725
 30
0.0
 11
35.86
 21
105.5815
 31
0.0
  0
LINE
  5
127
330
1E
100
AcDbEntity
  8
0
100
AcDbLine
 10
32.533
 20
105.4205
 30
0.0
 11
35.563
 21
105.5725
 31
0.0
  0
LINE
  5
128
330
1E
100
AcDbEntity
  8
0
100
AcDbLine
 10
31.221
 20
105.2464999999999
 30
0.0
 11
32.533
 21
105.4205
 31
0.0
  0
LINE
  5
129
330
1E
100
AcDbEntity
  8
0
100
AcDbLine
 10
22.596
 20
103.2164999999999
 30
0.0
 11
25.474
 21
104.1074999999999
 31
0.0
  0
LINE
  5
12A
330
1E
100
AcDbEntity
  8
0
100
AcDbLine
 10
19.115
 20
101.6594999999999
 30
0.0
 11
22.563
 21
103.2035
 31
0.0
  0
LINE
  5
12C
330
1E
100
AcDbEntity
  8
0
100
AcDbLine
 10
198.412438140807
 20
100.6698151059469
 30
0.0
 11
198.6229999999999
 21
100.7005
 31
0.0
  0
LINE
  5
12D
330
1E
100
AcDbEntity
  8
0
100
AcDbLine
 10
191.3210776089519
 20
100.859963664777
 30
0.0
 11
198.2249999998669
 21
100.6505000000039
 31
0.0
  0
LINE
  5
12E
330
1E
100
AcDbEntity
  8
0
100
AcDbLine
 10
191.3210776089519
 20
100.859963664777
 30
0.0
 11
198.225
 21
100.6504999999999
 31
0.0
  0
LINE
  5
12F
330
1E
100
AcDbEntity
  8
0
100
AcDbLine
 10
191.3210776089519
 20
100.859963664777
 30
0.0
 11
198.225
 21
100.6504999999999
 31
0.0
  0
LINE
  5
130
330
1E
100
AcDbEntity
  8
0
100
AcDbLine
 10
198.6229999999999
 20
100.7005
 30
0.0
 11
199.6029999999999
 21
100.7924999999999
 31
0.0
  0
LINE
  5
131
330
1E
100
AcDbEntity
  8
0
100
AcDbLine
 10
199.6029999999999
 20
100.7924999999999
 30
0.0
 11
200.029
 21
101.0194999999999
 31
0.0
  0
LINE
  5
132
330
1E
100
AcDbEntity
  8
0
100
AcDbLine
 10
200.029
 20
101.0194999999999
 30
0.0
 11
200.4701878524089
 21
101.2557916213279
 31
0.0
  0
LINE
  5
133
330
1E
100
AcDbEntity
  8
0
100
AcDbLine
 10
191.2919999999999
 20
100.9214999999999
 30
0.0
 11
191.636
 21
100.1935
 31
0.0
  0
LINE
  5
13A
330
1E
100
AcDbEntity
  8
0
100
AcDbLine
 10
191.247
 20
101.0124999999999
 30
0.0
 11
191.2919999999999
 21
100.9214999999999
 31
0.0
  0
LINE
  5
13B
330
1E
100
AcDbEntity
  8
0
100
AcDbLine
 10
200.461
 20
100.6594999999999
 30
0.0
 11
200.4909999999999
 21
102.6065
 31
0.0
  0
LINE
  5
140
330
1E
100
AcDbEntity
  8
0
100
AcDbLine
 10
202.404
 20
104.4335
 30
0.0
 11
202.5409999999999
 21
104.6684999999999
 31
0.0
  0
LINE
  5
141
330
1E
100
AcDbEntity
  8
0
100
AcDbLine
 10
202.404
 20
104.4335
 30
0.0
 11
202.462830906169
 21
104.51423146248
 31
0.0
  0
LINE
  5
142
330
1E
100
AcDbEntity
  8
0
100
AcDbLine
 10
202.05
 20
103.7784999999999
 30
0.0
 11
202.404
 21
104.4335
 31
0.0
  0
LINE
  5
143
330
1E
100
AcDbEntity
  8
0
100
AcDbLine
 10
201.492
 20
103.2734999999999
 30
0.0
 11
202.05
 21
103.7784999999999
 31
0.0
  0
LINE
  5
144
330
1E
100
AcDbEntity
  8
0
100
AcDbLine
 10
201.395
 20
103.1774999999999
 30
0.0
 11
201.492
 21
103.2734999999999
 31
0.0
  0
LINE
  5
145
330
1E
100
AcDbEntity
  8
0
100
AcDbLine
 10
201.1929999999999
 20
103.0575
 30
0.0
 11
201.395
 21
103.1774999999999
 31
0.0
  0
LINE
  5
146
330
1E
100
AcDbEntity
  8
0
100
AcDbLine
 10
200.4909999999999
 20
102.6065
 30
0.0
 11
201.1929999999999
 21
103.0575
 31
0.0
  0
LINE
  5
148
330
1E
100
AcDbEntity
  8
0
100
AcDbLine
 10
200.460440434341
 20
99.64646233080911
 30
0.0
 11
200.461
 21
100.6594999999999
 31
0.0
  0
LINE
  5
149
330
1E
100
AcDbEntity
  8
0
100
AcDbLine
 10
202.5409999999999
 20
104.6684999999999
 30
0.0
 11
202.834
 21
105.6095
 31
0.0
  0
LINE
  5
14B
330
1E
100
AcDbEntity
  8
0
100
AcDbLine
 10
204.915
 20
51.7916
 30
0.0
 11
205.2529999999999
 21
51.1771
 31
0.0
  0
LINE
  5
151
330
1E
100
AcDbEntity
  8
0
100
AcDbLine
 10
203.0559999999999
 20
106.6335
 30
0.0
 11
205.099
 21
116.0065
 31
0.0
  0
LINE
  5
152
330
1E
100
AcDbEntity
  8
0
100
AcDbLine
 10
203.030691008249
 20
106.507976480373
 30
0.0
 11
203.0559999999999
 21
106.6335
 31
0.0
  0
LINE
  5
153
330
1E
100
AcDbEntity
  8
0
100
AcDbLine
 10
202.834
 20
105.6095
 30
0.0
 11
203.0559999999999
 21
106.6335
 31
0.0
  0
LINE
  5
156
330
1E
100
AcDbEntity
  8
0
100
AcDbLine
 10
205.099
 20
116.0065
 30
0.0
 11
205.1809999999999
 21
116.3305
 31
0.0
  0
LINE
  5
157
330
1E
100
AcDbEntity
  8
0
100
AcDbLine
 10
206.048
 20
50.50019999999999
 30
0.0
 11
207.938
 21
50.2327
 31
0.0
  0
LINE
  5
158
330
1E
100
AcDbEntity
  8
0
100
AcDbLine
 10
205.2529999999999
 20
51.1771
 30
0.0
 11
206.048
 21
50.50019999999999
 31
0.0
  0
LINE
  5
15B
330
1E
100
AcDbEntity
  8
0
100
AcDbLine
 10
205.1809999999999
 20
116.3305
 30
0.0
 11
205.2369999999999
 21
116.5455
 31
0.0
  0
LINE
  5
15D
330
1E
100
AcDbEntity
  8
0
100
AcDbLine
 10
205.642
 20
117.0635
 30
0.0
 11
206.224
 21
117.5014999999999
 31
0.0
  0
LINE
  5
15E
330
1E
100
AcDbEntity
  8
0
100
AcDbLine
 10
205.485
 20
116.8584999999999
 30
0.0
 11
205.642
 21
117.0635
 31
0.0
  0
LINE
  5
160
330
1E
100
AcDbEntity
  8
0
100
AcDbLine
 10
206.224
 20
117.5014999999999
 30
0.0
 11
206.293
 21
117.5534999999999
 31
0.0
  0
LINE
  5
161
330
1E
100
AcDbEntity
  8
0
100
AcDbLine
 10
205.2369999999999
 20
116.5455
 30
0.0
 11
205.485
 21
116.8584999999999
 31
0.0
  0
LINE
  5
166
330
1E
100
AcDbEntity
  8
0
100
AcDbLine
 10
206.293
 20
117.5534999999999
 30
0.0
 11
206.8759999999999
 21
117.6294999999999
 31
0.0
  0
LINE
  5
168
330
1E
100
AcDbEntity
  8
0
100
AcDbLine
 10
207.938
 20
50.2327
 30
0.0
 11
210.231867309724
 21
50.0480595560815
 31
0.0
  0
LINE
  5
16A
330
1E
100
AcDbEntity
  8
0
100
AcDbLine
 10
210.25
 20
50.1621
 30
0.0
 11
210.25
 21
50.0461
 31
0.0
  0
LINE
  5
16B
330
1E
100
AcDbEntity
  8
0
100
AcDbLine
 10
210.25
 20
50.4735
 30
0.0
 11
210.25
 21
50.1621
 31
0.0
  0
LINE
  5
16C
330
1E
100
AcDbEntity
  8
0
100
AcDbLine
 10
210.25
 20
50.6533
 30
0.0
 11
210.25
 21
50.5183
 31
0.0
  0
LINE
  5
16D
330
1E
100
AcDbEntity
  8
0
100
AcDbLine
 10
210.25
 20
50.7577
 30
0.0
 11
210.25
 21
50.6533
 31
0.0
  0
LINE
  5
16E
330
1E
100
AcDbEntity
  8
0
100
AcDbLine
 10
210.25
 20
51.1801
 30
0.0
 11
210.25
 21
50.7577
 31
0.0
  0
LINE
  5
16F
330
1E
100
AcDbEntity
  8
0
100
AcDbLine
 10
210.25
 20
51.3595
 30
0.0
 11
210.25
 21
51.1801
 31
0.0
  0
LINE
  5
170
330
1E
100
AcDbEntity
  8
0
100
AcDbLine
 10
210.25
 20
51.9631
 30
0.0
 11
210.25
 21
51.3595
 31
0.0
  0
LINE
  5
171
330
1E
100
AcDbEntity
  8
0
100
AcDbLine
 10
210.25
 20
52.19
 30
0.0
 11
210.25
 21
51.9631
 31
0.0
  0
LINE
  5
172
330
1E
100
AcDbEntity
  8
0
100
AcDbLine
 10
210.25
 20
53.06049999999999
 30
0.0
 11
210.25
 21
52.19
 31
0.0
  0
LINE
  5
173
330
1E
100
AcDbEntity
  8
0
100
AcDbLine
 10
210.25
 20
53.34559999999999
 30
0.0
 11
210.25
 21
53.06049999999999
 31
0.0
  0
LINE
  5
174
330
1E
100
AcDbEntity
  8
0
100
AcDbLine
 10
210.25
 20
54.4395
 30
0.0
 11
210.25
 21
53.34559999999999
 31
0.0
  0
LINE
  5
175
330
1E
100
AcDbEntity
  8
0
100
AcDbLine
 10
210.25
 20
54.7796
 30
0.0
 11
210.25
 21
54.4395
 31
0.0
  0
LINE
  5
176
330
1E
100
AcDbEntity
  8
0
100
AcDbLine
 10
210.25
 20
56.089
 30
0.0
 11
210.25
 21
54.7796
 31
0.0
  0
LINE
  5
177
330
1E
100
AcDbEntity
  8
0
100
AcDbLine
 10
210.25
 20
56.4658
 30
0.0
 11
210.25
 21
56.089
 31
0.0
  0
LINE
  5
178
330
1E
100
AcDbEntity
  8
0
100
AcDbLine
 10
210.25
 20
58.0076
 30
0.0
 11
210.25
 21
56.4658
 31
0.0
  0
LINE
  5
179
330
1E
100
AcDbEntity
  8
0
100
AcDbLine
 10
210.25
 20
58.48399999999999
 30
0.0
 11
210.25
 21
58.0076
 31
0.0
  0
LINE
  5
17A
330
1E
100
AcDbEntity
  8
0
100
AcDbLine
 10
210.25
 20
60.1608
 30
0.0
 11
210.25
 21
58.48399999999999
 31
0.0
  0
LINE
  5
17B
330
1E
100
AcDbEntity
  8
0
100
AcDbLine
 10
210.25
 20
60.712
 30
0.0
 11
210.25
 21
60.1608
 31
0.0
  0
LINE
  5
17C
330
1E
100
AcDbEntity
  8
0
100
AcDbLine
 10
210.25
 20
62.5036
 30
0.0
 11
210.25
 21
60.712
 31
0.0
  0
LINE
  5
17D
330
1E
100
AcDbEntity
  8
0
100
AcDbLine
 10
210.25
 20
63.0726
 30
0.0
 11
210.25
 21
62.5036
 31
0.0
  0
LINE
  5
17E
330
1E
100
AcDbEntity
  8
0
100
AcDbLine
 10
210.25
 20
65.0449
 30
0.0
 11
210.25
 21
63.0726
 31
0.0
  0
LINE
  5
17F
330
1E
100
AcDbEntity
  8
0
100
AcDbLine
 10
210.25
 20
65.60939999999999
 30
0.0
 11
210.25
 21
65.0449
 31
0.0
  0
LINE
  5
180
330
1E
100
AcDbEntity
  8
0
100
AcDbLine
 10
210.25
 20
67.78449999999999
 30
0.0
 11
210.25
 21
65.60939999999999
 31
0.0
  0
LINE
  5
181
330
1E
100
AcDbEntity
  8
0
100
AcDbLine
 10
210.25
 20
68.4255
 30
0.0
 11
210.25
 21
67.78449999999999
 31
0.0
  0
LINE
  5
182
330
1E
100
AcDbEntity
  8
0
100
AcDbLine
 10
210.25
 20
70.5883
 30
0.0
 11
210.25
 21
68.4255
 31
0.0
  0
LINE
  5
183
330
1E
100
AcDbEntity
  8
0
100
AcDbLine
 10
210.25
 20
71.2565
 30
0.0
 11
210.25
 21
70.5883
 31
0.0
  0
LINE
  5
184
330
1E
100
AcDbEntity
  8
0
100
AcDbLine
 10
210.25
 20
73.6469
 30
0.0
 11
210.25
 21
71.2565
 31
0.0
  0
LINE
  5
185
330
1E
100
AcDbEntity
  8
0
100
AcDbLine
 10
210.25
 20
74.16389999999999
 30
0.0
 11
210.25
 21
73.6469
 31
0.0
  0
LINE
  5
186
330
1E
100
AcDbEntity
  8
0
100
AcDbLine
 10
210.25
 20
76.75399999999999
 30
0.0
 11
210.25
 21
74.16389999999999
 31
0.0
  0
LINE
  5
187
330
1E
100
AcDbEntity
  8
0
100
AcDbLine
 10
210.25
 20
77.45589999999999
 30
0.0
 11
210.25
 21
76.75399999999999
 31
0.0
  0
LINE
  5
188
330
1E
100
AcDbEntity
  8
0
100
AcDbLine
 10
210.25
 20
79.9092
 30
0.0
 11
210.25
 21
77.45589999999999
 31
0.0
  0
LINE
  5
189
330
1E
100
AcDbEntity
  8
0
100
AcDbLine
 10
210.25
 20
80.5249
 30
0.0
 11
210.25
 21
79.9092
 31
0.0
  0
LINE
  5
18A
330
1E
100
AcDbEntity
  8
0
100
AcDbLine
 10
210.25
 20
83.1122
 30
0.0
 11
210.25
 21
80.5249
 31
0.0
  0
LINE
  5
18B
330
1E
100
AcDbEntity
  8
0
100
AcDbLine
 10
210.25
 20
83.82760000000001
 30
0.0
 11
210.25
 21
83.1122
 31
0.0
  0
LINE
  5
18C
330
1E
100
AcDbEntity
  8
0
100
AcDbLine
 10
210.25
 20
86.32389999999999
 30
0.0
 11
210.25
 21
83.82760000000001
 31
0.0
  0
LINE
  5
18D
330
1E
100
AcDbEntity
  8
0
100
AcDbLine
 10
210.25
 20
86.98269999999999
 30
0.0
 11
210.25
 21
86.32389999999999
 31
0.0
  0
LINE
  5
18E
330
1E
100
AcDbEntity
  8
0
100
AcDbLine
 10
210.25
 20
89.51309999999999
 30
0.0
 11
210.25
 21
86.98269999999999
 31
0.0
  0
LINE
  5
18F
330
1E
100
AcDbEntity
  8
0
100
AcDbLine
 10
210.25
 20
90.21359999999999
 30
0.0
 11
210.25
 21
89.51309999999999
 31
0.0
  0
LINE
  5
190
330
1E
100
AcDbEntity
  8
0
100
AcDbLine
 10
210.25
 20
93.01770000000001
 30
0.0
 11
210.25
 21
90.21359999999999
 31
0.0
  0
LINE
  5
191
330
1E
100
AcDbEntity
  8
0
100
AcDbLine
 10
210.25
 20
93.7606
 30
0.0
 11
210.25
 21
93.01770000000001
 31
0.0
  0
LINE
  5
192
330
1E
100
AcDbEntity
  8
0
100
AcDbLine
 10
210.25
 20
94.65389999999999
 30
0.0
 11
210.25
 21
93.7606
 31
0.0
  0
LINE
  5
193
330
1E
100
AcDbEntity
  8
0
100
AcDbLine
 10
210.25
 20
98.6963
 30
0.0
 11
210.25
 21
94.65389999999999
 31
0.0
  0
LINE
  5
194
330
1E
100
AcDbEntity
  8
0
100
AcDbLine
 10
210.25
 20
99.2782
 30
0.0
 11
210.25
 21
98.6963
 31
0.0
  0
LINE
  5
195
330
1E
100
AcDbEntity
  8
0
100
AcDbLine
 10
210.25
 20
103.5164999999999
 30
0.0
 11
210.25
 21
99.2782
 31
0.0
  0
LINE
  5
196
330
1E
100
AcDbEntity
  8
0
100
AcDbLine
 10
210.25
 20
104.1595
 30
0.0
 11
210.25
 21
103.5164999999999
 31
0.0
  0
LINE
  5
197
330
1E
100
AcDbEntity
  8
0
100
AcDbLine
 10
210.25
 20
104.7584999999999
 30
0.0
 11
210.25
 21
104.1595
 31
0.0
  0
LINE
  5
198
330
1E
100
AcDbEntity
  8
0
100
AcDbLine
 10
210.25
 20
106.7055
 30
0.0
 11
210.25
 21
104.7584999999999
 31
0.0
  0
LINE
  5
199
330
1E
100
AcDbEntity
  8
0
100
AcDbLine
 10
210.25
 20
107.1195
 30
0.0
 11
210.25
 21
106.7055
 31
0.0
  0
LINE
  5
19A
330
1E
100
AcDbEntity
  8
0
100
AcDbLine
 10
210.25
 20
108.9995
 30
0.0
 11
210.25
 21
107.1195
 31
0.0
  0
LINE
  5
19B
330
1E
100
AcDbEntity
  8
0
100
AcDbLine
 10
210.25
 20
109.3714999999999
 30
0.0
 11
210.25
 21
108.9995
 31
0.0
  0
LINE
  5
19C
330
1E
100
AcDbEntity
  8
0
100
AcDbLine
 10
210.25
 20
111.0174999999999
 30
0.0
 11
210.25
 21
109.3714999999999
 31
0.0
  0
LINE
  5
19D
330
1E
100
AcDbEntity
  8
0
100
AcDbLine
 10
210.25
 20
111.4435
 30
0.0
 11
210.25
 21
111.0174999999999
 31
0.0
  0
LINE
  5
19E
330
1E
100
AcDbEntity
  8
0
100
AcDbLine
 10
210.25
 20
112.8575
 30
0.0
 11
210.25
 21
111.4435
 31
0.0
  0
LINE
  5
19F
330
1E
100
AcDbEntity
  8
0
100
AcDbLine
 10
210.25
 20
113.2055
 30
0.0
 11
210.25
 21
112.8575
 31
0.0
  0
LINE
  5
1A0
330
1E
100
AcDbEntity
  8
0
100
AcDbLine
 10
210.25
 20
114.4205
 30
0.0
 11
210.25
 21
113.2055
 31
0.0
  0
LINE
  5
1A1
330
1E
100
AcDbEntity
  8
0
100
AcDbLine
 10
210.25
 20
114.6975
 30
0.0
 11
210.25
 21
114.4205
 31
0.0
  0
LINE
  5
1A2
330
1E
100
AcDbEntity
  8
0
100
AcDbLine
 10
210.25
 20
115.7294999999999
 30
0.0
 11
210.25
 21
114.6975
 31
0.0
  0
LINE
  5
1A3
330
1E
100
AcDbEntity
  8
0
100
AcDbLine
 10
210.25
 20
115.9364999999999
 30
0.0
 11
210.25
 21
115.7294999999999
 31
0.0
  0
LINE
  5
1A4
330
1E
100
AcDbEntity
  8
0
100
AcDbLine
 10
210.25
 20
116.7115
 30
0.0
 11
210.25
 21
115.9364999999999
 31
0.0
  0
LINE
  5
1A5
330
1E
100
AcDbEntity
  8
0
100
AcDbLine
 10
210.25
 20
116.8695
 30
0.0
 11
210.25
 21
116.7115
 31
0.0
  0
LINE
  5
1A6
330
1E
100
AcDbEntity
  8
0
100
AcDbLine
 10
210.25
 20
117.4595
 30
0.0
 11
210.25
 21
116.8695
 31
0.0
  0
LINE
  5
3B5
330
1E
100
AcDbEntity
  8
0
100
AcDbLine
 10
210.25
 20
117.5335
 30
0.0
 11
210.25
 21
117.4595
 31
0.0
  0
LINE
  5
3B6
330
1E
100
AcDbEntity
  8
0
100
AcDbLine
 10
210.25
 20
117.8514999999999
 30
0.0
 11
210.25
 21
117.5335
 31
0.0
  0
LINE
  5
3BB
330
1E
100
AcDbEntity
  8
0
100
AcDbLine
 10
210.25
 20
117.9535
 30
0.0
 11
210.25
 21
117.8514999999999
 31
0.0
  0
LINE
  5
3BC
330
1E
100
AcDbEntity
  8
0
100
AcDbLine
 10
206.8759999999999
 20
117.6294999999999
 30
0.0
 11
210.25
 21
117.9535
 31
0.0
  0
LINE
  5
5D1
330
1E
100
AcDbEntity
  8
0
100
AcDbLine
 10
210.25
 20
83.56149999999999
 30
0.0
 11
210.25
 21
78.95349999999999
 31
0.0
  0
LINE
  5
5D5
330
1E
100
AcDbEntity
  8
0
100
AcDbLine
 10
210.25
 20
78.95349999999999
 30
0.0
 11
210.25
 21
83.56149999999999
 31
0.0
  0
LINE
  5
612
330
1E
100
AcDbEntity
  8
0
100
AcDbLine
 10
210.25
 20
70.02549999999999
 30
0.0
 11
210.25
 21
66.20949999999999
 31
0.0
  0
LINE
  5
615
330
1E
100
AcDbEntity
  8
0
100
AcDbLine
 10
210.25
 20
66.20949999999999
 30
0.0
 11
210.25
 21
70.02549999999999
 31
0.0
  0
LINE
  5
617
330
1E
100
AcDbEntity
  8
0
100
AcDbLine
 10
210.25
 20
63.32949999999999
 30
0.0
 11
210.25
 21
66.20949999999999
 31
0.0
  0
LINE
  5
618
330
1E
100
AcDbEntity
  8
0
100
AcDbLine
 10
210.25
 20
66.20949999999999
 30
0.0
 11
210.25
 21
63.32949999999999
 31
0.0
  0
LINE
  5
61A
330
1E
100
AcDbEntity
  8
0
100
AcDbLine
 10
210.25
 20
61.60149999999999
 30
0.0
 11
210.25
 21
60.95349999999999
 31
0.0
  0
LINE
  5
61B
330
1E
100
AcDbEntity
  8
0
100
AcDbLine
 10
210.25
 20
60.95349999999999
 30
0.0
 11
210.25
 21
61.60149999999999
 31
0.0
  0
LINE
  5
61C
330
1E
100
AcDbEntity
  8
0
100
AcDbLine
 10
210.25
 20
63.32949999999999
 30
0.0
 11
210.25
 21
61.60149999999999
 31
0.0
  0
LINE
  5
61D
330
1E
100
AcDbEntity
  8
0
100
AcDbLine
 10
210.25
 20
61.60149999999999
 30
0.0
 11
210.25
 21
63.32949999999999
 31
0.0
  0
LINE
  5
61E
330
1E
100
AcDbEntity
  8
0
100
AcDbLine
 10
210.25
 20
63.32949999999999
 30
0.0
 11
210.25
 21
63.9535
 31
0.0
  0
LINE
  5
61F
330
1E
100
AcDbEntity
  8
0
100
AcDbLine
 10
210.25
 20
63.9535
 30
0.0
 11
210.25
 21
63.32949999999999
 31
0.0
  0
LINE
  5
62C
330
1E
100
AcDbEntity
  8
0
100
AcDbLine
 10
210.25
 20
74.34549999999998
 30
0.0
 11
210.25
 21
70.02549999999999
 31
0.0
  0
LINE
  5
62D
330
1E
100
AcDbEntity
  8
0
100
AcDbLine
 10
210.25
 20
70.02549999999999
 30
0.0
 11
210.25
 21
74.34549999999998
 31
0.0
  0
LINE
  5
62E
330
1E
100
AcDbEntity
  8
0
100
AcDbLine
 10
210.25
 20
78.95349999999999
 30
0.0
 11
210.25
 21
74.34549999999998
 31
0.0
  0
LINE
  5
62F
330
1E
100
AcDbEntity
  8
0
100
AcDbLine
 10
210.25
 20
74.34549999999998
 30
0.0
 11
210.25
 21
78.95349999999999
 31
0.0
  0
LINE
  5
67F
330
1E
100
AcDbEntity
  8
0
100
AcDbLine
 10
210.25
 20
91.69749999999998
 30
0.0
 11
210.25
 21
87.88149999999999
 31
0.0
  0
LINE
  5
680
330
1E
100
AcDbEntity
  8
0
100
AcDbLine
 10
210.25
 20
87.88149999999999
 30
0.0
 11
210.25
 21
91.69749999999998
 31
0.0
  0
LINE
  5
682
330
1E
100
AcDbEntity
  8
0
100
AcDbLine
 10
210.25
 20
87.88149999999999
 30
0.0
 11
210.25
 21
83.56149999999999
 31
0.0
  0
LINE
  5
683
330
1E
100
AcDbEntity
  8
0
100
AcDbLine
 10
210.25
 20
83.56149999999999
 30
0.0
 11
210.25
 21
87.88149999999999
 31
0.0
  0
LINE
  5
687
330
1E
100
AcDbEntity
  8
0
100
AcDbLine
 10
210.25
 20
94.57749999999998
 30
0.0
 11
210.25
 21
91.69749999999998
 31
0.0
  0
LINE
  5
688
330
1E
100
AcDbEntity
  8
0
100
AcDbLine
 10
210.25
 20
94.57749999999998
 30
0.0
 11
210.25
 21
93.95349999999998
 31
0.0
  0
LINE
  5
689
330
1E
100
AcDbEntity
  8
0
100
AcDbLine
 10
210.25
 20
93.95349999999998
 30
0.0
 11
210.25
 21
94.57749999999998
 31
0.0
  0
LINE
  5
68A
330
1E
100
AcDbEntity
  8
0
100
AcDbLine
 10
210.25
 20
91.69749999999998
 30
0.0
 11
210.25
 21
94.57749999999998
 31
0.0
  0
LINE
  5
68C
330
1E
100
AcDbEntity
  8
0
100
AcDbLine
 10
210.25
 20
96.30549999999999
 30
0.0
 11
210.25
 21
96.95349999999999
 31
0.0
  0
LINE
  5
68D
330
1E
100
AcDbEntity
  8
0
100
AcDbLine
 10
210.25
 20
96.95349999999999
 30
0.0
 11
210.25
 21
96.30549999999999
 31
0.0
  0
LINE
  5
68E
330
1E
100
AcDbEntity
  8
0
100
AcDbLine
 10
210.25
 20
94.57749999999998
 30
0.0
 11
210.25
 21
96.30549999999999
 31
0.0
  0
LINE
  5
68F
330
1E
100
AcDbEntity
  8
0
100
AcDbLine
 10
210.25
 20
96.30549999999999
 30
0.0
 11
210.25
 21
94.57749999999998
 31
0.0
  0
ENDSEC
  0
SECTION
  2
OBJECTS
  0
DICTIONARY
  5
C
330
0
100
AcDbDictionary
281
     1
  3
ACAD_GROUP
350
D
  3
ACAD_LAYOUT
350
19
  3
ACAD_MLINESTYLE
350
16
  3
ACAD_PLOTSETTINGS
350
18
  3
ACAD_PLOTSTYLENAME
350
E
  3
AcDbVariableDictionary
350
7BD
  0
DICTIONARY
  5
D
102
{ACAD_REACTORS
330
C
102
}
330
C
100
AcDbDictionary
281
     1
  0
DICTIONARY
  5
19
102
{ACAD_REACTORS
330
C
102
}
330
C
100
AcDbDictionary
281
     1
  3
Layout1
350
1D
  3
Model
350
21
  0
DICTIONARY
  5
16
102
{ACAD_REACTORS
330
C
102
}
330
C
100
AcDbDictionary
281
     1
  3
Standard
350
17
  0
DICTIONARY
  5
18
102
{ACAD_REACTORS
330
C
102
}
330
C
100
AcDbDictionary
281
     1
  0
ACDBDICTIONARYWDFLT
  5
E
102
{ACAD_REACTORS
330
C
102
}
330
C
100
AcDbDictionary
281
     1
  3
Normal
350
F
100
AcDbDictionaryWithDefault
340
F
  0
DICTIONARY
  5
7BD
102
{ACAD_REACTORS
330
C
102
}
330
C
100
AcDbDictionary
281
     1
  3
DIMASSOC
350
7BE
  0
LAYOUT
  5
1D
102
{ACAD_REACTORS
330
19
102
}
330
19
100
AcDbPlotSettings
  1

  2
C:\Programme\AutoCAD LT 2002 Deu\plotters\DWF ePlot (optimized for plotting).pc3
  4

  6

 40
0.0
 41
0.0
 42
0.0
 43
0.0
 44
0.0
 45
0.0
 46
0.0
 47
0.0
 48
0.0
 49
0.0
140
0.0
141
0.0
142
1.0
143
1.0
 70
   688
 72
     0
 73
     0
 74
     5
  7

 75
    16
147
1.0
148
0.0
149
0.0
100
AcDbLayout
  1
Layout1
 70
     1
 71
     1
 10
0.0
 20
0.0
 11
12.0
 21
9.0
 12
0.0
 22
0.0
 32
0.0
 14
1.000000000000000E+20
 24
1.000000000000000E+20
 34
1.000000000000000E+20
 15
-1.000000000000000E+20
 25
-1.000000000000000E+20
 35
-1.000000000000000E+20
146
0.0
 13
0.0
 23
0.0
 33
0.0
 16
1.0
 26
0.0
 36
0.0
 17
0.0
 27
1.0
 37
0.0
 76
     0
330
1A
  0
LAYOUT
  5
21
102
{ACAD_REACTORS
330
19
102
}
330
19
100
AcDbPlotSettings
  1

  2
C:\Programme\AutoCAD LT 2002 Deu\plotters\DWF ePlot (optimized for plotting).pc3
  4

  6

 40
0.0
 41
0.0
 42
0.0
 43
0.0
 44
0.0
 45
0.0
 46
0.0
 47
0.0
 48
0.0
 49
0.0
140
0.0
141
0.0
142
1.0
143
1.0
 70
  1712
 72
     0
 73
     0
 74
     0
  7

 75
     0
147
1.0
148
0.0
149
0.0
100
AcDbLayout
  1
Model
 70
     1
 71
     0
 10
0.0
 20
0.0
 11
12.0
 21
9.0
 12
0.0
 22
0.0
 32
0.0
 14
0.0
 24
0.0
 34
0.0
 15
0.0
 25
0.0
 35
0.0
146
0.0
 13
0.0
 23
0.0
 33
0.0
 16
1.0
 26
0.0
 36
0.0
 17
0.0
 27
1.0
 37
0.0
 76
     0
330
1E
  0
MLINESTYLE
  5
17
102
{ACAD_REACTORS
330
16
102
}
330
16
100
AcDbMlineStyle
  2
STANDARD
 70
     0
  3

 62
   256
 51
90.0
 52
90.0
 71
     2
 49
0.5
 62
   256
  6
BYLAYER
 49
-0.5
 62
   256
  6
BYLAYER
  0
ACDBPLACEHOLDER
  5
F
102
{ACAD_REACTORS
330
E
102
}
330
E
  0
DICTIONARYVAR
  5
7BE
102
{ACAD_REACTORS
330
7BD
102
}
330
7BD
100
DictionaryVariables
280
     0
  1
1
  0
ENDSEC
  0
EOF
