  0
SECTION
  2
HEADER
  9
$ACADVER
  1
AC1015
  9
$ACADMAINTVER
 70
    13
  9
$DWGCODEPAGE
  3
ANSI_1252
  9
$INSBASE
 10
0.0
 20
0.0
 30
0.0
  9
$EXTMIN
 10
0.0000000000000048
 20
0.0000000000000133
 30
0.0
  9
$EXTMAX
 10
173.0
 20
168.0
 30
0.0
  9
$LIMMIN
 10
0.0
 20
0.0
  9
$LIMMAX
 10
12.0
 20
9.0
  9
$ORTHOMODE
 70
     0
  9
$REGENMODE
 70
     1
  9
$FILLMODE
 70
     1
  9
$QTEXTMODE
 70
     0
  9
$MIRRTEXT
 70
     1
  9
$LTSCALE
 40
1.0
  9
$ATTMODE
 70
     1
  9
$TEXTSIZE
 40
0.2
  9
$TRACEWID
 40
0.05
  9
$TEXTSTYLE
  7
Standard
  9
$CLAYER
  8
0
  9
$CELTYPE
  6
Continuous
  9
$CECOLOR
 62
   256
  9
$CELTSCALE
 40
1.0
  9
$DISPSILH
 70
     0
  9
$DIMSCALE
 40
1.0
  9
$DIMASZ
 40
0.18
  9
$DIMEXO
 40
0.0625
  9
$DIMDLI
 40
0.38
  9
$DIMRND
 40
0.0
  9
$DIMDLE
 40
0.0
  9
$DIMEXE
 40
0.18
  9
$DIMTP
 40
0.0
  9
$DIMTM
 40
0.0
  9
$DIMTXT
 40
0.18
  9
$DIMCEN
 40
0.09
  9
$DIMTSZ
 40
0.0
  9
$DIMTOL
 70
     0
  9
$DIMLIM
 70
     0
  9
$DIMTIH
 70
     1
  9
$DIMTOH
 70
     1
  9
$DIMSE1
 70
     0
  9
$DIMSE2
 70
     0
  9
$DIMTAD
 70
     0
  9
$DIMZIN
 70
     0
  9
$DIMBLK
  1

  9
$DIMASO
 70
     1
  9
$DIMSHO
 70
     1
  9
$DIMPOST
  1

  9
$DIMAPOST
  1

  9
$DIMALT
 70
     0
  9
$DIMALTD
 70
     2
  9
$DIMALTF
 40
25.4
  9
$DIMLFAC
 40
1.0
  9
$DIMTOFL
 70
     0
  9
$DIMTVP
 40
0.0
  9
$DIMTIX
 70
     0
  9
$DIMSOXD
 70
     0
  9
$DIMSAH
 70
     0
  9
$DIMBLK1
  1

  9
$DIMBLK2
  1

  9
$DIMSTYLE
  2
Standard
  9
$DIMCLRD
 70
     0
  9
$DIMCLRE
 70
     0
  9
$DIMCLRT
 70
     0
  9
$DIMTFAC
 40
1.0
  9
$DIMGAP
 40
0.09
  9
$DIMJUST
 70
     0
  9
$DIMSD1
 70
     0
  9
$DIMSD2
 70
     0
  9
$DIMTOLJ
 70
     1
  9
$DIMTZIN
 70
     0
  9
$DIMALTZ
 70
     0
  9
$DIMALTTZ
 70
     0
  9
$DIMUPT
 70
     0
  9
$DIMDEC
 70
     4
  9
$DIMTDEC
 70
     4
  9
$DIMALTU
 70
     2
  9
$DIMALTTD
 70
     2
  9
$DIMTXSTY
  7
Standard
  9
$DIMAUNIT
 70
     0
  9
$DIMADEC
 70
     0
  9
$DIMALTRND
 40
0.0
  9
$DIMAZIN
 70
     0
  9
$DIMDSEP
 70
    46
  9
$DIMATFIT
 70
     3
  9
$DIMFRAC
 70
     0
  9
$DIMLDRBLK
  1

  9
$DIMLUNIT
 70
     2
  9
$DIMLWD
 70
    -2
  9
$DIMLWE
 70
    -2
  9
$DIMTMOVE
 70
     0
  9
$LUNITS
 70
     2
  9
$LUPREC
 70
     4
  9
$SKETCHINC
 40
0.1
  9
$FILLETRAD
 40
0.0
  9
$AUNITS
 70
     0
  9
$AUPREC
 70
     0
  9
$MENU
  1
.
  9
$ELEVATION
 40
0.0
  9
$PELEVATION
 40
0.0
  9
$THICKNESS
 40
0.0
  9
$LIMCHECK
 70
     0
  9
$CHAMFERA
 40
0.0
  9
$CHAMFERB
 40
0.0
  9
$CHAMFERC
 40
0.0
  9
$CHAMFERD
 40
0.0
  9
$SKPOLY
 70
     0
  9
$TDCREATE
 40
2455508.954327616
  9
$TDUCREATE
 40
2455508.912660949
  9
$TDUPDATE
 40
2455508.959909386
  9
$TDUUPDATE
 40
2455508.918242720
  9
$TDINDWG
 40
0.0055817708
  9
$TDUSRTIMER
 40
0.0055817708
  9
$USRTIMER
 70
     1
  9
$ANGBASE
 50
0.0
  9
$ANGDIR
 70
     0
  9
$PDMODE
 70
     0
  9
$PDSIZE
 40
0.0
  9
$PLINEWID
 40
0.0
  9
$SPLFRAME
 70
     0
  9
$SPLINETYPE
 70
     6
  9
$SPLINESEGS
 70
     8
  9
$HANDSEED
  5
317
  9
$SURFTAB1
 70
     6
  9
$SURFTAB2
 70
     6
  9
$SURFTYPE
 70
     6
  9
$SURFU
 70
     6
  9
$SURFV
 70
     6
  9
$UCSBASE
  2

  9
$UCSNAME
  2

  9
$UCSORG
 10
0.0
 20
0.0
 30
0.0
  9
$UCSXDIR
 10
1.0
 20
0.0
 30
0.0
  9
$UCSYDIR
 10
0.0
 20
1.0
 30
0.0
  9
$UCSORTHOREF
  2

  9
$UCSORTHOVIEW
 70
     1
  9
$UCSORGTOP
 10
0.0
 20
0.0
 30
0.0
  9
$UCSORGBOTTOM
 10
0.0
 20
0.0
 30
0.0
  9
$UCSORGLEFT
 10
0.0
 20
0.0
 30
0.0
  9
$UCSORGRIGHT
 10
0.0
 20
0.0
 30
0.0
  9
$UCSORGFRONT
 10
0.0
 20
0.0
 30
0.0
  9
$UCSORGBACK
 10
0.0
 20
0.0
 30
0.0
  9
$PUCSBASE
  2

  9
$PUCSNAME
  2

  9
$PUCSORG
 10
0.0
 20
0.0
 30
0.0
  9
$PUCSXDIR
 10
1.0
 20
0.0
 30
0.0
  9
$PUCSYDIR
 10
0.0
 20
1.0
 30
0.0
  9
$PUCSORTHOREF
  2

  9
$PUCSORTHOVIEW
 70
     0
  9
$PUCSORGTOP
 10
0.0
 20
0.0
 30
0.0
  9
$PUCSORGBOTTOM
 10
0.0
 20
0.0
 30
0.0
  9
$PUCSORGLEFT
 10
0.0
 20
0.0
 30
0.0
  9
$PUCSORGRIGHT
 10
0.0
 20
0.0
 30
0.0
  9
$PUCSORGFRONT
 10
0.0
 20
0.0
 30
0.0
  9
$PUCSORGBACK
 10
0.0
 20
0.0
 30
0.0
  9
$USERI1
 70
     0
  9
$USERI2
 70
     0
  9
$USERI3
 70
     0
  9
$USERI4
 70
     0
  9
$USERI5
 70
     0
  9
$USERR1
 40
0.0
  9
$USERR2
 40
0.0
  9
$USERR3
 40
0.0
  9
$USERR4
 40
0.0
  9
$USERR5
 40
0.0
  9
$WORLDVIEW
 70
     1
  9
$SHADEDGE
 70
     3
  9
$SHADEDIF
 70
    70
  9
$TILEMODE
 70
     1
  9
$MAXACTVP
 70
    64
  9
$PINSBASE
 10
0.0
 20
0.0
 30
0.0
  9
$PLIMCHECK
 70
     0
  9
$PEXTMIN
 10
1.000000000000000E+20
 20
1.000000000000000E+20
 30
1.000000000000000E+20
  9
$PEXTMAX
 10
-1.000000000000000E+20
 20
-1.000000000000000E+20
 30
-1.000000000000000E+20
  9
$PLIMMIN
 10
0.0
 20
0.0
  9
$PLIMMAX
 10
12.0
 20
9.0
  9
$UNITMODE
 70
     0
  9
$VISRETAIN
 70
     1
  9
$PLINEGEN
 70
     0
  9
$PSLTSCALE
 70
     1
  9
$TREEDEPTH
 70
  3020
  9
$CMLSTYLE
  2
Standard
  9
$CMLJUST
 70
     0
  9
$CMLSCALE
 40
1.0
  9
$PROXYGRAPHICS
 70
     1
  9
$MEASUREMENT
 70
     0
  9
$CELWEIGHT
370
    -1
  9
$ENDCAPS
280
     0
  9
$JOINSTYLE
280
     0
  9
$LWDISPLAY
290
     0
  9
$INSUNITS
 70
     0
  9
$HYPERLINKBASE
  1

  9
$STYLESHEET
  1

  9
$XEDIT
290
     1
  9
$CEPSNTYPE
380
     0
  9
$PSTYLEMODE
290
     1
  9
$FINGERPRINTGUID
  2
{EA56B6A7-D8A3-497A-A419-0455F7DC77ED}
  9
$VERSIONGUID
  2
{D0812F96-1E55-4BBC-99DA-B090993BDF78}
  9
$EXTNAMES
290
     1
  9
$PSVPSCALE
 40
0.0
  9
$OLESTARTUP
290
     0
  0
ENDSEC
  0
SECTION
  2
CLASSES
  0
CLASS
  1
ACDBDICTIONARYWDFLT
  2
AcDbDictionaryWithDefault
  3
AutoCAD 2000
 90
        0
280
     0
281
     0
  0
CLASS
  1
ACDBPLACEHOLDER
  2
AcDbPlaceHolder
  3
AutoCAD 2000
 90
        0
280
     0
281
     0
  0
CLASS
  1
LAYOUT
  2
AcDbLayout
  3
AutoCAD 2000
 90
        0
280
     0
281
     0
  0
CLASS
  1
DICTIONARYVAR
  2
AcDbDictionaryVar
  3
AutoCAD 2000
 90
        0
280
     0
281
     0
  0
ENDSEC
  0
SECTION
  2
TABLES
  0
TABLE
  2
VPORT
  5
8
330
0
100
AcDbSymbolTable
 70
     3
  0
VPORT
  5
316
330
8
100
AcDbSymbolTableRecord
100
AcDbViewportTableRecord
  2
*Active
 70
     0
 10
0.0
 20
0.0
 11
1.0
 21
1.0
 12
86.5
 22
84.00000000000002
 13
0.0
 23
0.0
 14
1.0
 24
1.0
 15
0.0
 25
0.0
 16
0.0
 26
0.0
 36
1.0
 17
0.0
 27
0.0
 37
0.0
 40
169.1364148816234
 41
2.073363431151241
 42
50.0
 43
0.0
 44
0.0
 50
0.0
 51
0.0
 71
     0
 72
   100
 73
     1
 74
     3
 75
     0
 76
     0
 77
     0
 78
     0
281
     0
 65
     1
110
0.0
120
0.0
130
0.0
111
1.0
121
0.0
131
0.0
112
0.0
122
1.0
132
0.0
 79
     1
146
0.0
  0
ENDTAB
  0
TABLE
  2
LTYPE
  5
5
330
0
100
AcDbSymbolTable
 70
     1
  0
LTYPE
  5
13
330
5
100
AcDbSymbolTableRecord
100
AcDbLinetypeTableRecord
  2
ByBlock
 70
     0
  3

 72
    65
 73
     0
 40
0.0
  0
LTYPE
  5
14
330
5
100
AcDbSymbolTableRecord
100
AcDbLinetypeTableRecord
  2
ByLayer
 70
     0
  3

 72
    65
 73
     0
 40
0.0
  0
LTYPE
  5
15
330
5
100
AcDbSymbolTableRecord
100
AcDbLinetypeTableRecord
  2
Continuous
 70
     0
  3
Solid line
 72
    65
 73
     0
 40
0.0
  0
ENDTAB
  0
TABLE
  2
LAYER
  5
2
330
0
100
AcDbSymbolTable
 70
     1
  0
LAYER
  5
10
330
2
100
AcDbSymbolTableRecord
100
AcDbLayerTableRecord
  2
0
 70
     0
 62
     7
  6
Continuous
370
    -3
390
F
  0
ENDTAB
  0
TABLE
  2
STYLE
  5
3
330
0
100
AcDbSymbolTable
 70
     1
  0
STYLE
  5
11
330
3
100
AcDbSymbolTableRecord
100
AcDbTextStyleTableRecord
  2
Standard
 70
     0
 40
0.0
 41
1.0
 50
0.0
 71
     0
 42
0.2
  3
txt
  4

  0
ENDTAB
  0
TABLE
  2
VIEW
  5
6
330
0
100
AcDbSymbolTable
 70
     0
  0
ENDTAB
  0
TABLE
  2
UCS
  5
7
330
0
100
AcDbSymbolTable
 70
     0
  0
ENDTAB
  0
TABLE
  2
APPID
  5
9
330
0
100
AcDbSymbolTable
 70
     1
  0
APPID
  5
12
330
9
100
AcDbSymbolTableRecord
100
AcDbRegAppTableRecord
  2
ACAD
 70
     0
  0
ENDTAB
  0
TABLE
  2
DIMSTYLE
  5
A
330
0
100
AcDbSymbolTable
 70
     1
100
AcDbDimStyleTable
 71
     0
  0
DIMSTYLE
105
2FD
330
A
100
AcDbSymbolTableRecord
100
AcDbDimStyleTableRecord
  2
Standard
 70
     0
340
11
  0
ENDTAB
  0
TABLE
  2
BLOCK_RECORD
  5
1
330
0
100
AcDbSymbolTable
 70
     0
  0
BLOCK_RECORD
  5
1E
330
1
100
AcDbSymbolTableRecord
100
AcDbBlockTableRecord
  2
*Model_Space
340
21
  0
BLOCK_RECORD
  5
1A
330
1
100
AcDbSymbolTableRecord
100
AcDbBlockTableRecord
  2
*Paper_Space
340
1D
  0
ENDTAB
  0
ENDSEC
  0
SECTION
  2
BLOCKS
  0
BLOCK
  5
1F
330
1E
100
AcDbEntity
  8
0
100
AcDbBlockBegin
  2
*Model_Space
 70
     0
 10
0.0
 20
0.0
 30
0.0
  3
*Model_Space
  1

  0
ENDBLK
  5
20
330
1E
100
AcDbEntity
  8
0
100
AcDbBlockEnd
  0
BLOCK
  5
1B
330
1A
100
AcDbEntity
 67
     1
  8
0
100
AcDbBlockBegin
  2
*Paper_Space
 70
     0
 10
0.0
 20
0.0
 30
0.0
  3
*Paper_Space
  1

  0
ENDBLK
  5
1C
330
1A
100
AcDbEntity
 67
     1
  8
0
100
AcDbBlockEnd
  0
ENDSEC
  0
SECTION
  2
ENTITIES
  0
LINE
  5
22
330
1E
100
AcDbEntity
  8
0
100
AcDbLine
 10
0.0000000000000048
 20
3.50000000000002
 30
0.0
 11
0.500000000000005
 21
4.00000000000002
 31
0.0
  0
LINE
  5
23
330
1E
100
AcDbEntity
  8
0
100
AcDbLine
 10
0.0000000000000048
 20
3.50000000000002
 30
0.0
 11
0.0000000000000048
 21
0.0000000000000152
 31
0.0
  0
LINE
  5
25
330
1E
100
AcDbEntity
  8
0
100
AcDbLine
 10
0.300000000000005
 20
0.0000000000000148
 30
0.0
 11
28.0
 21
0.000000000000015
 31
0.0
  0
LINE
  5
26
330
1E
100
AcDbEntity
  8
0
100
AcDbLine
 10
8.199999999999999
 20
0.0000000000000138
 30
0.0
 11
11.0
 21
0.0000000000000137
 31
0.0
  0
LINE
  5
27
330
1E
100
AcDbEntity
  8
0
100
AcDbLine
 10
5.799999999999999
 20
0.000000000000014
 30
0.0
 11
8.199999999999999
 21
0.0000000000000138
 31
0.0
  0
LINE
  5
28
330
1E
100
AcDbEntity
  8
0
100
AcDbLine
 10
5.799999999999999
 20
0.000000000000014
 30
0.0
 11
28.0
 21
0.000000000000015
 31
0.0
  0
LINE
  5
29
330
1E
100
AcDbEntity
  8
0
100
AcDbLine
 10
11.0
 20
0.0000000000000137
 30
0.0
 11
14.1
 21
0.0000000000000136
 31
0.0
  0
LINE
  5
2A
330
1E
100
AcDbEntity
  8
0
100
AcDbLine
 10
11.0
 20
0.0000000000000137
 30
0.0
 11
28.0
 21
0.000000000000015
 31
0.0
  0
LINE
  5
2B
330
1E
100
AcDbEntity
  8
0
100
AcDbLine
 10
8.200000000000009
 20
0.0000000000000138
 30
0.0
 11
28.0
 21
0.000000000000015
 31
0.0
  0
LINE
  5
2C
330
1E
100
AcDbEntity
  8
0
100
AcDbLine
 10
3.7
 20
0.0000000000000142
 30
0.0
 11
5.799999999999999
 21
0.000000000000014
 31
0.0
  0
LINE
  5
2D
330
1E
100
AcDbEntity
  8
0
100
AcDbLine
 10
3.7
 20
0.0000000000000142
 30
0.0
 11
28.0
 21
0.000000000000015
 31
0.0
  0
LINE
  5
2E
330
1E
100
AcDbEntity
  8
0
100
AcDbLine
 10
5.800000000000009
 20
0.000000000000014
 30
0.0
 11
28.0
 21
0.000000000000015
 31
0.0
  0
LINE
  5
2F
330
1E
100
AcDbEntity
  8
0
100
AcDbLine
 10
3.7
 20
0.0000000000000142
 30
0.0
 11
28.0
 21
0.000000000000015
 31
0.0
  0
LINE
  5
30
330
1E
100
AcDbEntity
  8
0
100
AcDbLine
 10
2.2
 20
0.0000000000000144
 30
0.0
 11
28.0
 21
0.000000000000015
 31
0.0
  0
LINE
  5
31
330
1E
100
AcDbEntity
  8
0
100
AcDbLine
 10
2.2
 20
0.0000000000000144
 30
0.0
 11
3.7
 21
0.0000000000000142
 31
0.0
  0
LINE
  5
32
330
1E
100
AcDbEntity
  8
0
100
AcDbLine
 10
1.0
 20
0.0000000000000146
 30
0.0
 11
28.0
 21
0.000000000000015
 31
0.0
  0
LINE
  5
33
330
1E
100
AcDbEntity
  8
0
100
AcDbLine
 10
1.0
 20
0.0000000000000146
 30
0.0
 11
2.2
 21
0.0000000000000144
 31
0.0
  0
LINE
  5
34
330
1E
100
AcDbEntity
  8
0
100
AcDbLine
 10
0.300000000000006
 20
0.0000000000000153
 30
0.0
 11
1.0
 21
0.0000000000000155
 31
0.0
  0
LINE
  5
38
330
1E
100
AcDbEntity
  8
0
100
AcDbLine
 10
1.0
 20
0.0000000000000155
 30
0.0
 11
28.0
 21
0.000000000000015
 31
0.0
  0
LINE
  5
39
330
1E
100
AcDbEntity
  8
0
100
AcDbLine
 10
1.0
 20
0.0000000000000155
 30
0.0
 11
2.2
 21
0.0000000000000157
 31
0.0
  0
LINE
  5
3A
330
1E
100
AcDbEntity
  8
0
100
AcDbLine
 10
0.300000000000005
 20
0.0000000000000153
 30
0.0
 11
28.0
 21
0.000000000000015
 31
0.0
  0
LINE
  5
3B
330
1E
100
AcDbEntity
  8
0
100
AcDbLine
 10
0.8000000000000058
 20
4.00000000000002
 30
0.0
 11
1.5
 21
4.00000000000002
 31
0.0
  0
LINE
  5
3D
330
1E
100
AcDbEntity
  8
0
100
AcDbLine
 10
0.500000000000005
 20
4.00000000000002
 30
0.0
 11
0.8000000000000058
 21
4.00000000000002
 31
0.0
  0
LINE
  5
3E
330
1E
100
AcDbEntity
  8
0
100
AcDbLine
 10
0.500000000000005
 20
4.00000000000002
 30
0.0
 11
7.09091
 21
5.071430000000019
 31
0.0
  0
LINE
  5
42
330
1E
100
AcDbEntity
  8
0
100
AcDbLine
 10
2.2
 20
0.0000000000000157
 30
0.0
 11
28.0
 21
0.000000000000015
 31
0.0
  0
LINE
  5
43
330
1E
100
AcDbEntity
  8
0
100
AcDbLine
 10
2.2
 20
0.0000000000000157
 30
0.0
 11
3.7
 21
0.0000000000000159
 31
0.0
  0
LINE
  5
48
330
1E
100
AcDbEntity
  8
0
100
AcDbLine
 10
3.7
 20
0.0000000000000159
 30
0.0
 11
28.0
 21
0.000000000000015
 31
0.0
  0
LINE
  5
49
330
1E
100
AcDbEntity
  8
0
100
AcDbLine
 10
3.7
 20
0.0000000000000159
 30
0.0
 11
5.799999999999999
 21
0.0000000000000161
 31
0.0
  0
LINE
  5
4B
330
1E
100
AcDbEntity
  8
0
100
AcDbLine
 10
3.7
 20
0.0000000000000159
 30
0.0
 11
28.0
 21
0.000000000000015
 31
0.0
  0
LINE
  5
4F
330
1E
100
AcDbEntity
  8
0
100
AcDbLine
 10
5.799999999999999
 20
0.0000000000000161
 30
0.0
 11
28.0
 21
0.000000000000015
 31
0.0
  0
LINE
  5
50
330
1E
100
AcDbEntity
  8
0
100
AcDbLine
 10
5.799999999999999
 20
0.0000000000000161
 30
0.0
 11
8.199999999999999
 21
0.0000000000000163
 31
0.0
  0
LINE
  5
52
330
1E
100
AcDbEntity
  8
0
100
AcDbLine
 10
4.200000000000009
 20
4.00000000000002
 30
0.0
 11
6.2
 21
4.00000000000002
 31
0.0
  0
LINE
  5
54
330
1E
100
AcDbEntity
  8
0
100
AcDbLine
 10
2.6
 20
4.00000000000002
 30
0.0
 11
4.200000000000009
 21
4.00000000000002
 31
0.0
  0
LINE
  5
56
330
1E
100
AcDbEntity
  8
0
100
AcDbLine
 10
1.5
 20
4.00000000000002
 30
0.0
 11
2.6
 21
4.00000000000002
 31
0.0
  0
LINE
  5
5C
330
1E
100
AcDbEntity
  8
0
100
AcDbLine
 10
8.199999999999999
 20
0.0000000000000163
 30
0.0
 11
11.0
 21
0.0000000000000164
 31
0.0
  0
LINE
  5
5D
330
1E
100
AcDbEntity
  8
0
100
AcDbLine
 10
11.0
 20
0.0000000000000164
 30
0.0
 11
28.0
 21
0.000000000000015
 31
0.0
  0
LINE
  5
5E
330
1E
100
AcDbEntity
  8
0
100
AcDbLine
 10
11.0
 20
0.0000000000000164
 30
0.0
 11
14.1
 21
0.0000000000000165
 31
0.0
  0
LINE
  5
60
330
1E
100
AcDbEntity
  8
0
100
AcDbLine
 10
8.200000000000009
 20
0.0000000000000163
 30
0.0
 11
28.0
 21
0.000000000000015
 31
0.0
  0
LINE
  5
61
330
1E
100
AcDbEntity
  8
0
100
AcDbLine
 10
5.800000000000009
 20
0.0000000000000161
 30
0.0
 11
28.0
 21
0.000000000000015
 31
0.0
  0
LINE
  5
68
330
1E
100
AcDbEntity
  8
0
100
AcDbLine
 10
8.60000000000001
 20
4.00000000000002
 30
0.0
 11
11.3
 21
4.00000000000002
 31
0.0
  0
LINE
  5
7D
330
1E
100
AcDbEntity
  8
0
100
AcDbLine
 10
10.85455
 20
8.500000000000019
 30
0.0
 11
12.63182
 21
8.500000000000019
 31
0.0
  0
LINE
  5
7E
330
1E
100
AcDbEntity
  8
0
100
AcDbLine
 10
10.22726999999999
 20
8.500000000000019
 30
0.0
 11
10.85455
 21
8.500000000000019
 31
0.0
  0
LINE
  5
7F
330
1E
100
AcDbEntity
  8
0
100
AcDbLine
 10
9.704549999999999
 20
6.785710000000019
 30
0.0
 11
10.22726999999999
 21
8.500000000000019
 31
0.0
  0
LINE
  5
81
330
1E
100
AcDbEntity
  8
0
100
AcDbLine
 10
8.659089999999999
 20
5.642860000000009
 30
0.0
 11
9.704549999999999
 21
6.785710000000019
 31
0.0
  0
LINE
  5
84
330
1E
100
AcDbEntity
  8
0
100
AcDbLine
 10
7.09091
 20
5.071430000000019
 30
0.0
 11
8.659089999999999
 21
5.642860000000009
 31
0.0
  0
LINE
  5
86
330
1E
100
AcDbEntity
  8
0
100
AcDbLine
 10
6.2
 20
4.00000000000002
 30
0.0
 11
8.60000000000001
 21
4.00000000000002
 31
0.0
  0
LINE
  5
88
330
1E
100
AcDbEntity
  8
0
100
AcDbLine
 10
0.300000000000006
 20
0.0000000000000148
 30
0.0
 11
28.0
 21
0.000000000000015
 31
0.0
  0
LINE
  5
89
330
1E
100
AcDbEntity
  8
0
100
AcDbLine
 10
0.300000000000006
 20
0.0000000000000148
 30
0.0
 11
1.0
 21
0.0000000000000146
 31
0.0
  0
LINE
  5
8A
330
1E
100
AcDbEntity
  8
0
100
AcDbLine
 10
0.0000000000000048
 20
0.000000000000015
 30
0.0
 11
0.300000000000006
 21
0.0000000000000148
 31
0.0
  0
LINE
  5
8B
330
1E
100
AcDbEntity
  8
0
100
AcDbLine
 10
0.0000000000000048
 20
0.000000000000015
 30
0.0
 11
28.0
 21
0.000000000000015
 31
0.0
  0
LINE
  5
8C
330
1E
100
AcDbEntity
  8
0
100
AcDbLine
 10
0.0000000000000048
 20
0.000000000000015
 30
0.0
 11
0.0000000000000048
 21
3.50000000000002
 31
0.0
  0
LINE
  5
8D
330
1E
100
AcDbEntity
  8
0
100
AcDbLine
 10
0.0000000000000048
 20
0.000000000000015
 30
0.0
 11
0.300000000000006
 21
0.0000000000000153
 31
0.0
  0
LINE
  5
8E
330
1E
100
AcDbEntity
  8
0
100
AcDbLine
 10
11.0
 20
34.5
 30
0.0
 11
11.038275
 21
29.5671
 31
0.0
  0
LINE
  5
8F
330
1E
100
AcDbEntity
  8
0
100
AcDbLine
 10
11.0
 20
26.5
 30
0.0
 11
11.0
 21
9.500000000000008
 31
0.0
  0
LINE
  5
90
330
1E
100
AcDbEntity
  8
0
100
AcDbLine
 10
11.0
 20
26.5
 30
0.0
 11
11.038275
 21
29.5671
 31
0.0
  0
LINE
  5
9A
330
1E
100
AcDbEntity
  8
0
100
AcDbLine
 10
12.0
 20
9.500000000000008
 30
0.0
 11
12.0
 21
8.500000000000019
 31
0.0
  0
LINE
  5
9B
330
1E
100
AcDbEntity
  8
0
100
AcDbLine
 10
12.0
 20
8.500000000000019
 30
0.0
 11
12.0
 21
9.500000000000008
 31
0.0
  0
LINE
  5
9D
330
1E
100
AcDbEntity
  8
0
100
AcDbLine
 10
12.63182
 20
8.500000000000019
 30
0.0
 11
15.45449999999999
 21
8.500000000000019
 31
0.0
  0
LINE
  5
A0
330
1E
100
AcDbEntity
  8
0
100
AcDbLine
 10
11.3
 20
4.00000000000002
 30
0.0
 11
14.3
 21
4.00000000000002
 31
0.0
  0
LINE
  5
A2
330
1E
100
AcDbEntity
  8
0
100
AcDbLine
 10
11.59999999999999
 20
9.500000000000008
 30
0.0
 11
13.3
 21
9.500000000000008
 31
0.0
  0
LINE
  5
A7
330
1E
100
AcDbEntity
  8
0
100
AcDbLine
 10
14.1
 20
0.0000000000000165
 30
0.0
 11
28.0
 21
0.000000000000015
 31
0.0
  0
LINE
  5
A8
330
1E
100
AcDbEntity
  8
0
100
AcDbLine
 10
14.1
 20
0.0000000000000165
 30
0.0
 11
17.3
 21
0.0000000000000166
 31
0.0
  0
LINE
  5
AA
330
1E
100
AcDbEntity
  8
0
100
AcDbLine
 10
17.3
 20
0.0000000000000166
 30
0.0
 11
28.0
 21
0.000000000000015
 31
0.0
  0
LINE
  5
AB
330
1E
100
AcDbEntity
  8
0
100
AcDbLine
 10
17.3
 20
0.0000000000000166
 30
0.0
 11
20.8
 21
0.0000000000000167
 31
0.0
  0
LINE
  5
B5
330
1E
100
AcDbEntity
  8
0
100
AcDbLine
 10
15.45449999999999
 20
8.500000000000019
 30
0.0
 11
19.1136
 21
8.500000000000019
 31
0.0
  0
LINE
  5
B9
330
1E
100
AcDbEntity
  8
0
100
AcDbLine
 10
14.3
 20
4.00000000000002
 30
0.0
 11
17.5
 21
4.00000000000002
 31
0.0
  0
LINE
  5
BD
330
1E
100
AcDbEntity
  8
0
100
AcDbLine
 10
19.1136
 20
8.500000000000019
 30
0.0
 11
23.39999999999999
 21
8.500000000000019
 31
0.0
  0
LINE
  5
C4
330
1E
100
AcDbEntity
  8
0
100
AcDbLine
 10
17.5
 20
4.00000000000002
 30
0.0
 11
20.89999999999999
 21
4.00000000000002
 31
0.0
  0
LINE
  5
C9
330
1E
100
AcDbEntity
  8
0
100
AcDbLine
 10
14.1
 20
0.0000000000000136
 30
0.0
 11
17.3
 21
0.0000000000000135
 31
0.0
  0
LINE
  5
CA
330
1E
100
AcDbEntity
  8
0
100
AcDbLine
 10
14.1
 20
0.0000000000000136
 30
0.0
 11
28.0
 21
0.000000000000015
 31
0.0
  0
LINE
  5
CB
330
1E
100
AcDbEntity
  8
0
100
AcDbLine
 10
17.3
 20
0.0000000000000135
 30
0.0
 11
20.8
 21
0.0000000000000134
 31
0.0
  0
LINE
  5
CC
330
1E
100
AcDbEntity
  8
0
100
AcDbLine
 10
17.3
 20
0.0000000000000135
 30
0.0
 11
28.0
 21
0.000000000000015
 31
0.0
  0
LINE
  5
CD
330
1E
100
AcDbEntity
  8
0
100
AcDbLine
 10
13.3
 20
9.500000000000008
 30
0.0
 11
16.0
 21
9.500000000000019
 31
0.0
  0
LINE
  5
CE
330
1E
100
AcDbEntity
  8
0
100
AcDbLine
 10
16.0
 20
9.500000000000019
 30
0.0
 11
19.39999999999999
 21
9.500000000000019
 31
0.0
  0
LINE
  5
CF
330
1E
100
AcDbEntity
  8
0
100
AcDbLine
 10
31.8
 20
0.0000000000000133
 30
0.0
 11
35.2
 21
0.0000000000000134
 31
0.0
  0
LINE
  5
D0
330
1E
100
AcDbEntity
  8
0
100
AcDbLine
 10
28.0
 20
0.0000000000000133
 30
0.0
 11
31.8
 21
0.0000000000000133
 31
0.0
  0
LINE
  5
D1
330
1E
100
AcDbEntity
  8
0
100
AcDbLine
 10
20.8
 20
0.0000000000000167
 30
0.0
 11
28.0
 21
0.000000000000015
 31
0.0
  0
LINE
  5
D2
330
1E
100
AcDbEntity
  8
0
100
AcDbLine
 10
20.8
 20
0.0000000000000167
 30
0.0
 11
24.19999999999999
 21
0.0000000000000167
 31
0.0
  0
LINE
  5
DB
330
1E
100
AcDbEntity
  8
0
100
AcDbLine
 10
24.19999999999999
 20
0.0000000000000167
 30
0.0
 11
28.0
 21
0.000000000000015
 31
0.0
  0
LINE
  5
DC
330
1E
100
AcDbEntity
  8
0
100
AcDbLine
 10
24.19999999999999
 20
0.0000000000000167
 30
0.0
 11
28.0
 21
0.0000000000000168
 31
0.0
  0
LINE
  5
DE
330
1E
100
AcDbEntity
  8
0
100
AcDbLine
 10
31.8
 20
0.0000000000000167
 30
0.0
 11
35.2
 21
0.0000000000000167
 31
0.0
  0
LINE
  5
E0
330
1E
100
AcDbEntity
  8
0
100
AcDbLine
 10
28.0
 20
0.000000000000015
 30
0.0
 11
55.7
 21
0.0000000000000148
 31
0.0
  0
LINE
  5
E1
330
1E
100
AcDbEntity
  8
0
100
AcDbLine
 10
28.0
 20
0.000000000000015
 30
0.0
 11
56.0
 21
0.000000000000015
 31
0.0
  0
LINE
  5
E2
330
1E
100
AcDbEntity
  8
0
100
AcDbLine
 10
28.0
 20
0.000000000000015
 30
0.0
 11
55.0
 21
0.0000000000000146
 31
0.0
  0
LINE
  5
E3
330
1E
100
AcDbEntity
  8
0
100
AcDbLine
 10
28.0
 20
0.000000000000015
 30
0.0
 11
53.79999999999999
 21
0.0000000000000144
 31
0.0
  0
LINE
  5
E4
330
1E
100
AcDbEntity
  8
0
100
AcDbLine
 10
28.0
 20
0.000000000000015
 30
0.0
 11
52.3
 21
0.0000000000000142
 31
0.0
  0
LINE
  5
E5
330
1E
100
AcDbEntity
  8
0
100
AcDbLine
 10
28.0
 20
0.000000000000015
 30
0.0
 11
50.2
 21
0.000000000000014
 31
0.0
  0
LINE
  5
E6
330
1E
100
AcDbEntity
  8
0
100
AcDbLine
 10
28.0
 20
0.000000000000015
 30
0.0
 11
47.8
 21
0.0000000000000138
 31
0.0
  0
LINE
  5
E7
330
1E
100
AcDbEntity
  8
0
100
AcDbLine
 10
28.0
 20
0.000000000000015
 30
0.0
 11
31.8
 21
0.0000000000000133
 31
0.0
  0
LINE
  5
E8
330
1E
100
AcDbEntity
  8
0
100
AcDbLine
 10
28.0
 20
0.000000000000015
 30
0.0
 11
35.2
 21
0.0000000000000134
 31
0.0
  0
LINE
  5
E9
330
1E
100
AcDbEntity
  8
0
100
AcDbLine
 10
28.0
 20
0.000000000000015
 30
0.0
 11
38.7
 21
0.0000000000000135
 31
0.0
  0
LINE
  5
EA
330
1E
100
AcDbEntity
  8
0
100
AcDbLine
 10
28.0
 20
0.000000000000015
 30
0.0
 11
41.9
 21
0.0000000000000136
 31
0.0
  0
LINE
  5
EB
330
1E
100
AcDbEntity
  8
0
100
AcDbLine
 10
28.0
 20
0.000000000000015
 30
0.0
 11
45.0
 21
0.0000000000000137
 31
0.0
  0
LINE
  5
EC
330
1E
100
AcDbEntity
  8
0
100
AcDbLine
 10
28.0
 20
0.000000000000015
 30
0.0
 11
55.7
 21
0.0000000000000153
 31
0.0
  0
LINE
  5
ED
330
1E
100
AcDbEntity
  8
0
100
AcDbLine
 10
28.0
 20
0.000000000000015
 30
0.0
 11
55.0
 21
0.0000000000000155
 31
0.0
  0
LINE
  5
EE
330
1E
100
AcDbEntity
  8
0
100
AcDbLine
 10
28.0
 20
0.000000000000015
 30
0.0
 11
53.79999999999999
 21
0.0000000000000157
 31
0.0
  0
LINE
  5
EF
330
1E
100
AcDbEntity
  8
0
100
AcDbLine
 10
28.0
 20
0.000000000000015
 30
0.0
 11
52.3
 21
0.0000000000000159
 31
0.0
  0
LINE
  5
F0
330
1E
100
AcDbEntity
  8
0
100
AcDbLine
 10
28.0
 20
0.000000000000015
 30
0.0
 11
50.2
 21
0.0000000000000161
 31
0.0
  0
LINE
  5
F1
330
1E
100
AcDbEntity
  8
0
100
AcDbLine
 10
28.0
 20
0.000000000000015
 30
0.0
 11
47.8
 21
0.0000000000000163
 31
0.0
  0
LINE
  5
F2
330
1E
100
AcDbEntity
  8
0
100
AcDbLine
 10
28.0
 20
0.000000000000015
 30
0.0
 11
31.8
 21
0.0000000000000167
 31
0.0
  0
LINE
  5
F3
330
1E
100
AcDbEntity
  8
0
100
AcDbLine
 10
28.0
 20
0.000000000000015
 30
0.0
 11
35.2
 21
0.0000000000000167
 31
0.0
  0
LINE
  5
F4
330
1E
100
AcDbEntity
  8
0
100
AcDbLine
 10
28.0
 20
0.000000000000015
 30
0.0
 11
38.7
 21
0.0000000000000166
 31
0.0
  0
LINE
  5
F5
330
1E
100
AcDbEntity
  8
0
100
AcDbLine
 10
28.0
 20
0.000000000000015
 30
0.0
 11
41.9
 21
0.0000000000000165
 31
0.0
  0
LINE
  5
F6
330
1E
100
AcDbEntity
  8
0
100
AcDbLine
 10
28.0
 20
0.000000000000015
 30
0.0
 11
45.0
 21
0.0000000000000164
 31
0.0
  0
LINE
  5
F7
330
1E
100
AcDbEntity
  8
0
100
AcDbLine
 10
28.0
 20
0.0000000000000168
 30
0.0
 11
31.8
 21
0.0000000000000167
 31
0.0
  0
LINE
  5
FD
330
1E
100
AcDbEntity
  8
0
100
AcDbLine
 10
23.39999999999999
 20
8.500000000000019
 30
0.0
 11
28.0
 21
8.500000000000019
 31
0.0
  0
LINE
  5
101
330
1E
100
AcDbEntity
  8
0
100
AcDbLine
 10
20.89999999999999
 20
4.00000000000002
 30
0.0
 11
24.39999999999999
 21
4.00000000000002
 31
0.0
  0
LINE
  5
10D
330
1E
100
AcDbEntity
  8
0
100
AcDbLine
 10
28.0
 20
8.500000000000019
 30
0.0
 11
32.6
 21
8.500000000000019
 31
0.0
  0
LINE
  5
113
330
1E
100
AcDbEntity
  8
0
100
AcDbLine
 10
24.39999999999999
 20
4.00000000000002
 30
0.0
 11
28.0
 21
4.00000000000002
 31
0.0
  0
LINE
  5
115
330
1E
100
AcDbEntity
  8
0
100
AcDbLine
 10
31.6
 20
4.00000000000002
 30
0.0
 11
35.1
 21
4.00000000000002
 31
0.0
  0
LINE
  5
11F
330
1E
100
AcDbEntity
  8
0
100
AcDbLine
 10
28.0
 20
4.00000000000002
 30
0.0
 11
31.6
 21
4.00000000000002
 31
0.0
  0
LINE
  5
125
330
1E
100
AcDbEntity
  8
0
100
AcDbLine
 10
20.8
 20
0.0000000000000134
 30
0.0
 11
24.19999999999999
 21
0.0000000000000133
 31
0.0
  0
LINE
  5
126
330
1E
100
AcDbEntity
  8
0
100
AcDbLine
 10
20.8
 20
0.0000000000000134
 30
0.0
 11
28.0
 21
0.000000000000015
 31
0.0
  0
LINE
  5
127
330
1E
100
AcDbEntity
  8
0
100
AcDbLine
 10
24.19999999999999
 20
0.0000000000000133
 30
0.0
 11
28.0
 21
0.0000000000000133
 31
0.0
  0
LINE
  5
128
330
1E
100
AcDbEntity
  8
0
100
AcDbLine
 10
24.19999999999999
 20
0.0000000000000133
 30
0.0
 11
28.0
 21
0.000000000000015
 31
0.0
  0
LINE
  5
129
330
1E
100
AcDbEntity
  8
0
100
AcDbLine
 10
35.2
 20
0.0000000000000167
 30
0.0
 11
38.7
 21
0.0000000000000166
 31
0.0
  0
LINE
  5
12D
330
1E
100
AcDbEntity
  8
0
100
AcDbLine
 10
35.2
 20
0.0000000000000134
 30
0.0
 11
38.7
 21
0.0000000000000135
 31
0.0
  0
LINE
  5
130
330
1E
100
AcDbEntity
  8
0
100
AcDbLine
 10
38.7
 20
0.0000000000000166
 30
0.0
 11
41.9
 21
0.0000000000000165
 31
0.0
  0
LINE
  5
134
330
1E
100
AcDbEntity
  8
0
100
AcDbLine
 10
38.7
 20
0.0000000000000135
 30
0.0
 11
41.9
 21
0.0000000000000136
 31
0.0
  0
LINE
  5
135
330
1E
100
AcDbEntity
  8
0
100
AcDbLine
 10
38.5
 20
4.00000000000002
 30
0.0
 11
41.7
 21
4.00000000000002
 31
0.0
  0
LINE
  5
139
330
1E
100
AcDbEntity
  8
0
100
AcDbLine
 10
35.1
 20
4.00000000000002
 30
0.0
 11
38.5
 21
4.00000000000002
 31
0.0
  0
LINE
  5
13C
330
1E
100
AcDbEntity
  8
0
100
AcDbLine
 10
32.6
 20
8.500000000000019
 30
0.0
 11
36.8864
 21
8.500000000000019
 31
0.0
  0
LINE
  5
147
330
1E
100
AcDbEntity
  8
0
100
AcDbLine
 10
36.8864
 20
8.500000000000019
 30
0.0
 11
40.54549999999999
 21
8.500000000000019
 31
0.0
  0
LINE
  5
153
330
1E
100
AcDbEntity
  8
0
100
AcDbLine
 10
40.54549999999999
 20
8.500000000000019
 30
0.0
 11
43.3682
 21
8.500000000000019
 31
0.0
  0
LINE
  5
15D
330
1E
100
AcDbEntity
  8
0
100
AcDbLine
 10
41.9
 20
0.0000000000000165
 30
0.0
 11
45.0
 21
0.0000000000000164
 31
0.0
  0
LINE
  5
15F
330
1E
100
AcDbEntity
  8
0
100
AcDbLine
 10
45.0
 20
0.0000000000000164
 30
0.0
 11
47.8
 21
0.0000000000000163
 31
0.0
  0
LINE
  5
163
330
1E
100
AcDbEntity
  8
0
100
AcDbLine
 10
45.0
 20
0.0000000000000137
 30
0.0
 11
47.8
 21
0.0000000000000138
 31
0.0
  0
LINE
  5
164
330
1E
100
AcDbEntity
  8
0
100
AcDbLine
 10
41.9
 20
0.0000000000000136
 30
0.0
 11
45.0
 21
0.0000000000000137
 31
0.0
  0
LINE
  5
169
330
1E
100
AcDbEntity
  8
0
100
AcDbLine
 10
43.3682
 20
8.500000000000019
 30
0.0
 11
45.14549999999999
 21
8.500000000000019
 31
0.0
  0
LINE
  5
16A
330
1E
100
AcDbEntity
  8
0
100
AcDbLine
 10
44.0
 20
8.500000000000019
 30
0.0
 11
44.0
 21
9.500000000000008
 31
0.0
  0
LINE
  5
16B
330
1E
100
AcDbEntity
  8
0
100
AcDbLine
 10
44.0
 20
9.500000000000008
 30
0.0
 11
44.0
 21
8.500000000000019
 31
0.0
  0
LINE
  5
179
330
1E
100
AcDbEntity
  8
0
100
AcDbLine
 10
44.7
 20
4.00000000000002
 30
0.0
 11
47.4
 21
4.00000000000002
 31
0.0
  0
LINE
  5
17B
330
1E
100
AcDbEntity
  8
0
100
AcDbLine
 10
41.7
 20
4.00000000000002
 30
0.0
 11
44.7
 21
4.00000000000002
 31
0.0
  0
LINE
  5
17D
330
1E
100
AcDbEntity
  8
0
100
AcDbLine
 10
44.4
 20
9.500000000000008
 30
0.0
 11
45.0
 21
9.500000000000008
 31
0.0
  0
LINE
  5
17F
330
1E
100
AcDbEntity
  8
0
100
AcDbLine
 10
47.8
 20
0.0000000000000163
 30
0.0
 11
50.2
 21
0.0000000000000161
 31
0.0
  0
LINE
  5
181
330
1E
100
AcDbEntity
  8
0
100
AcDbLine
 10
47.8
 20
0.0000000000000138
 30
0.0
 11
50.2
 21
0.000000000000014
 31
0.0
  0
LINE
  5
182
330
1E
100
AcDbEntity
  8
0
100
AcDbLine
 10
50.2
 20
0.0000000000000161
 30
0.0
 11
52.3
 21
0.0000000000000159
 31
0.0
  0
LINE
  5
184
330
1E
100
AcDbEntity
  8
0
100
AcDbLine
 10
52.3
 20
0.0000000000000159
 30
0.0
 11
53.79999999999999
 21
0.0000000000000157
 31
0.0
  0
LINE
  5
18A
330
1E
100
AcDbEntity
  8
0
100
AcDbLine
 10
50.2
 20
0.000000000000014
 30
0.0
 11
52.3
 21
0.0000000000000142
 31
0.0
  0
LINE
  5
18B
330
1E
100
AcDbEntity
  8
0
100
AcDbLine
 10
52.3
 20
0.0000000000000142
 30
0.0
 11
53.79999999999999
 21
0.0000000000000144
 31
0.0
  0
LINE
  5
18C
330
1E
100
AcDbEntity
  8
0
100
AcDbLine
 10
53.79999999999999
 20
0.0000000000000144
 30
0.0
 11
55.0
 21
0.0000000000000146
 31
0.0
  0
LINE
  5
18D
330
1E
100
AcDbEntity
  8
0
100
AcDbLine
 10
53.79999999999999
 20
0.0000000000000157
 30
0.0
 11
55.0
 21
0.0000000000000155
 31
0.0
  0
LINE
  5
18F
330
1E
100
AcDbEntity
  8
0
100
AcDbLine
 10
55.0
 20
0.0000000000000155
 30
0.0
 11
55.7
 21
0.0000000000000153
 31
0.0
  0
LINE
  5
194
330
1E
100
AcDbEntity
  8
0
100
AcDbLine
 10
55.0
 20
0.0000000000000146
 30
0.0
 11
55.7
 21
0.0000000000000148
 31
0.0
  0
LINE
  5
195
330
1E
100
AcDbEntity
  8
0
100
AcDbLine
 10
55.7
 20
0.0000000000000153
 30
0.0
 11
56.0
 21
0.000000000000015
 31
0.0
  0
LINE
  5
197
330
1E
100
AcDbEntity
  8
0
100
AcDbLine
 10
55.5
 20
4.00000000000002
 30
0.0
 11
56.0
 21
3.50000000000002
 31
0.0
  0
LINE
  5
199
330
1E
100
AcDbEntity
  8
0
100
AcDbLine
 10
56.0
 20
3.50000000000002
 30
0.0
 11
56.0
 21
0.0000000000000152
 31
0.0
  0
LINE
  5
19A
330
1E
100
AcDbEntity
  8
0
100
AcDbLine
 10
55.7
 20
0.0000000000000148
 30
0.0
 11
56.0
 21
0.000000000000015
 31
0.0
  0
LINE
  5
19B
330
1E
100
AcDbEntity
  8
0
100
AcDbLine
 10
55.2
 20
4.00000000000002
 30
0.0
 11
55.5
 21
4.00000000000002
 31
0.0
  0
LINE
  5
19D
330
1E
100
AcDbEntity
  8
0
100
AcDbLine
 10
54.5
 20
4.00000000000002
 30
0.0
 11
55.2
 21
4.00000000000002
 31
0.0
  0
LINE
  5
19F
330
1E
100
AcDbEntity
  8
0
100
AcDbLine
 10
53.39999999999999
 20
4.00000000000002
 30
0.0
 11
54.5
 21
4.00000000000002
 31
0.0
  0
LINE
  5
1A1
330
1E
100
AcDbEntity
  8
0
100
AcDbLine
 10
51.79999999999999
 20
4.00000000000002
 30
0.0
 11
53.39999999999999
 21
4.00000000000002
 31
0.0
  0
LINE
  5
1A3
330
1E
100
AcDbEntity
  8
0
100
AcDbLine
 10
49.8
 20
4.00000000000002
 30
0.0
 11
51.79999999999999
 21
4.00000000000002
 31
0.0
  0
LINE
  5
1A6
330
1E
100
AcDbEntity
  8
0
100
AcDbLine
 10
45.14549999999999
 20
8.500000000000019
 30
0.0
 11
45.7727
 21
8.500000000000019
 31
0.0
  0
LINE
  5
1A8
330
1E
100
AcDbEntity
  8
0
100
AcDbLine
 10
45.7727
 20
8.500000000000019
 30
0.0
 11
46.2954
 21
6.785710000000019
 31
0.0
  0
LINE
  5
1AF
330
1E
100
AcDbEntity
  8
0
100
AcDbLine
 10
48.9091
 20
5.071430000000019
 30
0.0
 11
55.5
 21
4.00000000000002
 31
0.0
  0
LINE
  5
1B4
330
1E
100
AcDbEntity
  8
0
100
AcDbLine
 10
46.2954
 20
6.785710000000019
 30
0.0
 11
47.3409
 21
5.642860000000009
 31
0.0
  0
LINE
  5
1B7
330
1E
100
AcDbEntity
  8
0
100
AcDbLine
 10
47.3409
 20
5.642860000000009
 30
0.0
 11
48.9091
 21
5.071430000000019
 31
0.0
  0
LINE
  5
1BE
330
1E
100
AcDbEntity
  8
0
100
AcDbLine
 10
47.4
 20
4.00000000000002
 30
0.0
 11
49.8
 21
4.00000000000002
 31
0.0
  0
LINE
  5
1C0
330
1E
100
AcDbEntity
  8
0
100
AcDbLine
 10
45.0
 20
9.500000000000008
 30
0.0
 11
45.0
 21
26.5
 31
0.0
  0
LINE
  5
1C1
330
1E
100
AcDbEntity
  8
0
100
AcDbLine
 10
42.7
 20
9.500000000000008
 30
0.0
 11
44.4
 21
9.500000000000008
 31
0.0
  0
LINE
  5
1C2
330
1E
100
AcDbEntity
  8
0
100
AcDbLine
 10
40.0
 20
9.500000000000019
 30
0.0
 11
42.7
 21
9.500000000000008
 31
0.0
  0
LINE
  5
1C3
330
1E
100
AcDbEntity
  8
0
100
AcDbLine
 10
36.6
 20
9.500000000000019
 30
0.0
 11
40.0
 21
9.500000000000019
 31
0.0
  0
LINE
  5
1C4
330
1E
100
AcDbEntity
  8
0
100
AcDbLine
 10
32.4
 20
9.500000000000019
 30
0.0
 11
36.6
 21
9.500000000000019
 31
0.0
  0
LINE
  5
1C5
330
1E
100
AcDbEntity
  8
0
100
AcDbLine
 10
28.0
 20
9.500000000000019
 30
0.0
 11
32.4
 21
9.500000000000019
 31
0.0
  0
LINE
  5
1C6
330
1E
100
AcDbEntity
  8
0
100
AcDbLine
 10
19.39999999999999
 20
9.500000000000019
 30
0.0
 11
23.6
 21
9.500000000000019
 31
0.0
  0
LINE
  5
1C7
330
1E
100
AcDbEntity
  8
0
100
AcDbLine
 10
12.65464815803319
 20
40.8491743454116
 30
0.0
 11
13.46917
 21
41.86659999999999
 31
0.0
  0
LINE
  5
1C8
330
1E
100
AcDbEntity
  8
0
100
AcDbLine
 10
12.65464815803319
 20
40.8491743454116
 30
0.0
 11
13.46917
 21
41.86659999999999
 31
0.0
  0
LINE
  5
1C9
330
1E
100
AcDbEntity
  8
0
100
AcDbLine
 10
11.882539
 20
39.7981
 30
0.0
 11
12.09603
 21
40.1514
 31
0.0
  0
LINE
  5
1CA
330
1E
100
AcDbEntity
  8
0
100
AcDbLine
 10
11.59999999999999
 20
39.2954
 30
0.0
 11
11.882539
 21
39.7981
 31
0.0
  0
LINE
  5
1CB
330
1E
100
AcDbEntity
  8
0
100
AcDbLine
 10
13.30905
 20
37.9471
 30
0.0
 11
17.81437
 21
38.8701
 31
0.0
  0
LINE
  5
1CC
330
1E
100
AcDbEntity
  8
0
100
AcDbLine
 10
13.71178
 20
42.1063
 30
0.0
 11
13.86219
 21
42.25419999999999
 31
0.0
  0
LINE
  5
1CD
330
1E
100
AcDbEntity
  8
0
100
AcDbLine
 10
13.46917
 20
41.86659999999999
 30
0.0
 11
13.71178
 21
42.1063
 31
0.0
  0
LINE
  5
1CE
330
1E
100
AcDbEntity
  8
0
100
AcDbLine
 10
20.24868
 20
13.19539999999999
 30
0.0
 11
20.88769999999999
 21
12.8954
 31
0.0
  0
LINE
  5
1CF
330
1E
100
AcDbEntity
  8
0
100
AcDbLine
 10
19.97481
 20
13.8954
 30
0.0
 11
20.24868
 21
14.5954
 31
0.0
  0
LINE
  5
1D0
330
1E
100
AcDbEntity
  8
0
100
AcDbLine
 10
19.97481
 20
13.8954
 30
0.0
 11
20.24868
 21
13.19539999999999
 31
0.0
  0
LINE
  5
1D1
330
1E
100
AcDbEntity
  8
0
100
AcDbLine
 10
20.24868
 20
14.5954
 30
0.0
 11
20.88769999999999
 21
14.8954
 31
0.0
  0
LINE
  5
1D2
330
1E
100
AcDbEntity
  8
0
100
AcDbLine
 10
17.96523999999999
 20
38.951
 30
0.0
 11
18.15286
 21
39.03589999999999
 31
0.0
  0
LINE
  5
1D3
330
1E
100
AcDbEntity
  8
0
100
AcDbLine
 10
18.15286
 20
39.03589999999999
 30
0.0
 11
18.66617
 21
39.0927
 31
0.0
  0
LINE
  5
1D4
330
1E
100
AcDbEntity
  8
0
100
AcDbLine
 10
20.3025
 20
39.1453
 30
0.0
 11
22.24769999999999
 21
39.1649
 31
0.0
  0
LINE
  5
1D5
330
1E
100
AcDbEntity
  8
0
100
AcDbLine
 10
19.28637999999999
 20
39.11999999999999
 30
0.0
 11
20.3025
 21
39.1453
 31
0.0
  0
LINE
  5
1D6
330
1E
100
AcDbEntity
  8
0
100
AcDbLine
 10
18.66617
 20
39.0927
 30
0.0
 11
19.28637999999999
 21
39.11999999999999
 31
0.0
  0
LINE
  5
1D7
330
1E
100
AcDbEntity
  8
0
100
AcDbLine
 10
17.81437
 20
38.8701
 30
0.0
 11
17.96523999999999
 21
38.951
 31
0.0
  0
LINE
  5
1DF
330
1E
100
AcDbEntity
  8
0
100
AcDbLine
 10
18.81152
 20
45.3
 30
0.0
 11
20.30724999999999
 21
45.49999999999999
 31
0.0
  0
LINE
  5
1E0
330
1E
100
AcDbEntity
  8
0
100
AcDbLine
 10
20.45812
 20
45.49999999999999
 30
0.0
 11
20.64405999999999
 21
45.49999999999999
 31
0.0
  0
LINE
  5
1E1
330
1E
100
AcDbEntity
  8
0
100
AcDbLine
 10
20.64405999999999
 20
45.49999999999999
 30
0.0
 11
20.87805
 21
45.49999999999999
 31
0.0
  0
LINE
  5
1E2
330
1E
100
AcDbEntity
  8
0
100
AcDbLine
 10
20.88769999999999
 20
14.8954
 30
0.0
 11
21.5267
 21
14.5954
 31
0.0
  0
LINE
  5
1E3
330
1E
100
AcDbEntity
  8
0
100
AcDbLine
 10
21.5267
 20
14.5954
 30
0.0
 11
21.8006
 21
13.8954
 31
0.0
  0
LINE
  5
1E4
330
1E
100
AcDbEntity
  8
0
100
AcDbLine
 10
21.5267
 20
13.19539999999999
 30
0.0
 11
21.8006
 21
13.8954
 31
0.0
  0
LINE
  5
1E5
330
1E
100
AcDbEntity
  8
0
100
AcDbLine
 10
20.88769999999999
 20
12.8954
 30
0.0
 11
21.5267
 21
13.19539999999999
 31
0.0
  0
LINE
  5
1E6
330
1E
100
AcDbEntity
  8
0
100
AcDbLine
 10
22.24769999999999
 20
39.1649
 30
0.0
 11
25.0
 21
39.1805
 31
0.0
  0
LINE
  5
1E7
330
1E
100
AcDbEntity
  8
0
100
AcDbLine
 10
20.87805
 20
45.49999999999999
 30
0.0
 11
21.18479999999999
 21
45.49999999999999
 31
0.0
  0
LINE
  5
1E8
330
1E
100
AcDbEntity
  8
0
100
AcDbLine
 10
21.18479999999999
 20
45.49999999999999
 30
0.0
 11
21.6181
 21
45.49999999999999
 31
0.0
  0
LINE
  5
1E9
330
1E
100
AcDbEntity
  8
0
100
AcDbLine
 10
25.0
 20
39.1805
 30
0.0
 11
28.0
 21
39.1805
 31
0.0
  0
LINE
  5
1ED
330
1E
100
AcDbEntity
  8
0
100
AcDbLine
 10
22.8784
 20
45.49999999999999
 30
0.0
 11
25.0
 21
45.49999999999999
 31
0.0
  0
LINE
  5
1EE
330
1E
100
AcDbEntity
  8
0
100
AcDbLine
 10
34.4733
 20
14.5954
 30
0.0
 11
35.11229999999999
 21
14.8954
 31
0.0
  0
LINE
  5
1EF
330
1E
100
AcDbEntity
  8
0
100
AcDbLine
 10
34.19939999999999
 20
13.8954
 30
0.0
 11
34.4733
 21
13.19539999999999
 31
0.0
  0
LINE
  5
1F0
330
1E
100
AcDbEntity
  8
0
100
AcDbLine
 10
34.19939999999999
 20
13.8954
 30
0.0
 11
34.4733
 21
14.5954
 31
0.0
  0
LINE
  5
1F1
330
1E
100
AcDbEntity
  8
0
100
AcDbLine
 10
34.4733
 20
13.19539999999999
 30
0.0
 11
35.11229999999999
 21
12.8954
 31
0.0
  0
LINE
  5
1F2
330
1E
100
AcDbEntity
  8
0
100
AcDbLine
 10
35.11229999999999
 20
12.8954
 30
0.0
 11
35.7513
 21
13.19539999999999
 31
0.0
  0
LINE
  5
1F3
330
1E
100
AcDbEntity
  8
0
100
AcDbLine
 10
35.7513
 20
13.19539999999999
 30
0.0
 11
36.0252
 21
13.8954
 31
0.0
  0
LINE
  5
1F4
330
1E
100
AcDbEntity
  8
0
100
AcDbLine
 10
35.7513
 20
14.5954
 30
0.0
 11
36.0252
 21
13.8954
 31
0.0
  0
LINE
  5
1F5
330
1E
100
AcDbEntity
  8
0
100
AcDbLine
 10
35.11229999999999
 20
14.8954
 30
0.0
 11
35.7513
 21
14.5954
 31
0.0
  0
LINE
  5
202
330
1E
100
AcDbEntity
  8
0
100
AcDbLine
 10
28.0
 20
39.1805
 30
0.0
 11
31.0
 21
39.1805
 31
0.0
  0
LINE
  5
206
330
1E
100
AcDbEntity
  8
0
100
AcDbLine
 10
31.0
 20
39.1805
 30
0.0
 11
33.7523
 21
39.1649
 31
0.0
  0
LINE
  5
20A
330
1E
100
AcDbEntity
  8
0
100
AcDbLine
 10
31.0
 20
45.49999999999999
 30
0.0
 11
33.1216
 21
45.49999999999999
 31
0.0
  0
LINE
  5
20C
330
1E
100
AcDbEntity
  8
0
100
AcDbLine
 10
33.7523
 20
39.1649
 30
0.0
 11
35.69749999999999
 21
39.1453
 31
0.0
  0
LINE
  5
210
330
1E
100
AcDbEntity
  8
0
100
AcDbLine
 10
35.3559
 20
45.49999999999999
 30
0.0
 11
35.5419
 21
45.49999999999999
 31
0.0
  0
LINE
  5
211
330
1E
100
AcDbEntity
  8
0
100
AcDbLine
 10
35.12199999999999
 20
45.49999999999999
 30
0.0
 11
35.3559
 21
45.49999999999999
 31
0.0
  0
LINE
  5
212
330
1E
100
AcDbEntity
  8
0
100
AcDbLine
 10
34.81519999999999
 20
45.49999999999999
 30
0.0
 11
35.12199999999999
 21
45.49999999999999
 31
0.0
  0
LINE
  5
213
330
1E
100
AcDbEntity
  8
0
100
AcDbLine
 10
34.3819
 20
45.49999999999999
 30
0.0
 11
34.81519999999999
 21
45.49999999999999
 31
0.0
  0
LINE
  5
217
330
1E
100
AcDbEntity
  8
0
100
AcDbLine
 10
35.5419
 20
45.49999999999999
 30
0.0
 11
35.6928
 21
45.49999999999999
 31
0.0
  0
LINE
  5
218
330
1E
100
AcDbEntity
  8
0
100
AcDbLine
 10
28.0
 20
45.49999999999999
 30
0.0
 11
31.0
 21
45.49999999999999
 31
0.0
  0
LINE
  5
21B
330
1E
100
AcDbEntity
  8
0
100
AcDbLine
 10
35.69749999999999
 20
39.1453
 30
0.0
 11
36.71359999999999
 21
39.11999999999999
 31
0.0
  0
LINE
  5
21C
330
1E
100
AcDbEntity
  8
0
100
AcDbLine
 10
36.71359999999999
 20
39.11999999999999
 30
0.0
 11
37.33379999999999
 21
39.0927
 31
0.0
  0
LINE
  5
21D
330
1E
100
AcDbEntity
  8
0
100
AcDbLine
 10
37.8471
 20
39.03589999999999
 30
0.0
 11
38.0348
 21
38.951
 31
0.0
  0
LINE
  5
21E
330
1E
100
AcDbEntity
  8
0
100
AcDbLine
 10
37.33379999999999
 20
39.0927
 30
0.0
 11
37.8471
 21
39.03589999999999
 31
0.0
  0
LINE
  5
21F
330
1E
100
AcDbEntity
  8
0
100
AcDbLine
 10
38.0348
 20
38.951
 30
0.0
 11
38.1856
 21
38.8701
 31
0.0
  0
LINE
  5
225
330
1E
100
AcDbEntity
  8
0
100
AcDbLine
 10
38.1856
 20
38.8701
 30
0.0
 11
42.691
 21
37.9471
 31
0.0
  0
LINE
  5
226
330
1E
100
AcDbEntity
  8
0
100
AcDbLine
 10
43.90399999999999
 20
40.1514
 30
0.0
 11
44.1175
 21
39.7981
 31
0.0
  0
LINE
  5
227
330
1E
100
AcDbEntity
  8
0
100
AcDbLine
 10
44.1175
 20
39.7981
 30
0.0
 11
44.4
 21
39.2954
 31
0.0
  0
LINE
  5
229
330
1E
100
AcDbEntity
  8
0
100
AcDbLine
 10
44.9617
 20
29.5671
 30
0.0
 11
45.0
 21
26.5
 31
0.0
  0
LINE
  5
22A
330
1E
100
AcDbEntity
  8
0
100
AcDbLine
 10
44.9617
 20
29.5671
 30
0.0
 11
45.0
 21
34.5
 31
0.0
  0
LINE
  5
22D
330
1E
100
AcDbEntity
  8
0
100
AcDbLine
 10
42.13779999999999
 20
42.25419999999999
 30
0.0
 11
42.2882
 21
42.1063
 31
0.0
  0
LINE
  5
22E
330
1E
100
AcDbEntity
  8
0
100
AcDbLine
 10
42.2882
 20
42.1063
 30
0.0
 11
42.53079999999999
 21
41.86659999999999
 31
0.0
  0
LINE
  5
22F
330
1E
100
AcDbEntity
  8
0
100
AcDbLine
 10
42.53079999999999
 20
41.86659999999999
 30
0.0
 11
43.34511198970179
 21
40.8494809170285
 31
0.0
  0
LINE
  5
231
330
1E
100
AcDbEntity
  8
0
100
AcDbLine
 10
35.6928
 20
45.49999999999999
 30
0.0
 11
37.18849999999999
 21
45.3
 31
0.0
  0
LINE
  5
232
330
1E
100
AcDbEntity
  8
0
100
AcDbLine
 10
45.0
 20
26.5
 30
0.0
 11
45.0
 21
9.500000000000008
 31
0.0
  0
LINE
  5
239
330
1E
100
AcDbEntity
  8
0
100
AcDbLine
 10
109.5999999999999
 20
117.1
 30
0.0
 11
115.0
 21
110.0
 31
0.0
  0
LINE
  5
23A
330
1E
100
AcDbEntity
  8
0
100
AcDbLine
 10
106.2
 20
125.2999999999999
 30
0.0
 11
109.5999999999999
 21
117.1
 31
0.0
  0
LINE
  5
23D
330
1E
100
AcDbEntity
  8
0
100
AcDbLine
 10
109.5999999999999
 20
150.9
 30
0.0
 11
115.0
 21
158.0
 31
0.0
  0
LINE
  5
23E
330
1E
100
AcDbEntity
  8
0
100
AcDbLine
 10
106.2
 20
142.6999999999999
 30
0.0
 11
109.5999999999999
 21
150.9
 31
0.0
  0
LINE
  5
23F
330
1E
100
AcDbEntity
  8
0
100
AcDbLine
 10
115.0
 20
158.0
 30
0.0
 11
122.0999999999999
 21
163.4
 31
0.0
  0
LINE
  5
241
330
1E
100
AcDbEntity
  8
0
100
AcDbLine
 10
105.0
 20
134.0
 30
0.0
 11
106.2
 21
125.2999999999999
 31
0.0
  0
LINE
  5
243
330
1E
100
AcDbEntity
  8
0
100
AcDbLine
 10
105.0
 20
134.0
 30
0.0
 11
106.2
 21
142.6999999999999
 31
0.0
  0
LINE
  5
24C
330
1E
100
AcDbEntity
  8
0
100
AcDbLine
 10
130.0
 20
133.179
 30
0.0
 11
130.3239999999999
 21
132.362
 31
0.0
  0
LINE
  5
24D
330
1E
100
AcDbEntity
  8
0
100
AcDbLine
 10
130.0
 20
133.179
 30
0.0
 11
130.3239999999999
 21
133.993
 31
0.0
  0
LINE
  5
24E
330
1E
100
AcDbEntity
  8
0
100
AcDbLine
 10
130.0
 20
133.179
 30
0.0
 11
130.3239999999999
 21
132.364
 31
0.0
  0
LINE
  5
24F
330
1E
100
AcDbEntity
  8
0
100
AcDbLine
 10
129.452
 20
131.6039999999999
 30
0.0
 11
131.212
 21
130.6289999999999
 31
0.0
  0
LINE
  5
250
330
1E
100
AcDbEntity
  8
0
100
AcDbLine
 10
128.396
 20
132.708
 30
0.0
 11
129.452
 21
131.6039999999999
 31
0.0
  0
LINE
  5
251
330
1E
100
AcDbEntity
  8
0
100
AcDbLine
 10
128.0
 20
133.8849999999999
 30
0.0
 11
128.396
 21
132.708
 31
0.0
  0
LINE
  5
252
330
1E
100
AcDbEntity
  8
0
100
AcDbLine
 10
128.0
 20
133.8849999999999
 30
0.0
 11
128.0
 21
135.755
 31
0.0
  0
LINE
  5
253
330
1E
100
AcDbEntity
  8
0
100
AcDbLine
 10
128.0
 20
133.8849999999999
 30
0.0
 11
128.396
 21
134.6989999999999
 31
0.0
  0
LINE
  5
255
330
1E
100
AcDbEntity
  8
0
100
AcDbLine
 10
128.0
 20
135.755
 30
0.0
 11
128.0
 21
142.3829999999999
 31
0.0
  0
LINE
  5
256
330
1E
100
AcDbEntity
  8
0
100
AcDbLine
 10
128.0
 20
142.3829999999999
 30
0.0
 11
128.0
 21
147.454
 31
0.0
  0
LINE
  5
257
330
1E
100
AcDbEntity
  8
0
100
AcDbLine
 10
129.452
 20
135.463
 30
0.0
 11
131.212
 21
136.138
 31
0.0
  0
LINE
  5
258
330
1E
100
AcDbEntity
  8
0
100
AcDbLine
 10
128.396
 20
134.6989999999999
 30
0.0
 11
129.452
 21
135.463
 31
0.0
  0
LINE
  5
25A
330
1E
100
AcDbEntity
  8
0
100
AcDbLine
 10
128.0
 20
147.454
 30
0.0
 11
128.0
 21
150.7299999999999
 31
0.0
  0
LINE
  5
25B
330
1E
100
AcDbEntity
  8
0
100
AcDbLine
 10
128.0
 20
150.7299999999999
 30
0.0
 11
128.0
 21
151.8179999999999
 31
0.0
  0
LINE
  5
25C
330
1E
100
AcDbEntity
  8
0
100
AcDbLine
 10
129.452
 20
155.876
 30
0.0
 11
131.212
 21
157.6109999999999
 31
0.0
  0
LINE
  5
25F
330
1E
100
AcDbEntity
  8
0
100
AcDbLine
 10
122.0999999999999
 20
163.4
 30
0.0
 11
130.3
 21
166.8
 31
0.0
  0
LINE
  5
260
330
1E
100
AcDbEntity
  8
0
100
AcDbLine
 10
130.3
 20
166.8
 30
0.0
 11
139.0
 21
168.0
 31
0.0
  0
LINE
  5
265
330
1E
100
AcDbEntity
  8
0
100
AcDbLine
 10
115.0
 20
110.0
 30
0.0
 11
122.0999999999999
 21
104.6
 31
0.0
  0
LINE
  5
267
330
1E
100
AcDbEntity
  8
0
100
AcDbLine
 10
122.0999999999999
 20
104.6
 30
0.0
 11
130.3
 21
101.2
 31
0.0
  0
LINE
  5
26A
330
1E
100
AcDbEntity
  8
0
100
AcDbLine
 10
139.0
 20
100.0
 30
0.0
 11
147.6999999999999
 21
101.2
 31
0.0
  0
LINE
  5
26B
330
1E
100
AcDbEntity
  8
0
100
AcDbLine
 10
147.6999999999999
 20
101.2
 30
0.0
 11
155.9
 21
104.6
 31
0.0
  0
LINE
  5
26D
330
1E
100
AcDbEntity
  8
0
100
AcDbLine
 10
130.3239999999999
 20
132.364
 30
0.0
 11
131.1879999999999
 21
131.6
 31
0.0
  0
LINE
  5
26E
330
1E
100
AcDbEntity
  8
0
100
AcDbLine
 10
130.3239999999999
 20
132.362
 30
0.0
 11
131.1879999999999
 21
131.6
 31
0.0
  0
LINE
  5
270
330
1E
100
AcDbEntity
  8
0
100
AcDbLine
 10
130.3239999999999
 20
133.993
 30
0.0
 11
131.1879999999999
 21
134.756
 31
0.0
  0
LINE
  5
271
330
1E
100
AcDbEntity
  8
0
100
AcDbLine
 10
133.5439999999999
 20
129.8939999999999
 30
0.0
 11
136.1839999999999
 21
129.452
 31
0.0
  0
LINE
  5
272
330
1E
100
AcDbEntity
  8
0
100
AcDbLine
 10
131.1879999999999
 20
134.756
 30
0.0
 11
132.6279999999999
 21
135.432
 31
0.0
  0
LINE
  5
273
330
1E
100
AcDbEntity
  8
0
100
AcDbLine
 10
131.1879999999999
 20
134.4039999999999
 30
0.0
 11
132.6279999999999
 21
133.7299999999999
 31
0.0
  0
LINE
  5
274
330
1E
100
AcDbEntity
  8
0
100
AcDbLine
 10
131.1879999999999
 20
131.6
 30
0.0
 11
132.6279999999999
 21
130.925
 31
0.0
  0
LINE
  5
275
330
1E
100
AcDbEntity
  8
0
100
AcDbLine
 10
130.9888330058939
 20
134.580115258677
 30
0.0
 11
131.1879999999999
 21
134.4039999999999
 31
0.0
  0
LINE
  5
279
330
1E
100
AcDbEntity
  8
0
100
AcDbLine
 10
131.212
 20
157.6109999999999
 30
0.0
 11
133.5439999999999
 21
158.9199999999999
 31
0.0
  0
LINE
  5
27C
330
1E
100
AcDbEntity
  8
0
100
AcDbLine
 10
131.212
 20
136.138
 30
0.0
 11
133.5439999999999
 21
136.647
 31
0.0
  0
LINE
  5
27D
330
1E
100
AcDbEntity
  8
0
100
AcDbLine
 10
132.6279999999999
 20
135.432
 30
0.0
 11
134.536
 21
135.941
 31
0.0
  0
LINE
  5
27E
330
1E
100
AcDbEntity
  8
0
100
AcDbLine
 10
132.6279999999999
 20
133.7299999999999
 30
0.0
 11
134.536
 21
133.221
 31
0.0
  0
LINE
  5
280
330
1E
100
AcDbEntity
  8
0
100
AcDbLine
 10
132.6279999999999
 20
130.925
 30
0.0
 11
134.536
 21
130.4159999999999
 31
0.0
  0
LINE
  5
281
330
1E
100
AcDbEntity
  8
0
100
AcDbLine
 10
133.5439999999999
 20
158.9199999999999
 30
0.0
 11
136.1839999999999
 21
159.706
 31
0.0
  0
LINE
  5
282
330
1E
100
AcDbEntity
  8
0
100
AcDbLine
 10
133.5439999999999
 20
136.647
 30
0.0
 11
136.1839999999999
 21
136.953
 31
0.0
  0
LINE
  5
284
330
1E
100
AcDbEntity
  8
0
100
AcDbLine
 10
131.212
 20
130.6289999999999
 30
0.0
 11
133.5439999999999
 21
129.8939999999999
 31
0.0
  0
LINE
  5
288
330
1E
100
AcDbEntity
  8
0
100
AcDbLine
 10
134.536
 20
135.941
 30
0.0
 11
136.6959999999999
 21
136.247
 31
0.0
  0
LINE
  5
289
330
1E
100
AcDbEntity
  8
0
100
AcDbLine
 10
134.536
 20
130.4159999999999
 30
0.0
 11
136.6959999999999
 21
130.109
 31
0.0
  0
LINE
  5
28A
330
1E
100
AcDbEntity
  8
0
100
AcDbLine
 10
134.536
 20
133.221
 30
0.0
 11
136.6959999999999
 21
132.915
 31
0.0
  0
LINE
  5
28B
330
1E
100
AcDbEntity
  8
0
100
AcDbLine
 10
136.1839999999999
 20
159.706
 30
0.0
 11
139.0
 21
160.0
 31
0.0
  0
LINE
  5
28C
330
1E
100
AcDbEntity
  8
0
100
AcDbLine
 10
136.1839999999999
 20
136.953
 30
0.0
 11
139.0
 21
137.0679999999999
 31
0.0
  0
LINE
  5
28D
330
1E
100
AcDbEntity
  8
0
100
AcDbLine
 10
136.6959999999999
 20
136.247
 30
0.0
 11
139.0
 21
136.362
 31
0.0
  0
LINE
  5
28E
330
1E
100
AcDbEntity
  8
0
100
AcDbLine
 10
136.6959999999999
 20
130.109
 30
0.0
 11
139.0
 21
129.996
 31
0.0
  0
LINE
  5
28F
330
1E
100
AcDbEntity
  8
0
100
AcDbLine
 10
139.0
 20
129.2879999999999
 30
0.0
 11
141.816
 21
129.452
 31
0.0
  0
LINE
  5
290
330
1E
100
AcDbEntity
  8
0
100
AcDbLine
 10
139.0
 20
132.8
 30
0.0
 11
141.304
 21
132.915
 31
0.0
  0
LINE
  5
291
330
1E
100
AcDbEntity
  8
0
100
AcDbLine
 10
139.0
 20
129.996
 30
0.0
 11
141.304
 21
130.109
 31
0.0
  0
LINE
  5
294
330
1E
100
AcDbEntity
  8
0
100
AcDbLine
 10
139.0
 20
136.362
 30
0.0
 11
141.304
 21
136.247
 31
0.0
  0
LINE
  5
297
330
1E
100
AcDbEntity
  8
0
100
AcDbLine
 10
136.6959999999999
 20
132.915
 30
0.0
 11
139.0
 21
132.8
 31
0.0
  0
LINE
  5
29E
330
1E
100
AcDbEntity
  8
0
100
AcDbLine
 10
139.0
 20
137.0679999999999
 30
0.0
 11
141.816
 21
136.953
 31
0.0
  0
LINE
  5
29F
330
1E
100
AcDbEntity
  8
0
100
AcDbLine
 10
136.1839999999999
 20
129.452
 30
0.0
 11
139.0
 21
129.2879999999999
 31
0.0
  0
LINE
  5
2A1
330
1E
100
AcDbEntity
  8
0
100
AcDbLine
 10
139.0
 20
160.0
 30
0.0
 11
141.816
 21
159.706
 31
0.0
  0
LINE
  5
2A2
330
1E
100
AcDbEntity
  8
0
100
AcDbLine
 10
141.816
 20
129.452
 30
0.0
 11
144.456
 21
129.8939999999999
 31
0.0
  0
LINE
  5
2A3
330
1E
100
AcDbEntity
  8
0
100
AcDbLine
 10
144.456
 20
129.8939999999999
 30
0.0
 11
146.7879999999999
 21
130.6289999999999
 31
0.0
  0
LINE
  5
2A4
330
1E
100
AcDbEntity
  8
0
100
AcDbLine
 10
141.304
 20
130.109
 30
0.0
 11
143.4639999999999
 21
130.4159999999999
 31
0.0
  0
LINE
  5
2A5
330
1E
100
AcDbEntity
  8
0
100
AcDbLine
 10
143.4639999999999
 20
130.4159999999999
 30
0.0
 11
145.372
 21
130.925
 31
0.0
  0
LINE
  5
2A6
330
1E
100
AcDbEntity
  8
0
100
AcDbLine
 10
146.7879999999999
 20
130.6289999999999
 30
0.0
 11
148.548
 21
131.6039999999999
 31
0.0
  0
LINE
  5
2A8
330
1E
100
AcDbEntity
  8
0
100
AcDbLine
 10
145.372
 20
130.925
 30
0.0
 11
146.812
 21
131.6
 31
0.0
  0
LINE
  5
2A9
330
1E
100
AcDbEntity
  8
0
100
AcDbLine
 10
147.676
 20
132.364
 30
0.0
 11
148.0
 21
133.179
 31
0.0
  0
LINE
  5
2AA
330
1E
100
AcDbEntity
  8
0
100
AcDbLine
 10
146.812
 20
131.6
 30
0.0
 11
147.676
 21
132.362
 31
0.0
  0
LINE
  5
2AB
330
1E
100
AcDbEntity
  8
0
100
AcDbLine
 10
146.812
 20
131.6
 30
0.0
 11
147.676
 21
132.364
 31
0.0
  0
LINE
  5
2AC
330
1E
100
AcDbEntity
  8
0
100
AcDbLine
 10
148.548
 20
131.6039999999999
 30
0.0
 11
149.6039999999999
 21
132.708
 31
0.0
  0
LINE
  5
2AD
330
1E
100
AcDbEntity
  8
0
100
AcDbLine
 10
147.676
 20
132.362
 30
0.0
 11
148.0
 21
133.179
 31
0.0
  0
LINE
  5
2AE
330
1E
100
AcDbEntity
  8
0
100
AcDbLine
 10
141.304
 20
132.915
 30
0.0
 11
143.4639999999999
 21
133.221
 31
0.0
  0
LINE
  5
2AF
330
1E
100
AcDbEntity
  8
0
100
AcDbLine
 10
143.4639999999999
 20
133.221
 30
0.0
 11
145.372
 21
133.7299999999999
 31
0.0
  0
LINE
  5
2B0
330
1E
100
AcDbEntity
  8
0
100
AcDbLine
 10
145.372
 20
133.7299999999999
 30
0.0
 11
146.812
 21
134.4039999999999
 31
0.0
  0
LINE
  5
2B1
330
1E
100
AcDbEntity
  8
0
100
AcDbLine
 10
150.0
 20
133.8849999999999
 30
0.0
 11
150.0
 21
135.755
 31
0.0
  0
LINE
  5
2B2
330
1E
100
AcDbEntity
  8
0
100
AcDbLine
 10
149.6039999999999
 20
132.708
 30
0.0
 11
150.0
 21
133.8849999999999
 31
0.0
  0
LINE
  5
2B3
330
1E
100
AcDbEntity
  8
0
100
AcDbLine
 10
147.676
 20
133.993
 30
0.0
 11
148.0
 21
133.179
 31
0.0
  0
LINE
  5
2BA
330
1E
100
AcDbEntity
  8
0
100
AcDbLine
 10
155.9
 20
104.6
 30
0.0
 11
163.0
 21
110.0
 31
0.0
  0
LINE
  5
2BB
330
1E
100
AcDbEntity
  8
0
100
AcDbLine
 10
163.0
 20
110.0
 30
0.0
 11
168.4
 21
117.1
 31
0.0
  0
LINE
  5
2BE
330
1E
100
AcDbEntity
  8
0
100
AcDbLine
 10
168.4
 20
117.1
 30
0.0
 11
171.8
 21
125.2999999999999
 31
0.0
  0
LINE
  5
2C4
330
1E
100
AcDbEntity
  8
0
100
AcDbLine
 10
146.812
 20
134.4039999999999
 30
0.0
 11
147.011166994106
 21
134.580115258677
 31
0.0
  0
LINE
  5
2C5
330
1E
100
AcDbEntity
  8
0
100
AcDbLine
 10
145.372
 20
135.432
 30
0.0
 11
146.812
 21
134.756
 31
0.0
  0
LINE
  5
2C6
330
1E
100
AcDbEntity
  8
0
100
AcDbLine
 10
146.812
 20
134.756
 30
0.0
 11
147.676
 21
133.993
 31
0.0
  0
LINE
  5
2C7
330
1E
100
AcDbEntity
  8
0
100
AcDbLine
 10
141.304
 20
136.247
 30
0.0
 11
143.4639999999999
 21
135.941
 31
0.0
  0
LINE
  5
2C8
330
1E
100
AcDbEntity
  8
0
100
AcDbLine
 10
143.4639999999999
 20
135.941
 30
0.0
 11
145.372
 21
135.432
 31
0.0
  0
LINE
  5
2CB
330
1E
100
AcDbEntity
  8
0
100
AcDbLine
 10
141.816
 20
136.953
 30
0.0
 11
144.456
 21
136.647
 31
0.0
  0
LINE
  5
2CC
330
1E
100
AcDbEntity
  8
0
100
AcDbLine
 10
144.456
 20
136.647
 30
0.0
 11
146.7879999999999
 21
136.138
 31
0.0
  0
LINE
  5
2CE
330
1E
100
AcDbEntity
  8
0
100
AcDbLine
 10
146.7879999999999
 20
136.138
 30
0.0
 11
148.548
 21
135.463
 31
0.0
  0
LINE
  5
2CF
330
1E
100
AcDbEntity
  8
0
100
AcDbLine
 10
148.548
 20
135.463
 30
0.0
 11
149.6039999999999
 21
134.6989999999999
 31
0.0
  0
LINE
  5
2D0
330
1E
100
AcDbEntity
  8
0
100
AcDbLine
 10
150.0
 20
135.755
 30
0.0
 11
150.0
 21
142.3829999999999
 31
0.0
  0
LINE
  5
2D1
330
1E
100
AcDbEntity
  8
0
100
AcDbLine
 10
150.0
 20
135.755
 30
0.0
 11
150.0
 21
133.8849999999999
 31
0.0
  0
LINE
  5
2D2
330
1E
100
AcDbEntity
  8
0
100
AcDbLine
 10
150.0
 20
142.3829999999999
 30
0.0
 11
150.0
 21
147.454
 31
0.0
  0
LINE
  5
2D3
330
1E
100
AcDbEntity
  8
0
100
AcDbLine
 10
149.6039999999999
 20
134.6989999999999
 30
0.0
 11
150.0
 21
133.8849999999999
 31
0.0
  0
LINE
  5
2D6
330
1E
100
AcDbEntity
  8
0
100
AcDbLine
 10
171.8
 20
125.2999999999999
 30
0.0
 11
173.0
 21
134.0
 31
0.0
  0
LINE
  5
2DA
330
1E
100
AcDbEntity
  8
0
100
AcDbLine
 10
150.0
 20
147.454
 30
0.0
 11
150.0
 21
150.7299999999999
 31
0.0
  0
LINE
  5
2DB
330
1E
100
AcDbEntity
  8
0
100
AcDbLine
 10
150.0
 20
150.7299999999999
 30
0.0
 11
150.0
 21
151.8179999999999
 31
0.0
  0
LINE
  5
2DE
330
1E
100
AcDbEntity
  8
0
100
AcDbLine
 10
146.7879999999999
 20
157.6109999999999
 30
0.0
 11
148.548
 21
155.876
 31
0.0
  0
LINE
  5
2E7
330
1E
100
AcDbEntity
  8
0
100
AcDbLine
 10
141.816
 20
159.706
 30
0.0
 11
144.456
 21
158.9199999999999
 31
0.0
  0
LINE
  5
2E8
330
1E
100
AcDbEntity
  8
0
100
AcDbLine
 10
144.456
 20
158.9199999999999
 30
0.0
 11
146.7879999999999
 21
157.6109999999999
 31
0.0
  0
LINE
  5
2EB
330
1E
100
AcDbEntity
  8
0
100
AcDbLine
 10
155.9
 20
163.4
 30
0.0
 11
163.0
 21
158.0
 31
0.0
  0
LINE
  5
2EC
330
1E
100
AcDbEntity
  8
0
100
AcDbLine
 10
147.6999999999999
 20
166.8
 30
0.0
 11
155.9
 21
163.4
 31
0.0
  0
LINE
  5
2ED
330
1E
100
AcDbEntity
  8
0
100
AcDbLine
 10
163.0
 20
158.0
 30
0.0
 11
168.4
 21
150.9
 31
0.0
  0
LINE
  5
2EE
330
1E
100
AcDbEntity
  8
0
100
AcDbLine
 10
168.4
 20
150.9
 30
0.0
 11
171.8
 21
142.6999999999999
 31
0.0
  0
LINE
  5
2EF
330
1E
100
AcDbEntity
  8
0
100
AcDbLine
 10
171.8
 20
142.6999999999999
 30
0.0
 11
173.0
 21
134.0
 31
0.0
  0
LINE
  5
2F2
330
1E
100
AcDbEntity
  8
0
100
AcDbLine
 10
139.0
 20
168.0
 30
0.0
 11
147.6999999999999
 21
166.8
 31
0.0
  0
LINE
  5
2F6
330
1E
100
AcDbEntity
  8
0
100
AcDbLine
 10
130.3
 20
101.2
 30
0.0
 11
139.0
 21
100.0
 31
0.0
  0
LINE
  5
2F8
330
1E
100
AcDbEntity
  8
0
100
AcDbLine
 10
25.0
 20
45.49999999999999
 30
0.0
 11
28.0
 21
45.49999999999999
 31
0.0
  0
LINE
  5
2F9
330
1E
100
AcDbEntity
  8
0
100
AcDbLine
 10
20.30724999999999
 20
45.49999999999999
 30
0.0
 11
20.45812
 21
45.49999999999999
 31
0.0
  0
LINE
  5
2FA
330
1E
100
AcDbEntity
  8
0
100
AcDbLine
 10
23.6
 20
9.500000000000019
 30
0.0
 11
28.0
 21
9.500000000000019
 31
0.0
  0
LINE
  5
2FB
330
1E
100
AcDbEntity
  8
0
100
AcDbLine
 10
11.0
 20
9.500000000000008
 30
0.0
 11
11.0
 21
26.5
 31
0.0
  0
LINE
  5
2FC
330
1E
100
AcDbEntity
  8
0
100
AcDbLine
 10
11.0
 20
9.500000000000008
 30
0.0
 11
11.59999999999999
 21
9.500000000000008
 31
0.0
  0
LINE
  5
301
330
1E
100
AcDbEntity
  8
0
  6
Continuous
100
AcDbLine
 10
128.0
 20
151.8179999999999
 30
0.0
 11
128.5299207092968
 21
154.3435403171857
 31
0.0
  0
LINE
  5
302
330
1E
100
AcDbEntity
  8
0
  6
Continuous
100
AcDbLine
 10
128.5299207092968
 20
154.3435403171857
 30
0.0
 11
129.452
 21
155.876
 31
0.0
  0
LINE
  5
303
330
1E
100
AcDbEntity
  8
0
  6
Continuous
100
AcDbLine
 10
148.548
 20
155.876
 30
0.0
 11
149.5669310813858
 21
153.8993559617962
 31
0.0
  0
LINE
  5
304
330
1E
100
AcDbEntity
  8
0
  6
Continuous
100
AcDbLine
 10
149.5669310813858
 20
153.8993559617962
 30
0.0
 11
150.0
 21
151.8179999999999
 31
0.0
  0
LINE
  5
305
330
1E
100
AcDbEntity
  8
0
  6
Continuous
100
AcDbLine
 10
13.86219
 20
42.25419999999999
 30
0.0
 11
15.38376887010031
 21
43.55456676916538
 31
0.0
  0
LINE
  5
306
330
1E
100
AcDbEntity
  8
0
  6
Continuous
100
AcDbLine
 10
15.38376887010031
 20
43.55456676916538
 30
0.0
 11
16.9271161819247
 21
44.64614409272451
 31
0.0
  0
LINE
  5
307
330
1E
100
AcDbEntity
  8
0
  6
Continuous
100
AcDbLine
 10
16.9271161819247
 20
44.64614409272451
 30
0.0
 11
18.81152
 21
45.3
 31
0.0
  0
LINE
  5
308
330
1E
100
AcDbEntity
  8
0
  6
Continuous
100
AcDbLine
 10
21.6181
 20
45.49999999999999
 30
0.0
 11
22.8784
 21
45.49999999999999
 31
0.0
  0
LINE
  5
309
330
1E
100
AcDbEntity
  8
0
  6
Continuous
100
AcDbLine
 10
12.65464815803319
 20
40.8491743454116
 30
0.0
 11
12.09603
 21
40.1514
 31
0.0
  0
LINE
  5
30A
330
1E
100
AcDbEntity
  8
0
  6
Continuous
100
AcDbLine
 10
11.59999999999999
 20
39.2954
 30
0.0
 11
11.10988381816491
 21
37.31359030787962
 31
0.0
  0
LINE
  5
30B
330
1E
100
AcDbEntity
  8
0
  6
Continuous
100
AcDbLine
 10
11.10988381816491
 20
37.31359030787962
 30
0.0
 11
11.0
 21
34.5
 31
0.0
  0
LINE
  5
30C
330
1E
100
AcDbEntity
  8
0
  6
Continuous
100
AcDbLine
 10
45.0
 20
34.5
 30
0.0
 11
44.7548558691318
 21
37.62207975695577
 31
0.0
  0
LINE
  5
30D
330
1E
100
AcDbEntity
  8
0
  6
Continuous
100
AcDbLine
 10
44.7548558691318
 20
37.62207975695577
 30
0.0
 11
44.4
 21
39.2954
 31
0.0
  0
LINE
  5
30E
330
1E
100
AcDbEntity
  8
0
  6
Continuous
100
AcDbLine
 10
43.90399999999999
 20
40.1514
 30
0.0
 11
43.34511198970179
 21
40.8494809170285
 31
0.0
  0
LINE
  5
30F
330
1E
100
AcDbEntity
  8
0
  6
Continuous
100
AcDbLine
 10
42.13779999999999
 20
42.25419999999999
 30
0.0
 11
40.43348355932221
 21
43.69694645430803
 31
0.0
  0
LINE
  5
310
330
1E
100
AcDbEntity
  8
0
  6
Continuous
100
AcDbLine
 10
40.43348355932221
 20
43.69694645430803
 30
0.0
 11
38.91387987643497
 21
44.57495425015321
 31
0.0
  0
LINE
  5
311
330
1E
100
AcDbEntity
  8
0
  6
Continuous
100
AcDbLine
 10
38.91387987643497
 20
44.57495425015321
 30
0.0
 11
37.18849999999999
 21
45.3
 31
0.0
  0
LINE
  5
312
330
1E
100
AcDbEntity
  8
0
  6
Continuous
100
AcDbLine
 10
33.1216
 20
45.49999999999999
 30
0.0
 11
34.3819
 21
45.49999999999999
 31
0.0
  0
ENDSEC
  0
SECTION
  2
OBJECTS
  0
DICTIONARY
  5
C
330
0
100
AcDbDictionary
281
     1
  3
ACAD_GROUP
350
D
  3
ACAD_LAYOUT
350
19
  3
ACAD_MLINESTYLE
350
16
  3
ACAD_PLOTSETTINGS
350
18
  3
ACAD_PLOTSTYLENAME
350
E
  3
AcDbVariableDictionary
350
314
  0
DICTIONARY
  5
D
102
{ACAD_REACTORS
330
C
102
}
330
C
100
AcDbDictionary
281
     1
  0
DICTIONARY
  5
19
102
{ACAD_REACTORS
330
C
102
}
330
C
100
AcDbDictionary
281
     1
  3
Layout1
350
1D
  3
Model
350
21
  0
DICTIONARY
  5
16
102
{ACAD_REACTORS
330
C
102
}
330
C
100
AcDbDictionary
281
     1
  3
Standard
350
17
  0
DICTIONARY
  5
18
102
{ACAD_REACTORS
330
C
102
}
330
C
100
AcDbDictionary
281
     1
  0
ACDBDICTIONARYWDFLT
  5
E
102
{ACAD_REACTORS
330
C
102
}
330
C
100
AcDbDictionary
281
     1
  3
Normal
350
F
100
AcDbDictionaryWithDefault
340
F
  0
DICTIONARY
  5
314
102
{ACAD_REACTORS
330
C
102
}
330
C
100
AcDbDictionary
281
     1
  3
DIMASSOC
350
315
  0
LAYOUT
  5
1D
102
{ACAD_REACTORS
330
19
102
}
330
19
100
AcDbPlotSettings
  1

  2
C:\Programme\AutoCAD LT 2002 Deu\plotters\DWF ePlot (optimized for plotting).pc3
  4

  6

 40
0.0
 41
0.0
 42
0.0
 43
0.0
 44
0.0
 45
0.0
 46
0.0
 47
0.0
 48
0.0
 49
0.0
140
0.0
141
0.0
142
1.0
143
1.0
 70
   688
 72
     0
 73
     0
 74
     5
  7

 75
    16
147
1.0
148
0.0
149
0.0
100
AcDbLayout
  1
Layout1
 70
     1
 71
     1
 10
0.0
 20
0.0
 11
12.0
 21
9.0
 12
0.0
 22
0.0
 32
0.0
 14
1.000000000000000E+20
 24
1.000000000000000E+20
 34
1.000000000000000E+20
 15
-1.000000000000000E+20
 25
-1.000000000000000E+20
 35
-1.000000000000000E+20
146
0.0
 13
0.0
 23
0.0
 33
0.0
 16
1.0
 26
0.0
 36
0.0
 17
0.0
 27
1.0
 37
0.0
 76
     0
330
1A
  0
LAYOUT
  5
21
102
{ACAD_REACTORS
330
19
102
}
330
19
100
AcDbPlotSettings
  1

  2
C:\Programme\AutoCAD LT 2002 Deu\plotters\DWF ePlot (optimized for plotting).pc3
  4

  6

 40
0.0
 41
0.0
 42
0.0
 43
0.0
 44
0.0
 45
0.0
 46
0.0
 47
0.0
 48
0.0
 49
0.0
140
0.0
141
0.0
142
1.0
143
1.0
 70
  1712
 72
     0
 73
     0
 74
     0
  7

 75
     0
147
1.0
148
0.0
149
0.0
100
AcDbLayout
  1
Model
 70
     1
 71
     0
 10
0.0
 20
0.0
 11
12.0
 21
9.0
 12
0.0
 22
0.0
 32
0.0
 14
0.0
 24
0.0
 34
0.0
 15
0.0
 25
0.0
 35
0.0
146
0.0
 13
0.0
 23
0.0
 33
0.0
 16
1.0
 26
0.0
 36
0.0
 17
0.0
 27
1.0
 37
0.0
 76
     0
330
1E
  0
MLINESTYLE
  5
17
102
{ACAD_REACTORS
330
16
102
}
330
16
100
AcDbMlineStyle
  2
STANDARD
 70
     0
  3

 62
   256
 51
90.0
 52
90.0
 71
     2
 49
0.5
 62
   256
  6
BYLAYER
 49
-0.5
 62
   256
  6
BYLAYER
  0
ACDBPLACEHOLDER
  5
F
102
{ACAD_REACTORS
330
E
102
}
330
E
  0
DICTIONARYVAR
  5
315
102
{ACAD_REACTORS
330
314
102
}
330
314
100
DictionaryVariables
280
     0
  1
1
  0
ENDSEC
  0
EOF
