  0
SECTION
  2
HEADER
  9
$ACADVER
  1
AC1015
  9
$ACADMAINTVER
 70
    13
  9
$DWGCODEPAGE
  3
ANSI_1252
  9
$INSBASE
 10
0.0
 20
0.0
 30
0.0
  9
$EXTMIN
 10
0.0
 20
-0.0980000000000118
 30
0.0
  9
$EXTMAX
 10
256.0
 20
196.902
 30
0.0
  9
$LIMMIN
 10
0.0
 20
0.0
  9
$LIMMAX
 10
12.0
 20
9.0
  9
$ORTHOMODE
 70
     0
  9
$REGENMODE
 70
     1
  9
$FILLMODE
 70
     1
  9
$QTEXTMODE
 70
     0
  9
$MIRRTEXT
 70
     1
  9
$LTSCALE
 40
1.0
  9
$ATTMODE
 70
     1
  9
$TEXTSIZE
 40
0.2
  9
$TRACEWID
 40
0.05
  9
$TEXTSTYLE
  7
Standard
  9
$CLAYER
  8
0
  9
$CELTYPE
  6
Continuous
  9
$CECOLOR
 62
   256
  9
$CELTSCALE
 40
1.0
  9
$DISPSILH
 70
     0
  9
$DIMSCALE
 40
1.0
  9
$DIMASZ
 40
0.18
  9
$DIMEXO
 40
0.0625
  9
$DIMDLI
 40
0.38
  9
$DIMRND
 40
0.0
  9
$DIMDLE
 40
0.0
  9
$DIMEXE
 40
0.18
  9
$DIMTP
 40
0.0
  9
$DIMTM
 40
0.0
  9
$DIMTXT
 40
0.18
  9
$DIMCEN
 40
0.09
  9
$DIMTSZ
 40
0.0
  9
$DIMTOL
 70
     0
  9
$DIMLIM
 70
     0
  9
$DIMTIH
 70
     1
  9
$DIMTOH
 70
     1
  9
$DIMSE1
 70
     0
  9
$DIMSE2
 70
     0
  9
$DIMTAD
 70
     0
  9
$DIMZIN
 70
     0
  9
$DIMBLK
  1

  9
$DIMASO
 70
     1
  9
$DIMSHO
 70
     1
  9
$DIMPOST
  1

  9
$DIMAPOST
  1

  9
$DIMALT
 70
     0
  9
$DIMALTD
 70
     2
  9
$DIMALTF
 40
25.4
  9
$DIMLFAC
 40
1.0
  9
$DIMTOFL
 70
     0
  9
$DIMTVP
 40
0.0
  9
$DIMTIX
 70
     0
  9
$DIMSOXD
 70
     0
  9
$DIMSAH
 70
     0
  9
$DIMBLK1
  1

  9
$DIMBLK2
  1

  9
$DIMSTYLE
  2
Standard
  9
$DIMCLRD
 70
     0
  9
$DIMCLRE
 70
     0
  9
$DIMCLRT
 70
     0
  9
$DIMTFAC
 40
1.0
  9
$DIMGAP
 40
0.09
  9
$DIMJUST
 70
     0
  9
$DIMSD1
 70
     0
  9
$DIMSD2
 70
     0
  9
$DIMTOLJ
 70
     1
  9
$DIMTZIN
 70
     0
  9
$DIMALTZ
 70
     0
  9
$DIMALTTZ
 70
     0
  9
$DIMUPT
 70
     0
  9
$DIMDEC
 70
     4
  9
$DIMTDEC
 70
     4
  9
$DIMALTU
 70
     2
  9
$DIMALTTD
 70
     2
  9
$DIMTXSTY
  7
Standard
  9
$DIMAUNIT
 70
     0
  9
$DIMADEC
 70
     0
  9
$DIMALTRND
 40
0.0
  9
$DIMAZIN
 70
     0
  9
$DIMDSEP
 70
    46
  9
$DIMATFIT
 70
     3
  9
$DIMFRAC
 70
     0
  9
$DIMLDRBLK
  1

  9
$DIMLUNIT
 70
     2
  9
$DIMLWD
 70
    -2
  9
$DIMLWE
 70
    -2
  9
$DIMTMOVE
 70
     0
  9
$LUNITS
 70
     2
  9
$LUPREC
 70
     4
  9
$SKETCHINC
 40
0.1
  9
$FILLETRAD
 40
0.0
  9
$AUNITS
 70
     0
  9
$AUPREC
 70
     0
  9
$MENU
  1
.
  9
$ELEVATION
 40
0.0
  9
$PELEVATION
 40
0.0
  9
$THICKNESS
 40
0.0
  9
$LIMCHECK
 70
     0
  9
$CHAMFERA
 40
0.0
  9
$CHAMFERB
 40
0.0
  9
$CHAMFERC
 40
0.0
  9
$CHAMFERD
 40
0.0
  9
$SKPOLY
 70
     0
  9
$TDCREATE
 40
2455508.507566180
  9
$TDUCREATE
 40
2455508.465899514
  9
$TDUPDATE
 40
2455508.521951307
  9
$TDUUPDATE
 40
2455508.480284641
  9
$TDINDWG
 40
0.0089127546
  9
$TDUSRTIMER
 40
0.0089127546
  9
$USRTIMER
 70
     1
  9
$ANGBASE
 50
0.0
  9
$ANGDIR
 70
     0
  9
$PDMODE
 70
     0
  9
$PDSIZE
 40
0.0
  9
$PLINEWID
 40
0.0
  9
$SPLFRAME
 70
     0
  9
$SPLINETYPE
 70
     6
  9
$SPLINESEGS
 70
     8
  9
$HANDSEED
  5
895
  9
$SURFTAB1
 70
     6
  9
$SURFTAB2
 70
     6
  9
$SURFTYPE
 70
     6
  9
$SURFU
 70
     6
  9
$SURFV
 70
     6
  9
$UCSBASE
  2

  9
$UCSNAME
  2

  9
$UCSORG
 10
0.0
 20
0.0
 30
0.0
  9
$UCSXDIR
 10
1.0
 20
0.0
 30
0.0
  9
$UCSYDIR
 10
0.0
 20
1.0
 30
0.0
  9
$UCSORTHOREF
  2

  9
$UCSORTHOVIEW
 70
     1
  9
$UCSORGTOP
 10
0.0
 20
0.0
 30
0.0
  9
$UCSORGBOTTOM
 10
0.0
 20
0.0
 30
0.0
  9
$UCSORGLEFT
 10
0.0
 20
0.0
 30
0.0
  9
$UCSORGRIGHT
 10
0.0
 20
0.0
 30
0.0
  9
$UCSORGFRONT
 10
0.0
 20
0.0
 30
0.0
  9
$UCSORGBACK
 10
0.0
 20
0.0
 30
0.0
  9
$PUCSBASE
  2

  9
$PUCSNAME
  2

  9
$PUCSORG
 10
0.0
 20
0.0
 30
0.0
  9
$PUCSXDIR
 10
1.0
 20
0.0
 30
0.0
  9
$PUCSYDIR
 10
0.0
 20
1.0
 30
0.0
  9
$PUCSORTHOREF
  2

  9
$PUCSORTHOVIEW
 70
     0
  9
$PUCSORGTOP
 10
0.0
 20
0.0
 30
0.0
  9
$PUCSORGBOTTOM
 10
0.0
 20
0.0
 30
0.0
  9
$PUCSORGLEFT
 10
0.0
 20
0.0
 30
0.0
  9
$PUCSORGRIGHT
 10
0.0
 20
0.0
 30
0.0
  9
$PUCSORGFRONT
 10
0.0
 20
0.0
 30
0.0
  9
$PUCSORGBACK
 10
0.0
 20
0.0
 30
0.0
  9
$USERI1
 70
     0
  9
$USERI2
 70
     0
  9
$USERI3
 70
     0
  9
$USERI4
 70
     0
  9
$USERI5
 70
     0
  9
$USERR1
 40
0.0
  9
$USERR2
 40
0.0
  9
$USERR3
 40
0.0
  9
$USERR4
 40
0.0
  9
$USERR5
 40
0.0
  9
$WORLDVIEW
 70
     1
  9
$SHADEDGE
 70
     3
  9
$SHADEDIF
 70
    70
  9
$TILEMODE
 70
     1
  9
$MAXACTVP
 70
    64
  9
$PINSBASE
 10
0.0
 20
0.0
 30
0.0
  9
$PLIMCHECK
 70
     0
  9
$PEXTMIN
 10
1.000000000000000E+20
 20
1.000000000000000E+20
 30
1.000000000000000E+20
  9
$PEXTMAX
 10
-1.000000000000000E+20
 20
-1.000000000000000E+20
 30
-1.000000000000000E+20
  9
$PLIMMIN
 10
0.0
 20
0.0
  9
$PLIMMAX
 10
12.0
 20
9.0
  9
$UNITMODE
 70
     0
  9
$VISRETAIN
 70
     1
  9
$PLINEGEN
 70
     0
  9
$PSLTSCALE
 70
     1
  9
$TREEDEPTH
 70
  3020
  9
$CMLSTYLE
  2
Standard
  9
$CMLJUST
 70
     0
  9
$CMLSCALE
 40
1.0
  9
$PROXYGRAPHICS
 70
     1
  9
$MEASUREMENT
 70
     0
  9
$CELWEIGHT
370
    -1
  9
$ENDCAPS
280
     0
  9
$JOINSTYLE
280
     0
  9
$LWDISPLAY
290
     0
  9
$INSUNITS
 70
     0
  9
$HYPERLINKBASE
  1

  9
$STYLESHEET
  1

  9
$XEDIT
290
     1
  9
$CEPSNTYPE
380
     0
  9
$PSTYLEMODE
290
     1
  9
$FINGERPRINTGUID
  2
{AD2B0C2C-F476-48C3-A549-AF9373447867}
  9
$VERSIONGUID
  2
{85FE9351-3C31-4151-A51F-2C16A03D8392}
  9
$EXTNAMES
290
     1
  9
$PSVPSCALE
 40
0.0
  9
$OLESTARTUP
290
     0
  0
ENDSEC
  0
SECTION
  2
CLASSES
  0
CLASS
  1
ACDBDICTIONARYWDFLT
  2
AcDbDictionaryWithDefault
  3
AutoCAD 2000
 90
        0
280
     0
281
     0
  0
CLASS
  1
ACDBPLACEHOLDER
  2
AcDbPlaceHolder
  3
AutoCAD 2000
 90
        0
280
     0
281
     0
  0
CLASS
  1
LAYOUT
  2
AcDbLayout
  3
AutoCAD 2000
 90
        0
280
     0
281
     0
  0
CLASS
  1
DICTIONARYVAR
  2
AcDbDictionaryVar
  3
AutoCAD 2000
 90
        0
280
     0
281
     0
  0
ENDSEC
  0
SECTION
  2
TABLES
  0
TABLE
  2
VPORT
  5
8
330
0
100
AcDbSymbolTable
 70
     3
  0
VPORT
  5
894
330
8
100
AcDbSymbolTableRecord
100
AcDbViewportTableRecord
  2
*Active
 70
     0
 10
0.0
 20
0.0
 11
1.0
 21
1.0
 12
128.0
 22
98.40200000000001
 13
0.0
 23
0.0
 14
1.0
 24
1.0
 15
0.0
 25
0.0
 16
0.0
 26
0.0
 36
1.0
 17
0.0
 27
0.0
 37
0.0
 40
198.3325817361894
 41
2.073363431151241
 42
50.0
 43
0.0
 44
0.0
 50
0.0
 51
0.0
 71
     0
 72
   100
 73
     1
 74
     3
 75
     0
 76
     0
 77
     0
 78
     0
281
     0
 65
     1
110
0.0
120
0.0
130
0.0
111
1.0
121
0.0
131
0.0
112
0.0
122
1.0
132
0.0
 79
     1
146
0.0
  0
ENDTAB
  0
TABLE
  2
LTYPE
  5
5
330
0
100
AcDbSymbolTable
 70
     1
  0
LTYPE
  5
13
330
5
100
AcDbSymbolTableRecord
100
AcDbLinetypeTableRecord
  2
ByBlock
 70
     0
  3

 72
    65
 73
     0
 40
0.0
  0
LTYPE
  5
14
330
5
100
AcDbSymbolTableRecord
100
AcDbLinetypeTableRecord
  2
ByLayer
 70
     0
  3

 72
    65
 73
     0
 40
0.0
  0
LTYPE
  5
15
330
5
100
AcDbSymbolTableRecord
100
AcDbLinetypeTableRecord
  2
Continuous
 70
     0
  3
Solid line
 72
    65
 73
     0
 40
0.0
  0
ENDTAB
  0
TABLE
  2
LAYER
  5
2
330
0
100
AcDbSymbolTable
 70
     1
  0
LAYER
  5
10
330
2
100
AcDbSymbolTableRecord
100
AcDbLayerTableRecord
  2
0
 70
     0
 62
     7
  6
Continuous
370
    -3
390
F
  0
ENDTAB
  0
TABLE
  2
STYLE
  5
3
330
0
100
AcDbSymbolTable
 70
     1
  0
STYLE
  5
11
330
3
100
AcDbSymbolTableRecord
100
AcDbTextStyleTableRecord
  2
Standard
 70
     0
 40
0.0
 41
1.0
 50
0.0
 71
     0
 42
0.2
  3
txt
  4

  0
ENDTAB
  0
TABLE
  2
VIEW
  5
6
330
0
100
AcDbSymbolTable
 70
     0
  0
ENDTAB
  0
TABLE
  2
UCS
  5
7
330
0
100
AcDbSymbolTable
 70
     0
  0
ENDTAB
  0
TABLE
  2
APPID
  5
9
330
0
100
AcDbSymbolTable
 70
     1
  0
APPID
  5
12
330
9
100
AcDbSymbolTableRecord
100
AcDbRegAppTableRecord
  2
ACAD
 70
     0
  0
ENDTAB
  0
TABLE
  2
DIMSTYLE
  5
A
330
0
100
AcDbSymbolTable
 70
     1
100
AcDbDimStyleTable
 71
     0
  0
DIMSTYLE
105
71B
330
A
100
AcDbSymbolTableRecord
100
AcDbDimStyleTableRecord
  2
Standard
 70
     0
340
11
  0
ENDTAB
  0
TABLE
  2
BLOCK_RECORD
  5
1
330
0
100
AcDbSymbolTable
 70
     0
  0
BLOCK_RECORD
  5
1E
330
1
100
AcDbSymbolTableRecord
100
AcDbBlockTableRecord
  2
*Model_Space
340
21
  0
BLOCK_RECORD
  5
1A
330
1
100
AcDbSymbolTableRecord
100
AcDbBlockTableRecord
  2
*Paper_Space
340
1D
  0
ENDTAB
  0
ENDSEC
  0
SECTION
  2
BLOCKS
  0
BLOCK
  5
1F
330
1E
100
AcDbEntity
  8
0
100
AcDbBlockBegin
  2
*Model_Space
 70
     0
 10
0.0
 20
0.0
 30
0.0
  3
*Model_Space
  1

  0
ENDBLK
  5
20
330
1E
100
AcDbEntity
  8
0
100
AcDbBlockEnd
  0
BLOCK
  5
1B
330
1A
100
AcDbEntity
 67
     1
  8
0
100
AcDbBlockBegin
  2
*Paper_Space
 70
     0
 10
0.0
 20
0.0
 30
0.0
  3
*Paper_Space
  1

  0
ENDBLK
  5
1C
330
1A
100
AcDbEntity
 67
     1
  8
0
100
AcDbBlockEnd
  0
ENDSEC
  0
SECTION
  2
ENTITIES
  0
LINE
  5
25
330
1E
100
AcDbEntity
  8
0
100
AcDbLine
 10
8.199999999999999
 20
149.1019999999999
 30
0.0
 11
11.0
 21
146.7019999999999
 31
0.0
  0
LINE
  5
2A
330
1E
100
AcDbEntity
  8
0
100
AcDbLine
 10
5.799999999999999
 20
151.902
 30
0.0
 11
8.199999999999999
 21
149.1019999999999
 31
0.0
  0
LINE
  5
2C
330
1E
100
AcDbEntity
  8
0
100
AcDbLine
 10
3.7
 20
155.002
 30
0.0
 11
5.799999999999999
 21
151.902
 31
0.0
  0
LINE
  5
2F
330
1E
100
AcDbEntity
  8
0
100
AcDbLine
 10
9.599999999999999
 20
161.302
 30
0.0
 11
10.7
 21
158.902
 31
0.0
  0
LINE
  5
33
330
1E
100
AcDbEntity
  8
0
100
AcDbLine
 10
2.2
 20
158.2019999999999
 30
0.0
 11
3.7
 21
155.002
 31
0.0
  0
LINE
  5
37
330
1E
100
AcDbEntity
  8
0
100
AcDbLine
 10
11.0
 20
146.7019999999999
 30
0.0
 11
14.1
 21
144.602
 31
0.0
  0
LINE
  5
3B
330
1E
100
AcDbEntity
  8
0
100
AcDbLine
 10
20.8
 20
141.902
 30
0.0
 11
24.19999999999999
 21
141.202
 31
0.0
  0
LINE
  5
3F
330
1E
100
AcDbEntity
  8
0
100
AcDbLine
 10
15.8
 20
153.102
 30
0.0
 11
18.0
 21
151.602
 31
0.0
  0
LINE
  5
45
330
1E
100
AcDbEntity
  8
0
100
AcDbLine
 10
19.5
 20
154.2019999999999
 30
0.0
 11
21.49999999999999
 21
153.2019999999999
 31
0.0
  0
LINE
  5
4E
330
1E
100
AcDbEntity
  8
0
100
AcDbLine
 10
18.0
 20
151.602
 30
0.0
 11
20.4
 21
150.502
 31
0.0
  0
LINE
  5
50
330
1E
100
AcDbEntity
  8
0
100
AcDbLine
 10
20.4
 20
150.502
 30
0.0
 11
22.8
 21
149.602
 31
0.0
  0
LINE
  5
52
330
1E
100
AcDbEntity
  8
0
100
AcDbLine
 10
14.1
 20
144.602
 30
0.0
 11
17.3
 21
143.102
 31
0.0
  0
LINE
  5
54
330
1E
100
AcDbEntity
  8
0
100
AcDbLine
 10
21.49999999999999
 20
153.2019999999999
 30
0.0
 11
23.6
 21
152.502
 31
0.0
  0
LINE
  5
55
330
1E
100
AcDbEntity
  8
0
100
AcDbLine
 10
23.6
 20
152.502
 30
0.0
 11
25.8
 21
152.102
 31
0.0
  0
LINE
  5
5A
330
1E
100
AcDbEntity
  8
0
100
AcDbLine
 10
22.8
 20
149.602
 30
0.0
 11
25.4
 21
149.1019999999999
 31
0.0
  0
LINE
  5
5C
330
1E
100
AcDbEntity
  8
0
100
AcDbLine
 10
17.3
 20
143.102
 30
0.0
 11
20.8
 21
141.902
 31
0.0
  0
LINE
  5
5E
330
1E
100
AcDbEntity
  8
0
100
AcDbLine
 10
115.422
 20
40.7025
 30
0.0
 11
115.422
 21
31.5809
 31
0.0
  0
LINE
  5
5F
330
1E
100
AcDbEntity
  8
0
100
AcDbLine
 10
115.422
 20
31.5809
 30
0.0
 11
115.422
 21
40.7025
 31
0.0
  0
LINE
  5
60
330
1E
100
AcDbEntity
  8
0
100
AcDbLine
 10
115.422
 20
31.5809
 30
0.0
 11
115.422
 21
23.2174
 31
0.0
  0
LINE
  5
61
330
1E
100
AcDbEntity
  8
0
100
AcDbLine
 10
115.422
 20
23.2174
 30
0.0
 11
115.422
 21
16.25329999999999
 31
0.0
  0
LINE
  5
62
330
1E
100
AcDbEntity
  8
0
100
AcDbLine
 10
115.422
 20
23.2174
 30
0.0
 11
115.422
 21
31.5809
 31
0.0
  0
LINE
  5
63
330
1E
100
AcDbEntity
  8
0
100
AcDbLine
 10
115.422
 20
16.25329999999999
 30
0.0
 11
115.422
 21
23.2174
 31
0.0
  0
LINE
  5
64
330
1E
100
AcDbEntity
  8
0
100
AcDbLine
 10
115.422
 20
16.25329999999999
 30
0.0
 11
115.422
 21
10.332
 31
0.0
  0
LINE
  5
65
330
1E
100
AcDbEntity
  8
0
100
AcDbLine
 10
115.422
 20
10.332
 30
0.0
 11
115.422
 21
9.523599999999991
 31
0.0
  0
LINE
  5
66
330
1E
100
AcDbEntity
  8
0
100
AcDbLine
 10
115.422
 20
10.332
 30
0.0
 11
115.422
 21
16.25329999999999
 31
0.0
  0
LINE
  5
6B
330
1E
100
AcDbEntity
  8
0
100
AcDbLine
 10
124.78
 20
0.248399999999984
 30
0.0
 11
128.0
 21
-0.0980000000000118
 31
0.0
  0
LINE
  5
6C
330
1E
100
AcDbEntity
  8
0
100
AcDbLine
 10
121.761
 20
1.172099999999999
 30
0.0
 11
124.78
 21
0.248399999999984
 31
0.0
  0
LINE
  5
6F
330
1E
100
AcDbEntity
  8
0
100
AcDbLine
 10
119.0939999999999
 20
2.71149999999999
 30
0.0
 11
121.761
 21
1.172099999999999
 31
0.0
  0
LINE
  5
70
330
1E
100
AcDbEntity
  8
0
100
AcDbLine
 10
117.082
 20
4.75129999999999
 30
0.0
 11
119.0939999999999
 21
2.71149999999999
 31
0.0
  0
LINE
  5
7E
330
1E
100
AcDbEntity
  8
0
100
AcDbLine
 10
115.8739999999999
 20
7.06039999999999
 30
0.0
 11
117.082
 21
4.75129999999999
 31
0.0
  0
LINE
  5
7F
330
1E
100
AcDbEntity
  8
0
100
AcDbLine
 10
115.422
 20
9.523599999999991
 30
0.0
 11
115.422
 21
10.332
 31
0.0
  0
LINE
  5
80
330
1E
100
AcDbEntity
  8
0
100
AcDbLine
 10
115.422
 20
9.523599999999991
 30
0.0
 11
115.8739999999999
 21
7.06039999999999
 31
0.0
  0
LINE
  5
92
330
1E
100
AcDbEntity
  8
0
100
AcDbLine
 10
113.135
 20
141.5929999999999
 30
0.0
 11
115.422
 21
40.7025
 31
0.0
  0
LINE
  5
AF
330
1E
100
AcDbEntity
  8
0
100
AcDbLine
 10
108.2
 20
149.1019999999999
 30
0.0
 11
111.0
 21
146.7019999999999
 31
0.0
  0
LINE
  5
B1
330
1E
100
AcDbEntity
  8
0
100
AcDbLine
 10
111.0
 20
146.7019999999999
 30
0.0
 11
113.067654024775
 21
145.301331144507
 31
0.0
  0
LINE
  5
CF
330
1E
100
AcDbEntity
  8
0
100
AcDbLine
 10
112.985
 20
148.769
 30
0.0
 11
113.0719999999999
 21
145.1189999999999
 31
0.0
  0
LINE
  5
D0
330
1E
100
AcDbEntity
  8
0
100
AcDbLine
 10
113.0719999999999
 20
145.1189999999999
 30
0.0
 11
113.135
 21
141.5929999999999
 31
0.0
  0
LINE
  5
117
330
1E
100
AcDbEntity
  8
0
100
AcDbLine
 10
105.8
 20
151.902
 30
0.0
 11
108.2
 21
149.1019999999999
 31
0.0
  0
LINE
  5
164
330
1E
100
AcDbEntity
  8
0
100
AcDbLine
 10
112.8749999999999
 20
152.293
 30
0.0
 11
112.985
 21
148.769
 31
0.0
  0
LINE
  5
175
330
1E
100
AcDbEntity
  8
0
100
AcDbLine
 10
25.8
 20
152.102
 30
0.0
 11
28.0
 21
151.902
 31
0.0
  0
LINE
  5
17A
330
1E
100
AcDbEntity
  8
0
100
AcDbLine
 10
25.4
 20
149.1019999999999
 30
0.0
 11
28.0
 21
148.902
 31
0.0
  0
LINE
  5
180
330
1E
100
AcDbEntity
  8
0
100
AcDbLine
 10
24.19999999999999
 20
141.202
 30
0.0
 11
28.0
 21
140.902
 31
0.0
  0
LINE
  5
182
330
1E
100
AcDbEntity
  8
0
100
AcDbLine
 10
103.7
 20
155.002
 30
0.0
 11
105.8
 21
151.902
 31
0.0
  0
LINE
  5
1AF
330
1E
100
AcDbEntity
  8
0
100
AcDbLine
 10
112.799
 20
155.578
 30
0.0
 11
112.8749999999999
 21
152.293
 31
0.0
  0
LINE
  5
1BA
330
1E
100
AcDbEntity
  8
0
100
AcDbLine
 10
17.7
 20
155.402
 30
0.0
 11
19.5
 21
154.2019999999999
 31
0.0
  0
LINE
  5
1C2
330
1E
100
AcDbEntity
  8
0
100
AcDbLine
 10
13.9
 20
154.802
 30
0.0
 11
15.8
 21
153.102
 31
0.0
  0
LINE
  5
1C4
330
1E
100
AcDbEntity
  8
0
100
AcDbLine
 10
16.0
 20
156.902
 30
0.0
 11
17.7
 21
155.402
 31
0.0
  0
LINE
  5
1C5
330
1E
100
AcDbEntity
  8
0
100
AcDbLine
 10
12.19999999999999
 20
156.702
 30
0.0
 11
13.9
 21
154.802
 31
0.0
  0
LINE
  5
1C7
330
1E
100
AcDbEntity
  8
0
100
AcDbLine
 10
14.5
 20
158.6019999999999
 30
0.0
 11
16.0
 21
156.902
 31
0.0
  0
LINE
  5
1CD
330
1E
100
AcDbEntity
  8
0
100
AcDbLine
 10
13.3
 20
160.402
 30
0.0
 11
14.5
 21
158.6019999999999
 31
0.0
  0
LINE
  5
1D2
330
1E
100
AcDbEntity
  8
0
100
AcDbLine
 10
10.7
 20
158.902
 30
0.0
 11
12.19999999999999
 21
156.702
 31
0.0
  0
LINE
  5
1E4
330
1E
100
AcDbEntity
  8
0
100
AcDbLine
 10
112.0149999999999
 20
156.712
 30
0.0
 11
112.788984268859
 21
155.7832188773689
 31
0.0
  0
LINE
  5
1F9
330
1E
100
AcDbEntity
  8
0
100
AcDbLine
 10
102.2
 20
158.2019999999999
 30
0.0
 11
103.7
 21
155.002
 31
0.0
  0
LINE
  5
219
330
1E
100
AcDbEntity
  8
0
100
AcDbLine
 10
110.5199999999999
 20
158.897
 30
0.0
 11
112.0149999999999
 21
156.712
 31
0.0
  0
LINE
  5
232
330
1E
100
AcDbEntity
  8
0
100
AcDbLine
 10
112.654
 20
158.549
 30
0.0
 11
112.799
 21
155.578
 31
0.0
  0
LINE
  5
258
330
1E
100
AcDbEntity
  8
0
100
AcDbLine
 10
112.472
 20
161.26
 30
0.0
 11
112.654
 21
158.549
 31
0.0
  0
LINE
  5
259
330
1E
100
AcDbEntity
  8
0
100
AcDbLine
 10
109.485
 20
161.197
 30
0.0
 11
110.5199999999999
 21
158.897
 31
0.0
  0
LINE
  5
27B
330
1E
100
AcDbEntity
  8
0
100
AcDbLine
 10
101.0
 20
161.702
 30
0.0
 11
102.2
 21
158.2019999999999
 31
0.0
  0
LINE
  5
29B
330
1E
100
AcDbEntity
  8
0
100
AcDbLine
 10
112.29
 20
163.467
 30
0.0
 11
112.472
 21
161.26
 31
0.0
  0
LINE
  5
2AC
330
1E
100
AcDbEntity
  8
0
100
AcDbLine
 10
108.565
 20
163.727
 30
0.0
 11
109.485
 21
161.197
 31
0.0
  0
LINE
  5
2B8
330
1E
100
AcDbEntity
  8
0
100
AcDbLine
 10
12.3
 20
162.402
 30
0.0
 11
13.3
 21
160.402
 31
0.0
  0
LINE
  5
2C8
330
1E
100
AcDbEntity
  8
0
100
AcDbLine
 10
11.59999999999999
 20
164.502
 30
0.0
 11
12.3
 21
162.402
 31
0.0
  0
LINE
  5
2CD
330
1E
100
AcDbEntity
  8
0
100
AcDbLine
 10
8.699999999999999
 20
163.7019999999999
 30
0.0
 11
9.599999999999999
 21
161.302
 31
0.0
  0
LINE
  5
2D1
330
1E
100
AcDbEntity
  8
0
100
AcDbLine
 10
1.0
 20
161.702
 30
0.0
 11
2.2
 21
158.2019999999999
 31
0.0
  0
LINE
  5
2D6
330
1E
100
AcDbEntity
  8
0
100
AcDbLine
 10
100.2999999999999
 20
165.102
 30
0.0
 11
101.0
 21
161.702
 31
0.0
  0
LINE
  5
2E6
330
1E
100
AcDbEntity
  8
0
100
AcDbLine
 10
112.054
 20
165.3409999999999
 30
0.0
 11
112.29
 21
163.467
 31
0.0
  0
LINE
  5
2EE
330
1E
100
AcDbEntity
  8
0
100
AcDbLine
 10
108.105
 20
166.257
 30
0.0
 11
108.565
 21
163.727
 31
0.0
  0
LINE
  5
2F8
330
1E
100
AcDbEntity
  8
0
100
AcDbLine
 10
8.199999999999999
 20
166.302
 30
0.0
 11
8.699999999999999
 21
163.7019999999999
 31
0.0
  0
LINE
  5
2FA
330
1E
100
AcDbEntity
  8
0
100
AcDbLine
 10
1.0
 20
161.702
 30
0.0
 11
2.2
 21
158.2019999999999
 31
0.0
  0
LINE
  5
2FC
330
1E
100
AcDbEntity
  8
0
100
AcDbLine
 10
0.3
 20
165.102
 30
0.0
 11
1.0
 21
161.702
 31
0.0
  0
LINE
  5
2FF
330
1E
100
AcDbEntity
  8
0
100
AcDbLine
 10
11.19999999999999
 20
166.7019999999999
 30
0.0
 11
11.59999999999999
 21
164.502
 31
0.0
  0
LINE
  5
300
330
1E
100
AcDbEntity
  8
0
100
AcDbLine
 10
11.0
 20
168.902
 30
0.0
 11
11.19999999999999
 21
166.7019999999999
 31
0.0
  0
LINE
  5
30C
330
1E
100
AcDbEntity
  8
0
100
AcDbLine
 10
8.0
 20
168.902
 30
0.0
 11
8.199999999999999
 21
166.302
 31
0.0
  0
LINE
  5
3AD
330
1E
100
AcDbEntity
  8
0
100
AcDbLine
 10
100.0
 20
168.902
 30
0.0
 11
100.2999999999999
 21
172.7019999999999
 31
0.0
  0
LINE
  5
3AF
330
1E
100
AcDbEntity
  8
0
100
AcDbLine
 10
100.0
 20
168.902
 30
0.0
 11
100.2999999999999
 21
165.102
 31
0.0
  0
LINE
  5
3E4
330
1E
100
AcDbEntity
  8
0
100
AcDbLine
 10
107.875
 20
168.902
 30
0.0
 11
108.105
 21
171.547
 31
0.0
  0
LINE
  5
3E6
330
1E
100
AcDbEntity
  8
0
100
AcDbLine
 10
107.875
 20
168.902
 30
0.0
 11
108.105
 21
166.257
 31
0.0
  0
LINE
  5
44D
330
1E
100
AcDbEntity
  8
0
100
AcDbLine
 10
108.105
 20
171.547
 30
0.0
 11
108.565
 21
174.0769999999999
 31
0.0
  0
LINE
  5
451
330
1E
100
AcDbEntity
  8
0
100
AcDbLine
 10
100.2999999999999
 20
172.7019999999999
 30
0.0
 11
101.0
 21
176.102
 31
0.0
  0
LINE
  5
4AF
330
1E
100
AcDbEntity
  8
0
100
AcDbLine
 10
108.565
 20
174.0769999999999
 30
0.0
 11
109.485
 21
176.607
 31
0.0
  0
LINE
  5
4B3
330
1E
100
AcDbEntity
  8
0
100
AcDbLine
 10
102.2
 20
179.602
 30
0.0
 11
103.7
 21
182.802
 31
0.0
  0
LINE
  5
4B5
330
1E
100
AcDbEntity
  8
0
100
AcDbLine
 10
101.0
 20
176.102
 30
0.0
 11
102.2
 21
179.602
 31
0.0
  0
LINE
  5
508
330
1E
100
AcDbEntity
  8
0
100
AcDbLine
 10
110.5199999999999
 20
178.907
 30
0.0
 11
112.0149999999999
 21
181.092
 31
0.0
  0
LINE
  5
50A
330
1E
100
AcDbEntity
  8
0
100
AcDbLine
 10
109.485
 20
176.607
 30
0.0
 11
110.5199999999999
 21
178.907
 31
0.0
  0
LINE
  5
539
330
1E
100
AcDbEntity
  8
0
100
AcDbLine
 10
112.0149999999999
 20
181.092
 30
0.0
 11
113.7399999999999
 21
183.162
 31
0.0
  0
LINE
  5
56B
330
1E
100
AcDbEntity
  8
0
100
AcDbLine
 10
103.7
 20
182.802
 30
0.0
 11
105.8
 21
185.902
 31
0.0
  0
LINE
  5
572
330
1E
100
AcDbEntity
  8
0
100
AcDbLine
 10
113.7399999999999
 20
183.162
 30
0.0
 11
115.81
 21
184.8869999999999
 31
0.0
  0
LINE
  5
576
330
1E
100
AcDbEntity
  8
0
100
AcDbLine
 10
105.8
 20
185.902
 30
0.0
 11
108.2
 21
188.7019999999999
 31
0.0
  0
LINE
  5
57B
330
1E
100
AcDbEntity
  8
0
100
AcDbLine
 10
115.81
 20
184.8869999999999
 30
0.0
 11
117.995
 21
186.382
 31
0.0
  0
LINE
  5
580
330
1E
100
AcDbEntity
  8
0
100
AcDbLine
 10
108.2
 20
188.7019999999999
 30
0.0
 11
111.0
 21
191.102
 31
0.0
  0
LINE
  5
587
330
1E
100
AcDbEntity
  8
0
100
AcDbLine
 10
117.995
 20
186.382
 30
0.0
 11
120.2949999999999
 21
187.417
 31
0.0
  0
LINE
  5
58D
330
1E
100
AcDbEntity
  8
0
100
AcDbLine
 10
120.2949999999999
 20
187.417
 30
0.0
 11
122.825
 21
188.337
 31
0.0
  0
LINE
  5
596
330
1E
100
AcDbEntity
  8
0
100
AcDbLine
 10
122.825
 20
188.337
 30
0.0
 11
125.355
 21
188.7969999999999
 31
0.0
  0
LINE
  5
59A
330
1E
100
AcDbEntity
  8
0
100
AcDbLine
 10
111.0
 20
191.102
 30
0.0
 11
114.1
 21
193.2019999999999
 31
0.0
  0
LINE
  5
65A
330
1E
100
AcDbEntity
  8
0
100
AcDbLine
 10
125.355
 20
188.7969999999999
 30
0.0
 11
126.0
 21
188.8530869565219
 31
0.0
  0
LINE
  5
65E
330
1E
100
AcDbEntity
  8
0
100
AcDbLine
 10
114.1
 20
193.2019999999999
 30
0.0
 11
117.3
 21
194.702
 31
0.0
  0
LINE
  5
679
330
1E
100
AcDbEntity
  8
0
100
AcDbLine
 10
117.3
 20
194.702
 30
0.0
 11
120.7999999999999
 21
195.902
 31
0.0
  0
LINE
  5
67B
330
1E
100
AcDbEntity
  8
0
100
AcDbLine
 10
120.7999999999999
 20
195.902
 30
0.0
 11
124.1999999999999
 21
196.602
 31
0.0
  0
LINE
  5
70B
330
1E
100
AcDbEntity
  8
0
100
AcDbLine
 10
124.1999999999999
 20
196.602
 30
0.0
 11
126.0
 21
196.7441052631579
 31
0.0
  0
LINE
  5
718
330
1E
100
AcDbEntity
  8
0
100
AcDbLine
 10
0.0
 20
168.902
 30
0.0
 11
0.3
 21
165.102
 31
0.0
  0
LINE
  5
71F
330
1E
100
AcDbEntity
  8
0
100
AcDbLine
 10
48.0
 20
168.902
 30
0.0
 11
47.8
 21
166.302
 31
0.0
  0
LINE
  5
720
330
1E
100
AcDbEntity
  8
0
100
AcDbLine
 10
50.2
 20
151.902
 30
0.0
 11
47.8
 21
149.1019999999999
 31
0.0
  0
LINE
  5
721
330
1E
100
AcDbEntity
  8
0
100
AcDbLine
 10
53.79999999999999
 20
158.2019999999999
 30
0.0
 11
52.3
 21
155.002
 31
0.0
  0
LINE
  5
722
330
1E
100
AcDbEntity
  8
0
100
AcDbLine
 10
52.3
 20
155.002
 30
0.0
 11
50.2
 21
151.902
 31
0.0
  0
LINE
  5
723
330
1E
100
AcDbEntity
  8
0
100
AcDbLine
 10
55.7
 20
165.102
 30
0.0
 11
55.0
 21
161.702
 31
0.0
  0
LINE
  5
724
330
1E
100
AcDbEntity
  8
0
100
AcDbLine
 10
55.0
 20
161.702
 30
0.0
 11
53.79999999999999
 21
158.2019999999999
 31
0.0
  0
LINE
  5
725
330
1E
100
AcDbEntity
  8
0
100
AcDbLine
 10
55.0
 20
161.702
 30
0.0
 11
53.79999999999999
 21
158.2019999999999
 31
0.0
  0
LINE
  5
726
330
1E
100
AcDbEntity
  8
0
100
AcDbLine
 10
56.0
 20
168.902
 30
0.0
 11
55.7
 21
165.102
 31
0.0
  0
LINE
  5
727
330
1E
100
AcDbEntity
  8
0
100
AcDbLine
 10
43.79999999999999
 20
156.702
 30
0.0
 11
42.09999999999999
 21
154.802
 31
0.0
  0
LINE
  5
728
330
1E
100
AcDbEntity
  8
0
100
AcDbLine
 10
40.0
 20
156.902
 30
0.0
 11
38.3
 21
155.402
 31
0.0
  0
LINE
  5
729
330
1E
100
AcDbEntity
  8
0
100
AcDbLine
 10
38.3
 20
155.402
 30
0.0
 11
36.5
 21
154.2019999999999
 31
0.0
  0
LINE
  5
72A
330
1E
100
AcDbEntity
  8
0
100
AcDbLine
 10
38.7
 20
143.102
 30
0.0
 11
35.2
 21
141.902
 31
0.0
  0
LINE
  5
72B
330
1E
100
AcDbEntity
  8
0
100
AcDbLine
 10
38.0
 20
151.602
 30
0.0
 11
35.6
 21
150.502
 31
0.0
  0
LINE
  5
72C
330
1E
100
AcDbEntity
  8
0
100
AcDbLine
 10
47.8
 20
149.1019999999999
 30
0.0
 11
45.0
 21
146.7019999999999
 31
0.0
  0
LINE
  5
72D
330
1E
100
AcDbEntity
  8
0
100
AcDbLine
 10
45.0
 20
146.7019999999999
 30
0.0
 11
41.9
 21
144.602
 31
0.0
  0
LINE
  5
72E
330
1E
100
AcDbEntity
  8
0
100
AcDbLine
 10
41.9
 20
144.602
 30
0.0
 11
38.7
 21
143.102
 31
0.0
  0
LINE
  5
72F
330
1E
100
AcDbEntity
  8
0
100
AcDbLine
 10
40.2
 20
153.102
 30
0.0
 11
38.0
 21
151.602
 31
0.0
  0
LINE
  5
730
330
1E
100
AcDbEntity
  8
0
100
AcDbLine
 10
42.09999999999999
 20
154.802
 30
0.0
 11
40.2
 21
153.102
 31
0.0
  0
LINE
  5
731
330
1E
100
AcDbEntity
  8
0
100
AcDbLine
 10
35.2
 20
141.902
 30
0.0
 11
31.8
 21
141.202
 31
0.0
  0
LINE
  5
732
330
1E
100
AcDbEntity
  8
0
100
AcDbLine
 10
31.8
 20
141.202
 30
0.0
 11
28.0
 21
140.902
 31
0.0
  0
LINE
  5
733
330
1E
100
AcDbEntity
  8
0
100
AcDbLine
 10
33.2
 20
149.602
 30
0.0
 11
30.6
 21
149.1019999999999
 31
0.0
  0
LINE
  5
734
330
1E
100
AcDbEntity
  8
0
100
AcDbLine
 10
34.5
 20
153.2019999999999
 30
0.0
 11
32.4
 21
152.502
 31
0.0
  0
LINE
  5
735
330
1E
100
AcDbEntity
  8
0
100
AcDbLine
 10
35.6
 20
150.502
 30
0.0
 11
33.2
 21
149.602
 31
0.0
  0
LINE
  5
736
330
1E
100
AcDbEntity
  8
0
100
AcDbLine
 10
36.5
 20
154.2019999999999
 30
0.0
 11
34.5
 21
153.2019999999999
 31
0.0
  0
LINE
  5
737
330
1E
100
AcDbEntity
  8
0
100
AcDbLine
 10
32.4
 20
152.502
 30
0.0
 11
30.2
 21
152.102
 31
0.0
  0
LINE
  5
738
330
1E
100
AcDbEntity
  8
0
100
AcDbLine
 10
30.6
 20
149.1019999999999
 30
0.0
 11
28.0
 21
148.902
 31
0.0
  0
LINE
  5
739
330
1E
100
AcDbEntity
  8
0
100
AcDbLine
 10
30.2
 20
152.102
 30
0.0
 11
28.0
 21
151.902
 31
0.0
  0
LINE
  5
73A
330
1E
100
AcDbEntity
  8
0
100
AcDbLine
 10
44.79999999999999
 20
166.7019999999999
 30
0.0
 11
44.4
 21
164.502
 31
0.0
  0
LINE
  5
73B
330
1E
100
AcDbEntity
  8
0
100
AcDbLine
 10
47.8
 20
166.302
 30
0.0
 11
47.29999999999999
 21
163.7019999999999
 31
0.0
  0
LINE
  5
73C
330
1E
100
AcDbEntity
  8
0
100
AcDbLine
 10
43.7
 20
162.402
 30
0.0
 11
42.7
 21
160.402
 31
0.0
  0
LINE
  5
73D
330
1E
100
AcDbEntity
  8
0
100
AcDbLine
 10
46.39999999999999
 20
161.302
 30
0.0
 11
45.3
 21
158.902
 31
0.0
  0
LINE
  5
73E
330
1E
100
AcDbEntity
  8
0
100
AcDbLine
 10
45.3
 20
158.902
 30
0.0
 11
43.79999999999999
 21
156.702
 31
0.0
  0
LINE
  5
73F
330
1E
100
AcDbEntity
  8
0
100
AcDbLine
 10
47.29999999999999
 20
163.7019999999999
 30
0.0
 11
46.39999999999999
 21
161.302
 31
0.0
  0
LINE
  5
740
330
1E
100
AcDbEntity
  8
0
100
AcDbLine
 10
44.4
 20
164.502
 30
0.0
 11
43.7
 21
162.402
 31
0.0
  0
LINE
  5
741
330
1E
100
AcDbEntity
  8
0
100
AcDbLine
 10
41.5
 20
158.6019999999999
 30
0.0
 11
40.0
 21
156.902
 31
0.0
  0
LINE
  5
742
330
1E
100
AcDbEntity
  8
0
100
AcDbLine
 10
42.7
 20
160.402
 30
0.0
 11
41.5
 21
158.6019999999999
 31
0.0
  0
LINE
  5
743
330
1E
100
AcDbEntity
  8
0
100
AcDbLine
 10
45.0
 20
168.902
 30
0.0
 11
44.79999999999999
 21
166.7019999999999
 31
0.0
  0
LINE
  5
744
330
1E
100
AcDbEntity
  8
0
100
AcDbLine
 10
50.2
 20
185.902
 30
0.0
 11
47.8
 21
188.702
 31
0.0
  0
LINE
  5
745
330
1E
100
AcDbEntity
  8
0
100
AcDbLine
 10
8.0
 20
168.902
 30
0.0
 11
8.199999999999999
 21
171.502
 31
0.0
  0
LINE
  5
746
330
1E
100
AcDbEntity
  8
0
100
AcDbLine
 10
5.799999999999999
 20
185.902
 30
0.0
 11
8.199999999999999
 21
188.702
 31
0.0
  0
LINE
  5
747
330
1E
100
AcDbEntity
  8
0
100
AcDbLine
 10
2.2
 20
179.602
 30
0.0
 11
3.7
 21
182.802
 31
0.0
  0
LINE
  5
748
330
1E
100
AcDbEntity
  8
0
100
AcDbLine
 10
3.7
 20
182.802
 30
0.0
 11
5.799999999999999
 21
185.902
 31
0.0
  0
LINE
  5
749
330
1E
100
AcDbEntity
  8
0
100
AcDbLine
 10
0.3
 20
172.702
 30
0.0
 11
1.0
 21
176.102
 31
0.0
  0
LINE
  5
74A
330
1E
100
AcDbEntity
  8
0
100
AcDbLine
 10
1.0
 20
176.102
 30
0.0
 11
2.2
 21
179.602
 31
0.0
  0
LINE
  5
74B
330
1E
100
AcDbEntity
  8
0
100
AcDbLine
 10
1.0
 20
176.102
 30
0.0
 11
2.2
 21
179.602
 31
0.0
  0
LINE
  5
74C
330
1E
100
AcDbEntity
  8
0
100
AcDbLine
 10
0.0
 20
168.902
 30
0.0
 11
0.3
 21
172.702
 31
0.0
  0
LINE
  5
74D
330
1E
100
AcDbEntity
  8
0
100
AcDbLine
 10
30.2
 20
185.702
 30
0.0
 11
28.0
 21
185.902
 31
0.0
  0
LINE
  5
74E
330
1E
100
AcDbEntity
  8
0
100
AcDbLine
 10
30.6
 20
188.702
 30
0.0
 11
28.0
 21
188.902
 31
0.0
  0
LINE
  5
74F
330
1E
100
AcDbEntity
  8
0
100
AcDbLine
 10
31.8
 20
196.602
 30
0.0
 11
28.0
 21
196.902
 31
0.0
  0
LINE
  5
750
330
1E
100
AcDbEntity
  8
0
100
AcDbLine
 10
12.19999999999999
 20
181.102
 30
0.0
 11
13.9
 21
183.002
 31
0.0
  0
LINE
  5
751
330
1E
100
AcDbEntity
  8
0
100
AcDbLine
 10
16.0
 20
180.902
 30
0.0
 11
17.7
 21
182.402
 31
0.0
  0
LINE
  5
752
330
1E
100
AcDbEntity
  8
0
100
AcDbLine
 10
17.7
 20
182.402
 30
0.0
 11
19.5
 21
183.602
 31
0.0
  0
LINE
  5
753
330
1E
100
AcDbEntity
  8
0
100
AcDbLine
 10
17.3
 20
194.702
 30
0.0
 11
20.8
 21
195.902
 31
0.0
  0
LINE
  5
754
330
1E
100
AcDbEntity
  8
0
100
AcDbLine
 10
18.0
 20
186.202
 30
0.0
 11
20.4
 21
187.302
 31
0.0
  0
LINE
  5
755
330
1E
100
AcDbEntity
  8
0
100
AcDbLine
 10
8.199999999999999
 20
188.702
 30
0.0
 11
11.0
 21
191.102
 31
0.0
  0
LINE
  5
756
330
1E
100
AcDbEntity
  8
0
100
AcDbLine
 10
11.0
 20
191.102
 30
0.0
 11
14.1
 21
193.202
 31
0.0
  0
LINE
  5
757
330
1E
100
AcDbEntity
  8
0
100
AcDbLine
 10
14.1
 20
193.202
 30
0.0
 11
17.3
 21
194.702
 31
0.0
  0
LINE
  5
758
330
1E
100
AcDbEntity
  8
0
100
AcDbLine
 10
15.8
 20
184.702
 30
0.0
 11
18.0
 21
186.202
 31
0.0
  0
LINE
  5
759
330
1E
100
AcDbEntity
  8
0
100
AcDbLine
 10
13.9
 20
183.002
 30
0.0
 11
15.8
 21
184.702
 31
0.0
  0
LINE
  5
75A
330
1E
100
AcDbEntity
  8
0
100
AcDbLine
 10
20.8
 20
195.902
 30
0.0
 11
24.19999999999999
 21
196.602
 31
0.0
  0
LINE
  5
75B
330
1E
100
AcDbEntity
  8
0
100
AcDbLine
 10
24.19999999999999
 20
196.602
 30
0.0
 11
28.0
 21
196.902
 31
0.0
  0
LINE
  5
75C
330
1E
100
AcDbEntity
  8
0
100
AcDbLine
 10
22.8
 20
188.202
 30
0.0
 11
25.4
 21
188.702
 31
0.0
  0
LINE
  5
75D
330
1E
100
AcDbEntity
  8
0
100
AcDbLine
 10
21.49999999999999
 20
184.602
 30
0.0
 11
23.6
 21
185.302
 31
0.0
  0
LINE
  5
75E
330
1E
100
AcDbEntity
  8
0
100
AcDbLine
 10
20.4
 20
187.302
 30
0.0
 11
22.8
 21
188.202
 31
0.0
  0
LINE
  5
75F
330
1E
100
AcDbEntity
  8
0
100
AcDbLine
 10
19.5
 20
183.602
 30
0.0
 11
21.49999999999999
 21
184.602
 31
0.0
  0
LINE
  5
760
330
1E
100
AcDbEntity
  8
0
100
AcDbLine
 10
23.6
 20
185.302
 30
0.0
 11
25.8
 21
185.702
 31
0.0
  0
LINE
  5
761
330
1E
100
AcDbEntity
  8
0
100
AcDbLine
 10
25.4
 20
188.702
 30
0.0
 11
28.0
 21
188.902
 31
0.0
  0
LINE
  5
762
330
1E
100
AcDbEntity
  8
0
100
AcDbLine
 10
25.8
 20
185.702
 30
0.0
 11
28.0
 21
185.902
 31
0.0
  0
LINE
  5
763
330
1E
100
AcDbEntity
  8
0
100
AcDbLine
 10
11.19999999999999
 20
171.102
 30
0.0
 11
11.59999999999999
 21
173.302
 31
0.0
  0
LINE
  5
764
330
1E
100
AcDbEntity
  8
0
100
AcDbLine
 10
8.199999999999999
 20
171.502
 30
0.0
 11
8.699999999999999
 21
174.102
 31
0.0
  0
LINE
  5
765
330
1E
100
AcDbEntity
  8
0
100
AcDbLine
 10
12.3
 20
175.402
 30
0.0
 11
13.3
 21
177.402
 31
0.0
  0
LINE
  5
766
330
1E
100
AcDbEntity
  8
0
100
AcDbLine
 10
9.599999999999999
 20
176.5019999999999
 30
0.0
 11
10.7
 21
178.902
 31
0.0
  0
LINE
  5
767
330
1E
100
AcDbEntity
  8
0
100
AcDbLine
 10
10.7
 20
178.902
 30
0.0
 11
12.19999999999999
 21
181.102
 31
0.0
  0
LINE
  5
768
330
1E
100
AcDbEntity
  8
0
100
AcDbLine
 10
8.699999999999999
 20
174.102
 30
0.0
 11
9.599999999999999
 21
176.5019999999999
 31
0.0
  0
LINE
  5
769
330
1E
100
AcDbEntity
  8
0
100
AcDbLine
 10
11.59999999999999
 20
173.302
 30
0.0
 11
12.3
 21
175.402
 31
0.0
  0
LINE
  5
76A
330
1E
100
AcDbEntity
  8
0
100
AcDbLine
 10
14.5
 20
179.202
 30
0.0
 11
16.0
 21
180.902
 31
0.0
  0
LINE
  5
76B
330
1E
100
AcDbEntity
  8
0
100
AcDbLine
 10
13.3
 20
177.402
 30
0.0
 11
14.5
 21
179.202
 31
0.0
  0
LINE
  5
76C
330
1E
100
AcDbEntity
  8
0
100
AcDbLine
 10
11.0
 20
168.902
 30
0.0
 11
11.19999999999999
 21
171.102
 31
0.0
  0
LINE
  5
76D
330
1E
100
AcDbEntity
  8
0
100
AcDbLine
 10
40.0
 20
180.902
 30
0.0
 11
38.3
 21
182.402
 31
0.0
  0
LINE
  5
76E
330
1E
100
AcDbEntity
  8
0
100
AcDbLine
 10
43.79999999999999
 20
181.102
 30
0.0
 11
42.09999999999999
 21
183.002
 31
0.0
  0
LINE
  5
76F
330
1E
100
AcDbEntity
  8
0
100
AcDbLine
 10
40.2
 20
184.702
 30
0.0
 11
38.0
 21
186.202
 31
0.0
  0
LINE
  5
770
330
1E
100
AcDbEntity
  8
0
100
AcDbLine
 10
38.7
 20
194.702
 30
0.0
 11
35.2
 21
195.902
 31
0.0
  0
LINE
  5
771
330
1E
100
AcDbEntity
  8
0
100
AcDbLine
 10
38.3
 20
182.402
 30
0.0
 11
36.5
 21
183.602
 31
0.0
  0
LINE
  5
772
330
1E
100
AcDbEntity
  8
0
100
AcDbLine
 10
35.2
 20
195.902
 30
0.0
 11
31.8
 21
196.602
 31
0.0
  0
LINE
  5
773
330
1E
100
AcDbEntity
  8
0
100
AcDbLine
 10
34.5
 20
184.602
 30
0.0
 11
32.4
 21
185.302
 31
0.0
  0
LINE
  5
774
330
1E
100
AcDbEntity
  8
0
100
AcDbLine
 10
33.2
 20
188.202
 30
0.0
 11
30.6
 21
188.702
 31
0.0
  0
LINE
  5
775
330
1E
100
AcDbEntity
  8
0
100
AcDbLine
 10
32.4
 20
185.302
 30
0.0
 11
30.2
 21
185.702
 31
0.0
  0
LINE
  5
776
330
1E
100
AcDbEntity
  8
0
100
AcDbLine
 10
35.6
 20
187.302
 30
0.0
 11
33.2
 21
188.202
 31
0.0
  0
LINE
  5
777
330
1E
100
AcDbEntity
  8
0
100
AcDbLine
 10
38.0
 20
186.202
 30
0.0
 11
35.6
 21
187.302
 31
0.0
  0
LINE
  5
778
330
1E
100
AcDbEntity
  8
0
100
AcDbLine
 10
36.5
 20
183.602
 30
0.0
 11
34.5
 21
184.602
 31
0.0
  0
LINE
  5
779
330
1E
100
AcDbEntity
  8
0
100
AcDbLine
 10
47.8
 20
188.702
 30
0.0
 11
45.0
 21
191.102
 31
0.0
  0
LINE
  5
77A
330
1E
100
AcDbEntity
  8
0
100
AcDbLine
 10
45.0
 20
191.102
 30
0.0
 11
41.9
 21
193.202
 31
0.0
  0
LINE
  5
77B
330
1E
100
AcDbEntity
  8
0
100
AcDbLine
 10
41.9
 20
193.202
 30
0.0
 11
38.7
 21
194.702
 31
0.0
  0
LINE
  5
77C
330
1E
100
AcDbEntity
  8
0
100
AcDbLine
 10
42.09999999999999
 20
183.002
 30
0.0
 11
40.2
 21
184.702
 31
0.0
  0
LINE
  5
77D
330
1E
100
AcDbEntity
  8
0
100
AcDbLine
 10
47.8
 20
171.502
 30
0.0
 11
47.29999999999999
 21
174.102
 31
0.0
  0
LINE
  5
77E
330
1E
100
AcDbEntity
  8
0
100
AcDbLine
 10
44.79999999999999
 20
171.102
 30
0.0
 11
44.4
 21
173.302
 31
0.0
  0
LINE
  5
77F
330
1E
100
AcDbEntity
  8
0
100
AcDbLine
 10
43.7
 20
175.402
 30
0.0
 11
42.7
 21
177.402
 31
0.0
  0
LINE
  5
780
330
1E
100
AcDbEntity
  8
0
100
AcDbLine
 10
41.5
 20
179.202
 30
0.0
 11
40.0
 21
180.902
 31
0.0
  0
LINE
  5
781
330
1E
100
AcDbEntity
  8
0
100
AcDbLine
 10
42.7
 20
177.402
 30
0.0
 11
41.5
 21
179.202
 31
0.0
  0
LINE
  5
782
330
1E
100
AcDbEntity
  8
0
100
AcDbLine
 10
46.39999999999999
 20
176.5019999999999
 30
0.0
 11
45.3
 21
178.902
 31
0.0
  0
LINE
  5
783
330
1E
100
AcDbEntity
  8
0
100
AcDbLine
 10
45.3
 20
178.902
 30
0.0
 11
43.79999999999999
 21
181.102
 31
0.0
  0
LINE
  5
784
330
1E
100
AcDbEntity
  8
0
100
AcDbLine
 10
44.4
 20
173.302
 30
0.0
 11
43.7
 21
175.402
 31
0.0
  0
LINE
  5
785
330
1E
100
AcDbEntity
  8
0
100
AcDbLine
 10
47.29999999999999
 20
174.102
 30
0.0
 11
46.39999999999999
 21
176.5019999999999
 31
0.0
  0
LINE
  5
786
330
1E
100
AcDbEntity
  8
0
100
AcDbLine
 10
45.0
 20
168.902
 30
0.0
 11
44.79999999999999
 21
171.102
 31
0.0
  0
LINE
  5
787
330
1E
100
AcDbEntity
  8
0
100
AcDbLine
 10
48.0
 20
168.902
 30
0.0
 11
47.8
 21
171.502
 31
0.0
  0
LINE
  5
788
330
1E
100
AcDbEntity
  8
0
100
AcDbLine
 10
53.79999999999999
 20
179.602
 30
0.0
 11
52.3
 21
182.802
 31
0.0
  0
LINE
  5
789
330
1E
100
AcDbEntity
  8
0
100
AcDbLine
 10
52.3
 20
182.802
 30
0.0
 11
50.2
 21
185.902
 31
0.0
  0
LINE
  5
78A
330
1E
100
AcDbEntity
  8
0
100
AcDbLine
 10
55.7
 20
172.702
 30
0.0
 11
55.0
 21
176.102
 31
0.0
  0
LINE
  5
78B
330
1E
100
AcDbEntity
  8
0
100
AcDbLine
 10
55.0
 20
176.102
 30
0.0
 11
53.79999999999999
 21
179.602
 31
0.0
  0
LINE
  5
78C
330
1E
100
AcDbEntity
  8
0
100
AcDbLine
 10
55.0
 20
176.102
 30
0.0
 11
53.79999999999999
 21
179.602
 31
0.0
  0
LINE
  5
78D
330
1E
100
AcDbEntity
  8
0
100
AcDbLine
 10
56.0
 20
168.902
 30
0.0
 11
55.7
 21
172.702
 31
0.0
  0
LINE
  5
78E
330
1E
100
AcDbEntity
  8
0
  6
Continuous
100
AcDbLine
 10
112.054
 20
165.3409999999999
 30
0.0
 11
112.172626801821
 21
169.2036389007727
 31
0.0
  0
LINE
  5
78F
330
1E
100
AcDbEntity
  8
0
  6
Continuous
100
AcDbLine
 10
112.172626801821
 20
169.2036389007727
 30
0.0
 11
112.4717279630267
 21
172.1929057677564
 31
0.0
  0
LINE
  5
790
330
1E
100
AcDbEntity
  8
0
  6
Continuous
100
AcDbLine
 10
112.4717279630267
 20
172.1929057677564
 30
0.0
 11
113.817683188452
 21
176.4775214105358
 31
0.0
  0
LINE
  5
791
330
1E
100
AcDbEntity
  8
0
  6
Continuous
100
AcDbLine
 10
113.817683188452
 20
176.4775214105358
 30
0.0
 11
115.8615421595068
 21
179.4667882775195
 31
0.0
  0
LINE
  5
792
330
1E
100
AcDbEntity
  8
0
  6
Continuous
100
AcDbLine
 10
115.8615421595068
 20
179.4667882775195
 30
0.0
 11
118.752854420644
 21
182.0076654143016
 31
0.0
  0
LINE
  5
793
330
1E
100
AcDbEntity
  8
0
  6
Continuous
100
AcDbLine
 10
118.752854420644
 20
182.0076654143016
 30
0.0
 11
121.6441666817815
 21
183.6019411766417
 31
0.0
  0
LINE
  5
794
330
1E
100
AcDbEntity
  8
0
  6
Continuous
100
AcDbLine
 10
121.6441666817815
 20
183.6019411766417
 30
0.0
 11
124.385928362316
 21
184.3990788079399
 31
0.0
  0
LINE
  5
795
330
1E
100
AcDbEntity
  8
0
  6
Continuous
100
AcDbLine
 10
124.385928362316
 20
184.3990788079399
 30
0.0
 11
126.7787376519611
 21
184.698005294741
 31
0.0
  0
LINE
  5
796
330
1E
100
AcDbEntity
  8
0
  6
Continuous
100
AcDbLine
 10
126.7787376519611
 20
184.698005294741
 30
0.0
 11
128.0
 21
184.74
 31
0.0
  0
LINE
  5
797
330
1E
100
AcDbEntity
  8
0
100
AcDbLine
 10
142.865
 20
141.5929999999999
 30
0.0
 11
140.5779999999999
 21
40.7025
 31
0.0
  0
LINE
  5
798
330
1E
100
AcDbEntity
  8
0
100
AcDbLine
 10
131.22
 20
0.248399999999984
 30
0.0
 11
128.0
 21
-0.0980000000000118
 31
0.0
  0
LINE
  5
799
330
1E
100
AcDbEntity
  8
0
100
AcDbLine
 10
140.5779999999999
 20
31.5809
 30
0.0
 11
140.5779999999999
 21
40.7025
 31
0.0
  0
LINE
  5
79A
330
1E
100
AcDbEntity
  8
0
100
AcDbLine
 10
140.5779999999999
 20
40.7025
 30
0.0
 11
140.5779999999999
 21
31.5809
 31
0.0
  0
LINE
  5
79B
330
1E
100
AcDbEntity
  8
0
100
AcDbLine
 10
140.126
 20
7.06039999999999
 30
0.0
 11
138.918
 21
4.75129999999999
 31
0.0
  0
LINE
  5
79C
330
1E
100
AcDbEntity
  8
0
100
AcDbLine
 10
136.906
 20
2.71149999999999
 30
0.0
 11
134.2389999999999
 21
1.172099999999999
 31
0.0
  0
LINE
  5
79D
330
1E
100
AcDbEntity
  8
0
100
AcDbLine
 10
138.918
 20
4.75129999999999
 30
0.0
 11
136.906
 21
2.71149999999999
 31
0.0
  0
LINE
  5
79E
330
1E
100
AcDbEntity
  8
0
100
AcDbLine
 10
134.2389999999999
 20
1.172099999999999
 30
0.0
 11
131.22
 21
0.248399999999984
 31
0.0
  0
LINE
  5
79F
330
1E
100
AcDbEntity
  8
0
100
AcDbLine
 10
140.5779999999999
 20
23.2174
 30
0.0
 11
140.5779999999999
 21
31.5809
 31
0.0
  0
LINE
  5
7A0
330
1E
100
AcDbEntity
  8
0
100
AcDbLine
 10
140.5779999999999
 20
31.5809
 30
0.0
 11
140.5779999999999
 21
23.2174
 31
0.0
  0
LINE
  5
7A1
330
1E
100
AcDbEntity
  8
0
100
AcDbLine
 10
140.5779999999999
 20
10.332
 30
0.0
 11
140.5779999999999
 21
16.25329999999999
 31
0.0
  0
LINE
  5
7A2
330
1E
100
AcDbEntity
  8
0
100
AcDbLine
 10
140.5779999999999
 20
16.25329999999999
 30
0.0
 11
140.5779999999999
 21
10.332
 31
0.0
  0
LINE
  5
7A3
330
1E
100
AcDbEntity
  8
0
100
AcDbLine
 10
140.5779999999999
 20
9.523599999999991
 30
0.0
 11
140.5779999999999
 21
10.332
 31
0.0
  0
LINE
  5
7A4
330
1E
100
AcDbEntity
  8
0
100
AcDbLine
 10
140.5779999999999
 20
10.332
 30
0.0
 11
140.5779999999999
 21
9.523599999999991
 31
0.0
  0
LINE
  5
7A5
330
1E
100
AcDbEntity
  8
0
100
AcDbLine
 10
140.5779999999999
 20
9.523599999999991
 30
0.0
 11
140.126
 21
7.06039999999999
 31
0.0
  0
LINE
  5
7A6
330
1E
100
AcDbEntity
  8
0
100
AcDbLine
 10
140.5779999999999
 20
16.25329999999999
 30
0.0
 11
140.5779999999999
 21
23.2174
 31
0.0
  0
LINE
  5
7A7
330
1E
100
AcDbEntity
  8
0
100
AcDbLine
 10
140.5779999999999
 20
23.2174
 30
0.0
 11
140.5779999999999
 21
16.25329999999999
 31
0.0
  0
LINE
  5
7A8
330
1E
100
AcDbEntity
  8
0
  6
Continuous
100
AcDbLine
 10
131.6140716376839
 20
184.3990788079399
 30
0.0
 11
129.2212623480388
 21
184.698005294741
 31
0.0
  0
LINE
  5
7AA
330
1E
100
AcDbEntity
  8
0
  6
Continuous
100
AcDbLine
 10
143.5282720369732
 20
172.1929057677564
 30
0.0
 11
142.1823168115479
 21
176.4775214105358
 31
0.0
  0
LINE
  5
7AB
330
1E
100
AcDbEntity
  8
0
100
AcDbLine
 10
155.6999999999999
 20
172.7019999999999
 30
0.0
 11
155.0
 21
176.102
 31
0.0
  0
LINE
  5
7AC
330
1E
100
AcDbEntity
  8
0
100
AcDbLine
 10
147.8949999999999
 20
171.547
 30
0.0
 11
147.435
 21
174.0769999999999
 31
0.0
  0
LINE
  5
7AD
330
1E
100
AcDbEntity
  8
0
100
AcDbLine
 10
153.8
 20
158.2019999999999
 30
0.0
 11
152.3
 21
155.002
 31
0.0
  0
LINE
  5
7AE
330
1E
100
AcDbEntity
  8
0
100
AcDbLine
 10
155.6999999999999
 20
165.102
 30
0.0
 11
155.0
 21
161.702
 31
0.0
  0
LINE
  5
7AF
330
1E
100
AcDbEntity
  8
0
100
AcDbLine
 10
155.0
 20
161.702
 30
0.0
 11
153.8
 21
158.2019999999999
 31
0.0
  0
LINE
  5
7B0
330
1E
100
AcDbEntity
  8
0
100
AcDbLine
 10
156.0
 20
168.902
 30
0.0
 11
155.6999999999999
 21
172.7019999999999
 31
0.0
  0
LINE
  5
7B1
330
1E
100
AcDbEntity
  8
0
100
AcDbLine
 10
156.0
 20
168.902
 30
0.0
 11
155.6999999999999
 21
165.102
 31
0.0
  0
LINE
  5
7B2
330
1E
100
AcDbEntity
  8
0
100
AcDbLine
 10
143.346
 20
158.549
 30
0.0
 11
143.201
 21
155.578
 31
0.0
  0
LINE
  5
7B3
330
1E
100
AcDbEntity
  8
0
100
AcDbLine
 10
143.985
 20
156.712
 30
0.0
 11
143.211015731141
 21
155.7832188773689
 31
0.0
  0
LINE
  5
7B4
330
1E
100
AcDbEntity
  8
0
100
AcDbLine
 10
147.8
 20
149.1019999999999
 30
0.0
 11
145.0
 21
146.7019999999999
 31
0.0
  0
LINE
  5
7B5
330
1E
100
AcDbEntity
  8
0
100
AcDbLine
 10
152.3
 20
155.002
 30
0.0
 11
150.1999999999999
 21
151.902
 31
0.0
  0
LINE
  5
7B6
330
1E
100
AcDbEntity
  8
0
100
AcDbLine
 10
150.1999999999999
 20
151.902
 30
0.0
 11
147.8
 21
149.1019999999999
 31
0.0
  0
LINE
  5
7B7
330
1E
100
AcDbEntity
  8
0
100
AcDbLine
 10
143.0149999999999
 20
148.769
 30
0.0
 11
142.928
 21
145.1189999999999
 31
0.0
  0
LINE
  5
7B8
330
1E
100
AcDbEntity
  8
0
100
AcDbLine
 10
145.0
 20
146.7019999999999
 30
0.0
 11
142.9323459752249
 21
145.301331144507
 31
0.0
  0
LINE
  5
7B9
330
1E
100
AcDbEntity
  8
0
100
AcDbLine
 10
142.928
 20
145.1189999999999
 30
0.0
 11
142.865
 21
141.5929999999999
 31
0.0
  0
LINE
  5
7BA
330
1E
100
AcDbEntity
  8
0
100
AcDbLine
 10
143.201
 20
155.578
 30
0.0
 11
143.125
 21
152.293
 31
0.0
  0
LINE
  5
7BB
330
1E
100
AcDbEntity
  8
0
100
AcDbLine
 10
143.125
 20
152.293
 30
0.0
 11
143.0149999999999
 21
148.769
 31
0.0
  0
LINE
  5
7BC
330
1E
100
AcDbEntity
  8
0
100
AcDbLine
 10
147.8949999999999
 20
166.257
 30
0.0
 11
147.435
 21
163.727
 31
0.0
  0
LINE
  5
7BD
330
1E
100
AcDbEntity
  8
0
100
AcDbLine
 10
148.125
 20
168.902
 30
0.0
 11
147.8949999999999
 21
171.547
 31
0.0
  0
LINE
  5
7BE
330
1E
100
AcDbEntity
  8
0
100
AcDbLine
 10
148.125
 20
168.902
 30
0.0
 11
147.8949999999999
 21
166.257
 31
0.0
  0
LINE
  5
7BF
330
1E
100
AcDbEntity
  8
0
100
AcDbLine
 10
143.9459999999999
 20
165.3409999999999
 30
0.0
 11
143.7099999999999
 21
163.467
 31
0.0
  0
LINE
  5
7C0
330
1E
100
AcDbEntity
  8
0
100
AcDbLine
 10
145.48
 20
158.897
 30
0.0
 11
143.985
 21
156.712
 31
0.0
  0
LINE
  5
7C1
330
1E
100
AcDbEntity
  8
0
100
AcDbLine
 10
146.5149999999999
 20
161.197
 30
0.0
 11
145.48
 21
158.897
 31
0.0
  0
LINE
  5
7C2
330
1E
100
AcDbEntity
  8
0
100
AcDbLine
 10
147.435
 20
163.727
 30
0.0
 11
146.5149999999999
 21
161.197
 31
0.0
  0
LINE
  5
7C3
330
1E
100
AcDbEntity
  8
0
100
AcDbLine
 10
143.5279999999999
 20
161.26
 30
0.0
 11
143.346
 21
158.549
 31
0.0
  0
LINE
  5
7C4
330
1E
100
AcDbEntity
  8
0
100
AcDbLine
 10
143.7099999999999
 20
163.467
 30
0.0
 11
143.5279999999999
 21
161.26
 31
0.0
  0
LINE
  5
7C5
330
1E
100
AcDbEntity
  8
0
  6
Continuous
100
AcDbLine
 10
143.9459999999999
 20
165.3409999999999
 30
0.0
 11
143.8273731981789
 21
169.2036389007727
 31
0.0
  0
LINE
  5
7C6
330
1E
100
AcDbEntity
  8
0
  6
Continuous
100
AcDbLine
 10
143.8273731981789
 20
169.2036389007727
 30
0.0
 11
143.5282720369732
 21
172.1929057677564
 31
0.0
  0
LINE
  5
7C7
330
1E
100
AcDbEntity
  8
0
100
AcDbLine
 10
153.8
 20
179.602
 30
0.0
 11
152.3
 21
182.802
 31
0.0
  0
LINE
  5
7C8
330
1E
100
AcDbEntity
  8
0
100
AcDbLine
 10
155.0
 20
176.102
 30
0.0
 11
153.8
 21
179.602
 31
0.0
  0
LINE
  5
7CB
330
1E
100
AcDbEntity
  8
0
  6
Continuous
100
AcDbLine
 10
142.1823168115479
 20
176.4775214105358
 30
0.0
 11
140.1384578404931
 21
179.4667882775195
 31
0.0
  0
LINE
  5
7CC
330
1E
100
AcDbEntity
  8
0
100
AcDbLine
 10
141.9
 20
193.2019999999999
 30
0.0
 11
138.7
 21
194.702
 31
0.0
  0
LINE
  5
7CD
330
1E
100
AcDbEntity
  8
0
100
AcDbLine
 10
142.2599999999999
 20
183.162
 30
0.0
 11
140.1899999999999
 21
184.8869999999999
 31
0.0
  0
LINE
  5
7CE
330
1E
100
AcDbEntity
  8
0
100
AcDbLine
 10
147.8
 20
188.7019999999999
 30
0.0
 11
145.0
 21
191.102
 31
0.0
  0
LINE
  5
7CF
330
1E
100
AcDbEntity
  8
0
100
AcDbLine
 10
152.3
 20
182.802
 30
0.0
 11
150.1999999999999
 21
185.902
 31
0.0
  0
LINE
  5
7D0
330
1E
100
AcDbEntity
  8
0
100
AcDbLine
 10
150.1999999999999
 20
185.902
 30
0.0
 11
147.8
 21
188.7019999999999
 31
0.0
  0
LINE
  5
7D1
330
1E
100
AcDbEntity
  8
0
100
AcDbLine
 10
143.985
 20
181.092
 30
0.0
 11
142.2599999999999
 21
183.162
 31
0.0
  0
LINE
  5
7D2
330
1E
100
AcDbEntity
  8
0
100
AcDbLine
 10
145.48
 20
178.907
 30
0.0
 11
143.985
 21
181.092
 31
0.0
  0
LINE
  5
7D3
330
1E
100
AcDbEntity
  8
0
100
AcDbLine
 10
146.5149999999999
 20
176.607
 30
0.0
 11
145.48
 21
178.907
 31
0.0
  0
LINE
  5
7D4
330
1E
100
AcDbEntity
  8
0
100
AcDbLine
 10
147.435
 20
174.0769999999999
 30
0.0
 11
146.5149999999999
 21
176.607
 31
0.0
  0
LINE
  5
7D5
330
1E
100
AcDbEntity
  8
0
100
AcDbLine
 10
145.0
 20
191.102
 30
0.0
 11
141.9
 21
193.2019999999999
 31
0.0
  0
LINE
  5
7D8
330
1E
100
AcDbEntity
  8
0
  6
Continuous
100
AcDbLine
 10
137.2471455793559
 20
182.0076654143016
 30
0.0
 11
134.3558333182184
 21
183.6019411766417
 31
0.0
  0
LINE
  5
7D9
330
1E
100
AcDbEntity
  8
0
100
AcDbLine
 10
135.7049999999999
 20
187.417
 30
0.0
 11
133.175
 21
188.337
 31
0.0
  0
LINE
  5
7DA
330
1E
100
AcDbEntity
  8
0
  6
Continuous
100
AcDbLine
 10
140.1384578404931
 20
179.4667882775195
 30
0.0
 11
137.2471455793559
 21
182.0076654143016
 31
0.0
  0
LINE
  5
7DB
330
1E
100
AcDbEntity
  8
0
100
AcDbLine
 10
140.1899999999999
 20
184.8869999999999
 30
0.0
 11
138.0049999999999
 21
186.382
 31
0.0
  0
LINE
  5
7DC
330
1E
100
AcDbEntity
  8
0
100
AcDbLine
 10
138.0049999999999
 20
186.382
 30
0.0
 11
135.7049999999999
 21
187.417
 31
0.0
  0
LINE
  5
7DD
330
1E
100
AcDbEntity
  8
0
  6
Continuous
100
AcDbLine
 10
134.3558333182184
 20
183.6019411766417
 30
0.0
 11
131.6140716376839
 21
184.3990788079399
 31
0.0
  0
LINE
  5
7DE
330
1E
100
AcDbEntity
  8
0
100
AcDbLine
 10
133.175
 20
188.337
 30
0.0
 11
130.6449999999999
 21
188.7969999999999
 31
0.0
  0
LINE
  5
7DF
330
1E
100
AcDbEntity
  8
0
100
AcDbLine
 10
130.6449999999999
 20
188.7969999999999
 30
0.0
 11
130.0
 21
188.8530869565219
 31
0.0
  0
LINE
  5
7E0
330
1E
100
AcDbEntity
  8
0
100
AcDbLine
 10
138.7
 20
194.702
 30
0.0
 11
135.1999999999999
 21
195.902
 31
0.0
  0
LINE
  5
7E2
330
1E
100
AcDbEntity
  8
0
100
AcDbLine
 10
135.1999999999999
 20
195.902
 30
0.0
 11
131.8
 21
196.602
 31
0.0
  0
LINE
  5
7EB
330
1E
100
AcDbEntity
  8
0
100
AcDbLine
 10
131.8
 20
196.602
 30
0.0
 11
130.0
 21
196.7441052631579
 31
0.0
  0
LINE
  5
7F5
330
1E
100
AcDbEntity
  8
0
  6
Continuous
100
AcDbLine
 10
129.2212623480388
 20
184.698005294741
 30
0.0
 11
128.0
 21
184.74
 31
0.0
  0
LINE
  5
7F7
330
1E
100
AcDbEntity
  8
0
100
AcDbLine
 10
224.1999999999999
 20
196.602
 30
0.0
 11
228.0
 21
196.902
 31
0.0
  0
LINE
  5
7F8
330
1E
100
AcDbEntity
  8
0
100
AcDbLine
 10
225.4
 20
188.702
 30
0.0
 11
228.0
 21
188.902
 31
0.0
  0
LINE
  5
7F9
330
1E
100
AcDbEntity
  8
0
100
AcDbLine
 10
225.8
 20
185.702
 30
0.0
 11
228.0
 21
185.902
 31
0.0
  0
LINE
  5
7FA
330
1E
100
AcDbEntity
  8
0
100
AcDbLine
 10
225.8
 20
152.102
 30
0.0
 11
228.0
 21
151.902
 31
0.0
  0
LINE
  5
7FB
330
1E
100
AcDbEntity
  8
0
100
AcDbLine
 10
225.4
 20
149.1019999999999
 30
0.0
 11
228.0
 21
148.902
 31
0.0
  0
LINE
  5
7FC
330
1E
100
AcDbEntity
  8
0
100
AcDbLine
 10
224.1999999999999
 20
141.202
 30
0.0
 11
228.0
 21
140.902
 31
0.0
  0
LINE
  5
7FD
330
1E
100
AcDbEntity
  8
0
100
AcDbLine
 10
247.8
 20
171.502
 30
0.0
 11
247.3
 21
174.102
 31
0.0
  0
LINE
  5
7FE
330
1E
100
AcDbEntity
  8
0
100
AcDbLine
 10
244.7999999999999
 20
171.102
 30
0.0
 11
244.3999999999999
 21
173.302
 31
0.0
  0
LINE
  5
7FF
330
1E
100
AcDbEntity
  8
0
100
AcDbLine
 10
255.6999999999999
 20
172.702
 30
0.0
 11
255.0
 21
176.102
 31
0.0
  0
LINE
  5
800
330
1E
100
AcDbEntity
  8
0
100
AcDbLine
 10
252.3
 20
155.002
 30
0.0
 11
250.1999999999999
 21
151.902
 31
0.0
  0
LINE
  5
801
330
1E
100
AcDbEntity
  8
0
100
AcDbLine
 10
253.8
 20
158.2019999999999
 30
0.0
 11
252.3
 21
155.002
 31
0.0
  0
LINE
  5
802
330
1E
100
AcDbEntity
  8
0
100
AcDbLine
 10
255.6999999999999
 20
165.102
 30
0.0
 11
255.0
 21
161.702
 31
0.0
  0
LINE
  5
803
330
1E
100
AcDbEntity
  8
0
100
AcDbLine
 10
255.0
 20
161.702
 30
0.0
 11
253.8
 21
158.2019999999999
 31
0.0
  0
LINE
  5
804
330
1E
100
AcDbEntity
  8
0
100
AcDbLine
 10
255.0
 20
161.702
 30
0.0
 11
253.8
 21
158.2019999999999
 31
0.0
  0
LINE
  5
805
330
1E
100
AcDbEntity
  8
0
100
AcDbLine
 10
256.0
 20
168.902
 30
0.0
 11
255.6999999999999
 21
172.702
 31
0.0
  0
LINE
  5
806
330
1E
100
AcDbEntity
  8
0
100
AcDbLine
 10
256.0
 20
168.902
 30
0.0
 11
255.6999999999999
 21
165.102
 31
0.0
  0
LINE
  5
807
330
1E
100
AcDbEntity
  8
0
100
AcDbLine
 10
240.2
 20
153.102
 30
0.0
 11
238.0
 21
151.602
 31
0.0
  0
LINE
  5
808
330
1E
100
AcDbEntity
  8
0
100
AcDbLine
 10
241.9
 20
144.602
 30
0.0
 11
238.7
 21
143.102
 31
0.0
  0
LINE
  5
809
330
1E
100
AcDbEntity
  8
0
100
AcDbLine
 10
240.0
 20
156.902
 30
0.0
 11
238.3
 21
155.402
 31
0.0
  0
LINE
  5
80A
330
1E
100
AcDbEntity
  8
0
100
AcDbLine
 10
243.8
 20
156.702
 30
0.0
 11
242.0999999999999
 21
154.802
 31
0.0
  0
LINE
  5
80B
330
1E
100
AcDbEntity
  8
0
100
AcDbLine
 10
247.8
 20
149.1019999999999
 30
0.0
 11
245.0
 21
146.7019999999999
 31
0.0
  0
LINE
  5
80C
330
1E
100
AcDbEntity
  8
0
100
AcDbLine
 10
250.1999999999999
 20
151.902
 30
0.0
 11
247.8
 21
149.1019999999999
 31
0.0
  0
LINE
  5
80D
330
1E
100
AcDbEntity
  8
0
100
AcDbLine
 10
245.0
 20
146.7019999999999
 30
0.0
 11
241.9
 21
144.602
 31
0.0
  0
LINE
  5
80E
330
1E
100
AcDbEntity
  8
0
100
AcDbLine
 10
242.0999999999999
 20
154.802
 30
0.0
 11
240.2
 21
153.102
 31
0.0
  0
LINE
  5
80F
330
1E
100
AcDbEntity
  8
0
100
AcDbLine
 10
245.3
 20
158.902
 30
0.0
 11
243.8
 21
156.702
 31
0.0
  0
LINE
  5
810
330
1E
100
AcDbEntity
  8
0
100
AcDbLine
 10
247.8
 20
166.302
 30
0.0
 11
247.3
 21
163.7019999999999
 31
0.0
  0
LINE
  5
811
330
1E
100
AcDbEntity
  8
0
100
AcDbLine
 10
246.3999999999999
 20
161.302
 30
0.0
 11
245.3
 21
158.902
 31
0.0
  0
LINE
  5
812
330
1E
100
AcDbEntity
  8
0
100
AcDbLine
 10
247.3
 20
163.7019999999999
 30
0.0
 11
246.3999999999999
 21
161.302
 31
0.0
  0
LINE
  5
813
330
1E
100
AcDbEntity
  8
0
100
AcDbLine
 10
248.0
 20
168.902
 30
0.0
 11
247.8
 21
171.502
 31
0.0
  0
LINE
  5
814
330
1E
100
AcDbEntity
  8
0
100
AcDbLine
 10
248.0
 20
168.902
 30
0.0
 11
247.8
 21
166.302
 31
0.0
  0
LINE
  5
815
330
1E
100
AcDbEntity
  8
0
100
AcDbLine
 10
244.7999999999999
 20
166.7019999999999
 30
0.0
 11
244.3999999999999
 21
164.502
 31
0.0
  0
LINE
  5
816
330
1E
100
AcDbEntity
  8
0
100
AcDbLine
 10
242.7
 20
160.402
 30
0.0
 11
241.5
 21
158.6019999999999
 31
0.0
  0
LINE
  5
817
330
1E
100
AcDbEntity
  8
0
100
AcDbLine
 10
243.6999999999999
 20
162.402
 30
0.0
 11
242.7
 21
160.402
 31
0.0
  0
LINE
  5
818
330
1E
100
AcDbEntity
  8
0
100
AcDbLine
 10
244.3999999999999
 20
164.502
 30
0.0
 11
243.6999999999999
 21
162.402
 31
0.0
  0
LINE
  5
819
330
1E
100
AcDbEntity
  8
0
100
AcDbLine
 10
241.5
 20
158.6019999999999
 30
0.0
 11
240.0
 21
156.902
 31
0.0
  0
LINE
  5
81A
330
1E
100
AcDbEntity
  8
0
100
AcDbLine
 10
245.0
 20
168.902
 30
0.0
 11
244.7999999999999
 21
171.102
 31
0.0
  0
LINE
  5
81B
330
1E
100
AcDbEntity
  8
0
100
AcDbLine
 10
245.0
 20
168.902
 30
0.0
 11
244.7999999999999
 21
166.7019999999999
 31
0.0
  0
LINE
  5
81C
330
1E
100
AcDbEntity
  8
0
100
AcDbLine
 10
233.1999999999999
 20
149.602
 30
0.0
 11
230.6
 21
149.1019999999999
 31
0.0
  0
LINE
  5
81D
330
1E
100
AcDbEntity
  8
0
100
AcDbLine
 10
234.5
 20
153.2019999999999
 30
0.0
 11
232.4
 21
152.502
 31
0.0
  0
LINE
  5
81E
330
1E
100
AcDbEntity
  8
0
100
AcDbLine
 10
235.1999999999999
 20
141.902
 30
0.0
 11
231.8
 21
141.202
 31
0.0
  0
LINE
  5
81F
330
1E
100
AcDbEntity
  8
0
100
AcDbLine
 10
238.7
 20
143.102
 30
0.0
 11
235.1999999999999
 21
141.902
 31
0.0
  0
LINE
  5
820
330
1E
100
AcDbEntity
  8
0
100
AcDbLine
 10
236.5
 20
154.2019999999999
 30
0.0
 11
234.5
 21
153.2019999999999
 31
0.0
  0
LINE
  5
821
330
1E
100
AcDbEntity
  8
0
100
AcDbLine
 10
238.0
 20
151.602
 30
0.0
 11
235.5999999999999
 21
150.502
 31
0.0
  0
LINE
  5
822
330
1E
100
AcDbEntity
  8
0
100
AcDbLine
 10
238.3
 20
155.402
 30
0.0
 11
236.5
 21
154.2019999999999
 31
0.0
  0
LINE
  5
823
330
1E
100
AcDbEntity
  8
0
100
AcDbLine
 10
235.5999999999999
 20
150.502
 30
0.0
 11
233.1999999999999
 21
149.602
 31
0.0
  0
LINE
  5
824
330
1E
100
AcDbEntity
  8
0
100
AcDbLine
 10
231.8
 20
141.202
 30
0.0
 11
228.0
 21
140.902
 31
0.0
  0
LINE
  5
825
330
1E
100
AcDbEntity
  8
0
100
AcDbLine
 10
230.2
 20
152.102
 30
0.0
 11
228.0
 21
151.902
 31
0.0
  0
LINE
  5
826
330
1E
100
AcDbEntity
  8
0
100
AcDbLine
 10
230.6
 20
149.1019999999999
 30
0.0
 11
228.0
 21
148.902
 31
0.0
  0
LINE
  5
827
330
1E
100
AcDbEntity
  8
0
100
AcDbLine
 10
232.4
 20
152.502
 30
0.0
 11
230.2
 21
152.102
 31
0.0
  0
LINE
  5
828
330
1E
100
AcDbEntity
  8
0
100
AcDbLine
 10
252.3
 20
182.802
 30
0.0
 11
250.1999999999999
 21
185.902
 31
0.0
  0
LINE
  5
829
330
1E
100
AcDbEntity
  8
0
100
AcDbLine
 10
253.8
 20
179.602
 30
0.0
 11
252.3
 21
182.802
 31
0.0
  0
LINE
  5
82A
330
1E
100
AcDbEntity
  8
0
100
AcDbLine
 10
255.0
 20
176.102
 30
0.0
 11
253.8
 21
179.602
 31
0.0
  0
LINE
  5
82B
330
1E
100
AcDbEntity
  8
0
100
AcDbLine
 10
255.0
 20
176.102
 30
0.0
 11
253.8
 21
179.602
 31
0.0
  0
LINE
  5
82C
330
1E
100
AcDbEntity
  8
0
100
AcDbLine
 10
241.9
 20
193.202
 30
0.0
 11
238.7
 21
194.702
 31
0.0
  0
LINE
  5
82D
330
1E
100
AcDbEntity
  8
0
100
AcDbLine
 10
240.2
 20
184.702
 30
0.0
 11
238.0
 21
186.202
 31
0.0
  0
LINE
  5
82E
330
1E
100
AcDbEntity
  8
0
100
AcDbLine
 10
240.0
 20
180.902
 30
0.0
 11
238.3
 21
182.402
 31
0.0
  0
LINE
  5
82F
330
1E
100
AcDbEntity
  8
0
100
AcDbLine
 10
247.8
 20
188.702
 30
0.0
 11
245.0
 21
191.102
 31
0.0
  0
LINE
  5
830
330
1E
100
AcDbEntity
  8
0
100
AcDbLine
 10
245.3
 20
178.902
 30
0.0
 11
243.8
 21
181.102
 31
0.0
  0
LINE
  5
831
330
1E
100
AcDbEntity
  8
0
100
AcDbLine
 10
246.3999999999999
 20
176.5019999999999
 30
0.0
 11
245.3
 21
178.902
 31
0.0
  0
LINE
  5
832
330
1E
100
AcDbEntity
  8
0
100
AcDbLine
 10
247.3
 20
174.102
 30
0.0
 11
246.3999999999999
 21
176.5019999999999
 31
0.0
  0
LINE
  5
833
330
1E
100
AcDbEntity
  8
0
100
AcDbLine
 10
250.1999999999999
 20
185.902
 30
0.0
 11
247.8
 21
188.702
 31
0.0
  0
LINE
  5
834
330
1E
100
AcDbEntity
  8
0
100
AcDbLine
 10
243.8
 20
181.102
 30
0.0
 11
242.0999999999999
 21
183.002
 31
0.0
  0
LINE
  5
835
330
1E
100
AcDbEntity
  8
0
100
AcDbLine
 10
242.7
 20
177.402
 30
0.0
 11
241.5
 21
179.202
 31
0.0
  0
LINE
  5
836
330
1E
100
AcDbEntity
  8
0
100
AcDbLine
 10
243.6999999999999
 20
175.402
 30
0.0
 11
242.7
 21
177.402
 31
0.0
  0
LINE
  5
837
330
1E
100
AcDbEntity
  8
0
100
AcDbLine
 10
244.3999999999999
 20
173.302
 30
0.0
 11
243.6999999999999
 21
175.402
 31
0.0
  0
LINE
  5
838
330
1E
100
AcDbEntity
  8
0
100
AcDbLine
 10
241.5
 20
179.202
 30
0.0
 11
240.0
 21
180.902
 31
0.0
  0
LINE
  5
839
330
1E
100
AcDbEntity
  8
0
100
AcDbLine
 10
242.0999999999999
 20
183.002
 30
0.0
 11
240.2
 21
184.702
 31
0.0
  0
LINE
  5
83A
330
1E
100
AcDbEntity
  8
0
100
AcDbLine
 10
245.0
 20
191.102
 30
0.0
 11
241.9
 21
193.202
 31
0.0
  0
LINE
  5
83B
330
1E
100
AcDbEntity
  8
0
100
AcDbLine
 10
234.5
 20
184.602
 30
0.0
 11
232.4
 21
185.302
 31
0.0
  0
LINE
  5
83C
330
1E
100
AcDbEntity
  8
0
100
AcDbLine
 10
233.1999999999999
 20
188.202
 30
0.0
 11
230.6
 21
188.702
 31
0.0
  0
LINE
  5
83D
330
1E
100
AcDbEntity
  8
0
100
AcDbLine
 10
236.5
 20
183.602
 30
0.0
 11
234.5
 21
184.602
 31
0.0
  0
LINE
  5
83E
330
1E
100
AcDbEntity
  8
0
100
AcDbLine
 10
238.0
 20
186.202
 30
0.0
 11
235.5999999999999
 21
187.302
 31
0.0
  0
LINE
  5
83F
330
1E
100
AcDbEntity
  8
0
100
AcDbLine
 10
238.3
 20
182.402
 30
0.0
 11
236.5
 21
183.602
 31
0.0
  0
LINE
  5
840
330
1E
100
AcDbEntity
  8
0
100
AcDbLine
 10
235.5999999999999
 20
187.302
 30
0.0
 11
233.1999999999999
 21
188.202
 31
0.0
  0
LINE
  5
841
330
1E
100
AcDbEntity
  8
0
100
AcDbLine
 10
230.2
 20
185.702
 30
0.0
 11
228.0
 21
185.902
 31
0.0
  0
LINE
  5
842
330
1E
100
AcDbEntity
  8
0
100
AcDbLine
 10
230.6
 20
188.702
 30
0.0
 11
228.0
 21
188.902
 31
0.0
  0
LINE
  5
843
330
1E
100
AcDbEntity
  8
0
100
AcDbLine
 10
232.4
 20
185.302
 30
0.0
 11
230.2
 21
185.702
 31
0.0
  0
LINE
  5
844
330
1E
100
AcDbEntity
  8
0
100
AcDbLine
 10
235.1999999999999
 20
195.902
 30
0.0
 11
231.8
 21
196.602
 31
0.0
  0
LINE
  5
845
330
1E
100
AcDbEntity
  8
0
100
AcDbLine
 10
238.7
 20
194.702
 30
0.0
 11
235.1999999999999
 21
195.902
 31
0.0
  0
LINE
  5
846
330
1E
100
AcDbEntity
  8
0
100
AcDbLine
 10
231.8
 20
196.602
 30
0.0
 11
228.0
 21
196.902
 31
0.0
  0
LINE
  5
847
330
1E
100
AcDbEntity
  8
0
100
AcDbLine
 10
200.3
 20
172.702
 30
0.0
 11
201.0
 21
176.102
 31
0.0
  0
LINE
  5
848
330
1E
100
AcDbEntity
  8
0
100
AcDbLine
 10
211.2
 20
171.102
 30
0.0
 11
211.6
 21
173.302
 31
0.0
  0
LINE
  5
849
330
1E
100
AcDbEntity
  8
0
100
AcDbLine
 10
208.1999999999999
 20
171.502
 30
0.0
 11
208.6999999999999
 21
174.102
 31
0.0
  0
LINE
  5
84A
330
1E
100
AcDbEntity
  8
0
100
AcDbLine
 10
202.1999999999999
 20
158.2019999999999
 30
0.0
 11
203.6999999999999
 21
155.002
 31
0.0
  0
LINE
  5
84B
330
1E
100
AcDbEntity
  8
0
100
AcDbLine
 10
214.5
 20
158.6019999999999
 30
0.0
 11
216.0
 21
156.902
 31
0.0
  0
LINE
  5
84C
330
1E
100
AcDbEntity
  8
0
100
AcDbLine
 10
213.9
 20
154.802
 30
0.0
 11
215.8
 21
153.102
 31
0.0
  0
LINE
  5
84D
330
1E
100
AcDbEntity
  8
0
100
AcDbLine
 10
214.1
 20
144.602
 30
0.0
 11
217.3
 21
143.102
 31
0.0
  0
LINE
  5
84E
330
1E
100
AcDbEntity
  8
0
100
AcDbLine
 10
216.0
 20
156.902
 30
0.0
 11
217.7
 21
155.402
 31
0.0
  0
LINE
  5
84F
330
1E
100
AcDbEntity
  8
0
100
AcDbLine
 10
219.4999999999999
 20
154.2019999999999
 30
0.0
 11
221.4999999999999
 21
153.2019999999999
 31
0.0
  0
LINE
  5
850
330
1E
100
AcDbEntity
  8
0
100
AcDbLine
 10
220.4
 20
150.502
 30
0.0
 11
222.8
 21
149.602
 31
0.0
  0
LINE
  5
851
330
1E
100
AcDbEntity
  8
0
100
AcDbLine
 10
217.3
 20
143.102
 30
0.0
 11
220.8
 21
141.902
 31
0.0
  0
LINE
  5
852
330
1E
100
AcDbEntity
  8
0
100
AcDbLine
 10
220.8
 20
141.902
 30
0.0
 11
224.1999999999999
 21
141.202
 31
0.0
  0
LINE
  5
853
330
1E
100
AcDbEntity
  8
0
100
AcDbLine
 10
223.6
 20
152.502
 30
0.0
 11
225.8
 21
152.102
 31
0.0
  0
LINE
  5
854
330
1E
100
AcDbEntity
  8
0
100
AcDbLine
 10
222.8
 20
149.602
 30
0.0
 11
225.4
 21
149.1019999999999
 31
0.0
  0
LINE
  5
855
330
1E
100
AcDbEntity
  8
0
100
AcDbLine
 10
221.4999999999999
 20
153.2019999999999
 30
0.0
 11
223.6
 21
152.502
 31
0.0
  0
LINE
  5
856
330
1E
100
AcDbEntity
  8
0
100
AcDbLine
 10
215.8
 20
153.102
 30
0.0
 11
218.0
 21
151.602
 31
0.0
  0
LINE
  5
857
330
1E
100
AcDbEntity
  8
0
100
AcDbLine
 10
218.0
 20
151.602
 30
0.0
 11
220.4
 21
150.502
 31
0.0
  0
LINE
  5
858
330
1E
100
AcDbEntity
  8
0
100
AcDbLine
 10
217.7
 20
155.402
 30
0.0
 11
219.4999999999999
 21
154.2019999999999
 31
0.0
  0
LINE
  5
859
330
1E
100
AcDbEntity
  8
0
100
AcDbLine
 10
212.1999999999999
 20
156.702
 30
0.0
 11
213.9
 21
154.802
 31
0.0
  0
LINE
  5
85A
330
1E
100
AcDbEntity
  8
0
100
AcDbLine
 10
208.1999999999999
 20
149.1019999999999
 30
0.0
 11
211.0
 21
146.7019999999999
 31
0.0
  0
LINE
  5
85B
330
1E
100
AcDbEntity
  8
0
100
AcDbLine
 10
211.0
 20
146.7019999999999
 30
0.0
 11
214.1
 21
144.602
 31
0.0
  0
LINE
  5
85C
330
1E
100
AcDbEntity
  8
0
100
AcDbLine
 10
203.6999999999999
 20
155.002
 30
0.0
 11
205.8
 21
151.902
 31
0.0
  0
LINE
  5
85D
330
1E
100
AcDbEntity
  8
0
100
AcDbLine
 10
205.8
 20
151.902
 30
0.0
 11
208.1999999999999
 21
149.1019999999999
 31
0.0
  0
LINE
  5
85E
330
1E
100
AcDbEntity
  8
0
100
AcDbLine
 10
208.1999999999999
 20
166.302
 30
0.0
 11
208.6999999999999
 21
163.7019999999999
 31
0.0
  0
LINE
  5
85F
330
1E
100
AcDbEntity
  8
0
100
AcDbLine
 10
211.2
 20
166.7019999999999
 30
0.0
 11
211.6
 21
164.502
 31
0.0
  0
LINE
  5
860
330
1E
100
AcDbEntity
  8
0
100
AcDbLine
 10
210.6999999999999
 20
158.902
 30
0.0
 11
212.1999999999999
 21
156.702
 31
0.0
  0
LINE
  5
861
330
1E
100
AcDbEntity
  8
0
100
AcDbLine
 10
212.3
 20
162.402
 30
0.0
 11
213.3
 21
160.402
 31
0.0
  0
LINE
  5
862
330
1E
100
AcDbEntity
  8
0
100
AcDbLine
 10
213.3
 20
160.402
 30
0.0
 11
214.5
 21
158.6019999999999
 31
0.0
  0
LINE
  5
863
330
1E
100
AcDbEntity
  8
0
100
AcDbLine
 10
211.6
 20
164.502
 30
0.0
 11
212.3
 21
162.402
 31
0.0
  0
LINE
  5
864
330
1E
100
AcDbEntity
  8
0
100
AcDbLine
 10
209.6
 20
161.302
 30
0.0
 11
210.6999999999999
 21
158.902
 31
0.0
  0
LINE
  5
865
330
1E
100
AcDbEntity
  8
0
100
AcDbLine
 10
208.6999999999999
 20
163.7019999999999
 30
0.0
 11
209.6
 21
161.302
 31
0.0
  0
LINE
  5
866
330
1E
100
AcDbEntity
  8
0
100
AcDbLine
 10
211.0
 20
168.902
 30
0.0
 11
211.2
 21
171.102
 31
0.0
  0
LINE
  5
867
330
1E
100
AcDbEntity
  8
0
100
AcDbLine
 10
211.0
 20
168.902
 30
0.0
 11
211.2
 21
166.7019999999999
 31
0.0
  0
LINE
  5
868
330
1E
100
AcDbEntity
  8
0
100
AcDbLine
 10
208.0
 20
168.902
 30
0.0
 11
208.1999999999999
 21
171.502
 31
0.0
  0
LINE
  5
869
330
1E
100
AcDbEntity
  8
0
100
AcDbLine
 10
208.0
 20
168.902
 30
0.0
 11
208.1999999999999
 21
166.302
 31
0.0
  0
LINE
  5
86A
330
1E
100
AcDbEntity
  8
0
100
AcDbLine
 10
200.3
 20
165.102
 30
0.0
 11
201.0
 21
161.702
 31
0.0
  0
LINE
  5
86B
330
1E
100
AcDbEntity
  8
0
100
AcDbLine
 10
201.0
 20
161.702
 30
0.0
 11
202.1999999999999
 21
158.2019999999999
 31
0.0
  0
LINE
  5
86C
330
1E
100
AcDbEntity
  8
0
100
AcDbLine
 10
201.0
 20
161.702
 30
0.0
 11
202.1999999999999
 21
158.2019999999999
 31
0.0
  0
LINE
  5
86D
330
1E
100
AcDbEntity
  8
0
100
AcDbLine
 10
200.0
 20
168.902
 30
0.0
 11
200.3
 21
172.702
 31
0.0
  0
LINE
  5
86E
330
1E
100
AcDbEntity
  8
0
100
AcDbLine
 10
200.0
 20
168.902
 30
0.0
 11
200.3
 21
165.102
 31
0.0
  0
LINE
  5
86F
330
1E
100
AcDbEntity
  8
0
100
AcDbLine
 10
202.1999999999999
 20
179.602
 30
0.0
 11
203.6999999999999
 21
182.802
 31
0.0
  0
LINE
  5
870
330
1E
100
AcDbEntity
  8
0
100
AcDbLine
 10
214.1
 20
193.202
 30
0.0
 11
217.3
 21
194.702
 31
0.0
  0
LINE
  5
871
330
1E
100
AcDbEntity
  8
0
100
AcDbLine
 10
213.9
 20
183.002
 30
0.0
 11
215.8
 21
184.702
 31
0.0
  0
LINE
  5
872
330
1E
100
AcDbEntity
  8
0
100
AcDbLine
 10
214.5
 20
179.202
 30
0.0
 11
216.0
 21
180.902
 31
0.0
  0
LINE
  5
873
330
1E
100
AcDbEntity
  8
0
100
AcDbLine
 10
220.4
 20
187.302
 30
0.0
 11
222.8
 21
188.202
 31
0.0
  0
LINE
  5
874
330
1E
100
AcDbEntity
  8
0
100
AcDbLine
 10
219.4999999999999
 20
183.602
 30
0.0
 11
221.4999999999999
 21
184.602
 31
0.0
  0
LINE
  5
875
330
1E
100
AcDbEntity
  8
0
100
AcDbLine
 10
223.6
 20
185.302
 30
0.0
 11
225.8
 21
185.702
 31
0.0
  0
LINE
  5
876
330
1E
100
AcDbEntity
  8
0
100
AcDbLine
 10
222.8
 20
188.202
 30
0.0
 11
225.4
 21
188.702
 31
0.0
  0
LINE
  5
877
330
1E
100
AcDbEntity
  8
0
100
AcDbLine
 10
221.4999999999999
 20
184.602
 30
0.0
 11
223.6
 21
185.302
 31
0.0
  0
LINE
  5
878
330
1E
100
AcDbEntity
  8
0
100
AcDbLine
 10
216.0
 20
180.902
 30
0.0
 11
217.7
 21
182.402
 31
0.0
  0
LINE
  5
879
330
1E
100
AcDbEntity
  8
0
100
AcDbLine
 10
215.8
 20
184.702
 30
0.0
 11
218.0
 21
186.202
 31
0.0
  0
LINE
  5
87A
330
1E
100
AcDbEntity
  8
0
100
AcDbLine
 10
217.7
 20
182.402
 30
0.0
 11
219.4999999999999
 21
183.602
 31
0.0
  0
LINE
  5
87B
330
1E
100
AcDbEntity
  8
0
100
AcDbLine
 10
218.0
 20
186.202
 30
0.0
 11
220.4
 21
187.302
 31
0.0
  0
LINE
  5
87C
330
1E
100
AcDbEntity
  8
0
100
AcDbLine
 10
217.3
 20
194.702
 30
0.0
 11
220.8
 21
195.902
 31
0.0
  0
LINE
  5
87D
330
1E
100
AcDbEntity
  8
0
100
AcDbLine
 10
220.8
 20
195.902
 30
0.0
 11
224.1999999999999
 21
196.602
 31
0.0
  0
LINE
  5
87E
330
1E
100
AcDbEntity
  8
0
100
AcDbLine
 10
208.1999999999999
 20
188.702
 30
0.0
 11
211.0
 21
191.102
 31
0.0
  0
LINE
  5
87F
330
1E
100
AcDbEntity
  8
0
100
AcDbLine
 10
212.1999999999999
 20
181.102
 30
0.0
 11
213.9
 21
183.002
 31
0.0
  0
LINE
  5
880
330
1E
100
AcDbEntity
  8
0
100
AcDbLine
 10
210.6999999999999
 20
178.902
 30
0.0
 11
212.1999999999999
 21
181.102
 31
0.0
  0
LINE
  5
881
330
1E
100
AcDbEntity
  8
0
100
AcDbLine
 10
212.3
 20
175.402
 30
0.0
 11
213.3
 21
177.402
 31
0.0
  0
LINE
  5
882
330
1E
100
AcDbEntity
  8
0
100
AcDbLine
 10
211.6
 20
173.302
 30
0.0
 11
212.3
 21
175.402
 31
0.0
  0
LINE
  5
883
330
1E
100
AcDbEntity
  8
0
100
AcDbLine
 10
213.3
 20
177.402
 30
0.0
 11
214.5
 21
179.202
 31
0.0
  0
LINE
  5
884
330
1E
100
AcDbEntity
  8
0
100
AcDbLine
 10
209.6
 20
176.5019999999999
 30
0.0
 11
210.6999999999999
 21
178.902
 31
0.0
  0
LINE
  5
885
330
1E
100
AcDbEntity
  8
0
100
AcDbLine
 10
208.6999999999999
 20
174.102
 30
0.0
 11
209.6
 21
176.5019999999999
 31
0.0
  0
LINE
  5
886
330
1E
100
AcDbEntity
  8
0
100
AcDbLine
 10
203.6999999999999
 20
182.802
 30
0.0
 11
205.8
 21
185.902
 31
0.0
  0
LINE
  5
887
330
1E
100
AcDbEntity
  8
0
100
AcDbLine
 10
205.8
 20
185.902
 30
0.0
 11
208.1999999999999
 21
188.702
 31
0.0
  0
LINE
  5
888
330
1E
100
AcDbEntity
  8
0
100
AcDbLine
 10
211.0
 20
191.102
 30
0.0
 11
214.1
 21
193.202
 31
0.0
  0
LINE
  5
889
330
1E
100
AcDbEntity
  8
0
100
AcDbLine
 10
201.0
 20
176.102
 30
0.0
 11
202.1999999999999
 21
179.602
 31
0.0
  0
LINE
  5
88A
330
1E
100
AcDbEntity
  8
0
100
AcDbLine
 10
201.0
 20
176.102
 30
0.0
 11
202.1999999999999
 21
179.602
 31
0.0
  0
LINE
  5
891
330
1E
100
AcDbEntity
  8
0
  6
Continuous
100
AcDbLine
 10
126.0
 20
196.7441052631579
 30
0.0
 11
130.0
 21
196.7441052631579
 31
0.0
  0
LINE
  5
892
330
1E
100
AcDbEntity
  8
0
  6
Continuous
100
AcDbLine
 10
126.0
 20
188.8530869565219
 30
0.0
 11
130.0
 21
188.8530869565219
 31
0.0
  0
ENDSEC
  0
SECTION
  2
OBJECTS
  0
DICTIONARY
  5
C
330
0
100
AcDbDictionary
281
     1
  3
ACAD_GROUP
350
D
  3
ACAD_LAYOUT
350
19
  3
ACAD_MLINESTYLE
350
16
  3
ACAD_PLOTSETTINGS
350
18
  3
ACAD_PLOTSTYLENAME
350
E
  3
AcDbVariableDictionary
350
88C
  0
DICTIONARY
  5
D
102
{ACAD_REACTORS
330
C
102
}
330
C
100
AcDbDictionary
281
     1
  0
DICTIONARY
  5
19
102
{ACAD_REACTORS
330
C
102
}
330
C
100
AcDbDictionary
281
     1
  3
Layout1
350
1D
  3
Model
350
21
  0
DICTIONARY
  5
16
102
{ACAD_REACTORS
330
C
102
}
330
C
100
AcDbDictionary
281
     1
  3
Standard
350
17
  0
DICTIONARY
  5
18
102
{ACAD_REACTORS
330
C
102
}
330
C
100
AcDbDictionary
281
     1
  0
ACDBDICTIONARYWDFLT
  5
E
102
{ACAD_REACTORS
330
C
102
}
330
C
100
AcDbDictionary
281
     1
  3
Normal
350
F
100
AcDbDictionaryWithDefault
340
F
  0
DICTIONARY
  5
88C
102
{ACAD_REACTORS
330
C
102
}
330
C
100
AcDbDictionary
281
     1
  3
DIMASSOC
350
88D
  0
LAYOUT
  5
1D
102
{ACAD_REACTORS
330
19
102
}
330
19
100
AcDbPlotSettings
  1

  2
C:\Programme\AutoCAD LT 2002 Deu\plotters\DWF ePlot (optimized for plotting).pc3
  4

  6

 40
0.0
 41
0.0
 42
0.0
 43
0.0
 44
0.0
 45
0.0
 46
0.0
 47
0.0
 48
0.0
 49
0.0
140
0.0
141
0.0
142
1.0
143
1.0
 70
   688
 72
     0
 73
     0
 74
     5
  7

 75
    16
147
1.0
148
0.0
149
0.0
100
AcDbLayout
  1
Layout1
 70
     1
 71
     1
 10
0.0
 20
0.0
 11
12.0
 21
9.0
 12
0.0
 22
0.0
 32
0.0
 14
1.000000000000000E+20
 24
1.000000000000000E+20
 34
1.000000000000000E+20
 15
-1.000000000000000E+20
 25
-1.000000000000000E+20
 35
-1.000000000000000E+20
146
0.0
 13
0.0
 23
0.0
 33
0.0
 16
1.0
 26
0.0
 36
0.0
 17
0.0
 27
1.0
 37
0.0
 76
     0
330
1A
  0
LAYOUT
  5
21
102
{ACAD_REACTORS
330
19
102
}
330
19
100
AcDbPlotSettings
  1

  2
C:\Programme\AutoCAD LT 2002 Deu\plotters\DWF ePlot (optimized for plotting).pc3
  4

  6

 40
0.0
 41
0.0
 42
0.0
 43
0.0
 44
0.0
 45
0.0
 46
0.0
 47
0.0
 48
0.0
 49
0.0
140
0.0
141
0.0
142
1.0
143
1.0
 70
  1712
 72
     0
 73
     0
 74
     0
  7

 75
     0
147
1.0
148
0.0
149
0.0
100
AcDbLayout
  1
Model
 70
     1
 71
     0
 10
0.0
 20
0.0
 11
12.0
 21
9.0
 12
0.0
 22
0.0
 32
0.0
 14
0.0
 24
0.0
 34
0.0
 15
0.0
 25
0.0
 35
0.0
146
0.0
 13
0.0
 23
0.0
 33
0.0
 16
1.0
 26
0.0
 36
0.0
 17
0.0
 27
1.0
 37
0.0
 76
     0
330
1E
  0
MLINESTYLE
  5
17
102
{ACAD_REACTORS
330
16
102
}
330
16
100
AcDbMlineStyle
  2
STANDARD
 70
     0
  3

 62
   256
 51
90.0
 52
90.0
 71
     2
 49
0.5
 62
   256
  6
BYLAYER
 49
-0.5
 62
   256
  6
BYLAYER
  0
ACDBPLACEHOLDER
  5
F
102
{ACAD_REACTORS
330
E
102
}
330
E
  0
DICTIONARYVAR
  5
88D
102
{ACAD_REACTORS
330
88C
102
}
330
88C
100
DictionaryVariables
280
     0
  1
1
  0
ENDSEC
  0
EOF
