  0
SECTION
  2
HEADER
  9
$ACADVER
  1
AC1015
  9
$ACADMAINTVER
 70
    13
  9
$DWGCODEPAGE
  3
ANSI_1252
  9
$INSBASE
 10
0.0
 20
0.0
 30
0.0
  9
$EXTMIN
 10
0.0
 20
-0.000000000000006
 30
0.0
  9
$EXTMAX
 10
256.0
 20
154.0
 30
0.0
  9
$LIMMIN
 10
0.0
 20
0.0
  9
$LIMMAX
 10
12.0
 20
9.0
  9
$ORTHOMODE
 70
     0
  9
$REGENMODE
 70
     1
  9
$FILLMODE
 70
     1
  9
$QTEXTMODE
 70
     0
  9
$MIRRTEXT
 70
     1
  9
$LTSCALE
 40
1.0
  9
$ATTMODE
 70
     1
  9
$TEXTSIZE
 40
0.2
  9
$TRACEWID
 40
0.05
  9
$TEXTSTYLE
  7
Standard
  9
$CLAYER
  8
0
  9
$CELTYPE
  6
Continuous
  9
$CECOLOR
 62
   256
  9
$CELTSCALE
 40
1.0
  9
$DISPSILH
 70
     0
  9
$DIMSCALE
 40
1.0
  9
$DIMASZ
 40
0.18
  9
$DIMEXO
 40
0.0625
  9
$DIMDLI
 40
0.38
  9
$DIMRND
 40
0.0
  9
$DIMDLE
 40
0.0
  9
$DIMEXE
 40
0.18
  9
$DIMTP
 40
0.0
  9
$DIMTM
 40
0.0
  9
$DIMTXT
 40
0.18
  9
$DIMCEN
 40
0.09
  9
$DIMTSZ
 40
0.0
  9
$DIMTOL
 70
     0
  9
$DIMLIM
 70
     0
  9
$DIMTIH
 70
     1
  9
$DIMTOH
 70
     1
  9
$DIMSE1
 70
     0
  9
$DIMSE2
 70
     0
  9
$DIMTAD
 70
     0
  9
$DIMZIN
 70
     0
  9
$DIMBLK
  1

  9
$DIMASO
 70
     1
  9
$DIMSHO
 70
     1
  9
$DIMPOST
  1

  9
$DIMAPOST
  1

  9
$DIMALT
 70
     0
  9
$DIMALTD
 70
     2
  9
$DIMALTF
 40
25.4
  9
$DIMLFAC
 40
1.0
  9
$DIMTOFL
 70
     0
  9
$DIMTVP
 40
0.0
  9
$DIMTIX
 70
     0
  9
$DIMSOXD
 70
     0
  9
$DIMSAH
 70
     0
  9
$DIMBLK1
  1

  9
$DIMBLK2
  1

  9
$DIMSTYLE
  2
Standard
  9
$DIMCLRD
 70
     0
  9
$DIMCLRE
 70
     0
  9
$DIMCLRT
 70
     0
  9
$DIMTFAC
 40
1.0
  9
$DIMGAP
 40
0.09
  9
$DIMJUST
 70
     0
  9
$DIMSD1
 70
     0
  9
$DIMSD2
 70
     0
  9
$DIMTOLJ
 70
     1
  9
$DIMTZIN
 70
     0
  9
$DIMALTZ
 70
     0
  9
$DIMALTTZ
 70
     0
  9
$DIMUPT
 70
     0
  9
$DIMDEC
 70
     4
  9
$DIMTDEC
 70
     4
  9
$DIMALTU
 70
     2
  9
$DIMALTTD
 70
     2
  9
$DIMTXSTY
  7
Standard
  9
$DIMAUNIT
 70
     0
  9
$DIMADEC
 70
     0
  9
$DIMALTRND
 40
0.0
  9
$DIMAZIN
 70
     0
  9
$DIMDSEP
 70
    46
  9
$DIMATFIT
 70
     3
  9
$DIMFRAC
 70
     0
  9
$DIMLDRBLK
  1

  9
$DIMLUNIT
 70
     2
  9
$DIMLWD
 70
    -2
  9
$DIMLWE
 70
    -2
  9
$DIMTMOVE
 70
     0
  9
$LUNITS
 70
     2
  9
$LUPREC
 70
     4
  9
$SKETCHINC
 40
0.1
  9
$FILLETRAD
 40
0.0
  9
$AUNITS
 70
     0
  9
$AUPREC
 70
     0
  9
$MENU
  1
.
  9
$ELEVATION
 40
0.0
  9
$PELEVATION
 40
0.0
  9
$THICKNESS
 40
0.0
  9
$LIMCHECK
 70
     0
  9
$CHAMFERA
 40
0.0
  9
$CHAMFERB
 40
0.0
  9
$CHAMFERC
 40
0.0
  9
$CHAMFERD
 40
0.0
  9
$SKPOLY
 70
     0
  9
$TDCREATE
 40
2455508.507569074
  9
$TDUCREATE
 40
2455508.465902407
  9
$TDUPDATE
 40
2455508.521576967
  9
$TDUUPDATE
 40
2455508.479910301
  9
$TDINDWG
 40
0.0053398264
  9
$TDUSRTIMER
 40
0.0053398264
  9
$USRTIMER
 70
     1
  9
$ANGBASE
 50
0.0
  9
$ANGDIR
 70
     0
  9
$PDMODE
 70
     0
  9
$PDSIZE
 40
0.0
  9
$PLINEWID
 40
0.0
  9
$SPLFRAME
 70
     0
  9
$SPLINETYPE
 70
     6
  9
$SPLINESEGS
 70
     8
  9
$HANDSEED
  5
876
  9
$SURFTAB1
 70
     6
  9
$SURFTAB2
 70
     6
  9
$SURFTYPE
 70
     6
  9
$SURFU
 70
     6
  9
$SURFV
 70
     6
  9
$UCSBASE
  2

  9
$UCSNAME
  2

  9
$UCSORG
 10
0.0
 20
0.0
 30
0.0
  9
$UCSXDIR
 10
1.0
 20
0.0
 30
0.0
  9
$UCSYDIR
 10
0.0
 20
1.0
 30
0.0
  9
$UCSORTHOREF
  2

  9
$UCSORTHOVIEW
 70
     1
  9
$UCSORGTOP
 10
0.0
 20
0.0
 30
0.0
  9
$UCSORGBOTTOM
 10
0.0
 20
0.0
 30
0.0
  9
$UCSORGLEFT
 10
0.0
 20
0.0
 30
0.0
  9
$UCSORGRIGHT
 10
0.0
 20
0.0
 30
0.0
  9
$UCSORGFRONT
 10
0.0
 20
0.0
 30
0.0
  9
$UCSORGBACK
 10
0.0
 20
0.0
 30
0.0
  9
$PUCSBASE
  2

  9
$PUCSNAME
  2

  9
$PUCSORG
 10
0.0
 20
0.0
 30
0.0
  9
$PUCSXDIR
 10
1.0
 20
0.0
 30
0.0
  9
$PUCSYDIR
 10
0.0
 20
1.0
 30
0.0
  9
$PUCSORTHOREF
  2

  9
$PUCSORTHOVIEW
 70
     0
  9
$PUCSORGTOP
 10
0.0
 20
0.0
 30
0.0
  9
$PUCSORGBOTTOM
 10
0.0
 20
0.0
 30
0.0
  9
$PUCSORGLEFT
 10
0.0
 20
0.0
 30
0.0
  9
$PUCSORGRIGHT
 10
0.0
 20
0.0
 30
0.0
  9
$PUCSORGFRONT
 10
0.0
 20
0.0
 30
0.0
  9
$PUCSORGBACK
 10
0.0
 20
0.0
 30
0.0
  9
$USERI1
 70
     0
  9
$USERI2
 70
     0
  9
$USERI3
 70
     0
  9
$USERI4
 70
     0
  9
$USERI5
 70
     0
  9
$USERR1
 40
0.0
  9
$USERR2
 40
0.0
  9
$USERR3
 40
0.0
  9
$USERR4
 40
0.0
  9
$USERR5
 40
0.0
  9
$WORLDVIEW
 70
     1
  9
$SHADEDGE
 70
     3
  9
$SHADEDIF
 70
    70
  9
$TILEMODE
 70
     1
  9
$MAXACTVP
 70
    64
  9
$PINSBASE
 10
0.0
 20
0.0
 30
0.0
  9
$PLIMCHECK
 70
     0
  9
$PEXTMIN
 10
1.000000000000000E+20
 20
1.000000000000000E+20
 30
1.000000000000000E+20
  9
$PEXTMAX
 10
-1.000000000000000E+20
 20
-1.000000000000000E+20
 30
-1.000000000000000E+20
  9
$PLIMMIN
 10
0.0
 20
0.0
  9
$PLIMMAX
 10
12.0
 20
9.0
  9
$UNITMODE
 70
     0
  9
$VISRETAIN
 70
     1
  9
$PLINEGEN
 70
     0
  9
$PSLTSCALE
 70
     1
  9
$TREEDEPTH
 70
  3020
  9
$CMLSTYLE
  2
Standard
  9
$CMLJUST
 70
     0
  9
$CMLSCALE
 40
1.0
  9
$PROXYGRAPHICS
 70
     1
  9
$MEASUREMENT
 70
     0
  9
$CELWEIGHT
370
    -1
  9
$ENDCAPS
280
     0
  9
$JOINSTYLE
280
     0
  9
$LWDISPLAY
290
     0
  9
$INSUNITS
 70
     0
  9
$HYPERLINKBASE
  1

  9
$STYLESHEET
  1

  9
$XEDIT
290
     1
  9
$CEPSNTYPE
380
     0
  9
$PSTYLEMODE
290
     1
  9
$FINGERPRINTGUID
  2
{451EA64D-06F0-4847-8F86-4E640FE28766}
  9
$VERSIONGUID
  2
{24C7F0A4-E939-49FA-9D19-55BE006B1C1B}
  9
$EXTNAMES
290
     1
  9
$PSVPSCALE
 40
0.0
  9
$OLESTARTUP
290
     0
  0
ENDSEC
  0
SECTION
  2
CLASSES
  0
CLASS
  1
ACDBDICTIONARYWDFLT
  2
AcDbDictionaryWithDefault
  3
AutoCAD 2000
 90
        0
280
     0
281
     0
  0
CLASS
  1
ACDBPLACEHOLDER
  2
AcDbPlaceHolder
  3
AutoCAD 2000
 90
        0
280
     0
281
     0
  0
CLASS
  1
LAYOUT
  2
AcDbLayout
  3
AutoCAD 2000
 90
        0
280
     0
281
     0
  0
CLASS
  1
DICTIONARYVAR
  2
AcDbDictionaryVar
  3
AutoCAD 2000
 90
        0
280
     0
281
     0
  0
ENDSEC
  0
SECTION
  2
TABLES
  0
TABLE
  2
VPORT
  5
8
330
0
100
AcDbSymbolTable
 70
     3
  0
VPORT
  5
875
330
8
100
AcDbSymbolTableRecord
100
AcDbViewportTableRecord
  2
*Active
 70
     0
 10
0.0
 20
0.0
 11
1.0
 21
1.0
 12
128.0
 22
77.0
 13
0.0
 23
0.0
 14
1.0
 24
1.0
 15
0.0
 25
0.0
 16
0.0
 26
0.0
 36
1.0
 17
0.0
 27
0.0
 37
0.0
 40
155.1297263267335
 41
2.073363431151241
 42
50.0
 43
0.0
 44
0.0
 50
0.0
 51
0.0
 71
     0
 72
   100
 73
     1
 74
     3
 75
     0
 76
     0
 77
     0
 78
     0
281
     0
 65
     1
110
0.0
120
0.0
130
0.0
111
1.0
121
0.0
131
0.0
112
0.0
122
1.0
132
0.0
 79
     1
146
0.0
  0
ENDTAB
  0
TABLE
  2
LTYPE
  5
5
330
0
100
AcDbSymbolTable
 70
     1
  0
LTYPE
  5
13
330
5
100
AcDbSymbolTableRecord
100
AcDbLinetypeTableRecord
  2
ByBlock
 70
     0
  3

 72
    65
 73
     0
 40
0.0
  0
LTYPE
  5
14
330
5
100
AcDbSymbolTableRecord
100
AcDbLinetypeTableRecord
  2
ByLayer
 70
     0
  3

 72
    65
 73
     0
 40
0.0
  0
LTYPE
  5
15
330
5
100
AcDbSymbolTableRecord
100
AcDbLinetypeTableRecord
  2
Continuous
 70
     0
  3
Solid line
 72
    65
 73
     0
 40
0.0
  0
ENDTAB
  0
TABLE
  2
LAYER
  5
2
330
0
100
AcDbSymbolTable
 70
     1
  0
LAYER
  5
10
330
2
100
AcDbSymbolTableRecord
100
AcDbLayerTableRecord
  2
0
 70
     0
 62
     7
  6
Continuous
370
    -3
390
F
  0
ENDTAB
  0
TABLE
  2
STYLE
  5
3
330
0
100
AcDbSymbolTable
 70
     1
  0
STYLE
  5
11
330
3
100
AcDbSymbolTableRecord
100
AcDbTextStyleTableRecord
  2
Standard
 70
     0
 40
0.0
 41
1.0
 50
0.0
 71
     0
 42
0.2
  3
txt
  4

  0
ENDTAB
  0
TABLE
  2
VIEW
  5
6
330
0
100
AcDbSymbolTable
 70
     0
  0
ENDTAB
  0
TABLE
  2
UCS
  5
7
330
0
100
AcDbSymbolTable
 70
     0
  0
ENDTAB
  0
TABLE
  2
APPID
  5
9
330
0
100
AcDbSymbolTable
 70
     1
  0
APPID
  5
12
330
9
100
AcDbSymbolTableRecord
100
AcDbRegAppTableRecord
  2
ACAD
 70
     0
  0
ENDTAB
  0
TABLE
  2
DIMSTYLE
  5
A
330
0
100
AcDbSymbolTable
 70
     1
100
AcDbDimStyleTable
 71
     0
  0
DIMSTYLE
105
759
330
A
100
AcDbSymbolTableRecord
100
AcDbDimStyleTableRecord
  2
Standard
 70
     0
340
11
  0
ENDTAB
  0
TABLE
  2
BLOCK_RECORD
  5
1
330
0
100
AcDbSymbolTable
 70
     0
  0
BLOCK_RECORD
  5
1E
330
1
100
AcDbSymbolTableRecord
100
AcDbBlockTableRecord
  2
*Model_Space
340
21
  0
BLOCK_RECORD
  5
1A
330
1
100
AcDbSymbolTableRecord
100
AcDbBlockTableRecord
  2
*Paper_Space
340
1D
  0
ENDTAB
  0
ENDSEC
  0
SECTION
  2
BLOCKS
  0
BLOCK
  5
1F
330
1E
100
AcDbEntity
  8
0
100
AcDbBlockBegin
  2
*Model_Space
 70
     0
 10
0.0
 20
0.0
 30
0.0
  3
*Model_Space
  1

  0
ENDBLK
  5
20
330
1E
100
AcDbEntity
  8
0
100
AcDbBlockEnd
  0
BLOCK
  5
1B
330
1A
100
AcDbEntity
 67
     1
  8
0
100
AcDbBlockBegin
  2
*Paper_Space
 70
     0
 10
0.0
 20
0.0
 30
0.0
  3
*Paper_Space
  1

  0
ENDBLK
  5
1C
330
1A
100
AcDbEntity
 67
     1
  8
0
100
AcDbBlockEnd
  0
ENDSEC
  0
SECTION
  2
ENTITIES
  0
LINE
  5
23
330
1E
100
AcDbEntity
  8
0
100
AcDbLine
 10
0.0
 20
3.5
 30
0.0
 11
0.5
 21
4.0
 31
0.0
  0
LINE
  5
24
330
1E
100
AcDbEntity
  8
0
100
AcDbLine
 10
0.0
 20
3.5
 30
0.0
 11
0.0
 21
-0.0000000000000043
 31
0.0
  0
LINE
  5
25
330
1E
100
AcDbEntity
  8
0
100
AcDbLine
 10
0.3
 20
-0.0000000000000045
 30
0.0
 11
1.0
 21
-0.0000000000000047
 31
0.0
  0
LINE
  5
26
330
1E
100
AcDbEntity
  8
0
100
AcDbLine
 10
0.3000000000000011
 20
-0.0000000000000045
 30
0.0
 11
28.0
 21
-0.0000000000000042
 31
0.0
  0
LINE
  5
27
330
1E
100
AcDbEntity
  8
0
100
AcDbLine
 10
31.8
 20
-0.0000000000000059
 30
0.0
 11
35.2
 21
-0.0000000000000059
 31
0.0
  0
LINE
  5
28
330
1E
100
AcDbEntity
  8
0
100
AcDbLine
 10
28.0
 20
-0.000000000000006
 30
0.0
 11
31.8
 21
-0.0000000000000059
 31
0.0
  0
LINE
  5
29
330
1E
100
AcDbEntity
  8
0
100
AcDbLine
 10
2.2
 20
-0.0000000000000049
 30
0.0
 11
28.0
 21
-0.0000000000000042
 31
0.0
  0
LINE
  5
2A
330
1E
100
AcDbEntity
  8
0
100
AcDbLine
 10
3.7
 20
-0.0000000000000051
 30
0.0
 11
28.0
 21
-0.0000000000000042
 31
0.0
  0
LINE
  5
2B
330
1E
100
AcDbEntity
  8
0
100
AcDbLine
 10
5.799999999999999
 20
-0.0000000000000053
 30
0.0
 11
28.0
 21
-0.0000000000000042
 31
0.0
  0
LINE
  5
2C
330
1E
100
AcDbEntity
  8
0
100
AcDbLine
 10
5.799999999999999
 20
-0.0000000000000053
 30
0.0
 11
28.0
 21
-0.0000000000000042
 31
0.0
  0
LINE
  5
2D
330
1E
100
AcDbEntity
  8
0
100
AcDbLine
 10
5.799999999999999
 20
-0.0000000000000053
 30
0.0
 11
8.199999999999999
 21
-0.0000000000000055
 31
0.0
  0
LINE
  5
2E
330
1E
100
AcDbEntity
  8
0
100
AcDbLine
 10
3.7
 20
-0.0000000000000051
 30
0.0
 11
28.0
 21
-0.0000000000000042
 31
0.0
  0
LINE
  5
2F
330
1E
100
AcDbEntity
  8
0
100
AcDbLine
 10
3.7
 20
-0.0000000000000051
 30
0.0
 11
5.799999999999999
 21
-0.0000000000000053
 31
0.0
  0
LINE
  5
30
330
1E
100
AcDbEntity
  8
0
100
AcDbLine
 10
2.2
 20
-0.0000000000000049
 30
0.0
 11
28.0
 21
-0.0000000000000042
 31
0.0
  0
LINE
  5
31
330
1E
100
AcDbEntity
  8
0
100
AcDbLine
 10
2.2
 20
-0.0000000000000049
 30
0.0
 11
3.7
 21
-0.0000000000000051
 31
0.0
  0
LINE
  5
32
330
1E
100
AcDbEntity
  8
0
100
AcDbLine
 10
1.0
 20
-0.0000000000000047
 30
0.0
 11
28.0
 21
-0.0000000000000042
 31
0.0
  0
LINE
  5
33
330
1E
100
AcDbEntity
  8
0
100
AcDbLine
 10
1.0
 20
-0.0000000000000047
 30
0.0
 11
2.2
 21
-0.0000000000000049
 31
0.0
  0
LINE
  5
34
330
1E
100
AcDbEntity
  8
0
100
AcDbLine
 10
8.199999999999999
 20
-0.0000000000000055
 30
0.0
 11
11.0
 21
-0.0000000000000056
 31
0.0
  0
LINE
  5
35
330
1E
100
AcDbEntity
  8
0
100
AcDbLine
 10
8.199999999999999
 20
-0.0000000000000055
 30
0.0
 11
28.0
 21
-0.0000000000000042
 31
0.0
  0
LINE
  5
36
330
1E
100
AcDbEntity
  8
0
100
AcDbLine
 10
11.0
 20
-0.0000000000000056
 30
0.0
 11
14.1
 21
-0.0000000000000057
 31
0.0
  0
LINE
  5
37
330
1E
100
AcDbEntity
  8
0
100
AcDbLine
 10
11.0
 20
-0.0000000000000056
 30
0.0
 11
28.0
 21
-0.0000000000000042
 31
0.0
  0
LINE
  5
38
330
1E
100
AcDbEntity
  8
0
100
AcDbLine
 10
14.1
 20
-0.0000000000000057
 30
0.0
 11
17.3
 21
-0.0000000000000058
 31
0.0
  0
LINE
  5
39
330
1E
100
AcDbEntity
  8
0
100
AcDbLine
 10
14.1
 20
-0.0000000000000057
 30
0.0
 11
28.0
 21
-0.0000000000000042
 31
0.0
  0
LINE
  5
3A
330
1E
100
AcDbEntity
  8
0
100
AcDbLine
 10
17.3
 20
-0.0000000000000058
 30
0.0
 11
20.8
 21
-0.0000000000000059
 31
0.0
  0
LINE
  5
3B
330
1E
100
AcDbEntity
  8
0
100
AcDbLine
 10
17.3
 20
-0.0000000000000058
 30
0.0
 11
28.0
 21
-0.0000000000000042
 31
0.0
  0
LINE
  5
3C
330
1E
100
AcDbEntity
  8
0
100
AcDbLine
 10
45.0
 20
-0.0000000000000056
 30
0.0
 11
47.8
 21
-0.0000000000000055
 31
0.0
  0
LINE
  5
3D
330
1E
100
AcDbEntity
  8
0
100
AcDbLine
 10
41.9
 20
-0.0000000000000057
 30
0.0
 11
45.0
 21
-0.0000000000000056
 31
0.0
  0
LINE
  5
3E
330
1E
100
AcDbEntity
  8
0
100
AcDbLine
 10
38.7
 20
-0.0000000000000058
 30
0.0
 11
41.9
 21
-0.0000000000000057
 31
0.0
  0
LINE
  5
3F
330
1E
100
AcDbEntity
  8
0
100
AcDbLine
 10
35.2
 20
-0.0000000000000059
 30
0.0
 11
38.7
 21
-0.0000000000000058
 31
0.0
  0
LINE
  5
40
330
1E
100
AcDbEntity
  8
0
100
AcDbLine
 10
47.8
 20
-0.0000000000000055
 30
0.0
 11
50.2
 21
-0.0000000000000053
 31
0.0
  0
LINE
  5
41
330
1E
100
AcDbEntity
  8
0
100
AcDbLine
 10
50.2
 20
-0.0000000000000053
 30
0.0
 11
52.3
 21
-0.0000000000000051
 31
0.0
  0
LINE
  5
42
330
1E
100
AcDbEntity
  8
0
100
AcDbLine
 10
52.3
 20
-0.0000000000000051
 30
0.0
 11
53.79999999999999
 21
-0.0000000000000049
 31
0.0
  0
LINE
  5
43
330
1E
100
AcDbEntity
  8
0
100
AcDbLine
 10
53.79999999999999
 20
-0.0000000000000049
 30
0.0
 11
55.0
 21
-0.0000000000000047
 31
0.0
  0
LINE
  5
44
330
1E
100
AcDbEntity
  8
0
100
AcDbLine
 10
55.0
 20
-0.0000000000000047
 30
0.0
 11
55.7
 21
-0.0000000000000045
 31
0.0
  0
LINE
  5
45
330
1E
100
AcDbEntity
  8
0
100
AcDbLine
 10
55.7
 20
-0.0000000000000045
 30
0.0
 11
56.0
 21
-0.0000000000000042
 31
0.0
  0
LINE
  5
46
330
1E
100
AcDbEntity
  8
0
100
AcDbLine
 10
20.8
 20
-0.0000000000000059
 30
0.0
 11
24.19999999999999
 21
-0.0000000000000059
 31
0.0
  0
LINE
  5
47
330
1E
100
AcDbEntity
  8
0
100
AcDbLine
 10
20.8
 20
-0.0000000000000059
 30
0.0
 11
28.0
 21
-0.0000000000000042
 31
0.0
  0
LINE
  5
48
330
1E
100
AcDbEntity
  8
0
100
AcDbLine
 10
24.19999999999999
 20
-0.0000000000000059
 30
0.0
 11
28.0
 21
-0.000000000000006
 31
0.0
  0
LINE
  5
49
330
1E
100
AcDbEntity
  8
0
100
AcDbLine
 10
24.19999999999999
 20
-0.0000000000000059
 30
0.0
 11
28.0
 21
-0.0000000000000042
 31
0.0
  0
LINE
  5
4E
330
1E
100
AcDbEntity
  8
0
100
AcDbLine
 10
131.8
 20
-0.0000000000000059
 30
0.0
 11
135.1999999999999
 21
-0.0000000000000059
 31
0.0
  0
LINE
  5
4F
330
1E
100
AcDbEntity
  8
0
100
AcDbLine
 10
128.0
 20
-0.000000000000006
 30
0.0
 11
131.8
 21
-0.0000000000000059
 31
0.0
  0
LINE
  5
50
330
1E
100
AcDbEntity
  8
0
100
AcDbLine
 10
105.8
 20
-0.0000000000000053
 30
0.0
 11
128.0
 21
-0.0000000000000042
 31
0.0
  0
LINE
  5
51
330
1E
100
AcDbEntity
  8
0
100
AcDbLine
 10
105.8
 20
-0.0000000000000053
 30
0.0
 11
108.2
 21
-0.0000000000000055
 31
0.0
  0
LINE
  5
52
330
1E
100
AcDbEntity
  8
0
100
AcDbLine
 10
103.7
 20
-0.0000000000000051
 30
0.0
 11
128.0
 21
-0.0000000000000042
 31
0.0
  0
LINE
  5
53
330
1E
100
AcDbEntity
  8
0
100
AcDbLine
 10
103.7
 20
-0.0000000000000051
 30
0.0
 11
105.8
 21
-0.0000000000000053
 31
0.0
  0
LINE
  5
54
330
1E
100
AcDbEntity
  8
0
100
AcDbLine
 10
102.2
 20
-0.0000000000000049
 30
0.0
 11
128.0
 21
-0.0000000000000042
 31
0.0
  0
LINE
  5
55
330
1E
100
AcDbEntity
  8
0
100
AcDbLine
 10
102.2
 20
-0.0000000000000049
 30
0.0
 11
103.7
 21
-0.0000000000000051
 31
0.0
  0
LINE
  5
56
330
1E
100
AcDbEntity
  8
0
100
AcDbLine
 10
101.0
 20
-0.0000000000000047
 30
0.0
 11
128.0
 21
-0.0000000000000042
 31
0.0
  0
LINE
  5
57
330
1E
100
AcDbEntity
  8
0
100
AcDbLine
 10
101.0
 20
-0.0000000000000047
 30
0.0
 11
102.2
 21
-0.0000000000000049
 31
0.0
  0
LINE
  5
58
330
1E
100
AcDbEntity
  8
0
100
AcDbLine
 10
100.0
 20
-0.0000000000000042
 30
0.0
 11
100.2999999999999
 21
-0.0000000000000045
 31
0.0
  0
LINE
  5
59
330
1E
100
AcDbEntity
  8
0
100
AcDbLine
 10
100.0
 20
-0.0000000000000042
 30
0.0
 11
128.0
 21
-0.0000000000000042
 31
0.0
  0
LINE
  5
5A
330
1E
100
AcDbEntity
  8
0
100
AcDbLine
 10
100.0
 20
-0.0000000000000042
 30
0.0
 11
100.2999999999999
 21
-0.000000000000004
 31
0.0
  0
LINE
  5
5B
330
1E
100
AcDbEntity
  8
0
100
AcDbLine
 10
100.2999999999999
 20
-0.0000000000000045
 30
0.0
 11
128.0
 21
-0.0000000000000042
 31
0.0
  0
LINE
  5
5C
330
1E
100
AcDbEntity
  8
0
100
AcDbLine
 10
100.2999999999999
 20
-0.0000000000000045
 30
0.0
 11
101.0
 21
-0.0000000000000047
 31
0.0
  0
LINE
  5
5D
330
1E
100
AcDbEntity
  8
0
100
AcDbLine
 10
108.2
 20
-0.0000000000000055
 30
0.0
 11
111.0
 21
-0.0000000000000056
 31
0.0
  0
LINE
  5
5E
330
1E
100
AcDbEntity
  8
0
100
AcDbLine
 10
108.2
 20
-0.0000000000000055
 30
0.0
 11
128.0
 21
-0.0000000000000042
 31
0.0
  0
LINE
  5
5F
330
1E
100
AcDbEntity
  8
0
100
AcDbLine
 10
111.0
 20
-0.0000000000000056
 30
0.0
 11
114.1
 21
-0.0000000000000057
 31
0.0
  0
LINE
  5
60
330
1E
100
AcDbEntity
  8
0
100
AcDbLine
 10
111.0
 20
-0.0000000000000056
 30
0.0
 11
128.0
 21
-0.0000000000000042
 31
0.0
  0
LINE
  5
61
330
1E
100
AcDbEntity
  8
0
100
AcDbLine
 10
114.1
 20
-0.0000000000000057
 30
0.0
 11
117.3
 21
-0.0000000000000058
 31
0.0
  0
LINE
  5
62
330
1E
100
AcDbEntity
  8
0
100
AcDbLine
 10
114.1
 20
-0.0000000000000057
 30
0.0
 11
128.0
 21
-0.0000000000000042
 31
0.0
  0
LINE
  5
63
330
1E
100
AcDbEntity
  8
0
100
AcDbLine
 10
117.3
 20
-0.0000000000000058
 30
0.0
 11
120.7999999999999
 21
-0.0000000000000059
 31
0.0
  0
LINE
  5
64
330
1E
100
AcDbEntity
  8
0
100
AcDbLine
 10
117.3
 20
-0.0000000000000058
 30
0.0
 11
128.0
 21
-0.0000000000000042
 31
0.0
  0
LINE
  5
71
330
1E
100
AcDbEntity
  8
0
100
AcDbLine
 10
150.1999999999999
 20
-0.0000000000000053
 30
0.0
 11
152.3
 21
-0.0000000000000051
 31
0.0
  0
LINE
  5
72
330
1E
100
AcDbEntity
  8
0
100
AcDbLine
 10
152.3
 20
-0.0000000000000051
 30
0.0
 11
153.8
 21
-0.0000000000000049
 31
0.0
  0
LINE
  5
73
330
1E
100
AcDbEntity
  8
0
100
AcDbLine
 10
153.8
 20
-0.0000000000000049
 30
0.0
 11
155.0
 21
-0.0000000000000047
 31
0.0
  0
LINE
  5
86
330
1E
100
AcDbEntity
  8
0
100
AcDbLine
 10
155.0
 20
-0.0000000000000047
 30
0.0
 11
155.6999999999999
 21
-0.0000000000000045
 31
0.0
  0
LINE
  5
A3
330
1E
100
AcDbEntity
  8
0
100
AcDbLine
 10
155.6999999999999
 20
-0.0000000000000045
 30
0.0
 11
156.0
 21
-0.0000000000000042
 31
0.0
  0
LINE
  5
A4
330
1E
100
AcDbEntity
  8
0
100
AcDbLine
 10
147.8
 20
-0.0000000000000055
 30
0.0
 11
150.1999999999999
 21
-0.0000000000000053
 31
0.0
  0
LINE
  5
A5
330
1E
100
AcDbEntity
  8
0
100
AcDbLine
 10
145.0
 20
-0.0000000000000056
 30
0.0
 11
147.8
 21
-0.0000000000000055
 31
0.0
  0
LINE
  5
A6
330
1E
100
AcDbEntity
  8
0
100
AcDbLine
 10
141.9
 20
-0.0000000000000057
 30
0.0
 11
145.0
 21
-0.0000000000000056
 31
0.0
  0
LINE
  5
A7
330
1E
100
AcDbEntity
  8
0
100
AcDbLine
 10
138.7
 20
-0.0000000000000058
 30
0.0
 11
141.9
 21
-0.0000000000000057
 31
0.0
  0
LINE
  5
A8
330
1E
100
AcDbEntity
  8
0
100
AcDbLine
 10
135.1999999999999
 20
-0.0000000000000059
 30
0.0
 11
138.7
 21
-0.0000000000000058
 31
0.0
  0
LINE
  5
A9
330
1E
100
AcDbEntity
  8
0
100
AcDbLine
 10
128.0
 20
-0.0000000000000042
 30
0.0
 11
131.8
 21
-0.0000000000000059
 31
0.0
  0
LINE
  5
AA
330
1E
100
AcDbEntity
  8
0
100
AcDbLine
 10
128.0
 20
-0.0000000000000042
 30
0.0
 11
135.1999999999999
 21
-0.0000000000000059
 31
0.0
  0
LINE
  5
AB
330
1E
100
AcDbEntity
  8
0
100
AcDbLine
 10
128.0
 20
-0.0000000000000042
 30
0.0
 11
138.7
 21
-0.0000000000000058
 31
0.0
  0
LINE
  5
AC
330
1E
100
AcDbEntity
  8
0
100
AcDbLine
 10
128.0
 20
-0.0000000000000042
 30
0.0
 11
141.9
 21
-0.0000000000000057
 31
0.0
  0
LINE
  5
AD
330
1E
100
AcDbEntity
  8
0
100
AcDbLine
 10
128.0
 20
-0.0000000000000042
 30
0.0
 11
145.0
 21
-0.0000000000000056
 31
0.0
  0
LINE
  5
AE
330
1E
100
AcDbEntity
  8
0
100
AcDbLine
 10
128.0
 20
-0.0000000000000042
 30
0.0
 11
147.8
 21
-0.0000000000000055
 31
0.0
  0
LINE
  5
AF
330
1E
100
AcDbEntity
  8
0
100
AcDbLine
 10
128.0
 20
-0.0000000000000042
 30
0.0
 11
155.6999999999999
 21
-0.0000000000000045
 31
0.0
  0
LINE
  5
B0
330
1E
100
AcDbEntity
  8
0
100
AcDbLine
 10
128.0
 20
-0.0000000000000042
 30
0.0
 11
156.0
 21
-0.0000000000000042
 31
0.0
  0
LINE
  5
B1
330
1E
100
AcDbEntity
  8
0
100
AcDbLine
 10
128.0
 20
-0.0000000000000042
 30
0.0
 11
155.0
 21
-0.0000000000000047
 31
0.0
  0
LINE
  5
B2
330
1E
100
AcDbEntity
  8
0
100
AcDbLine
 10
128.0
 20
-0.0000000000000042
 30
0.0
 11
153.8
 21
-0.0000000000000049
 31
0.0
  0
LINE
  5
B3
330
1E
100
AcDbEntity
  8
0
100
AcDbLine
 10
128.0
 20
-0.0000000000000042
 30
0.0
 11
152.3
 21
-0.0000000000000051
 31
0.0
  0
LINE
  5
B4
330
1E
100
AcDbEntity
  8
0
100
AcDbLine
 10
128.0
 20
-0.0000000000000042
 30
0.0
 11
150.1999999999999
 21
-0.0000000000000053
 31
0.0
  0
LINE
  5
B5
330
1E
100
AcDbEntity
  8
0
100
AcDbLine
 10
128.0
 20
-0.0000000000000042
 30
0.0
 11
131.8
 21
-0.0000000000000026
 31
0.0
  0
LINE
  5
B6
330
1E
100
AcDbEntity
  8
0
100
AcDbLine
 10
128.0
 20
-0.0000000000000042
 30
0.0
 11
135.1999999999999
 21
-0.0000000000000026
 31
0.0
  0
LINE
  5
B7
330
1E
100
AcDbEntity
  8
0
100
AcDbLine
 10
128.0
 20
-0.0000000000000042
 30
0.0
 11
138.7
 21
-0.0000000000000027
 31
0.0
  0
LINE
  5
B8
330
1E
100
AcDbEntity
  8
0
100
AcDbLine
 10
128.0
 20
-0.0000000000000042
 30
0.0
 11
141.9
 21
-0.0000000000000028
 31
0.0
  0
LINE
  5
B9
330
1E
100
AcDbEntity
  8
0
100
AcDbLine
 10
128.0
 20
-0.0000000000000042
 30
0.0
 11
145.0
 21
-0.0000000000000029
 31
0.0
  0
LINE
  5
BA
330
1E
100
AcDbEntity
  8
0
100
AcDbLine
 10
128.0
 20
-0.0000000000000042
 30
0.0
 11
147.8
 21
-0.000000000000003
 31
0.0
  0
LINE
  5
BB
330
1E
100
AcDbEntity
  8
0
100
AcDbLine
 10
128.0
 20
-0.0000000000000042
 30
0.0
 11
155.6999999999999
 21
-0.000000000000004
 31
0.0
  0
LINE
  5
BC
330
1E
100
AcDbEntity
  8
0
100
AcDbLine
 10
128.0
 20
-0.0000000000000042
 30
0.0
 11
155.0
 21
-0.0000000000000038
 31
0.0
  0
LINE
  5
BD
330
1E
100
AcDbEntity
  8
0
100
AcDbLine
 10
128.0
 20
-0.0000000000000042
 30
0.0
 11
153.8
 21
-0.0000000000000036
 31
0.0
  0
LINE
  5
BE
330
1E
100
AcDbEntity
  8
0
100
AcDbLine
 10
128.0
 20
-0.0000000000000042
 30
0.0
 11
152.3
 21
-0.0000000000000034
 31
0.0
  0
LINE
  5
BF
330
1E
100
AcDbEntity
  8
0
100
AcDbLine
 10
128.0
 20
-0.0000000000000042
 30
0.0
 11
150.1999999999999
 21
-0.0000000000000032
 31
0.0
  0
LINE
  5
C0
330
1E
100
AcDbEntity
  8
0
100
AcDbLine
 10
120.7999999999999
 20
-0.0000000000000059
 30
0.0
 11
124.1999999999999
 21
-0.0000000000000059
 31
0.0
  0
LINE
  5
C1
330
1E
100
AcDbEntity
  8
0
100
AcDbLine
 10
120.7999999999999
 20
-0.0000000000000059
 30
0.0
 11
128.0
 21
-0.0000000000000042
 31
0.0
  0
LINE
  5
C2
330
1E
100
AcDbEntity
  8
0
100
AcDbLine
 10
124.1999999999999
 20
-0.0000000000000059
 30
0.0
 11
128.0
 21
-0.000000000000006
 31
0.0
  0
LINE
  5
C3
330
1E
100
AcDbEntity
  8
0
100
AcDbLine
 10
124.1999999999999
 20
-0.0000000000000059
 30
0.0
 11
128.0
 21
-0.0000000000000042
 31
0.0
  0
LINE
  5
C4
330
1E
100
AcDbEntity
  8
0
100
AcDbLine
 10
56.0
 20
-0.0000000000000042
 30
0.0
 11
56.0
 21
3.5
 31
0.0
  0
LINE
  5
CA
330
1E
100
AcDbEntity
  8
0
100
AcDbLine
 10
155.6999999999999
 20
-0.000000000000004
 30
0.0
 11
156.0
 21
-0.0000000000000042
 31
0.0
  0
LINE
  5
CC
330
1E
100
AcDbEntity
  8
0
100
AcDbLine
 10
100.2999999999999
 20
-0.000000000000004
 30
0.0
 11
128.0
 21
-0.0000000000000042
 31
0.0
  0
LINE
  5
CD
330
1E
100
AcDbEntity
  8
0
100
AcDbLine
 10
100.2999999999999
 20
-0.000000000000004
 30
0.0
 11
101.0
 21
-0.0000000000000038
 31
0.0
  0
LINE
  5
CF
330
1E
100
AcDbEntity
  8
0
100
AcDbLine
 10
55.7
 20
-0.000000000000004
 30
0.0
 11
56.0
 21
-0.0000000000000042
 31
0.0
  0
LINE
  5
D1
330
1E
100
AcDbEntity
  8
0
100
AcDbLine
 10
28.0
 20
-0.0000000000000042
 30
0.0
 11
31.8
 21
-0.0000000000000026
 31
0.0
  0
LINE
  5
D2
330
1E
100
AcDbEntity
  8
0
100
AcDbLine
 10
28.0
 20
-0.0000000000000042
 30
0.0
 11
35.2
 21
-0.0000000000000026
 31
0.0
  0
LINE
  5
D3
330
1E
100
AcDbEntity
  8
0
100
AcDbLine
 10
28.0
 20
-0.0000000000000042
 30
0.0
 11
38.7
 21
-0.0000000000000027
 31
0.0
  0
LINE
  5
D4
330
1E
100
AcDbEntity
  8
0
100
AcDbLine
 10
28.0
 20
-0.0000000000000042
 30
0.0
 11
41.9
 21
-0.0000000000000028
 31
0.0
  0
LINE
  5
D5
330
1E
100
AcDbEntity
  8
0
100
AcDbLine
 10
28.0
 20
-0.0000000000000042
 30
0.0
 11
45.0
 21
-0.0000000000000029
 31
0.0
  0
LINE
  5
D6
330
1E
100
AcDbEntity
  8
0
100
AcDbLine
 10
28.0
 20
-0.0000000000000042
 30
0.0
 11
47.8
 21
-0.000000000000003
 31
0.0
  0
LINE
  5
D7
330
1E
100
AcDbEntity
  8
0
100
AcDbLine
 10
28.0
 20
-0.0000000000000042
 30
0.0
 11
56.0
 21
-0.0000000000000042
 31
0.0
  0
LINE
  5
D8
330
1E
100
AcDbEntity
  8
0
100
AcDbLine
 10
28.0
 20
-0.0000000000000042
 30
0.0
 11
55.7
 21
-0.000000000000004
 31
0.0
  0
LINE
  5
D9
330
1E
100
AcDbEntity
  8
0
100
AcDbLine
 10
28.0
 20
-0.0000000000000042
 30
0.0
 11
55.0
 21
-0.0000000000000038
 31
0.0
  0
LINE
  5
DA
330
1E
100
AcDbEntity
  8
0
100
AcDbLine
 10
28.0
 20
-0.0000000000000042
 30
0.0
 11
53.79999999999999
 21
-0.0000000000000036
 31
0.0
  0
LINE
  5
DB
330
1E
100
AcDbEntity
  8
0
100
AcDbLine
 10
28.0
 20
-0.0000000000000042
 30
0.0
 11
52.3
 21
-0.0000000000000034
 31
0.0
  0
LINE
  5
DC
330
1E
100
AcDbEntity
  8
0
100
AcDbLine
 10
28.0
 20
-0.0000000000000042
 30
0.0
 11
50.2
 21
-0.0000000000000032
 31
0.0
  0
LINE
  5
DD
330
1E
100
AcDbEntity
  8
0
100
AcDbLine
 10
28.0
 20
-0.0000000000000042
 30
0.0
 11
55.7
 21
-0.0000000000000045
 31
0.0
  0
LINE
  5
DE
330
1E
100
AcDbEntity
  8
0
100
AcDbLine
 10
28.0
 20
-0.0000000000000042
 30
0.0
 11
55.0
 21
-0.0000000000000047
 31
0.0
  0
LINE
  5
DF
330
1E
100
AcDbEntity
  8
0
100
AcDbLine
 10
28.0
 20
-0.0000000000000042
 30
0.0
 11
53.79999999999999
 21
-0.0000000000000049
 31
0.0
  0
LINE
  5
E0
330
1E
100
AcDbEntity
  8
0
100
AcDbLine
 10
28.0
 20
-0.0000000000000042
 30
0.0
 11
52.3
 21
-0.0000000000000051
 31
0.0
  0
LINE
  5
E1
330
1E
100
AcDbEntity
  8
0
100
AcDbLine
 10
28.0
 20
-0.0000000000000042
 30
0.0
 11
50.2
 21
-0.0000000000000053
 31
0.0
  0
LINE
  5
E2
330
1E
100
AcDbEntity
  8
0
100
AcDbLine
 10
28.0
 20
-0.0000000000000042
 30
0.0
 11
47.8
 21
-0.0000000000000055
 31
0.0
  0
LINE
  5
E3
330
1E
100
AcDbEntity
  8
0
100
AcDbLine
 10
28.0
 20
-0.0000000000000042
 30
0.0
 11
31.8
 21
-0.0000000000000059
 31
0.0
  0
LINE
  5
E4
330
1E
100
AcDbEntity
  8
0
100
AcDbLine
 10
28.0
 20
-0.0000000000000042
 30
0.0
 11
35.2
 21
-0.0000000000000059
 31
0.0
  0
LINE
  5
E5
330
1E
100
AcDbEntity
  8
0
100
AcDbLine
 10
28.0
 20
-0.0000000000000042
 30
0.0
 11
38.7
 21
-0.0000000000000058
 31
0.0
  0
LINE
  5
E6
330
1E
100
AcDbEntity
  8
0
100
AcDbLine
 10
28.0
 20
-0.0000000000000042
 30
0.0
 11
41.9
 21
-0.0000000000000057
 31
0.0
  0
LINE
  5
E7
330
1E
100
AcDbEntity
  8
0
100
AcDbLine
 10
28.0
 20
-0.0000000000000042
 30
0.0
 11
45.0
 21
-0.0000000000000056
 31
0.0
  0
LINE
  5
E8
330
1E
100
AcDbEntity
  8
0
100
AcDbLine
 10
0.3000000000000011
 20
-0.000000000000004
 30
0.0
 11
28.0
 21
-0.0000000000000042
 31
0.0
  0
LINE
  5
EA
330
1E
100
AcDbEntity
  8
0
100
AcDbLine
 10
0.8
 20
4.0
 30
0.0
 11
1.5
 21
4.0
 31
0.0
  0
LINE
  5
EC
330
1E
100
AcDbEntity
  8
0
100
AcDbLine
 10
0.5
 20
4.0
 30
0.0
 11
0.8
 21
4.0
 31
0.0
  0
LINE
  5
ED
330
1E
100
AcDbEntity
  8
0
100
AcDbLine
 10
0.5
 20
4.0
 30
0.0
 11
8.0
 21
4.5
 31
0.0
  0
LINE
  5
F9
330
1E
100
AcDbEntity
  8
0
100
AcDbLine
 10
155.0
 20
-0.0000000000000038
 30
0.0
 11
155.6999999999999
 21
-0.000000000000004
 31
0.0
  0
LINE
  5
FB
330
1E
100
AcDbEntity
  8
0
100
AcDbLine
 10
101.0
 20
-0.0000000000000038
 30
0.0
 11
128.0
 21
-0.0000000000000042
 31
0.0
  0
LINE
  5
FC
330
1E
100
AcDbEntity
  8
0
100
AcDbLine
 10
101.0
 20
-0.0000000000000038
 30
0.0
 11
102.2
 21
-0.0000000000000036
 31
0.0
  0
LINE
  5
103
330
1E
100
AcDbEntity
  8
0
100
AcDbLine
 10
153.8
 20
-0.0000000000000036
 30
0.0
 11
155.0
 21
-0.0000000000000038
 31
0.0
  0
LINE
  5
105
330
1E
100
AcDbEntity
  8
0
100
AcDbLine
 10
102.2
 20
-0.0000000000000036
 30
0.0
 11
128.0
 21
-0.0000000000000042
 31
0.0
  0
LINE
  5
106
330
1E
100
AcDbEntity
  8
0
100
AcDbLine
 10
102.2
 20
-0.0000000000000036
 30
0.0
 11
103.7
 21
-0.0000000000000034
 31
0.0
  0
LINE
  5
108
330
1E
100
AcDbEntity
  8
0
100
AcDbLine
 10
53.79999999999999
 20
-0.0000000000000036
 30
0.0
 11
55.0
 21
-0.0000000000000038
 31
0.0
  0
LINE
  5
10A
330
1E
100
AcDbEntity
  8
0
100
AcDbLine
 10
55.0
 20
-0.0000000000000038
 30
0.0
 11
55.7
 21
-0.000000000000004
 31
0.0
  0
LINE
  5
10C
330
1E
100
AcDbEntity
  8
0
100
AcDbLine
 10
2.2
 20
-0.0000000000000036
 30
0.0
 11
28.0
 21
-0.0000000000000042
 31
0.0
  0
LINE
  5
10D
330
1E
100
AcDbEntity
  8
0
100
AcDbLine
 10
1.5
 20
4.0
 30
0.0
 11
2.6
 21
4.0
 31
0.0
  0
LINE
  5
110
330
1E
100
AcDbEntity
  8
0
100
AcDbLine
 10
2.6
 20
4.0
 30
0.0
 11
4.2
 21
4.0
 31
0.0
  0
LINE
  5
118
330
1E
100
AcDbEntity
  8
0
100
AcDbLine
 10
3.7
 20
-0.0000000000000034
 30
0.0
 11
28.0
 21
-0.0000000000000042
 31
0.0
  0
LINE
  5
11E
330
1E
100
AcDbEntity
  8
0
100
AcDbLine
 10
152.3
 20
-0.0000000000000034
 30
0.0
 11
153.8
 21
-0.0000000000000036
 31
0.0
  0
LINE
  5
120
330
1E
100
AcDbEntity
  8
0
100
AcDbLine
 10
103.7
 20
-0.0000000000000034
 30
0.0
 11
128.0
 21
-0.0000000000000042
 31
0.0
  0
LINE
  5
121
330
1E
100
AcDbEntity
  8
0
100
AcDbLine
 10
103.7
 20
-0.0000000000000034
 30
0.0
 11
105.8
 21
-0.0000000000000032
 31
0.0
  0
LINE
  5
128
330
1E
100
AcDbEntity
  8
0
100
AcDbLine
 10
150.1999999999999
 20
-0.0000000000000032
 30
0.0
 11
152.3
 21
-0.0000000000000034
 31
0.0
  0
LINE
  5
12A
330
1E
100
AcDbEntity
  8
0
100
AcDbLine
 10
105.8
 20
-0.0000000000000032
 30
0.0
 11
128.0
 21
-0.0000000000000042
 31
0.0
  0
LINE
  5
12B
330
1E
100
AcDbEntity
  8
0
100
AcDbLine
 10
105.8
 20
-0.0000000000000032
 30
0.0
 11
108.2
 21
-0.000000000000003
 31
0.0
  0
LINE
  5
12D
330
1E
100
AcDbEntity
  8
0
100
AcDbLine
 10
50.2
 20
-0.0000000000000032
 30
0.0
 11
52.3
 21
-0.0000000000000034
 31
0.0
  0
LINE
  5
12F
330
1E
100
AcDbEntity
  8
0
100
AcDbLine
 10
52.3
 20
-0.0000000000000034
 30
0.0
 11
53.79999999999999
 21
-0.0000000000000036
 31
0.0
  0
LINE
  5
131
330
1E
100
AcDbEntity
  8
0
100
AcDbLine
 10
5.799999999999999
 20
-0.0000000000000032
 30
0.0
 11
28.0
 21
-0.0000000000000042
 31
0.0
  0
LINE
  5
138
330
1E
100
AcDbEntity
  8
0
100
AcDbLine
 10
8.0
 20
4.5
 30
0.0
 11
9.5
 21
5.0
 31
0.0
  0
LINE
  5
139
330
1E
100
AcDbEntity
  8
0
100
AcDbLine
 10
6.2
 20
4.0
 30
0.0
 11
8.599999999999999
 21
4.0
 31
0.0
  0
LINE
  5
13B
330
1E
100
AcDbEntity
  8
0
100
AcDbLine
 10
4.2
 20
4.0
 30
0.0
 11
6.2
 21
4.0
 31
0.0
  0
LINE
  5
141
330
1E
100
AcDbEntity
  8
0
100
AcDbLine
 10
8.599999999999999
 20
4.0
 30
0.0
 11
11.3
 21
4.0
 31
0.0
  0
LINE
  5
143
330
1E
100
AcDbEntity
  8
0
100
AcDbLine
 10
11.3
 20
4.0
 30
0.0
 11
14.3
 21
4.0
 31
0.0
  0
LINE
  5
148
330
1E
100
AcDbEntity
  8
0
100
AcDbLine
 10
11.0
 20
-0.0000000000000029
 30
0.0
 11
28.0
 21
-0.0000000000000042
 31
0.0
  0
LINE
  5
149
330
1E
100
AcDbEntity
  8
0
100
AcDbLine
 10
11.0
 20
-0.0000000000000029
 30
0.0
 11
14.1
 21
-0.0000000000000028
 31
0.0
  0
LINE
  5
14B
330
1E
100
AcDbEntity
  8
0
100
AcDbLine
 10
14.1
 20
-0.0000000000000028
 30
0.0
 11
28.0
 21
-0.0000000000000042
 31
0.0
  0
LINE
  5
14C
330
1E
100
AcDbEntity
  8
0
100
AcDbLine
 10
14.1
 20
-0.0000000000000028
 30
0.0
 11
17.3
 21
-0.0000000000000027
 31
0.0
  0
LINE
  5
14E
330
1E
100
AcDbEntity
  8
0
100
AcDbLine
 10
17.3
 20
-0.0000000000000027
 30
0.0
 11
28.0
 21
-0.0000000000000042
 31
0.0
  0
LINE
  5
14F
330
1E
100
AcDbEntity
  8
0
100
AcDbLine
 10
17.3
 20
-0.0000000000000027
 30
0.0
 11
20.8
 21
-0.0000000000000026
 31
0.0
  0
LINE
  5
151
330
1E
100
AcDbEntity
  8
0
100
AcDbLine
 10
108.2
 20
-0.000000000000003
 30
0.0
 11
128.0
 21
-0.0000000000000042
 31
0.0
  0
LINE
  5
152
330
1E
100
AcDbEntity
  8
0
100
AcDbLine
 10
108.2
 20
-0.000000000000003
 30
0.0
 11
111.0
 21
-0.0000000000000029
 31
0.0
  0
LINE
  5
15D
330
1E
100
AcDbEntity
  8
0
100
AcDbLine
 10
147.8
 20
-0.000000000000003
 30
0.0
 11
150.1999999999999
 21
-0.0000000000000032
 31
0.0
  0
LINE
  5
15E
330
1E
100
AcDbEntity
  8
0
100
AcDbLine
 10
145.0
 20
-0.0000000000000029
 30
0.0
 11
147.8
 21
-0.000000000000003
 31
0.0
  0
LINE
  5
160
330
1E
100
AcDbEntity
  8
0
100
AcDbLine
 10
111.0
 20
-0.0000000000000029
 30
0.0
 11
128.0
 21
-0.0000000000000042
 31
0.0
  0
LINE
  5
161
330
1E
100
AcDbEntity
  8
0
100
AcDbLine
 10
111.0
 20
-0.0000000000000029
 30
0.0
 11
114.1
 21
-0.0000000000000028
 31
0.0
  0
LINE
  5
163
330
1E
100
AcDbEntity
  8
0
100
AcDbLine
 10
47.8
 20
-0.000000000000003
 30
0.0
 11
50.2
 21
-0.0000000000000032
 31
0.0
  0
LINE
  5
164
330
1E
100
AcDbEntity
  8
0
100
AcDbLine
 10
114.1
 20
-0.0000000000000028
 30
0.0
 11
128.0
 21
-0.0000000000000042
 31
0.0
  0
LINE
  5
165
330
1E
100
AcDbEntity
  8
0
100
AcDbLine
 10
114.1
 20
-0.0000000000000028
 30
0.0
 11
117.3
 21
-0.0000000000000027
 31
0.0
  0
LINE
  5
16C
330
1E
100
AcDbEntity
  8
0
100
AcDbLine
 10
141.9
 20
-0.0000000000000028
 30
0.0
 11
145.0
 21
-0.0000000000000029
 31
0.0
  0
LINE
  5
173
330
1E
100
AcDbEntity
  8
0
100
AcDbLine
 10
138.7
 20
-0.0000000000000027
 30
0.0
 11
141.9
 21
-0.0000000000000028
 31
0.0
  0
LINE
  5
175
330
1E
100
AcDbEntity
  8
0
100
AcDbLine
 10
117.3
 20
-0.0000000000000027
 30
0.0
 11
128.0
 21
-0.0000000000000042
 31
0.0
  0
LINE
  5
176
330
1E
100
AcDbEntity
  8
0
100
AcDbLine
 10
117.3
 20
-0.0000000000000027
 30
0.0
 11
120.7999999999999
 21
-0.0000000000000026
 31
0.0
  0
LINE
  5
178
330
1E
100
AcDbEntity
  8
0
100
AcDbLine
 10
45.0
 20
-0.0000000000000029
 30
0.0
 11
47.8
 21
-0.000000000000003
 31
0.0
  0
LINE
  5
17A
330
1E
100
AcDbEntity
  8
0
100
AcDbLine
 10
41.9
 20
-0.0000000000000028
 30
0.0
 11
45.0
 21
-0.0000000000000029
 31
0.0
  0
LINE
  5
17C
330
1E
100
AcDbEntity
  8
0
100
AcDbLine
 10
120.7999999999999
 20
-0.0000000000000026
 30
0.0
 11
128.0
 21
-0.0000000000000042
 31
0.0
  0
LINE
  5
17D
330
1E
100
AcDbEntity
  8
0
100
AcDbLine
 10
120.7999999999999
 20
-0.0000000000000026
 30
0.0
 11
124.1999999999999
 21
-0.0000000000000026
 31
0.0
  0
LINE
  5
189
330
1E
100
AcDbEntity
  8
0
100
AcDbLine
 10
135.1999999999999
 20
-0.0000000000000026
 30
0.0
 11
138.7
 21
-0.0000000000000027
 31
0.0
  0
LINE
  5
18B
330
1E
100
AcDbEntity
  8
0
100
AcDbLine
 10
131.8
 20
-0.0000000000000026
 30
0.0
 11
135.1999999999999
 21
-0.0000000000000026
 31
0.0
  0
LINE
  5
18C
330
1E
100
AcDbEntity
  8
0
100
AcDbLine
 10
124.1999999999999
 20
-0.0000000000000026
 30
0.0
 11
128.0
 21
-0.0000000000000042
 31
0.0
  0
LINE
  5
18D
330
1E
100
AcDbEntity
  8
0
100
AcDbLine
 10
124.1999999999999
 20
-0.0000000000000026
 30
0.0
 11
128.0
 21
-0.0000000000000025
 31
0.0
  0
LINE
  5
18E
330
1E
100
AcDbEntity
  8
0
100
AcDbLine
 10
38.7
 20
-0.0000000000000027
 30
0.0
 11
41.9
 21
-0.0000000000000028
 31
0.0
  0
LINE
  5
190
330
1E
100
AcDbEntity
  8
0
100
AcDbLine
 10
35.2
 20
-0.0000000000000026
 30
0.0
 11
38.7
 21
-0.0000000000000027
 31
0.0
  0
LINE
  5
192
330
1E
100
AcDbEntity
  8
0
100
AcDbLine
 10
31.8
 20
-0.0000000000000026
 30
0.0
 11
35.2
 21
-0.0000000000000026
 31
0.0
  0
LINE
  5
194
330
1E
100
AcDbEntity
  8
0
100
AcDbLine
 10
20.8
 20
-0.0000000000000026
 30
0.0
 11
28.0
 21
-0.0000000000000042
 31
0.0
  0
LINE
  5
195
330
1E
100
AcDbEntity
  8
0
100
AcDbLine
 10
20.8
 20
-0.0000000000000026
 30
0.0
 11
24.19999999999999
 21
-0.0000000000000026
 31
0.0
  0
LINE
  5
19D
330
1E
100
AcDbEntity
  8
0
100
AcDbLine
 10
14.3
 20
4.0
 30
0.0
 11
17.5
 21
4.0
 31
0.0
  0
LINE
  5
19F
330
1E
100
AcDbEntity
  8
0
100
AcDbLine
 10
17.5
 20
4.0
 30
0.0
 11
20.89999999999999
 21
4.0
 31
0.0
  0
LINE
  5
1A1
330
1E
100
AcDbEntity
  8
0
100
AcDbLine
 10
20.89999999999999
 20
4.0
 30
0.0
 11
24.39999999999999
 21
4.0
 31
0.0
  0
LINE
  5
1A9
330
1E
100
AcDbEntity
  8
0
100
AcDbLine
 10
128.0
 20
-0.0000000000000025
 30
0.0
 11
131.8
 21
-0.0000000000000026
 31
0.0
  0
LINE
  5
1C3
330
1E
100
AcDbEntity
  8
0
100
AcDbLine
 10
100.0
 20
3.5
 30
0.0
 11
100.0
 21
-0.0000000000000043
 31
0.0
  0
LINE
  5
1F0
330
1E
100
AcDbEntity
  8
0
100
AcDbLine
 10
156.0
 20
3.5
 30
0.0
 11
156.0
 21
-0.0000000000000043
 31
0.0
  0
LINE
  5
236
330
1E
100
AcDbEntity
  8
0
100
AcDbLine
 10
100.8
 20
4.0
 30
0.0
 11
101.5
 21
4.0
 31
0.0
  0
LINE
  5
23F
330
1E
100
AcDbEntity
  8
0
100
AcDbLine
 10
155.4999999999999
 20
4.0
 30
0.0
 11
156.0
 21
3.5
 31
0.0
  0
LINE
  5
240
330
1E
100
AcDbEntity
  8
0
100
AcDbLine
 10
155.1999999999999
 20
4.0
 30
0.0
 11
155.4999999999999
 21
4.0
 31
0.0
  0
LINE
  5
242
330
1E
100
AcDbEntity
  8
0
100
AcDbLine
 10
100.5
 20
4.0
 30
0.0
 11
105.0
 21
4.5
 31
0.0
  0
LINE
  5
243
330
1E
100
AcDbEntity
  8
0
100
AcDbLine
 10
100.5
 20
4.0
 30
0.0
 11
100.8
 21
4.0
 31
0.0
  0
LINE
  5
245
330
1E
100
AcDbEntity
  8
0
100
AcDbLine
 10
55.2
 20
4.0
 30
0.0
 11
55.5
 21
4.0
 31
0.0
  0
LINE
  5
247
330
1E
100
AcDbEntity
  8
0
100
AcDbLine
 10
49.8
 20
4.0
 30
0.0
 11
51.79999999999999
 21
4.0
 31
0.0
  0
LINE
  5
249
330
1E
100
AcDbEntity
  8
0
100
AcDbLine
 10
51.79999999999999
 20
4.0
 30
0.0
 11
53.39999999999999
 21
4.0
 31
0.0
  0
LINE
  5
24B
330
1E
100
AcDbEntity
  8
0
100
AcDbLine
 10
53.39999999999999
 20
4.0
 30
0.0
 11
54.5
 21
4.0
 31
0.0
  0
LINE
  5
254
330
1E
100
AcDbEntity
  8
0
100
AcDbLine
 10
153.3999999999999
 20
4.0
 30
0.0
 11
154.4999999999999
 21
4.0
 31
0.0
  0
LINE
  5
256
330
1E
100
AcDbEntity
  8
0
100
AcDbLine
 10
147.4
 20
4.0
 30
0.0
 11
149.8
 21
4.0
 31
0.0
  0
LINE
  5
258
330
1E
100
AcDbEntity
  8
0
100
AcDbLine
 10
149.8
 20
4.0
 30
0.0
 11
151.8
 21
4.0
 31
0.0
  0
LINE
  5
266
330
1E
100
AcDbEntity
  8
0
100
AcDbLine
 10
151.8
 20
4.0
 30
0.0
 11
153.3999999999999
 21
4.0
 31
0.0
  0
LINE
  5
268
330
1E
100
AcDbEntity
  8
0
100
AcDbLine
 10
154.4999999999999
 20
4.0
 30
0.0
 11
155.1999999999999
 21
4.0
 31
0.0
  0
LINE
  5
26A
330
1E
100
AcDbEntity
  8
0
100
AcDbLine
 10
106.2
 20
4.0
 30
0.0
 11
108.6
 21
4.0
 31
0.0
  0
LINE
  5
26C
330
1E
100
AcDbEntity
  8
0
100
AcDbLine
 10
108.6
 20
4.0
 30
0.0
 11
111.2999999999999
 21
4.0
 31
0.0
  0
LINE
  5
26D
330
1E
100
AcDbEntity
  8
0
100
AcDbLine
 10
102.6
 20
4.0
 30
0.0
 11
104.2
 21
4.0
 31
0.0
  0
LINE
  5
26E
330
1E
100
AcDbEntity
  8
0
100
AcDbLine
 10
131.6
 20
4.0
 30
0.0
 11
135.0999999999999
 21
4.0
 31
0.0
  0
LINE
  5
270
330
1E
100
AcDbEntity
  8
0
100
AcDbLine
 10
135.0999999999999
 20
4.0
 30
0.0
 11
138.5
 21
4.0
 31
0.0
  0
LINE
  5
272
330
1E
100
AcDbEntity
  8
0
100
AcDbLine
 10
138.5
 20
4.0
 30
0.0
 11
141.6999999999999
 21
4.0
 31
0.0
  0
LINE
  5
274
330
1E
100
AcDbEntity
  8
0
100
AcDbLine
 10
141.6999999999999
 20
4.0
 30
0.0
 11
144.6999999999999
 21
4.0
 31
0.0
  0
LINE
  5
28C
330
1E
100
AcDbEntity
  8
0
100
AcDbLine
 10
144.6999999999999
 20
4.0
 30
0.0
 11
147.4
 21
4.0
 31
0.0
  0
LINE
  5
28F
330
1E
100
AcDbEntity
  8
0
100
AcDbLine
 10
128.0
 20
4.0
 30
0.0
 11
131.6
 21
4.0
 31
0.0
  0
LINE
  5
291
330
1E
100
AcDbEntity
  8
0
100
AcDbLine
 10
124.3999999999999
 20
4.0
 30
0.0
 11
128.0
 21
4.0
 31
0.0
  0
LINE
  5
292
330
1E
100
AcDbEntity
  8
0
100
AcDbLine
 10
120.9
 20
4.0
 30
0.0
 11
124.3999999999999
 21
4.0
 31
0.0
  0
LINE
  5
293
330
1E
100
AcDbEntity
  8
0
100
AcDbLine
 10
117.5
 20
4.0
 30
0.0
 11
120.9
 21
4.0
 31
0.0
  0
LINE
  5
295
330
1E
100
AcDbEntity
  8
0
100
AcDbLine
 10
114.3
 20
4.0
 30
0.0
 11
117.5
 21
4.0
 31
0.0
  0
LINE
  5
296
330
1E
100
AcDbEntity
  8
0
100
AcDbLine
 10
111.2999999999999
 20
4.0
 30
0.0
 11
114.3
 21
4.0
 31
0.0
  0
LINE
  5
298
330
1E
100
AcDbEntity
  8
0
100
AcDbLine
 10
104.2
 20
4.0
 30
0.0
 11
106.2
 21
4.0
 31
0.0
  0
LINE
  5
299
330
1E
100
AcDbEntity
  8
0
100
AcDbLine
 10
101.5
 20
4.0
 30
0.0
 11
102.6
 21
4.0
 31
0.0
  0
LINE
  5
29C
330
1E
100
AcDbEntity
  8
0
100
AcDbLine
 10
54.5
 20
4.0
 30
0.0
 11
55.2
 21
4.0
 31
0.0
  0
LINE
  5
29D
330
1E
100
AcDbEntity
  8
0
100
AcDbLine
 10
55.5
 20
4.0
 30
0.0
 11
56.0
 21
3.5
 31
0.0
  0
LINE
  5
29F
330
1E
100
AcDbEntity
  8
0
100
AcDbLine
 10
47.4
 20
4.0
 30
0.0
 11
49.8
 21
4.0
 31
0.0
  0
LINE
  5
2A1
330
1E
100
AcDbEntity
  8
0
100
AcDbLine
 10
44.7
 20
4.0
 30
0.0
 11
47.4
 21
4.0
 31
0.0
  0
LINE
  5
2A3
330
1E
100
AcDbEntity
  8
0
100
AcDbLine
 10
41.7
 20
4.0
 30
0.0
 11
44.7
 21
4.0
 31
0.0
  0
LINE
  5
2A5
330
1E
100
AcDbEntity
  8
0
100
AcDbLine
 10
38.5
 20
4.0
 30
0.0
 11
41.7
 21
4.0
 31
0.0
  0
LINE
  5
2A7
330
1E
100
AcDbEntity
  8
0
100
AcDbLine
 10
35.1
 20
4.0
 30
0.0
 11
38.5
 21
4.0
 31
0.0
  0
LINE
  5
2BD
330
1E
100
AcDbEntity
  8
0
100
AcDbLine
 10
151.0
 20
4.5
 30
0.0
 11
155.4999999999999
 21
4.0
 31
0.0
  0
LINE
  5
2C0
330
1E
100
AcDbEntity
  8
0
100
AcDbLine
 10
105.0
 20
4.5
 30
0.0
 11
106.725
 21
5.0
 31
0.0
  0
LINE
  5
2DC
330
1E
100
AcDbEntity
  8
0
100
AcDbLine
 10
48.0
 20
4.5
 30
0.0
 11
55.5
 21
4.0
 31
0.0
  0
LINE
  5
2E0
330
1E
100
AcDbEntity
  8
0
100
AcDbLine
 10
31.6
 20
4.0
 30
0.0
 11
35.1
 21
4.0
 31
0.0
  0
LINE
  5
2E2
330
1E
100
AcDbEntity
  8
0
100
AcDbLine
 10
28.0
 20
4.0
 30
0.0
 11
31.6
 21
4.0
 31
0.0
  0
LINE
  5
2E5
330
1E
100
AcDbEntity
  8
0
100
AcDbLine
 10
24.39999999999999
 20
4.0
 30
0.0
 11
28.0
 21
4.0
 31
0.0
  0
LINE
  5
2E8
330
1E
100
AcDbEntity
  8
0
100
AcDbLine
 10
28.0
 20
-0.0000000000000025
 30
0.0
 11
31.8
 21
-0.0000000000000026
 31
0.0
  0
LINE
  5
2EC
330
1E
100
AcDbEntity
  8
0
100
AcDbLine
 10
24.19999999999999
 20
-0.0000000000000026
 30
0.0
 11
28.0
 21
-0.0000000000000042
 31
0.0
  0
LINE
  5
2ED
330
1E
100
AcDbEntity
  8
0
100
AcDbLine
 10
24.19999999999999
 20
-0.0000000000000026
 30
0.0
 11
28.0
 21
-0.0000000000000025
 31
0.0
  0
LINE
  5
348
330
1E
100
AcDbEntity
  8
0
100
AcDbLine
 10
106.725
 20
5.0
 30
0.0
 11
107.875
 21
6.0
 31
0.0
  0
LINE
  5
362
330
1E
100
AcDbEntity
  8
0
100
AcDbLine
 10
149.275
 20
5.0
 30
0.0
 11
151.0
 21
4.5
 31
0.0
  0
LINE
  5
365
330
1E
100
AcDbEntity
  8
0
100
AcDbLine
 10
46.5
 20
5.0
 30
0.0
 11
48.0
 21
4.5
 31
0.0
  0
LINE
  5
376
330
1E
100
AcDbEntity
  8
0
100
AcDbLine
 10
11.0
 20
9.9898
 30
0.0
 11
11.5
 21
9.5
 31
0.0
  0
LINE
  5
377
330
1E
100
AcDbEntity
  8
0
100
AcDbLine
 10
11.0
 20
9.9898
 30
0.0
 11
11.19999999999999
 21
9.9898
 31
0.0
  0
LINE
  5
378
330
1E
100
AcDbEntity
  8
0
100
AcDbLine
 10
11.0
 20
9.9898
 30
0.0
 11
13.3309
 21
32.4116
 31
0.0
  0
LINE
  5
379
330
1E
100
AcDbEntity
  8
0
100
AcDbLine
 10
11.0
 20
8.0
 30
0.0
 11
11.19999999999999
 21
8.0
 31
0.0
  0
LINE
  5
37A
330
1E
100
AcDbEntity
  8
0
100
AcDbLine
 10
11.0
 20
8.0
 30
0.0
 11
11.5
 21
8.5
 31
0.0
  0
LINE
  5
37B
330
1E
100
AcDbEntity
  8
0
100
AcDbLine
 10
11.0
 20
8.0
 30
0.0
 11
11.0
 21
7.5
 31
0.0
  0
LINE
  5
37E
330
1E
100
AcDbEntity
  8
0
100
AcDbLine
 10
11.19999999999999
 20
9.9898
 30
0.0
 11
11.59999999999999
 21
9.9898
 31
0.0
  0
LINE
  5
37F
330
1E
100
AcDbEntity
  8
0
100
AcDbLine
 10
11.5
 20
9.5
 30
0.0
 11
11.69999999999999
 21
9.5
 31
0.0
  0
LINE
  5
380
330
1E
100
AcDbEntity
  8
0
100
AcDbLine
 10
11.5
 20
9.5
 30
0.0
 11
11.5
 21
8.5
 31
0.0
  0
LINE
  5
381
330
1E
100
AcDbEntity
  8
0
100
AcDbLine
 10
11.59999999999999
 20
9.9898
 30
0.0
 11
12.3
 21
9.9898
 31
0.0
  0
LINE
  5
382
330
1E
100
AcDbEntity
  8
0
100
AcDbLine
 10
11.69999999999999
 20
9.5
 30
0.0
 11
12.09999999999999
 21
9.5
 31
0.0
  0
LINE
  5
383
330
1E
100
AcDbEntity
  8
0
100
AcDbLine
 10
11.69999999999999
 20
8.5
 30
0.0
 11
12.09999999999999
 21
8.5
 31
0.0
  0
LINE
  5
384
330
1E
100
AcDbEntity
  8
0
100
AcDbLine
 10
11.5
 20
8.5
 30
0.0
 11
11.69999999999999
 21
8.5
 31
0.0
  0
LINE
  5
385
330
1E
100
AcDbEntity
  8
0
100
AcDbLine
 10
11.5
 20
8.5
 30
0.0
 11
11.5
 21
9.5
 31
0.0
  0
LINE
  5
387
330
1E
100
AcDbEntity
  8
0
100
AcDbLine
 10
11.59999999999999
 20
8.0
 30
0.0
 11
12.3
 21
8.0
 31
0.0
  0
LINE
  5
389
330
1E
100
AcDbEntity
  8
0
100
AcDbLine
 10
11.19999999999999
 20
8.0
 30
0.0
 11
11.59999999999999
 21
8.0
 31
0.0
  0
LINE
  5
38D
330
1E
100
AcDbEntity
  8
0
100
AcDbLine
 10
11.0
 20
7.5
 30
0.0
 11
11.0
 21
8.0
 31
0.0
  0
LINE
  5
38E
330
1E
100
AcDbEntity
  8
0
100
AcDbLine
 10
10.5
 20
6.0
 30
0.0
 11
9.5
 21
5.0
 31
0.0
  0
LINE
  5
38F
330
1E
100
AcDbEntity
  8
0
100
AcDbLine
 10
10.5
 20
6.0
 30
0.0
 11
11.0
 21
7.5
 31
0.0
  0
LINE
  5
3F2
330
1E
100
AcDbEntity
  8
0
100
AcDbLine
 10
12.3
 20
9.9898
 30
0.0
 11
13.3
 21
9.9898
 31
0.0
  0
LINE
  5
3F3
330
1E
100
AcDbEntity
  8
0
100
AcDbLine
 10
12.09999999999999
 20
9.5
 30
0.0
 11
12.8
 21
9.5
 31
0.0
  0
LINE
  5
3F4
330
1E
100
AcDbEntity
  8
0
100
AcDbLine
 10
12.09999999999999
 20
8.5
 30
0.0
 11
12.8
 21
8.5
 31
0.0
  0
LINE
  5
3F5
330
1E
100
AcDbEntity
  8
0
100
AcDbLine
 10
12.8
 20
9.5
 30
0.0
 11
13.7
 21
9.5
 31
0.0
  0
LINE
  5
3F6
330
1E
100
AcDbEntity
  8
0
100
AcDbLine
 10
12.8
 20
8.5
 30
0.0
 11
13.7
 21
8.5
 31
0.0
  0
LINE
  5
3F8
330
1E
100
AcDbEntity
  8
0
100
AcDbLine
 10
12.3
 20
8.0
 30
0.0
 11
13.3
 21
8.0
 31
0.0
  0
LINE
  5
41D
330
1E
100
AcDbEntity
  8
0
100
AcDbLine
 10
107.875
 20
6.0
 30
0.0
 11
108.45
 21
7.5
 31
0.0
  0
LINE
  5
466
330
1E
100
AcDbEntity
  8
0
100
AcDbLine
 10
148.125
 20
6.0
 30
0.0
 11
149.275
 21
5.0
 31
0.0
  0
LINE
  5
46D
330
1E
100
AcDbEntity
  8
0
100
AcDbLine
 10
45.49999999999999
 20
6.0
 30
0.0
 11
46.5
 21
5.0
 31
0.0
  0
LINE
  5
482
330
1E
100
AcDbEntity
  8
0
100
AcDbLine
 10
13.3
 20
9.9898
 30
0.0
 11
14.5
 21
9.9898
 31
0.0
  0
LINE
  5
484
330
1E
100
AcDbEntity
  8
0
100
AcDbLine
 10
13.3
 20
8.0
 30
0.0
 11
14.5
 21
8.0
 31
0.0
  0
LINE
  5
49D
330
1E
100
AcDbEntity
  8
0
100
AcDbLine
 10
108.45
 20
7.5
 30
0.0
 11
111.0
 21
100.062
 31
0.0
  0
LINE
  5
4B1
330
1E
100
AcDbEntity
  8
0
100
AcDbLine
 10
147.55
 20
7.5
 30
0.0
 11
148.125
 21
6.0
 31
0.0
  0
LINE
  5
4F6
330
1E
100
AcDbEntity
  8
0
100
AcDbLine
 10
108.45
 20
7.5
 30
0.0
 11
111.0
 21
100.062
 31
0.0
  0
LINE
  5
4F8
330
1E
100
AcDbEntity
  8
0
100
AcDbLine
 10
45.0
 20
7.5
 30
0.0
 11
45.49999999999999
 21
6.0
 31
0.0
  0
LINE
  5
4F9
330
1E
100
AcDbEntity
  8
0
100
AcDbLine
 10
45.0
 20
7.5
 30
0.0
 11
45.0
 21
8.0
 31
0.0
  0
LINE
  5
50F
330
1E
100
AcDbEntity
  8
0
100
AcDbLine
 10
13.3309
 20
32.4116
 30
0.0
 11
13.77539999999999
 21
32.9558
 31
0.0
  0
LINE
  5
510
330
1E
100
AcDbEntity
  8
0
100
AcDbLine
 10
13.77539999999999
 20
32.9558
 30
0.0
 11
14.6644
 21
33.22789999999999
 31
0.0
  0
LINE
  5
511
330
1E
100
AcDbEntity
  8
0
100
AcDbLine
 10
14.5
 20
9.9898
 30
0.0
 11
16.0
 21
9.9898
 31
0.0
  0
LINE
  5
512
330
1E
100
AcDbEntity
  8
0
100
AcDbLine
 10
13.7
 20
9.5
 30
0.0
 11
14.9
 21
9.5
 31
0.0
  0
LINE
  5
513
330
1E
100
AcDbEntity
  8
0
100
AcDbLine
 10
13.7
 20
8.5
 30
0.0
 11
14.9
 21
8.5
 31
0.0
  0
LINE
  5
515
330
1E
100
AcDbEntity
  8
0
100
AcDbLine
 10
17.7
 20
8.0
 30
0.0
 11
19.5
 21
8.0
 31
0.0
  0
LINE
  5
517
330
1E
100
AcDbEntity
  8
0
100
AcDbLine
 10
19.5
 20
8.0
 30
0.0
 11
21.49999999999999
 21
8.0
 31
0.0
  0
LINE
  5
519
330
1E
100
AcDbEntity
  8
0
100
AcDbLine
 10
21.49999999999999
 20
8.0
 30
0.0
 11
23.6
 21
8.0
 31
0.0
  0
LINE
  5
51B
330
1E
100
AcDbEntity
  8
0
100
AcDbLine
 10
23.6
 20
8.0
 30
0.0
 11
25.8
 21
8.0
 31
0.0
  0
LINE
  5
51D
330
1E
100
AcDbEntity
  8
0
100
AcDbLine
 10
43.7
 20
8.0
 30
0.0
 11
44.4
 21
8.0
 31
0.0
  0
LINE
  5
51F
330
1E
100
AcDbEntity
  8
0
100
AcDbLine
 10
41.5
 20
8.0
 30
0.0
 11
42.7
 21
8.0
 31
0.0
  0
LINE
  5
521
330
1E
100
AcDbEntity
  8
0
100
AcDbLine
 10
42.7
 20
8.0
 30
0.0
 11
43.7
 21
8.0
 31
0.0
  0
LINE
  5
523
330
1E
100
AcDbEntity
  8
0
100
AcDbLine
 10
44.4
 20
8.0
 30
0.0
 11
44.79999999999999
 21
8.0
 31
0.0
  0
LINE
  5
557
330
1E
100
AcDbEntity
  8
0
100
AcDbLine
 10
44.79999999999999
 20
8.0
 30
0.0
 11
45.0
 21
8.0
 31
0.0
  0
LINE
  5
559
330
1E
100
AcDbEntity
  8
0
100
AcDbLine
 10
40.0
 20
8.0
 30
0.0
 11
41.5
 21
8.0
 31
0.0
  0
LINE
  5
55B
330
1E
100
AcDbEntity
  8
0
100
AcDbLine
 10
38.3
 20
8.0
 30
0.0
 11
40.0
 21
8.0
 31
0.0
  0
LINE
  5
55D
330
1E
100
AcDbEntity
  8
0
100
AcDbLine
 10
36.5
 20
8.0
 30
0.0
 11
38.3
 21
8.0
 31
0.0
  0
LINE
  5
55F
330
1E
100
AcDbEntity
  8
0
100
AcDbLine
 10
34.5
 20
8.0
 30
0.0
 11
36.5
 21
8.0
 31
0.0
  0
LINE
  5
561
330
1E
100
AcDbEntity
  8
0
100
AcDbLine
 10
32.4
 20
8.0
 30
0.0
 11
34.5
 21
8.0
 31
0.0
  0
LINE
  5
563
330
1E
100
AcDbEntity
  8
0
100
AcDbLine
 10
30.2
 20
8.0
 30
0.0
 11
32.4
 21
8.0
 31
0.0
  0
LINE
  5
565
330
1E
100
AcDbEntity
  8
0
100
AcDbLine
 10
28.0
 20
8.0
 30
0.0
 11
30.2
 21
8.0
 31
0.0
  0
LINE
  5
567
330
1E
100
AcDbEntity
  8
0
100
AcDbLine
 10
25.8
 20
8.0
 30
0.0
 11
28.0
 21
8.0
 31
0.0
  0
LINE
  5
568
330
1E
100
AcDbEntity
  8
0
100
AcDbLine
 10
14.6644
 20
33.22789999999999
 30
0.0
 11
17.3315
 21
33.39119999999999
 31
0.0
  0
LINE
  5
56A
330
1E
100
AcDbEntity
  8
0
100
AcDbLine
 10
14.9
 20
9.5
 30
0.0
 11
16.39999999999999
 21
9.5
 31
0.0
  0
LINE
  5
56B
330
1E
100
AcDbEntity
  8
0
100
AcDbLine
 10
16.39999999999999
 20
8.5
 30
0.0
 11
18.0
 21
8.5
 31
0.0
  0
LINE
  5
56C
330
1E
100
AcDbEntity
  8
0
100
AcDbLine
 10
18.0
 20
8.5
 30
0.0
 11
19.8
 21
8.5
 31
0.0
  0
LINE
  5
56D
330
1E
100
AcDbEntity
  8
0
100
AcDbLine
 10
19.8
 20
8.5
 30
0.0
 11
21.69999999999999
 21
8.5
 31
0.0
  0
LINE
  5
56E
330
1E
100
AcDbEntity
  8
0
100
AcDbLine
 10
21.69999999999999
 20
8.5
 30
0.0
 11
23.7
 21
8.5
 31
0.0
  0
LINE
  5
56F
330
1E
100
AcDbEntity
  8
0
100
AcDbLine
 10
38.0
 20
8.5
 30
0.0
 11
39.6
 21
8.5
 31
0.0
  0
LINE
  5
570
330
1E
100
AcDbEntity
  8
0
100
AcDbLine
 10
42.29999999999999
 20
8.5
 30
0.0
 11
43.2
 21
8.5
 31
0.0
  0
LINE
  5
571
330
1E
100
AcDbEntity
  8
0
100
AcDbLine
 10
43.2
 20
8.5
 30
0.0
 11
43.89999999999999
 21
8.5
 31
0.0
  0
LINE
  5
572
330
1E
100
AcDbEntity
  8
0
100
AcDbLine
 10
43.89999999999999
 20
8.5
 30
0.0
 11
44.29999999999999
 21
8.5
 31
0.0
  0
LINE
  5
57F
330
1E
100
AcDbEntity
  8
0
100
AcDbLine
 10
44.29999999999999
 20
8.5
 30
0.0
 11
44.5
 21
8.5
 31
0.0
  0
LINE
  5
590
330
1E
100
AcDbEntity
  8
0
100
AcDbLine
 10
41.1
 20
8.5
 30
0.0
 11
42.29999999999999
 21
8.5
 31
0.0
  0
LINE
  5
591
330
1E
100
AcDbEntity
  8
0
100
AcDbLine
 10
44.5
 20
8.5
 30
0.0
 11
45.0
 21
8.0
 31
0.0
  0
LINE
  5
592
330
1E
100
AcDbEntity
  8
0
100
AcDbLine
 10
44.5
 20
8.5
 30
0.0
 11
44.5
 21
9.5
 31
0.0
  0
LINE
  5
594
330
1E
100
AcDbEntity
  8
0
100
AcDbLine
 10
39.6
 20
8.5
 30
0.0
 11
41.1
 21
8.5
 31
0.0
  0
LINE
  5
595
330
1E
100
AcDbEntity
  8
0
100
AcDbLine
 10
36.2
 20
8.5
 30
0.0
 11
38.0
 21
8.5
 31
0.0
  0
LINE
  5
596
330
1E
100
AcDbEntity
  8
0
100
AcDbLine
 10
34.29999999999999
 20
8.5
 30
0.0
 11
36.2
 21
8.5
 31
0.0
  0
LINE
  5
597
330
1E
100
AcDbEntity
  8
0
100
AcDbLine
 10
32.29999999999999
 20
8.5
 30
0.0
 11
34.29999999999999
 21
8.5
 31
0.0
  0
LINE
  5
598
330
1E
100
AcDbEntity
  8
0
100
AcDbLine
 10
30.1
 20
8.5
 30
0.0
 11
32.29999999999999
 21
8.5
 31
0.0
  0
LINE
  5
599
330
1E
100
AcDbEntity
  8
0
100
AcDbLine
 10
28.0
 20
8.5
 30
0.0
 11
30.1
 21
8.5
 31
0.0
  0
LINE
  5
59A
330
1E
100
AcDbEntity
  8
0
100
AcDbLine
 10
23.7
 20
8.5
 30
0.0
 11
25.89999999999999
 21
8.5
 31
0.0
  0
LINE
  5
59B
330
1E
100
AcDbEntity
  8
0
100
AcDbLine
 10
16.39999999999999
 20
9.5
 30
0.0
 11
18.0
 21
9.5
 31
0.0
  0
LINE
  5
59C
330
1E
100
AcDbEntity
  8
0
100
AcDbLine
 10
16.0
 20
9.9898
 30
0.0
 11
17.7
 21
9.9898
 31
0.0
  0
LINE
  5
59D
330
1E
100
AcDbEntity
  8
0
100
AcDbLine
 10
18.0
 20
9.5
 30
0.0
 11
19.8
 21
9.5
 31
0.0
  0
LINE
  5
59E
330
1E
100
AcDbEntity
  8
0
100
AcDbLine
 10
17.7
 20
9.9898
 30
0.0
 11
19.5
 21
9.9898
 31
0.0
  0
LINE
  5
59F
330
1E
100
AcDbEntity
  8
0
100
AcDbLine
 10
19.8
 20
9.5
 30
0.0
 11
21.69999999999999
 21
9.5
 31
0.0
  0
LINE
  5
5A0
330
1E
100
AcDbEntity
  8
0
100
AcDbLine
 10
19.5
 20
9.9898
 30
0.0
 11
21.49999999999999
 21
9.9898
 31
0.0
  0
LINE
  5
5A1
330
1E
100
AcDbEntity
  8
0
100
AcDbLine
 10
21.69999999999999
 20
9.5
 30
0.0
 11
23.7
 21
9.5
 31
0.0
  0
LINE
  5
5A2
330
1E
100
AcDbEntity
  8
0
100
AcDbLine
 10
21.49999999999999
 20
9.9898
 30
0.0
 11
23.6
 21
9.9898
 31
0.0
  0
LINE
  5
5A3
330
1E
100
AcDbEntity
  8
0
100
AcDbLine
 10
23.7
 20
9.5
 30
0.0
 11
25.89999999999999
 21
9.5
 31
0.0
  0
LINE
  5
5AA
330
1E
100
AcDbEntity
  8
0
100
AcDbLine
 10
25.3329
 20
33.5
 30
0.0
 11
25.9552
 21
33.5
 31
0.0
  0
LINE
  5
5AB
330
1E
100
AcDbEntity
  8
0
100
AcDbLine
 10
23.37699999999999
 20
33.5
 30
0.0
 11
25.3329
 21
33.5
 31
0.0
  0
LINE
  5
5AC
330
1E
100
AcDbEntity
  8
0
100
AcDbLine
 10
23.1103
 20
33.5
 30
0.0
 11
23.37699999999999
 21
33.5
 31
0.0
  0
LINE
  5
5AD
330
1E
100
AcDbEntity
  8
0
100
AcDbLine
 10
22.84359999999999
 20
33.5
 30
0.0
 11
23.1103
 21
33.5
 31
0.0
  0
LINE
  5
5AE
330
1E
100
AcDbEntity
  8
0
100
AcDbLine
 10
22.75469999999999
 20
33.5
 30
0.0
 11
22.84359999999999
 21
33.5
 31
0.0
  0
LINE
  5
5AF
330
1E
100
AcDbEntity
  8
0
100
AcDbLine
 10
22.6658
 20
33.5
 30
0.0
 11
22.75469999999999
 21
33.5
 31
0.0
  0
LINE
  5
5B4
330
1E
100
AcDbEntity
  8
0
100
AcDbLine
 10
23.6
 20
9.9898
 30
0.0
 11
25.8
 21
9.9898
 31
0.0
  0
LINE
  5
5B5
330
1E
100
AcDbEntity
  8
0
100
AcDbLine
 10
42.29999999999999
 20
9.5
 30
0.0
 11
43.2
 21
9.5
 31
0.0
  0
LINE
  5
5B7
330
1E
100
AcDbEntity
  8
0
100
AcDbLine
 10
43.2
 20
9.5
 30
0.0
 11
43.89999999999999
 21
9.5
 31
0.0
  0
LINE
  5
5B8
330
1E
100
AcDbEntity
  8
0
100
AcDbLine
 10
38.0
 20
9.5
 30
0.0
 11
39.6
 21
9.5
 31
0.0
  0
LINE
  5
5B9
330
1E
100
AcDbEntity
  8
0
100
AcDbLine
 10
36.2
 20
9.5
 30
0.0
 11
38.0
 21
9.5
 31
0.0
  0
LINE
  5
5BB
330
1E
100
AcDbEntity
  8
0
100
AcDbLine
 10
34.29999999999999
 20
9.5
 30
0.0
 11
36.2
 21
9.5
 31
0.0
  0
LINE
  5
5BC
330
1E
100
AcDbEntity
  8
0
100
AcDbLine
 10
32.29999999999999
 20
9.5
 30
0.0
 11
34.29999999999999
 21
9.5
 31
0.0
  0
LINE
  5
5BD
330
1E
100
AcDbEntity
  8
0
100
AcDbLine
 10
30.1
 20
9.5
 30
0.0
 11
32.29999999999999
 21
9.5
 31
0.0
  0
LINE
  5
5BE
330
1E
100
AcDbEntity
  8
0
100
AcDbLine
 10
28.0
 20
9.5
 30
0.0
 11
30.1
 21
9.5
 31
0.0
  0
LINE
  5
5BF
330
1E
100
AcDbEntity
  8
0
100
AcDbLine
 10
39.6
 20
9.5
 30
0.0
 11
41.1
 21
9.5
 31
0.0
  0
LINE
  5
5C1
330
1E
100
AcDbEntity
  8
0
100
AcDbLine
 10
41.1
 20
9.5
 30
0.0
 11
42.29999999999999
 21
9.5
 31
0.0
  0
LINE
  5
5C2
330
1E
100
AcDbEntity
  8
0
100
AcDbLine
 10
43.89999999999999
 20
9.5
 30
0.0
 11
44.29999999999999
 21
9.5
 31
0.0
  0
LINE
  5
5E2
330
1E
100
AcDbEntity
  8
0
100
AcDbLine
 10
44.5
 20
9.5
 30
0.0
 11
45.0
 21
9.9898
 31
0.0
  0
LINE
  5
5E3
330
1E
100
AcDbEntity
  8
0
100
AcDbLine
 10
44.5
 20
9.5
 30
0.0
 11
44.5
 21
8.5
 31
0.0
  0
LINE
  5
5E4
330
1E
100
AcDbEntity
  8
0
100
AcDbLine
 10
44.29999999999999
 20
9.5
 30
0.0
 11
44.5
 21
9.5
 31
0.0
  0
LINE
  5
5E5
330
1E
100
AcDbEntity
  8
0
100
AcDbLine
 10
28.0
 20
9.9898
 30
0.0
 11
30.2
 21
9.9898
 31
0.0
  0
LINE
  5
5E6
330
1E
100
AcDbEntity
  8
0
100
AcDbLine
 10
25.9552
 20
33.5
 30
0.0
 11
26.6664
 21
33.5
 31
0.0
  0
LINE
  5
5E7
330
1E
100
AcDbEntity
  8
0
100
AcDbLine
 10
26.6664
 20
33.5
 30
0.0
 11
27.2888
 21
33.5
 31
0.0
  0
LINE
  5
5E8
330
1E
100
AcDbEntity
  8
0
100
AcDbLine
 10
28.0
 20
33.5
 30
0.0
 11
28.7112
 21
33.5
 31
0.0
  0
LINE
  5
5E9
330
1E
100
AcDbEntity
  8
0
100
AcDbLine
 10
27.2888
 20
33.5
 30
0.0
 11
28.0
 21
33.5
 31
0.0
  0
LINE
  5
5ED
330
1E
100
AcDbEntity
  8
0
100
AcDbLine
 10
38.3
 20
9.9898
 30
0.0
 11
40.0
 21
9.9898
 31
0.0
  0
LINE
  5
5EE
330
1E
100
AcDbEntity
  8
0
100
AcDbLine
 10
36.5
 20
9.9898
 30
0.0
 11
38.3
 21
9.9898
 31
0.0
  0
LINE
  5
5EF
330
1E
100
AcDbEntity
  8
0
100
AcDbLine
 10
34.5
 20
9.9898
 30
0.0
 11
36.5
 21
9.9898
 31
0.0
  0
LINE
  5
5F0
330
1E
100
AcDbEntity
  8
0
100
AcDbLine
 10
32.4
 20
9.9898
 30
0.0
 11
34.5
 21
9.9898
 31
0.0
  0
LINE
  5
5F1
330
1E
100
AcDbEntity
  8
0
100
AcDbLine
 10
30.2
 20
9.9898
 30
0.0
 11
32.4
 21
9.9898
 31
0.0
  0
LINE
  5
5F2
330
1E
100
AcDbEntity
  8
0
100
AcDbLine
 10
40.0
 20
9.9898
 30
0.0
 11
41.5
 21
9.9898
 31
0.0
  0
LINE
  5
5F3
330
1E
100
AcDbEntity
  8
0
100
AcDbLine
 10
41.5
 20
9.9898
 30
0.0
 11
42.7
 21
9.9898
 31
0.0
  0
LINE
  5
5F4
330
1E
100
AcDbEntity
  8
0
100
AcDbLine
 10
42.7
 20
9.9898
 30
0.0
 11
43.7
 21
9.9898
 31
0.0
  0
LINE
  5
5F5
330
1E
100
AcDbEntity
  8
0
100
AcDbLine
 10
43.7
 20
9.9898
 30
0.0
 11
44.4
 21
9.9898
 31
0.0
  0
LINE
  5
610
330
1E
100
AcDbEntity
  8
0
100
AcDbLine
 10
44.4
 20
9.9898
 30
0.0
 11
44.79999999999999
 21
9.9898
 31
0.0
  0
LINE
  5
61C
330
1E
100
AcDbEntity
  8
0
100
AcDbLine
 10
31.2005
 20
33.5
 30
0.0
 11
31.734
 21
33.5
 31
0.0
  0
LINE
  5
61D
330
1E
100
AcDbEntity
  8
0
100
AcDbLine
 10
30.6671
 20
33.5
 30
0.0
 11
31.2005
 21
33.5
 31
0.0
  0
LINE
  5
61E
330
1E
100
AcDbEntity
  8
0
100
AcDbLine
 10
30.0448
 20
33.5
 30
0.0
 11
30.6671
 21
33.5
 31
0.0
  0
LINE
  5
61F
330
1E
100
AcDbEntity
  8
0
100
AcDbLine
 10
29.3336
 20
33.5
 30
0.0
 11
30.0448
 21
33.5
 31
0.0
  0
LINE
  5
620
330
1E
100
AcDbEntity
  8
0
100
AcDbLine
 10
28.7112
 20
33.5
 30
0.0
 11
29.3336
 21
33.5
 31
0.0
  0
LINE
  5
62A
330
1E
100
AcDbEntity
  8
0
100
AcDbLine
 10
38.6685
 20
33.39119999999999
 30
0.0
 11
41.3356
 21
33.22789999999999
 31
0.0
  0
LINE
  5
62C
330
1E
100
AcDbEntity
  8
0
100
AcDbLine
 10
41.3356
 20
33.22789999999999
 30
0.0
 11
42.2246
 21
32.9558
 31
0.0
  0
LINE
  5
62E
330
1E
100
AcDbEntity
  8
0
100
AcDbLine
 10
42.2246
 20
32.9558
 30
0.0
 11
42.6691
 21
32.4116
 31
0.0
  0
LINE
  5
670
330
1E
100
AcDbEntity
  8
0
100
AcDbLine
 10
145.0
 20
100.062
 30
0.0
 11
147.55
 21
7.5
 31
0.0
  0
LINE
  5
671
330
1E
100
AcDbEntity
  8
0
100
AcDbLine
 10
145.0
 20
100.062
 30
0.0
 11
147.55
 21
7.5
 31
0.0
  0
LINE
  5
673
330
1E
100
AcDbEntity
  8
0
100
AcDbLine
 10
111.0
 20
100.062
 30
0.0
 11
111.2729999999999
 21
103.525
 31
0.0
  0
LINE
  5
674
330
1E
100
AcDbEntity
  8
0
100
AcDbLine
 10
111.5269999999999
 20
106.9539999999999
 30
0.0
 11
111.782
 21
110.26
 31
0.0
  0
LINE
  5
675
330
1E
100
AcDbEntity
  8
0
100
AcDbLine
 10
111.782
 20
110.26
 30
0.0
 11
112.054
 21
113.426
 31
0.0
  0
LINE
  5
676
330
1E
100
AcDbEntity
  8
0
100
AcDbLine
 10
111.2729999999999
 20
103.525
 30
0.0
 11
111.5269999999999
 21
106.9539999999999
 31
0.0
  0
LINE
  5
677
330
1E
100
AcDbEntity
  8
0
100
AcDbLine
 10
112.054
 20
113.426
 30
0.0
 11
112.29
 21
116.5229999999999
 31
0.0
  0
LINE
  5
678
330
1E
100
AcDbEntity
  8
0
100
AcDbLine
 10
112.472
 20
119.2339999999999
 30
0.0
 11
112.654
 21
121.701
 31
0.0
  0
LINE
  5
679
330
1E
100
AcDbEntity
  8
0
100
AcDbLine
 10
112.8749999999999
 20
125.6299999999999
 30
0.0
 11
112.985
 21
126.7849999999999
 31
0.0
  0
LINE
  5
67A
330
1E
100
AcDbEntity
  8
0
100
AcDbLine
 10
112.799
 20
123.8169999999999
 30
0.0
 11
112.8749999999999
 21
125.6299999999999
 31
0.0
  0
LINE
  5
67B
330
1E
100
AcDbEntity
  8
0
100
AcDbLine
 10
112.654
 20
121.701
 30
0.0
 11
112.799
 21
123.8169999999999
 31
0.0
  0
LINE
  5
67C
330
1E
100
AcDbEntity
  8
0
100
AcDbLine
 10
112.985
 20
126.7849999999999
 30
0.0
 11
113.0719999999999
 21
127.62
 31
0.0
  0
LINE
  5
67D
330
1E
100
AcDbEntity
  8
0
100
AcDbLine
 10
112.29
 20
116.5229999999999
 30
0.0
 11
112.472
 21
119.2339999999999
 31
0.0
  0
LINE
  5
67E
330
1E
100
AcDbEntity
  8
0
100
AcDbLine
 10
113.135
 20
127.9789999999999
 30
0.0
 11
115.422
 21
145.0009999999999
 31
0.0
  0
LINE
  5
67F
330
1E
100
AcDbEntity
  8
0
100
AcDbLine
 10
115.422
 20
143.805
 30
0.0
 11
115.422
 21
145.0009999999999
 31
0.0
  0
LINE
  5
680
330
1E
100
AcDbEntity
  8
0
100
AcDbLine
 10
115.422
 20
143.805
 30
0.0
 11
115.422
 21
140.2009999999999
 31
0.0
  0
LINE
  5
681
330
1E
100
AcDbEntity
  8
0
100
AcDbLine
 10
115.422
 20
145.0009999999999
 30
0.0
 11
115.8739999999999
 21
147.305
 31
0.0
  0
LINE
  5
682
330
1E
100
AcDbEntity
  8
0
100
AcDbLine
 10
115.422
 20
145.0009999999999
 30
0.0
 11
115.422
 21
143.805
 31
0.0
  0
LINE
  5
683
330
1E
100
AcDbEntity
  8
0
100
AcDbLine
 10
115.422
 20
140.2009999999999
 30
0.0
 11
115.422
 21
134.623
 31
0.0
  0
LINE
  5
684
330
1E
100
AcDbEntity
  8
0
100
AcDbLine
 10
115.422
 20
140.2009999999999
 30
0.0
 11
115.422
 21
143.805
 31
0.0
  0
LINE
  5
685
330
1E
100
AcDbEntity
  8
0
100
AcDbLine
 10
115.422
 20
134.623
 30
0.0
 11
115.422
 21
140.2009999999999
 31
0.0
  0
LINE
  5
686
330
1E
100
AcDbEntity
  8
0
100
AcDbLine
 10
115.422
 20
134.623
 30
0.0
 11
115.422
 21
127.334
 31
0.0
  0
LINE
  5
687
330
1E
100
AcDbEntity
  8
0
100
AcDbLine
 10
113.0719999999999
 20
127.62
 30
0.0
 11
113.135
 21
127.9789999999999
 31
0.0
  0
LINE
  5
688
330
1E
100
AcDbEntity
  8
0
100
AcDbLine
 10
115.422
 20
127.334
 30
0.0
 11
115.422
 21
125.276
 31
0.0
  0
LINE
  5
689
330
1E
100
AcDbEntity
  8
0
100
AcDbLine
 10
115.422
 20
127.334
 30
0.0
 11
115.422
 21
134.623
 31
0.0
  0
LINE
  5
69F
330
1E
100
AcDbEntity
  8
0
100
AcDbLine
 10
128.0
 20
120.221
 30
0.0
 11
131.22
 21
120.401
 31
0.0
  0
LINE
  5
6B6
330
1E
100
AcDbEntity
  8
0
100
AcDbLine
 10
144.2189999999999
 20
110.26
 30
0.0
 11
144.4729999999999
 21
106.9539999999999
 31
0.0
  0
LINE
  5
6B7
330
1E
100
AcDbEntity
  8
0
100
AcDbLine
 10
143.9459999999999
 20
113.426
 30
0.0
 11
144.2189999999999
 21
110.26
 31
0.0
  0
LINE
  5
6B9
330
1E
100
AcDbEntity
  8
0
100
AcDbLine
 10
144.4729999999999
 20
106.9539999999999
 30
0.0
 11
144.727
 21
103.525
 31
0.0
  0
LINE
  5
6BA
330
1E
100
AcDbEntity
  8
0
100
AcDbLine
 10
144.727
 20
103.525
 30
0.0
 11
145.0
 21
100.062
 31
0.0
  0
LINE
  5
6BC
330
1E
100
AcDbEntity
  8
0
100
AcDbLine
 10
143.71
 20
116.5229999999999
 30
0.0
 11
143.9459999999999
 21
113.426
 31
0.0
  0
LINE
  5
6BF
330
1E
100
AcDbEntity
  8
0
100
AcDbLine
 10
143.5279999999999
 20
119.2339999999999
 30
0.0
 11
143.71
 21
116.5229999999999
 31
0.0
  0
LINE
  5
6C0
330
1E
100
AcDbEntity
  8
0
100
AcDbLine
 10
131.22
 20
120.401
 30
0.0
 11
134.2389999999999
 21
120.886
 31
0.0
  0
LINE
  5
6C3
330
1E
100
AcDbEntity
  8
0
100
AcDbLine
 10
128.0
 20
120.9989999999999
 30
0.0
 11
130.6349999999999
 21
121.123
 31
0.0
  0
LINE
  5
6C4
330
1E
100
AcDbEntity
  8
0
100
AcDbLine
 10
130.6349999999999
 20
121.123
 30
0.0
 11
133.1049999999999
 21
121.4609999999999
 31
0.0
  0
LINE
  5
6C7
330
1E
100
AcDbEntity
  8
0
100
AcDbLine
 10
134.2389999999999
 20
120.886
 30
0.0
 11
136.906
 21
121.696
 31
0.0
  0
LINE
  5
6C8
330
1E
100
AcDbEntity
  8
0
100
AcDbLine
 10
133.1049999999999
 20
121.4609999999999
 30
0.0
 11
135.2859999999999
 21
122.021
 31
0.0
  0
LINE
  5
6C9
330
1E
100
AcDbEntity
  8
0
100
AcDbLine
 10
136.906
 20
121.696
 30
0.0
 11
138.918
 21
122.7679999999999
 31
0.0
  0
LINE
  5
6CA
330
1E
100
AcDbEntity
  8
0
100
AcDbLine
 10
125.3649999999999
 20
121.123
 30
0.0
 11
128.0
 21
120.9989999999999
 31
0.0
  0
LINE
  5
6CB
330
1E
100
AcDbEntity
  8
0
100
AcDbLine
 10
122.896
 20
121.4609999999999
 30
0.0
 11
125.3649999999999
 21
121.123
 31
0.0
  0
LINE
  5
6CC
330
1E
100
AcDbEntity
  8
0
100
AcDbLine
 10
124.78
 20
120.401
 30
0.0
 11
128.0
 21
120.221
 31
0.0
  0
LINE
  5
6CD
330
1E
100
AcDbEntity
  8
0
100
AcDbLine
 10
121.761
 20
120.886
 30
0.0
 11
124.78
 21
120.401
 31
0.0
  0
LINE
  5
6CE
330
1E
100
AcDbEntity
  8
0
100
AcDbLine
 10
118.079
 20
123.6029999999999
 30
0.0
 11
119.067
 21
122.7629999999999
 31
0.0
  0
LINE
  5
6CF
330
1E
100
AcDbEntity
  8
0
100
AcDbLine
 10
143.346
 20
121.701
 30
0.0
 11
143.5279999999999
 21
119.2339999999999
 31
0.0
  0
LINE
  5
6D1
330
1E
100
AcDbEntity
  8
0
100
AcDbLine
 10
135.2859999999999
 20
122.021
 30
0.0
 11
136.9329999999999
 21
122.7629999999999
 31
0.0
  0
LINE
  5
6D3
330
1E
100
AcDbEntity
  8
0
100
AcDbLine
 10
136.9329999999999
 20
122.7629999999999
 30
0.0
 11
137.921
 21
123.602
 31
0.0
  0
LINE
  5
6D4
330
1E
100
AcDbEntity
  8
0
100
AcDbLine
 10
136.9329999999999
 20
122.7629999999999
 30
0.0
 11
137.921
 21
123.6029999999999
 31
0.0
  0
LINE
  5
6D5
330
1E
100
AcDbEntity
  8
0
100
AcDbLine
 10
137.921
 20
123.6029999999999
 30
0.0
 11
138.291
 21
124.5
 31
0.0
  0
LINE
  5
6D6
330
1E
100
AcDbEntity
  8
0
100
AcDbLine
 10
137.921
 20
123.602
 30
0.0
 11
138.291
 21
124.5
 31
0.0
  0
LINE
  5
6D7
330
1E
100
AcDbEntity
  8
0
100
AcDbLine
 10
143.201
 20
123.8169999999999
 30
0.0
 11
143.346
 21
121.701
 31
0.0
  0
LINE
  5
6D8
330
1E
100
AcDbEntity
  8
0
100
AcDbLine
 10
138.918
 20
122.7679999999999
 30
0.0
 11
140.126
 21
123.981
 31
0.0
  0
LINE
  5
6D9
330
1E
100
AcDbEntity
  8
0
100
AcDbLine
 10
140.126
 20
123.981
 30
0.0
 11
140.578
 21
125.276
 31
0.0
  0
LINE
  5
6DA
330
1E
100
AcDbEntity
  8
0
100
AcDbLine
 10
119.067
 20
122.7629999999999
 30
0.0
 11
120.714
 21
122.021
 31
0.0
  0
LINE
  5
6DC
330
1E
100
AcDbEntity
  8
0
100
AcDbLine
 10
120.714
 20
122.021
 30
0.0
 11
122.896
 21
121.4609999999999
 31
0.0
  0
LINE
  5
6DD
330
1E
100
AcDbEntity
  8
0
100
AcDbLine
 10
118.079
 20
123.602
 30
0.0
 11
119.067
 21
122.7629999999999
 31
0.0
  0
LINE
  5
6DE
330
1E
100
AcDbEntity
  8
0
100
AcDbLine
 10
119.0939999999999
 20
121.696
 30
0.0
 11
121.761
 21
120.886
 31
0.0
  0
LINE
  5
6DF
330
1E
100
AcDbEntity
  8
0
100
AcDbLine
 10
117.082
 20
122.7679999999999
 30
0.0
 11
119.0939999999999
 21
121.696
 31
0.0
  0
LINE
  5
6E0
330
1E
100
AcDbEntity
  8
0
100
AcDbLine
 10
115.8739999999999
 20
147.305
 30
0.0
 11
117.082
 21
149.4639999999999
 31
0.0
  0
LINE
  5
6E1
330
1E
100
AcDbEntity
  8
0
100
AcDbLine
 10
118.079
 20
125.3959999999999
 30
0.0
 11
119.067
 21
126.234
 31
0.0
  0
LINE
  5
6E2
330
1E
100
AcDbEntity
  8
0
100
AcDbLine
 10
130.6349999999999
 20
124.209
 30
0.0
 11
133.1049999999999
 21
124.546
 31
0.0
  0
LINE
  5
6E4
330
1E
100
AcDbEntity
  8
0
100
AcDbLine
 10
128.0
 20
124.083
 30
0.0
 11
130.6349999999999
 21
124.209
 31
0.0
  0
LINE
  5
6E5
330
1E
100
AcDbEntity
  8
0
100
AcDbLine
 10
133.1049999999999
 20
124.546
 30
0.0
 11
135.2859999999999
 21
125.106
 31
0.0
  0
LINE
  5
6E7
330
1E
100
AcDbEntity
  8
0
100
AcDbLine
 10
135.2859999999999
 20
125.106
 30
0.0
 11
136.9329999999999
 21
125.848
 31
0.0
  0
LINE
  5
6E8
330
1E
100
AcDbEntity
  8
0
100
AcDbLine
 10
125.3649999999999
 20
124.209
 30
0.0
 11
128.0
 21
124.083
 31
0.0
  0
LINE
  5
6E9
330
1E
100
AcDbEntity
  8
0
100
AcDbLine
 10
122.896
 20
124.546
 30
0.0
 11
125.3649999999999
 21
124.209
 31
0.0
  0
LINE
  5
6EA
330
1E
100
AcDbEntity
  8
0
100
AcDbLine
 10
137.921
 20
125.3959999999999
 30
0.0
 11
138.291
 21
124.5
 31
0.0
  0
LINE
  5
6EC
330
1E
100
AcDbEntity
  8
0
100
AcDbLine
 10
136.9329999999999
 20
125.848
 30
0.0
 11
137.1602753277709
 21
126.041230035757
 31
0.0
  0
LINE
  5
6ED
330
1E
100
AcDbEntity
  8
0
100
AcDbLine
 10
143.125
 20
125.6299999999999
 30
0.0
 11
143.201
 21
123.8169999999999
 31
0.0
  0
LINE
  5
6EE
330
1E
100
AcDbEntity
  8
0
100
AcDbLine
 10
140.578
 20
125.276
 30
0.0
 11
140.578
 21
127.334
 31
0.0
  0
LINE
  5
6EF
330
1E
100
AcDbEntity
  8
0
100
AcDbLine
 10
120.714
 20
125.106
 30
0.0
 11
122.896
 21
124.546
 31
0.0
  0
LINE
  5
6F0
330
1E
100
AcDbEntity
  8
0
100
AcDbLine
 10
119.067
 20
125.848
 30
0.0
 11
120.714
 21
125.106
 31
0.0
  0
LINE
  5
6F1
330
1E
100
AcDbEntity
  8
0
100
AcDbLine
 10
135.2859999999999
 20
126.9779999999999
 30
0.0
 11
136.9329999999999
 21
126.234
 31
0.0
  0
LINE
  5
6F2
330
1E
100
AcDbEntity
  8
0
100
AcDbLine
 10
136.9329999999999
 20
126.234
 30
0.0
 11
137.921
 21
125.3959999999999
 31
0.0
  0
LINE
  5
6F3
330
1E
100
AcDbEntity
  8
0
100
AcDbLine
 10
143.0149999999999
 20
126.7849999999999
 30
0.0
 11
143.125
 21
125.6299999999999
 31
0.0
  0
LINE
  5
6F4
330
1E
100
AcDbEntity
  8
0
100
AcDbLine
 10
140.126
 20
126.172
 30
0.0
 11
140.578
 21
125.276
 31
0.0
  0
LINE
  5
6F5
330
1E
100
AcDbEntity
  8
0
100
AcDbLine
 10
138.918
 20
127.012
 30
0.0
 11
140.126
 21
126.172
 31
0.0
  0
LINE
  5
6F6
330
1E
100
AcDbEntity
  8
0
100
AcDbLine
 10
120.714
 20
126.9779999999999
 30
0.0
 11
122.896
 21
127.5379999999999
 31
0.0
  0
LINE
  5
6F7
330
1E
100
AcDbEntity
  8
0
100
AcDbLine
 10
119.067
 20
126.234
 30
0.0
 11
120.714
 21
126.9779999999999
 31
0.0
  0
LINE
  5
6F8
330
1E
100
AcDbEntity
  8
0
100
AcDbLine
 10
118.839724672229
 20
126.041230035757
 30
0.0
 11
119.067
 21
125.848
 31
0.0
  0
LINE
  5
6F9
330
1E
100
AcDbEntity
  8
0
100
AcDbLine
 10
117.7089999999999
 20
124.5
 30
0.0
 11
118.079
 21
123.602
 31
0.0
  0
LINE
  5
6FA
330
1E
100
AcDbEntity
  8
0
100
AcDbLine
 10
117.7089999999999
 20
124.5
 30
0.0
 11
118.079
 21
125.3959999999999
 31
0.0
  0
LINE
  5
6FB
330
1E
100
AcDbEntity
  8
0
100
AcDbLine
 10
117.7089999999999
 20
124.5
 30
0.0
 11
118.079
 21
123.6029999999999
 31
0.0
  0
LINE
  5
6FC
330
1E
100
AcDbEntity
  8
0
100
AcDbLine
 10
119.0939999999999
 20
151.372
 30
0.0
 11
121.761
 21
152.812
 31
0.0
  0
LINE
  5
6FD
330
1E
100
AcDbEntity
  8
0
100
AcDbLine
 10
117.082
 20
149.4639999999999
 30
0.0
 11
119.0939999999999
 21
151.372
 31
0.0
  0
LINE
  5
6FE
330
1E
100
AcDbEntity
  8
0
100
AcDbLine
 10
133.1049999999999
 20
127.5379999999999
 30
0.0
 11
135.2859999999999
 21
126.9779999999999
 31
0.0
  0
LINE
  5
6FF
330
1E
100
AcDbEntity
  8
0
100
AcDbLine
 10
130.6349999999999
 20
127.8739999999999
 30
0.0
 11
133.1049999999999
 21
127.5379999999999
 31
0.0
  0
LINE
  5
700
330
1E
100
AcDbEntity
  8
0
100
AcDbLine
 10
136.906
 20
127.7549999999999
 30
0.0
 11
138.918
 21
127.012
 31
0.0
  0
LINE
  5
701
330
1E
100
AcDbEntity
  8
0
100
AcDbLine
 10
142.928
 20
127.62
 30
0.0
 11
143.0149999999999
 21
126.7849999999999
 31
0.0
  0
LINE
  5
702
330
1E
100
AcDbEntity
  8
0
100
AcDbLine
 10
140.578
 20
127.334
 30
0.0
 11
140.578
 21
125.276
 31
0.0
  0
LINE
  5
703
330
1E
100
AcDbEntity
  8
0
100
AcDbLine
 10
140.578
 20
127.334
 30
0.0
 11
140.578
 21
134.623
 31
0.0
  0
LINE
  5
704
330
1E
100
AcDbEntity
  8
0
100
AcDbLine
 10
128.0
 20
128.001
 30
0.0
 11
130.6349999999999
 21
127.8739999999999
 31
0.0
  0
LINE
  5
705
330
1E
100
AcDbEntity
  8
0
100
AcDbLine
 10
142.865
 20
127.9789999999999
 30
0.0
 11
142.928
 21
127.62
 31
0.0
  0
LINE
  5
706
330
1E
100
AcDbEntity
  8
0
100
AcDbLine
 10
134.2389999999999
 20
128.315
 30
0.0
 11
136.906
 21
127.7549999999999
 31
0.0
  0
LINE
  5
707
330
1E
100
AcDbEntity
  8
0
100
AcDbLine
 10
125.3649999999999
 20
127.8739999999999
 30
0.0
 11
128.0
 21
128.001
 31
0.0
  0
LINE
  5
708
330
1E
100
AcDbEntity
  8
0
100
AcDbLine
 10
122.896
 20
127.5379999999999
 30
0.0
 11
125.3649999999999
 21
127.8739999999999
 31
0.0
  0
LINE
  5
709
330
1E
100
AcDbEntity
  8
0
100
AcDbLine
 10
124.78
 20
153.676
 30
0.0
 11
128.0
 21
154.0
 31
0.0
  0
LINE
  5
70A
330
1E
100
AcDbEntity
  8
0
100
AcDbLine
 10
121.761
 20
152.812
 30
0.0
 11
124.78
 21
153.676
 31
0.0
  0
LINE
  5
70B
330
1E
100
AcDbEntity
  8
0
100
AcDbLine
 10
128.0
 20
154.0
 30
0.0
 11
131.22
 21
153.676
 31
0.0
  0
LINE
  5
70C
330
1E
100
AcDbEntity
  8
0
100
AcDbLine
 10
140.578
 20
134.623
 30
0.0
 11
140.578
 21
140.2009999999999
 31
0.0
  0
LINE
  5
70D
330
1E
100
AcDbEntity
  8
0
100
AcDbLine
 10
140.578
 20
134.623
 30
0.0
 11
140.578
 21
127.334
 31
0.0
  0
LINE
  5
70E
330
1E
100
AcDbEntity
  8
0
100
AcDbLine
 10
131.22
 20
153.676
 30
0.0
 11
134.2389999999999
 21
152.812
 31
0.0
  0
LINE
  5
70F
330
1E
100
AcDbEntity
  8
0
100
AcDbLine
 10
134.2389999999999
 20
152.812
 30
0.0
 11
136.906
 21
151.372
 31
0.0
  0
LINE
  5
710
330
1E
100
AcDbEntity
  8
0
100
AcDbLine
 10
136.906
 20
151.372
 30
0.0
 11
138.918
 21
149.4639999999999
 31
0.0
  0
LINE
  5
711
330
1E
100
AcDbEntity
  8
0
100
AcDbLine
 10
138.918
 20
149.4639999999999
 30
0.0
 11
140.126
 21
147.305
 31
0.0
  0
LINE
  5
712
330
1E
100
AcDbEntity
  8
0
100
AcDbLine
 10
140.578
 20
143.805
 30
0.0
 11
140.578
 21
145.0009999999999
 31
0.0
  0
LINE
  5
713
330
1E
100
AcDbEntity
  8
0
100
AcDbLine
 10
140.578
 20
143.805
 30
0.0
 11
140.578
 21
140.2009999999999
 31
0.0
  0
LINE
  5
714
330
1E
100
AcDbEntity
  8
0
100
AcDbLine
 10
140.126
 20
147.305
 30
0.0
 11
140.578
 21
145.0009999999999
 31
0.0
  0
LINE
  5
715
330
1E
100
AcDbEntity
  8
0
100
AcDbLine
 10
140.578
 20
145.0009999999999
 30
0.0
 11
142.865
 21
127.9789999999999
 31
0.0
  0
LINE
  5
716
330
1E
100
AcDbEntity
  8
0
100
AcDbLine
 10
140.578
 20
145.0009999999999
 30
0.0
 11
140.578
 21
143.805
 31
0.0
  0
LINE
  5
717
330
1E
100
AcDbEntity
  8
0
100
AcDbLine
 10
140.578
 20
140.2009999999999
 30
0.0
 11
140.578
 21
134.623
 31
0.0
  0
LINE
  5
718
330
1E
100
AcDbEntity
  8
0
100
AcDbLine
 10
140.578
 20
140.2009999999999
 30
0.0
 11
140.578
 21
143.805
 31
0.0
  0
LINE
  5
719
330
1E
100
AcDbEntity
  8
0
100
AcDbLine
 10
128.0
 20
128.777
 30
0.0
 11
131.22
 21
128.651
 31
0.0
  0
LINE
  5
71A
330
1E
100
AcDbEntity
  8
0
100
AcDbLine
 10
131.22
 20
128.651
 30
0.0
 11
134.2389999999999
 21
128.315
 31
0.0
  0
LINE
  5
71B
330
1E
100
AcDbEntity
  8
0
100
AcDbLine
 10
124.78
 20
128.651
 30
0.0
 11
128.0
 21
128.777
 31
0.0
  0
LINE
  5
71C
330
1E
100
AcDbEntity
  8
0
100
AcDbLine
 10
121.761
 20
128.315
 30
0.0
 11
124.78
 21
128.651
 31
0.0
  0
LINE
  5
71D
330
1E
100
AcDbEntity
  8
0
100
AcDbLine
 10
119.0939999999999
 20
127.7549999999999
 30
0.0
 11
121.761
 21
128.315
 31
0.0
  0
LINE
  5
71E
330
1E
100
AcDbEntity
  8
0
100
AcDbLine
 10
117.082
 20
127.012
 30
0.0
 11
119.0939999999999
 21
127.7549999999999
 31
0.0
  0
LINE
  5
71F
330
1E
100
AcDbEntity
  8
0
100
AcDbLine
 10
115.8739999999999
 20
126.172
 30
0.0
 11
117.082
 21
127.012
 31
0.0
  0
LINE
  5
720
330
1E
100
AcDbEntity
  8
0
100
AcDbLine
 10
115.8739999999999
 20
123.981
 30
0.0
 11
117.082
 21
122.7679999999999
 31
0.0
  0
LINE
  5
721
330
1E
100
AcDbEntity
  8
0
100
AcDbLine
 10
115.422
 20
125.276
 30
0.0
 11
115.8739999999999
 21
123.981
 31
0.0
  0
LINE
  5
722
330
1E
100
AcDbEntity
  8
0
100
AcDbLine
 10
115.422
 20
125.276
 30
0.0
 11
115.422
 21
127.334
 31
0.0
  0
LINE
  5
723
330
1E
100
AcDbEntity
  8
0
100
AcDbLine
 10
115.422
 20
125.276
 30
0.0
 11
115.8739999999999
 21
126.172
 31
0.0
  0
LINE
  5
725
330
1E
100
AcDbEntity
  8
0
100
AcDbLine
 10
42.6691
 20
32.4116
 30
0.0
 11
45.0
 21
9.9898
 31
0.0
  0
LINE
  5
726
330
1E
100
AcDbEntity
  8
0
100
AcDbLine
 10
44.79999999999999
 20
9.9898
 30
0.0
 11
45.0
 21
9.9898
 31
0.0
  0
LINE
  5
729
330
1E
100
AcDbEntity
  8
0
100
AcDbLine
 10
25.89999999999999
 20
9.5
 30
0.0
 11
28.0
 21
9.5
 31
0.0
  0
LINE
  5
72A
330
1E
100
AcDbEntity
  8
0
100
AcDbLine
 10
25.8
 20
9.9898
 30
0.0
 11
28.0
 21
9.9898
 31
0.0
  0
LINE
  5
72B
330
1E
100
AcDbEntity
  8
0
100
AcDbLine
 10
25.89999999999999
 20
8.5
 30
0.0
 11
28.0
 21
8.5
 31
0.0
  0
LINE
  5
72C
330
1E
100
AcDbEntity
  8
0
100
AcDbLine
 10
14.9
 20
8.5
 30
0.0
 11
16.39999999999999
 21
8.5
 31
0.0
  0
LINE
  5
72F
330
1E
100
AcDbEntity
  8
0
100
AcDbLine
 10
16.0
 20
8.0
 30
0.0
 11
17.7
 21
8.0
 31
0.0
  0
LINE
  5
731
330
1E
100
AcDbEntity
  8
0
100
AcDbLine
 10
14.5
 20
8.0
 30
0.0
 11
16.0
 21
8.0
 31
0.0
  0
LINE
  5
744
330
1E
100
AcDbEntity
  8
0
100
AcDbLine
 10
8.199999999999999
 20
-0.000000000000003
 30
0.0
 11
28.0
 21
-0.0000000000000042
 31
0.0
  0
LINE
  5
745
330
1E
100
AcDbEntity
  8
0
100
AcDbLine
 10
8.199999999999999
 20
-0.000000000000003
 30
0.0
 11
11.0
 21
-0.0000000000000029
 31
0.0
  0
LINE
  5
746
330
1E
100
AcDbEntity
  8
0
100
AcDbLine
 10
5.799999999999999
 20
-0.0000000000000032
 30
0.0
 11
28.0
 21
-0.0000000000000042
 31
0.0
  0
LINE
  5
747
330
1E
100
AcDbEntity
  8
0
100
AcDbLine
 10
5.799999999999999
 20
-0.0000000000000032
 30
0.0
 11
8.199999999999999
 21
-0.000000000000003
 31
0.0
  0
LINE
  5
749
330
1E
100
AcDbEntity
  8
0
100
AcDbLine
 10
3.7
 20
-0.0000000000000034
 30
0.0
 11
28.0
 21
-0.0000000000000042
 31
0.0
  0
LINE
  5
74A
330
1E
100
AcDbEntity
  8
0
100
AcDbLine
 10
3.7
 20
-0.0000000000000034
 30
0.0
 11
5.799999999999999
 21
-0.0000000000000032
 31
0.0
  0
LINE
  5
74C
330
1E
100
AcDbEntity
  8
0
100
AcDbLine
 10
2.2
 20
-0.0000000000000036
 30
0.0
 11
28.0
 21
-0.0000000000000042
 31
0.0
  0
LINE
  5
74D
330
1E
100
AcDbEntity
  8
0
100
AcDbLine
 10
2.2
 20
-0.0000000000000036
 30
0.0
 11
3.7
 21
-0.0000000000000034
 31
0.0
  0
LINE
  5
74F
330
1E
100
AcDbEntity
  8
0
100
AcDbLine
 10
1.0
 20
-0.0000000000000038
 30
0.0
 11
28.0
 21
-0.0000000000000042
 31
0.0
  0
LINE
  5
750
330
1E
100
AcDbEntity
  8
0
100
AcDbLine
 10
1.0
 20
-0.0000000000000038
 30
0.0
 11
2.2
 21
-0.0000000000000036
 31
0.0
  0
LINE
  5
752
330
1E
100
AcDbEntity
  8
0
100
AcDbLine
 10
0.3
 20
-0.000000000000004
 30
0.0
 11
28.0
 21
-0.0000000000000042
 31
0.0
  0
LINE
  5
753
330
1E
100
AcDbEntity
  8
0
100
AcDbLine
 10
0.3
 20
-0.000000000000004
 30
0.0
 11
1.0
 21
-0.0000000000000038
 31
0.0
  0
LINE
  5
755
330
1E
100
AcDbEntity
  8
0
100
AcDbLine
 10
0.0
 20
-0.0000000000000042
 30
0.0
 11
28.0
 21
-0.0000000000000042
 31
0.0
  0
LINE
  5
756
330
1E
100
AcDbEntity
  8
0
100
AcDbLine
 10
0.0
 20
-0.0000000000000042
 30
0.0
 11
0.3
 21
-0.000000000000004
 31
0.0
  0
LINE
  5
757
330
1E
100
AcDbEntity
  8
0
100
AcDbLine
 10
0.0
 20
-0.0000000000000042
 30
0.0
 11
0.0
 21
3.5
 31
0.0
  0
LINE
  5
758
330
1E
100
AcDbEntity
  8
0
100
AcDbLine
 10
0.0
 20
-0.0000000000000042
 30
0.0
 11
0.3
 21
-0.0000000000000045
 31
0.0
  0
LINE
  5
75D
330
1E
100
AcDbEntity
  8
0
  6
Continuous
100
AcDbLine
 10
100.0
 20
3.5
 30
0.0
 11
100.5
 21
4.0
 31
0.0
  0
LINE
  5
75E
330
1E
100
AcDbEntity
  8
0
  6
Continuous
100
AcDbLine
 10
17.3315
 20
33.39119999999999
 30
0.0
 11
22.6658
 21
33.5
 31
0.0
  0
LINE
  5
75F
330
1E
100
AcDbEntity
  8
0
  6
Continuous
100
AcDbLine
 10
31.734
 20
33.5
 30
0.0
 11
38.6685
 21
33.39119999999999
 31
0.0
  0
LINE
  5
760
330
1E
100
AcDbEntity
  8
0
100
AcDbLine
 10
227.2888
 20
33.5
 30
0.0
 11
226.6664
 21
33.5
 31
0.0
  0
LINE
  5
761
330
1E
100
AcDbEntity
  8
0
100
AcDbLine
 10
228.0
 20
9.9898
 30
0.0
 11
225.8
 21
9.9898
 31
0.0
  0
LINE
  5
762
330
1E
100
AcDbEntity
  8
0
100
AcDbLine
 10
228.0
 20
9.5
 30
0.0
 11
225.8999999999999
 21
9.5
 31
0.0
  0
LINE
  5
763
330
1E
100
AcDbEntity
  8
0
100
AcDbLine
 10
228.0
 20
8.5
 30
0.0
 11
225.8999999999999
 21
8.5
 31
0.0
  0
LINE
  5
764
330
1E
100
AcDbEntity
  8
0
100
AcDbLine
 10
228.0
 20
8.0
 30
0.0
 11
225.8
 21
8.0
 31
0.0
  0
LINE
  5
765
330
1E
100
AcDbEntity
  8
0
100
AcDbLine
 10
228.0
 20
-0.0000000000000025
 30
0.0
 11
224.1999999999999
 21
-0.0000000000000026
 31
0.0
  0
LINE
  5
766
330
1E
100
AcDbEntity
  8
0
100
AcDbLine
 10
228.0
 20
4.0
 30
0.0
 11
224.4
 21
4.0
 31
0.0
  0
LINE
  5
767
330
1E
100
AcDbEntity
  8
0
100
AcDbLine
 10
228.0
 20
-0.0000000000000042
 30
0.0
 11
220.8
 21
-0.0000000000000059
 31
0.0
  0
LINE
  5
768
330
1E
100
AcDbEntity
  8
0
100
AcDbLine
 10
228.0
 20
-0.0000000000000042
 30
0.0
 11
224.1999999999999
 21
-0.0000000000000059
 31
0.0
  0
LINE
  5
769
330
1E
100
AcDbEntity
  8
0
100
AcDbLine
 10
228.0
 20
-0.0000000000000042
 30
0.0
 11
220.8
 21
-0.0000000000000026
 31
0.0
  0
LINE
  5
76A
330
1E
100
AcDbEntity
  8
0
100
AcDbLine
 10
228.0
 20
-0.0000000000000042
 30
0.0
 11
224.1999999999999
 21
-0.0000000000000026
 31
0.0
  0
LINE
  5
76B
330
1E
100
AcDbEntity
  8
0
100
AcDbLine
 10
228.0
 20
-0.000000000000006
 30
0.0
 11
224.1999999999999
 21
-0.0000000000000059
 31
0.0
  0
LINE
  5
76C
330
1E
100
AcDbEntity
  8
0
100
AcDbLine
 10
228.0
 20
-0.0000000000000042
 30
0.0
 11
211.0
 21
-0.0000000000000056
 31
0.0
  0
LINE
  5
76D
330
1E
100
AcDbEntity
  8
0
100
AcDbLine
 10
228.0
 20
-0.0000000000000042
 30
0.0
 11
214.1
 21
-0.0000000000000057
 31
0.0
  0
LINE
  5
76E
330
1E
100
AcDbEntity
  8
0
100
AcDbLine
 10
228.0
 20
-0.0000000000000042
 30
0.0
 11
217.3
 21
-0.0000000000000058
 31
0.0
  0
LINE
  5
76F
330
1E
100
AcDbEntity
  8
0
100
AcDbLine
 10
228.0
 20
-0.0000000000000042
 30
0.0
 11
208.1999999999999
 21
-0.0000000000000055
 31
0.0
  0
LINE
  5
770
330
1E
100
AcDbEntity
  8
0
100
AcDbLine
 10
228.0
 20
-0.0000000000000042
 30
0.0
 11
208.1999999999999
 21
-0.000000000000003
 31
0.0
  0
LINE
  5
771
330
1E
100
AcDbEntity
  8
0
100
AcDbLine
 10
228.0
 20
-0.0000000000000042
 30
0.0
 11
211.0
 21
-0.0000000000000029
 31
0.0
  0
LINE
  5
772
330
1E
100
AcDbEntity
  8
0
100
AcDbLine
 10
228.0
 20
-0.0000000000000042
 30
0.0
 11
214.1
 21
-0.0000000000000028
 31
0.0
  0
LINE
  5
773
330
1E
100
AcDbEntity
  8
0
100
AcDbLine
 10
228.0
 20
-0.0000000000000042
 30
0.0
 11
217.3
 21
-0.0000000000000027
 31
0.0
  0
LINE
  5
774
330
1E
100
AcDbEntity
  8
0
100
AcDbLine
 10
228.0
 20
-0.0000000000000042
 30
0.0
 11
205.8
 21
-0.0000000000000053
 31
0.0
  0
LINE
  5
775
330
1E
100
AcDbEntity
  8
0
100
AcDbLine
 10
228.0
 20
-0.0000000000000042
 30
0.0
 11
203.6999999999999
 21
-0.0000000000000051
 31
0.0
  0
LINE
  5
776
330
1E
100
AcDbEntity
  8
0
100
AcDbLine
 10
228.0
 20
-0.0000000000000042
 30
0.0
 11
202.1999999999999
 21
-0.0000000000000049
 31
0.0
  0
LINE
  5
777
330
1E
100
AcDbEntity
  8
0
100
AcDbLine
 10
228.0
 20
-0.0000000000000042
 30
0.0
 11
201.0
 21
-0.0000000000000047
 31
0.0
  0
LINE
  5
778
330
1E
100
AcDbEntity
  8
0
100
AcDbLine
 10
228.0
 20
-0.0000000000000042
 30
0.0
 11
200.3
 21
-0.0000000000000045
 31
0.0
  0
LINE
  5
779
330
1E
100
AcDbEntity
  8
0
100
AcDbLine
 10
228.0
 20
-0.0000000000000042
 30
0.0
 11
205.8
 21
-0.0000000000000032
 31
0.0
  0
LINE
  5
77A
330
1E
100
AcDbEntity
  8
0
100
AcDbLine
 10
228.0
 20
-0.0000000000000042
 30
0.0
 11
203.6999999999999
 21
-0.0000000000000034
 31
0.0
  0
LINE
  5
77B
330
1E
100
AcDbEntity
  8
0
100
AcDbLine
 10
228.0
 20
-0.0000000000000042
 30
0.0
 11
202.1999999999999
 21
-0.0000000000000036
 31
0.0
  0
LINE
  5
77C
330
1E
100
AcDbEntity
  8
0
100
AcDbLine
 10
228.0
 20
-0.0000000000000042
 30
0.0
 11
201.0
 21
-0.0000000000000038
 31
0.0
  0
LINE
  5
77D
330
1E
100
AcDbEntity
  8
0
100
AcDbLine
 10
228.0
 20
-0.0000000000000042
 30
0.0
 11
200.3
 21
-0.000000000000004
 31
0.0
  0
LINE
  5
77E
330
1E
100
AcDbEntity
  8
0
100
AcDbLine
 10
228.0
 20
-0.0000000000000042
 30
0.0
 11
200.0
 21
-0.0000000000000042
 31
0.0
  0
LINE
  5
77F
330
1E
100
AcDbEntity
  8
0
100
AcDbLine
 10
245.0
 20
9.9898
 30
0.0
 11
242.6691
 21
32.4116
 31
0.0
  0
LINE
  5
780
330
1E
100
AcDbEntity
  8
0
100
AcDbLine
 10
251.8
 20
4.0
 30
0.0
 11
249.8
 21
4.0
 31
0.0
  0
LINE
  5
781
330
1E
100
AcDbEntity
  8
0
100
AcDbLine
 10
252.3
 20
-0.0000000000000034
 30
0.0
 11
250.1999999999999
 21
-0.0000000000000032
 31
0.0
  0
LINE
  5
782
330
1E
100
AcDbEntity
  8
0
100
AcDbLine
 10
252.3
 20
-0.0000000000000051
 30
0.0
 11
250.1999999999999
 21
-0.0000000000000053
 31
0.0
  0
LINE
  5
783
330
1E
100
AcDbEntity
  8
0
100
AcDbLine
 10
255.5
 20
4.0
 30
0.0
 11
248.0
 21
4.5
 31
0.0
  0
LINE
  5
784
330
1E
100
AcDbEntity
  8
0
100
AcDbLine
 10
256.0
 20
-0.0000000000000042
 30
0.0
 11
228.0
 21
-0.0000000000000042
 31
0.0
  0
LINE
  5
785
330
1E
100
AcDbEntity
  8
0
100
AcDbLine
 10
255.6999999999999
 20
-0.000000000000004
 30
0.0
 11
228.0
 21
-0.0000000000000042
 31
0.0
  0
LINE
  5
786
330
1E
100
AcDbEntity
  8
0
100
AcDbLine
 10
255.0
 20
-0.0000000000000038
 30
0.0
 11
228.0
 21
-0.0000000000000042
 31
0.0
  0
LINE
  5
787
330
1E
100
AcDbEntity
  8
0
100
AcDbLine
 10
253.8
 20
-0.0000000000000036
 30
0.0
 11
228.0
 21
-0.0000000000000042
 31
0.0
  0
LINE
  5
788
330
1E
100
AcDbEntity
  8
0
100
AcDbLine
 10
252.3
 20
-0.0000000000000034
 30
0.0
 11
228.0
 21
-0.0000000000000042
 31
0.0
  0
LINE
  5
789
330
1E
100
AcDbEntity
  8
0
100
AcDbLine
 10
252.3
 20
-0.0000000000000034
 30
0.0
 11
228.0
 21
-0.0000000000000042
 31
0.0
  0
LINE
  5
78A
330
1E
100
AcDbEntity
  8
0
100
AcDbLine
 10
253.8
 20
-0.0000000000000036
 30
0.0
 11
228.0
 21
-0.0000000000000042
 31
0.0
  0
LINE
  5
78B
330
1E
100
AcDbEntity
  8
0
100
AcDbLine
 10
255.6999999999999
 20
-0.000000000000004
 30
0.0
 11
228.0
 21
-0.0000000000000042
 31
0.0
  0
LINE
  5
78C
330
1E
100
AcDbEntity
  8
0
100
AcDbLine
 10
255.0
 20
-0.0000000000000047
 30
0.0
 11
228.0
 21
-0.0000000000000042
 31
0.0
  0
LINE
  5
78D
330
1E
100
AcDbEntity
  8
0
100
AcDbLine
 10
253.8
 20
-0.0000000000000049
 30
0.0
 11
228.0
 21
-0.0000000000000042
 31
0.0
  0
LINE
  5
78E
330
1E
100
AcDbEntity
  8
0
100
AcDbLine
 10
252.3
 20
-0.0000000000000051
 30
0.0
 11
228.0
 21
-0.0000000000000042
 31
0.0
  0
LINE
  5
78F
330
1E
100
AcDbEntity
  8
0
100
AcDbLine
 10
252.3
 20
-0.0000000000000051
 30
0.0
 11
228.0
 21
-0.0000000000000042
 31
0.0
  0
LINE
  5
790
330
1E
100
AcDbEntity
  8
0
100
AcDbLine
 10
253.8
 20
-0.0000000000000049
 30
0.0
 11
228.0
 21
-0.0000000000000042
 31
0.0
  0
LINE
  5
791
330
1E
100
AcDbEntity
  8
0
100
AcDbLine
 10
255.6999999999999
 20
-0.0000000000000045
 30
0.0
 11
228.0
 21
-0.0000000000000042
 31
0.0
  0
LINE
  5
792
330
1E
100
AcDbEntity
  8
0
100
AcDbLine
 10
254.4999999999999
 20
4.0
 30
0.0
 11
253.4
 21
4.0
 31
0.0
  0
LINE
  5
793
330
1E
100
AcDbEntity
  8
0
100
AcDbLine
 10
255.0
 20
-0.0000000000000038
 30
0.0
 11
253.8
 21
-0.0000000000000036
 31
0.0
  0
LINE
  5
794
330
1E
100
AcDbEntity
  8
0
100
AcDbLine
 10
255.0
 20
-0.0000000000000047
 30
0.0
 11
253.8
 21
-0.0000000000000049
 31
0.0
  0
LINE
  5
795
330
1E
100
AcDbEntity
  8
0
100
AcDbLine
 10
256.0
 20
-0.0000000000000042
 30
0.0
 11
256.0
 21
3.5
 31
0.0
  0
LINE
  5
796
330
1E
100
AcDbEntity
  8
0
100
AcDbLine
 10
256.0
 20
3.5
 30
0.0
 11
256.0
 21
-0.0000000000000043
 31
0.0
  0
LINE
  5
797
330
1E
100
AcDbEntity
  8
0
100
AcDbLine
 10
255.6999999999999
 20
-0.000000000000004
 30
0.0
 11
255.0
 21
-0.0000000000000038
 31
0.0
  0
LINE
  5
798
330
1E
100
AcDbEntity
  8
0
100
AcDbLine
 10
255.6999999999999
 20
-0.0000000000000045
 30
0.0
 11
255.0
 21
-0.0000000000000047
 31
0.0
  0
LINE
  5
799
330
1E
100
AcDbEntity
  8
0
100
AcDbLine
 10
256.0
 20
-0.0000000000000042
 30
0.0
 11
255.6999999999999
 21
-0.0000000000000045
 31
0.0
  0
LINE
  5
79A
330
1E
100
AcDbEntity
  8
0
100
AcDbLine
 10
256.0
 20
-0.0000000000000042
 30
0.0
 11
255.6999999999999
 21
-0.000000000000004
 31
0.0
  0
LINE
  5
79B
330
1E
100
AcDbEntity
  8
0
100
AcDbLine
 10
256.0
 20
3.5
 30
0.0
 11
255.5
 21
4.0
 31
0.0
  0
LINE
  5
79C
330
1E
100
AcDbEntity
  8
0
100
AcDbLine
 10
255.2
 20
4.0
 30
0.0
 11
254.4999999999999
 21
4.0
 31
0.0
  0
LINE
  5
79D
330
1E
100
AcDbEntity
  8
0
100
AcDbLine
 10
255.5
 20
4.0
 30
0.0
 11
255.2
 21
4.0
 31
0.0
  0
LINE
  5
79E
330
1E
100
AcDbEntity
  8
0
100
AcDbLine
 10
253.8
 20
-0.0000000000000036
 30
0.0
 11
252.3
 21
-0.0000000000000034
 31
0.0
  0
LINE
  5
79F
330
1E
100
AcDbEntity
  8
0
100
AcDbLine
 10
253.8
 20
-0.0000000000000049
 30
0.0
 11
252.3
 21
-0.0000000000000051
 31
0.0
  0
LINE
  5
7A0
330
1E
100
AcDbEntity
  8
0
100
AcDbLine
 10
253.4
 20
4.0
 30
0.0
 11
251.8
 21
4.0
 31
0.0
  0
LINE
  5
7A1
330
1E
100
AcDbEntity
  8
0
100
AcDbLine
 10
248.0
 20
4.5
 30
0.0
 11
246.4999999999999
 21
5.0
 31
0.0
  0
LINE
  5
7A2
330
1E
100
AcDbEntity
  8
0
100
AcDbLine
 10
241.6999999999999
 20
4.0
 30
0.0
 11
238.5
 21
4.0
 31
0.0
  0
LINE
  5
7A3
330
1E
100
AcDbEntity
  8
0
100
AcDbLine
 10
241.9
 20
-0.0000000000000028
 30
0.0
 11
238.7
 21
-0.0000000000000027
 31
0.0
  0
LINE
  5
7A4
330
1E
100
AcDbEntity
  8
0
100
AcDbLine
 10
241.9
 20
-0.0000000000000057
 30
0.0
 11
238.7
 21
-0.0000000000000058
 31
0.0
  0
LINE
  5
7A5
330
1E
100
AcDbEntity
  8
0
100
AcDbLine
 10
247.8
 20
-0.000000000000003
 30
0.0
 11
228.0
 21
-0.0000000000000042
 31
0.0
  0
LINE
  5
7A6
330
1E
100
AcDbEntity
  8
0
100
AcDbLine
 10
241.9
 20
-0.0000000000000028
 30
0.0
 11
228.0
 21
-0.0000000000000042
 31
0.0
  0
LINE
  5
7A7
330
1E
100
AcDbEntity
  8
0
100
AcDbLine
 10
245.0
 20
-0.0000000000000029
 30
0.0
 11
228.0
 21
-0.0000000000000042
 31
0.0
  0
LINE
  5
7A8
330
1E
100
AcDbEntity
  8
0
100
AcDbLine
 10
241.9
 20
-0.0000000000000057
 30
0.0
 11
228.0
 21
-0.0000000000000042
 31
0.0
  0
LINE
  5
7A9
330
1E
100
AcDbEntity
  8
0
100
AcDbLine
 10
245.0
 20
-0.0000000000000056
 30
0.0
 11
228.0
 21
-0.0000000000000042
 31
0.0
  0
LINE
  5
7AA
330
1E
100
AcDbEntity
  8
0
100
AcDbLine
 10
247.8
 20
-0.0000000000000055
 30
0.0
 11
228.0
 21
-0.0000000000000042
 31
0.0
  0
LINE
  5
7AB
330
1E
100
AcDbEntity
  8
0
100
AcDbLine
 10
250.1999999999999
 20
-0.0000000000000032
 30
0.0
 11
228.0
 21
-0.0000000000000042
 31
0.0
  0
LINE
  5
7AC
330
1E
100
AcDbEntity
  8
0
100
AcDbLine
 10
250.1999999999999
 20
-0.0000000000000032
 30
0.0
 11
228.0
 21
-0.0000000000000042
 31
0.0
  0
LINE
  5
7AD
330
1E
100
AcDbEntity
  8
0
100
AcDbLine
 10
250.1999999999999
 20
-0.0000000000000053
 30
0.0
 11
228.0
 21
-0.0000000000000042
 31
0.0
  0
LINE
  5
7AE
330
1E
100
AcDbEntity
  8
0
100
AcDbLine
 10
250.1999999999999
 20
-0.0000000000000053
 30
0.0
 11
228.0
 21
-0.0000000000000042
 31
0.0
  0
LINE
  5
7AF
330
1E
100
AcDbEntity
  8
0
100
AcDbLine
 10
247.4
 20
4.0
 30
0.0
 11
244.7
 21
4.0
 31
0.0
  0
LINE
  5
7B0
330
1E
100
AcDbEntity
  8
0
100
AcDbLine
 10
247.8
 20
-0.000000000000003
 30
0.0
 11
245.0
 21
-0.0000000000000029
 31
0.0
  0
LINE
  5
7B1
330
1E
100
AcDbEntity
  8
0
100
AcDbLine
 10
247.8
 20
-0.0000000000000055
 30
0.0
 11
245.0
 21
-0.0000000000000056
 31
0.0
  0
LINE
  5
7B2
330
1E
100
AcDbEntity
  8
0
100
AcDbLine
 10
249.8
 20
4.0
 30
0.0
 11
247.4
 21
4.0
 31
0.0
  0
LINE
  5
7B3
330
1E
100
AcDbEntity
  8
0
100
AcDbLine
 10
250.1999999999999
 20
-0.0000000000000032
 30
0.0
 11
247.8
 21
-0.000000000000003
 31
0.0
  0
LINE
  5
7B4
330
1E
100
AcDbEntity
  8
0
100
AcDbLine
 10
250.1999999999999
 20
-0.0000000000000053
 30
0.0
 11
247.8
 21
-0.0000000000000055
 31
0.0
  0
LINE
  5
7B5
330
1E
100
AcDbEntity
  8
0
100
AcDbLine
 10
245.0
 20
-0.0000000000000029
 30
0.0
 11
241.9
 21
-0.0000000000000028
 31
0.0
  0
LINE
  5
7B6
330
1E
100
AcDbEntity
  8
0
100
AcDbLine
 10
244.7
 20
4.0
 30
0.0
 11
241.6999999999999
 21
4.0
 31
0.0
  0
LINE
  5
7B7
330
1E
100
AcDbEntity
  8
0
100
AcDbLine
 10
245.0
 20
-0.0000000000000056
 30
0.0
 11
241.9
 21
-0.0000000000000057
 31
0.0
  0
LINE
  5
7B8
330
1E
100
AcDbEntity
  8
0
100
AcDbLine
 10
235.0999999999999
 20
4.0
 30
0.0
 11
231.5999999999999
 21
4.0
 31
0.0
  0
LINE
  5
7B9
330
1E
100
AcDbEntity
  8
0
100
AcDbLine
 10
235.1999999999999
 20
-0.0000000000000026
 30
0.0
 11
231.8
 21
-0.0000000000000026
 31
0.0
  0
LINE
  5
7BA
330
1E
100
AcDbEntity
  8
0
100
AcDbLine
 10
235.1999999999999
 20
-0.0000000000000026
 30
0.0
 11
228.0
 21
-0.0000000000000042
 31
0.0
  0
LINE
  5
7BB
330
1E
100
AcDbEntity
  8
0
100
AcDbLine
 10
235.1999999999999
 20
-0.0000000000000059
 30
0.0
 11
228.0
 21
-0.0000000000000042
 31
0.0
  0
LINE
  5
7BC
330
1E
100
AcDbEntity
  8
0
100
AcDbLine
 10
235.1999999999999
 20
-0.0000000000000059
 30
0.0
 11
231.8
 21
-0.0000000000000059
 31
0.0
  0
LINE
  5
7BD
330
1E
100
AcDbEntity
  8
0
100
AcDbLine
 10
238.7
 20
-0.0000000000000027
 30
0.0
 11
228.0
 21
-0.0000000000000042
 31
0.0
  0
LINE
  5
7BE
330
1E
100
AcDbEntity
  8
0
100
AcDbLine
 10
238.7
 20
-0.0000000000000058
 30
0.0
 11
228.0
 21
-0.0000000000000042
 31
0.0
  0
LINE
  5
7BF
330
1E
100
AcDbEntity
  8
0
100
AcDbLine
 10
238.5
 20
4.0
 30
0.0
 11
235.0999999999999
 21
4.0
 31
0.0
  0
LINE
  5
7C0
330
1E
100
AcDbEntity
  8
0
100
AcDbLine
 10
238.7
 20
-0.0000000000000027
 30
0.0
 11
235.1999999999999
 21
-0.0000000000000026
 31
0.0
  0
LINE
  5
7C1
330
1E
100
AcDbEntity
  8
0
100
AcDbLine
 10
238.7
 20
-0.0000000000000058
 30
0.0
 11
235.1999999999999
 21
-0.0000000000000059
 31
0.0
  0
LINE
  5
7C2
330
1E
100
AcDbEntity
  8
0
100
AcDbLine
 10
231.5999999999999
 20
4.0
 30
0.0
 11
228.0
 21
4.0
 31
0.0
  0
LINE
  5
7C3
330
1E
100
AcDbEntity
  8
0
100
AcDbLine
 10
231.8
 20
-0.0000000000000026
 30
0.0
 11
228.0
 21
-0.0000000000000025
 31
0.0
  0
LINE
  5
7C4
330
1E
100
AcDbEntity
  8
0
100
AcDbLine
 10
231.8
 20
-0.0000000000000026
 30
0.0
 11
228.0
 21
-0.0000000000000042
 31
0.0
  0
LINE
  5
7C5
330
1E
100
AcDbEntity
  8
0
100
AcDbLine
 10
231.8
 20
-0.0000000000000059
 30
0.0
 11
228.0
 21
-0.0000000000000042
 31
0.0
  0
LINE
  5
7C6
330
1E
100
AcDbEntity
  8
0
100
AcDbLine
 10
231.8
 20
-0.0000000000000059
 30
0.0
 11
228.0
 21
-0.000000000000006
 31
0.0
  0
LINE
  5
7C7
330
1E
100
AcDbEntity
  8
0
100
AcDbLine
 10
240.0
 20
8.0
 30
0.0
 11
238.3
 21
8.0
 31
0.0
  0
LINE
  5
7C8
330
1E
100
AcDbEntity
  8
0
100
AcDbLine
 10
240.0
 20
9.9898
 30
0.0
 11
238.3
 21
9.9898
 31
0.0
  0
LINE
  5
7C9
330
1E
100
AcDbEntity
  8
0
100
AcDbLine
 10
239.5999999999999
 20
9.5
 30
0.0
 11
238.0
 21
9.5
 31
0.0
  0
LINE
  5
7CA
330
1E
100
AcDbEntity
  8
0
100
AcDbLine
 10
239.5999999999999
 20
8.5
 30
0.0
 11
238.0
 21
8.5
 31
0.0
  0
LINE
  5
7CB
330
1E
100
AcDbEntity
  8
0
100
AcDbLine
 10
245.5
 20
6.0
 30
0.0
 11
245.0
 21
7.5
 31
0.0
  0
LINE
  5
7CC
330
1E
100
AcDbEntity
  8
0
100
AcDbLine
 10
245.5
 20
6.0
 30
0.0
 11
246.4999999999999
 21
5.0
 31
0.0
  0
LINE
  5
7CD
330
1E
100
AcDbEntity
  8
0
100
AcDbLine
 10
242.3
 20
9.5
 30
0.0
 11
241.1
 21
9.5
 31
0.0
  0
LINE
  5
7CE
330
1E
100
AcDbEntity
  8
0
100
AcDbLine
 10
242.3
 20
8.5
 30
0.0
 11
241.1
 21
8.5
 31
0.0
  0
LINE
  5
7CF
330
1E
100
AcDbEntity
  8
0
100
AcDbLine
 10
242.7
 20
8.0
 30
0.0
 11
241.5
 21
8.0
 31
0.0
  0
LINE
  5
7D0
330
1E
100
AcDbEntity
  8
0
100
AcDbLine
 10
242.7
 20
9.9898
 30
0.0
 11
241.5
 21
9.9898
 31
0.0
  0
LINE
  5
7D1
330
1E
100
AcDbEntity
  8
0
100
AcDbLine
 10
245.0
 20
7.5
 30
0.0
 11
245.0
 21
8.0
 31
0.0
  0
LINE
  5
7D2
330
1E
100
AcDbEntity
  8
0
100
AcDbLine
 10
245.0
 20
8.0
 30
0.0
 11
245.0
 21
7.5
 31
0.0
  0
LINE
  5
7D3
330
1E
100
AcDbEntity
  8
0
100
AcDbLine
 10
243.9
 20
9.5
 30
0.0
 11
243.1999999999999
 21
9.5
 31
0.0
  0
LINE
  5
7D4
330
1E
100
AcDbEntity
  8
0
100
AcDbLine
 10
243.9
 20
8.5
 30
0.0
 11
243.1999999999999
 21
8.5
 31
0.0
  0
LINE
  5
7D5
330
1E
100
AcDbEntity
  8
0
100
AcDbLine
 10
243.6999999999999
 20
9.9898
 30
0.0
 11
242.7
 21
9.9898
 31
0.0
  0
LINE
  5
7D6
330
1E
100
AcDbEntity
  8
0
100
AcDbLine
 10
243.6999999999999
 20
8.0
 30
0.0
 11
242.7
 21
8.0
 31
0.0
  0
LINE
  5
7D7
330
1E
100
AcDbEntity
  8
0
100
AcDbLine
 10
244.3
 20
9.5
 30
0.0
 11
243.9
 21
9.5
 31
0.0
  0
LINE
  5
7D8
330
1E
100
AcDbEntity
  8
0
100
AcDbLine
 10
244.3
 20
8.5
 30
0.0
 11
243.9
 21
8.5
 31
0.0
  0
LINE
  5
7D9
330
1E
100
AcDbEntity
  8
0
100
AcDbLine
 10
244.7999999999999
 20
9.9898
 30
0.0
 11
244.3999999999999
 21
9.9898
 31
0.0
  0
LINE
  5
7DA
330
1E
100
AcDbEntity
  8
0
100
AcDbLine
 10
245.0
 20
9.9898
 30
0.0
 11
244.7999999999999
 21
9.9898
 31
0.0
  0
LINE
  5
7DB
330
1E
100
AcDbEntity
  8
0
100
AcDbLine
 10
245.0
 20
9.9898
 30
0.0
 11
244.4999999999999
 21
9.5
 31
0.0
  0
LINE
  5
7DC
330
1E
100
AcDbEntity
  8
0
100
AcDbLine
 10
244.7999999999999
 20
8.0
 30
0.0
 11
244.3999999999999
 21
8.0
 31
0.0
  0
LINE
  5
7DD
330
1E
100
AcDbEntity
  8
0
100
AcDbLine
 10
245.0
 20
8.0
 30
0.0
 11
244.7999999999999
 21
8.0
 31
0.0
  0
LINE
  5
7DE
330
1E
100
AcDbEntity
  8
0
100
AcDbLine
 10
245.0
 20
8.0
 30
0.0
 11
244.4999999999999
 21
8.5
 31
0.0
  0
LINE
  5
7DF
330
1E
100
AcDbEntity
  8
0
100
AcDbLine
 10
244.4999999999999
 20
8.5
 30
0.0
 11
244.4999999999999
 21
9.5
 31
0.0
  0
LINE
  5
7E0
330
1E
100
AcDbEntity
  8
0
100
AcDbLine
 10
244.4999999999999
 20
9.5
 30
0.0
 11
244.4999999999999
 21
8.5
 31
0.0
  0
LINE
  5
7E1
330
1E
100
AcDbEntity
  8
0
100
AcDbLine
 10
244.3999999999999
 20
8.0
 30
0.0
 11
243.6999999999999
 21
8.0
 31
0.0
  0
LINE
  5
7E2
330
1E
100
AcDbEntity
  8
0
100
AcDbLine
 10
244.4999999999999
 20
8.5
 30
0.0
 11
244.3
 21
8.5
 31
0.0
  0
LINE
  5
7E3
330
1E
100
AcDbEntity
  8
0
100
AcDbLine
 10
244.3999999999999
 20
9.9898
 30
0.0
 11
243.6999999999999
 21
9.9898
 31
0.0
  0
LINE
  5
7E4
330
1E
100
AcDbEntity
  8
0
100
AcDbLine
 10
244.4999999999999
 20
9.5
 30
0.0
 11
244.3
 21
9.5
 31
0.0
  0
LINE
  5
7E5
330
1E
100
AcDbEntity
  8
0
100
AcDbLine
 10
243.1999999999999
 20
8.5
 30
0.0
 11
242.3
 21
8.5
 31
0.0
  0
LINE
  5
7E6
330
1E
100
AcDbEntity
  8
0
100
AcDbLine
 10
243.1999999999999
 20
9.5
 30
0.0
 11
242.3
 21
9.5
 31
0.0
  0
LINE
  5
7E7
330
1E
100
AcDbEntity
  8
0
100
AcDbLine
 10
241.5
 20
8.0
 30
0.0
 11
240.0
 21
8.0
 31
0.0
  0
LINE
  5
7E8
330
1E
100
AcDbEntity
  8
0
100
AcDbLine
 10
241.1
 20
8.5
 30
0.0
 11
239.5999999999999
 21
8.5
 31
0.0
  0
LINE
  5
7E9
330
1E
100
AcDbEntity
  8
0
100
AcDbLine
 10
241.1
 20
9.5
 30
0.0
 11
239.5999999999999
 21
9.5
 31
0.0
  0
LINE
  5
7EA
330
1E
100
AcDbEntity
  8
0
100
AcDbLine
 10
241.5
 20
9.9898
 30
0.0
 11
240.0
 21
9.9898
 31
0.0
  0
LINE
  5
7EB
330
1E
100
AcDbEntity
  8
0
100
AcDbLine
 10
234.5
 20
9.9898
 30
0.0
 11
232.4
 21
9.9898
 31
0.0
  0
LINE
  5
7EC
330
1E
100
AcDbEntity
  8
0
100
AcDbLine
 10
234.2999999999999
 20
9.5
 30
0.0
 11
232.2999999999999
 21
9.5
 31
0.0
  0
LINE
  5
7ED
330
1E
100
AcDbEntity
  8
0
100
AcDbLine
 10
234.2999999999999
 20
8.5
 30
0.0
 11
232.2999999999999
 21
8.5
 31
0.0
  0
LINE
  5
7EE
330
1E
100
AcDbEntity
  8
0
100
AcDbLine
 10
234.5
 20
8.0
 30
0.0
 11
232.4
 21
8.0
 31
0.0
  0
LINE
  5
7EF
330
1E
100
AcDbEntity
  8
0
100
AcDbLine
 10
236.5
 20
9.9898
 30
0.0
 11
234.5
 21
9.9898
 31
0.0
  0
LINE
  5
7F0
330
1E
100
AcDbEntity
  8
0
100
AcDbLine
 10
236.2
 20
9.5
 30
0.0
 11
234.2999999999999
 21
9.5
 31
0.0
  0
LINE
  5
7F1
330
1E
100
AcDbEntity
  8
0
100
AcDbLine
 10
236.2
 20
8.5
 30
0.0
 11
234.2999999999999
 21
8.5
 31
0.0
  0
LINE
  5
7F2
330
1E
100
AcDbEntity
  8
0
100
AcDbLine
 10
236.5
 20
8.0
 30
0.0
 11
234.5
 21
8.0
 31
0.0
  0
LINE
  5
7F3
330
1E
100
AcDbEntity
  8
0
100
AcDbLine
 10
238.3
 20
9.9898
 30
0.0
 11
236.5
 21
9.9898
 31
0.0
  0
LINE
  5
7F4
330
1E
100
AcDbEntity
  8
0
100
AcDbLine
 10
238.0
 20
9.5
 30
0.0
 11
236.2
 21
9.5
 31
0.0
  0
LINE
  5
7F5
330
1E
100
AcDbEntity
  8
0
100
AcDbLine
 10
238.0
 20
8.5
 30
0.0
 11
236.2
 21
8.5
 31
0.0
  0
LINE
  5
7F6
330
1E
100
AcDbEntity
  8
0
100
AcDbLine
 10
238.3
 20
8.0
 30
0.0
 11
236.5
 21
8.0
 31
0.0
  0
LINE
  5
7F7
330
1E
100
AcDbEntity
  8
0
100
AcDbLine
 10
230.1
 20
8.5
 30
0.0
 11
228.0
 21
8.5
 31
0.0
  0
LINE
  5
7F8
330
1E
100
AcDbEntity
  8
0
100
AcDbLine
 10
230.2
 20
9.9898
 30
0.0
 11
228.0
 21
9.9898
 31
0.0
  0
LINE
  5
7F9
330
1E
100
AcDbEntity
  8
0
100
AcDbLine
 10
230.1
 20
9.5
 30
0.0
 11
228.0
 21
9.5
 31
0.0
  0
LINE
  5
7FA
330
1E
100
AcDbEntity
  8
0
100
AcDbLine
 10
230.2
 20
8.0
 30
0.0
 11
228.0
 21
8.0
 31
0.0
  0
LINE
  5
7FB
330
1E
100
AcDbEntity
  8
0
100
AcDbLine
 10
232.4
 20
9.9898
 30
0.0
 11
230.2
 21
9.9898
 31
0.0
  0
LINE
  5
7FC
330
1E
100
AcDbEntity
  8
0
100
AcDbLine
 10
232.2999999999999
 20
9.5
 30
0.0
 11
230.1
 21
9.5
 31
0.0
  0
LINE
  5
7FD
330
1E
100
AcDbEntity
  8
0
100
AcDbLine
 10
232.2999999999999
 20
8.5
 30
0.0
 11
230.1
 21
8.5
 31
0.0
  0
LINE
  5
7FE
330
1E
100
AcDbEntity
  8
0
100
AcDbLine
 10
232.4
 20
8.0
 30
0.0
 11
230.2
 21
8.0
 31
0.0
  0
LINE
  5
7FF
330
1E
100
AcDbEntity
  8
0
100
AcDbLine
 10
241.3355999999999
 20
33.22789999999999
 30
0.0
 11
238.6684999999999
 21
33.39119999999999
 31
0.0
  0
LINE
  5
800
330
1E
100
AcDbEntity
  8
0
100
AcDbLine
 10
242.2246
 20
32.9558
 30
0.0
 11
241.3355999999999
 21
33.22789999999999
 31
0.0
  0
LINE
  5
801
330
1E
100
AcDbEntity
  8
0
100
AcDbLine
 10
242.6691
 20
32.4116
 30
0.0
 11
242.2246
 21
32.9558
 31
0.0
  0
LINE
  5
802
330
1E
100
AcDbEntity
  8
0
100
AcDbLine
 10
232.8896999999999
 20
33.5
 30
0.0
 11
232.6229999999999
 21
33.5
 31
0.0
  0
LINE
  5
803
330
1E
100
AcDbEntity
  8
0
  6
Continuous
100
AcDbLine
 10
238.6684999999999
 20
33.39119999999999
 30
0.0
 11
233.3342
 21
33.5
 31
0.0
  0
LINE
  5
804
330
1E
100
AcDbEntity
  8
0
100
AcDbLine
 10
233.3342
 20
33.5
 30
0.0
 11
233.2453
 21
33.5
 31
0.0
  0
LINE
  5
805
330
1E
100
AcDbEntity
  8
0
100
AcDbLine
 10
233.2453
 20
33.5
 30
0.0
 11
233.1563999999999
 21
33.5
 31
0.0
  0
LINE
  5
806
330
1E
100
AcDbEntity
  8
0
100
AcDbLine
 10
233.1563999999999
 20
33.5
 30
0.0
 11
232.8896999999999
 21
33.5
 31
0.0
  0
LINE
  5
807
330
1E
100
AcDbEntity
  8
0
100
AcDbLine
 10
230.0448
 20
33.5
 30
0.0
 11
229.3336
 21
33.5
 31
0.0
  0
LINE
  5
808
330
1E
100
AcDbEntity
  8
0
100
AcDbLine
 10
232.6229999999999
 20
33.5
 30
0.0
 11
230.6671
 21
33.5
 31
0.0
  0
LINE
  5
809
330
1E
100
AcDbEntity
  8
0
100
AcDbLine
 10
230.6671
 20
33.5
 30
0.0
 11
230.0448
 21
33.5
 31
0.0
  0
LINE
  5
80A
330
1E
100
AcDbEntity
  8
0
100
AcDbLine
 10
228.7112
 20
33.5
 30
0.0
 11
228.0
 21
33.5
 31
0.0
  0
LINE
  5
80B
330
1E
100
AcDbEntity
  8
0
100
AcDbLine
 10
229.3336
 20
33.5
 30
0.0
 11
228.7112
 21
33.5
 31
0.0
  0
LINE
  5
80C
330
1E
100
AcDbEntity
  8
0
100
AcDbLine
 10
228.0
 20
33.5
 30
0.0
 11
227.2888
 21
33.5
 31
0.0
  0
LINE
  5
80D
330
1E
100
AcDbEntity
  8
0
100
AcDbLine
 10
213.3308999999999
 20
32.4116
 30
0.0
 11
211.0
 21
9.9898
 31
0.0
  0
LINE
  5
80E
330
1E
100
AcDbEntity
  8
0
100
AcDbLine
 10
202.5999999999999
 20
4.0
 30
0.0
 11
201.5
 21
4.0
 31
0.0
  0
LINE
  5
80F
330
1E
100
AcDbEntity
  8
0
100
AcDbLine
 10
203.6999999999999
 20
-0.0000000000000034
 30
0.0
 11
202.1999999999999
 21
-0.0000000000000036
 31
0.0
  0
LINE
  5
810
330
1E
100
AcDbEntity
  8
0
100
AcDbLine
 10
203.6999999999999
 20
-0.0000000000000051
 30
0.0
 11
202.1999999999999
 21
-0.0000000000000049
 31
0.0
  0
LINE
  5
811
330
1E
100
AcDbEntity
  8
0
100
AcDbLine
 10
208.0
 20
4.5
 30
0.0
 11
200.4999999999999
 21
4.0
 31
0.0
  0
LINE
  5
812
330
1E
100
AcDbEntity
  8
0
100
AcDbLine
 10
209.5
 20
5.0
 30
0.0
 11
208.0
 21
4.5
 31
0.0
  0
LINE
  5
813
330
1E
100
AcDbEntity
  8
0
100
AcDbLine
 10
217.5
 20
4.0
 30
0.0
 11
214.3
 21
4.0
 31
0.0
  0
LINE
  5
814
330
1E
100
AcDbEntity
  8
0
100
AcDbLine
 10
217.3
 20
-0.0000000000000027
 30
0.0
 11
214.1
 21
-0.0000000000000028
 31
0.0
  0
LINE
  5
815
330
1E
100
AcDbEntity
  8
0
100
AcDbLine
 10
217.3
 20
-0.0000000000000058
 30
0.0
 11
214.1
 21
-0.0000000000000057
 31
0.0
  0
LINE
  5
816
330
1E
100
AcDbEntity
  8
0
100
AcDbLine
 10
220.9
 20
4.0
 30
0.0
 11
217.5
 21
4.0
 31
0.0
  0
LINE
  5
817
330
1E
100
AcDbEntity
  8
0
100
AcDbLine
 10
220.8
 20
-0.0000000000000026
 30
0.0
 11
217.3
 21
-0.0000000000000027
 31
0.0
  0
LINE
  5
818
330
1E
100
AcDbEntity
  8
0
100
AcDbLine
 10
220.8
 20
-0.0000000000000059
 30
0.0
 11
217.3
 21
-0.0000000000000058
 31
0.0
  0
LINE
  5
819
330
1E
100
AcDbEntity
  8
0
100
AcDbLine
 10
224.4
 20
4.0
 30
0.0
 11
220.9
 21
4.0
 31
0.0
  0
LINE
  5
81A
330
1E
100
AcDbEntity
  8
0
100
AcDbLine
 10
224.1999999999999
 20
-0.0000000000000026
 30
0.0
 11
220.8
 21
-0.0000000000000026
 31
0.0
  0
LINE
  5
81B
330
1E
100
AcDbEntity
  8
0
100
AcDbLine
 10
224.1999999999999
 20
-0.0000000000000059
 30
0.0
 11
220.8
 21
-0.0000000000000059
 31
0.0
  0
LINE
  5
81C
330
1E
100
AcDbEntity
  8
0
100
AcDbLine
 10
211.0
 20
-0.0000000000000029
 30
0.0
 11
208.1999999999999
 21
-0.000000000000003
 31
0.0
  0
LINE
  5
81D
330
1E
100
AcDbEntity
  8
0
100
AcDbLine
 10
211.0
 20
-0.0000000000000056
 30
0.0
 11
208.1999999999999
 21
-0.0000000000000055
 31
0.0
  0
LINE
  5
81E
330
1E
100
AcDbEntity
  8
0
100
AcDbLine
 10
208.5999999999999
 20
4.0
 30
0.0
 11
206.1999999999999
 21
4.0
 31
0.0
  0
LINE
  5
81F
330
1E
100
AcDbEntity
  8
0
100
AcDbLine
 10
214.3
 20
4.0
 30
0.0
 11
211.2999999999999
 21
4.0
 31
0.0
  0
LINE
  5
820
330
1E
100
AcDbEntity
  8
0
100
AcDbLine
 10
214.1
 20
-0.0000000000000028
 30
0.0
 11
211.0
 21
-0.0000000000000029
 31
0.0
  0
LINE
  5
821
330
1E
100
AcDbEntity
  8
0
100
AcDbLine
 10
214.1
 20
-0.0000000000000057
 30
0.0
 11
211.0
 21
-0.0000000000000056
 31
0.0
  0
LINE
  5
822
330
1E
100
AcDbEntity
  8
0
100
AcDbLine
 10
211.2999999999999
 20
4.0
 30
0.0
 11
208.5999999999999
 21
4.0
 31
0.0
  0
LINE
  5
823
330
1E
100
AcDbEntity
  8
0
100
AcDbLine
 10
206.1999999999999
 20
4.0
 30
0.0
 11
204.1999999999999
 21
4.0
 31
0.0
  0
LINE
  5
824
330
1E
100
AcDbEntity
  8
0
100
AcDbLine
 10
205.8
 20
-0.0000000000000032
 30
0.0
 11
203.6999999999999
 21
-0.0000000000000034
 31
0.0
  0
LINE
  5
825
330
1E
100
AcDbEntity
  8
0
100
AcDbLine
 10
205.8
 20
-0.0000000000000053
 30
0.0
 11
203.6999999999999
 21
-0.0000000000000051
 31
0.0
  0
LINE
  5
826
330
1E
100
AcDbEntity
  8
0
100
AcDbLine
 10
208.1999999999999
 20
-0.000000000000003
 30
0.0
 11
205.8
 21
-0.0000000000000032
 31
0.0
  0
LINE
  5
827
330
1E
100
AcDbEntity
  8
0
100
AcDbLine
 10
208.1999999999999
 20
-0.0000000000000055
 30
0.0
 11
205.8
 21
-0.0000000000000053
 31
0.0
  0
LINE
  5
828
330
1E
100
AcDbEntity
  8
0
100
AcDbLine
 10
204.1999999999999
 20
4.0
 30
0.0
 11
202.5999999999999
 21
4.0
 31
0.0
  0
LINE
  5
829
330
1E
100
AcDbEntity
  8
0
100
AcDbLine
 10
214.9
 20
9.5
 30
0.0
 11
213.7
 21
9.5
 31
0.0
  0
LINE
  5
82A
330
1E
100
AcDbEntity
  8
0
100
AcDbLine
 10
214.9
 20
8.5
 30
0.0
 11
213.7
 21
8.5
 31
0.0
  0
LINE
  5
82B
330
1E
100
AcDbEntity
  8
0
100
AcDbLine
 10
216.0
 20
9.9898
 30
0.0
 11
214.5
 21
9.9898
 31
0.0
  0
LINE
  5
82C
330
1E
100
AcDbEntity
  8
0
100
AcDbLine
 10
216.0
 20
8.0
 30
0.0
 11
214.5
 21
8.0
 31
0.0
  0
LINE
  5
82D
330
1E
100
AcDbEntity
  8
0
100
AcDbLine
 10
221.4999999999999
 20
9.9898
 30
0.0
 11
219.4999999999999
 21
9.9898
 31
0.0
  0
LINE
  5
82E
330
1E
100
AcDbEntity
  8
0
100
AcDbLine
 10
221.7
 20
9.5
 30
0.0
 11
219.7999999999999
 21
9.5
 31
0.0
  0
LINE
  5
82F
330
1E
100
AcDbEntity
  8
0
100
AcDbLine
 10
221.7
 20
8.5
 30
0.0
 11
219.7999999999999
 21
8.5
 31
0.0
  0
LINE
  5
830
330
1E
100
AcDbEntity
  8
0
100
AcDbLine
 10
221.4999999999999
 20
8.0
 30
0.0
 11
219.4999999999999
 21
8.0
 31
0.0
  0
LINE
  5
831
330
1E
100
AcDbEntity
  8
0
100
AcDbLine
 10
225.8
 20
9.9898
 30
0.0
 11
223.6
 21
9.9898
 31
0.0
  0
LINE
  5
832
330
1E
100
AcDbEntity
  8
0
100
AcDbLine
 10
225.8999999999999
 20
9.5
 30
0.0
 11
223.7
 21
9.5
 31
0.0
  0
LINE
  5
833
330
1E
100
AcDbEntity
  8
0
100
AcDbLine
 10
225.8999999999999
 20
8.5
 30
0.0
 11
223.7
 21
8.5
 31
0.0
  0
LINE
  5
834
330
1E
100
AcDbEntity
  8
0
100
AcDbLine
 10
225.8
 20
8.0
 30
0.0
 11
223.6
 21
8.0
 31
0.0
  0
LINE
  5
835
330
1E
100
AcDbEntity
  8
0
100
AcDbLine
 10
223.6
 20
9.9898
 30
0.0
 11
221.4999999999999
 21
9.9898
 31
0.0
  0
LINE
  5
836
330
1E
100
AcDbEntity
  8
0
100
AcDbLine
 10
223.7
 20
9.5
 30
0.0
 11
221.7
 21
9.5
 31
0.0
  0
LINE
  5
837
330
1E
100
AcDbEntity
  8
0
100
AcDbLine
 10
223.7
 20
8.5
 30
0.0
 11
221.7
 21
8.5
 31
0.0
  0
LINE
  5
838
330
1E
100
AcDbEntity
  8
0
100
AcDbLine
 10
223.6
 20
8.0
 30
0.0
 11
221.4999999999999
 21
8.0
 31
0.0
  0
LINE
  5
839
330
1E
100
AcDbEntity
  8
0
100
AcDbLine
 10
217.7
 20
9.9898
 30
0.0
 11
216.0
 21
9.9898
 31
0.0
  0
LINE
  5
83A
330
1E
100
AcDbEntity
  8
0
100
AcDbLine
 10
217.7
 20
8.0
 30
0.0
 11
216.0
 21
8.0
 31
0.0
  0
LINE
  5
83B
330
1E
100
AcDbEntity
  8
0
100
AcDbLine
 10
218.0
 20
9.5
 30
0.0
 11
216.4
 21
9.5
 31
0.0
  0
LINE
  5
83C
330
1E
100
AcDbEntity
  8
0
100
AcDbLine
 10
218.0
 20
8.5
 30
0.0
 11
216.4
 21
8.5
 31
0.0
  0
LINE
  5
83D
330
1E
100
AcDbEntity
  8
0
100
AcDbLine
 10
219.7999999999999
 20
9.5
 30
0.0
 11
218.0
 21
9.5
 31
0.0
  0
LINE
  5
83E
330
1E
100
AcDbEntity
  8
0
100
AcDbLine
 10
219.7999999999999
 20
8.5
 30
0.0
 11
218.0
 21
8.5
 31
0.0
  0
LINE
  5
83F
330
1E
100
AcDbEntity
  8
0
100
AcDbLine
 10
219.4999999999999
 20
9.9898
 30
0.0
 11
217.7
 21
9.9898
 31
0.0
  0
LINE
  5
840
330
1E
100
AcDbEntity
  8
0
100
AcDbLine
 10
219.4999999999999
 20
8.0
 30
0.0
 11
217.7
 21
8.0
 31
0.0
  0
LINE
  5
841
330
1E
100
AcDbEntity
  8
0
100
AcDbLine
 10
216.4
 20
9.5
 30
0.0
 11
214.9
 21
9.5
 31
0.0
  0
LINE
  5
842
330
1E
100
AcDbEntity
  8
0
100
AcDbLine
 10
216.4
 20
8.5
 30
0.0
 11
214.9
 21
8.5
 31
0.0
  0
LINE
  5
843
330
1E
100
AcDbEntity
  8
0
100
AcDbLine
 10
211.6
 20
9.9898
 30
0.0
 11
211.2
 21
9.9898
 31
0.0
  0
LINE
  5
844
330
1E
100
AcDbEntity
  8
0
100
AcDbLine
 10
211.6999999999999
 20
9.5
 30
0.0
 11
211.5
 21
9.5
 31
0.0
  0
LINE
  5
845
330
1E
100
AcDbEntity
  8
0
100
AcDbLine
 10
211.6999999999999
 20
8.5
 30
0.0
 11
211.5
 21
8.5
 31
0.0
  0
LINE
  5
846
330
1E
100
AcDbEntity
  8
0
100
AcDbLine
 10
211.6
 20
8.0
 30
0.0
 11
211.2
 21
8.0
 31
0.0
  0
LINE
  5
847
330
1E
100
AcDbEntity
  8
0
100
AcDbLine
 10
213.3
 20
9.9898
 30
0.0
 11
212.3
 21
9.9898
 31
0.0
  0
LINE
  5
848
330
1E
100
AcDbEntity
  8
0
100
AcDbLine
 10
213.7
 20
9.5
 30
0.0
 11
212.8
 21
9.5
 31
0.0
  0
LINE
  5
849
330
1E
100
AcDbEntity
  8
0
100
AcDbLine
 10
213.7
 20
8.5
 30
0.0
 11
212.8
 21
8.5
 31
0.0
  0
LINE
  5
84A
330
1E
100
AcDbEntity
  8
0
100
AcDbLine
 10
213.3
 20
8.0
 30
0.0
 11
212.3
 21
8.0
 31
0.0
  0
LINE
  5
84B
330
1E
100
AcDbEntity
  8
0
100
AcDbLine
 10
214.5
 20
9.9898
 30
0.0
 11
213.3
 21
9.9898
 31
0.0
  0
LINE
  5
84C
330
1E
100
AcDbEntity
  8
0
100
AcDbLine
 10
214.5
 20
8.0
 30
0.0
 11
213.3
 21
8.0
 31
0.0
  0
LINE
  5
84D
330
1E
100
AcDbEntity
  8
0
100
AcDbLine
 10
212.3
 20
9.9898
 30
0.0
 11
211.6
 21
9.9898
 31
0.0
  0
LINE
  5
84E
330
1E
100
AcDbEntity
  8
0
100
AcDbLine
 10
212.0999999999999
 20
9.5
 30
0.0
 11
211.6999999999999
 21
9.5
 31
0.0
  0
LINE
  5
84F
330
1E
100
AcDbEntity
  8
0
100
AcDbLine
 10
212.8
 20
9.5
 30
0.0
 11
212.0999999999999
 21
9.5
 31
0.0
  0
LINE
  5
850
330
1E
100
AcDbEntity
  8
0
100
AcDbLine
 10
212.0999999999999
 20
8.5
 30
0.0
 11
211.6999999999999
 21
8.5
 31
0.0
  0
LINE
  5
851
330
1E
100
AcDbEntity
  8
0
100
AcDbLine
 10
212.8
 20
8.5
 30
0.0
 11
212.0999999999999
 21
8.5
 31
0.0
  0
LINE
  5
852
330
1E
100
AcDbEntity
  8
0
100
AcDbLine
 10
212.3
 20
8.0
 30
0.0
 11
211.6
 21
8.0
 31
0.0
  0
LINE
  5
853
330
1E
100
AcDbEntity
  8
0
100
AcDbLine
 10
211.0
 20
7.5
 30
0.0
 11
211.0
 21
8.0
 31
0.0
  0
LINE
  5
854
330
1E
100
AcDbEntity
  8
0
100
AcDbLine
 10
210.4999999999999
 20
6.0
 30
0.0
 11
209.5
 21
5.0
 31
0.0
  0
LINE
  5
855
330
1E
100
AcDbEntity
  8
0
100
AcDbLine
 10
211.0
 20
7.5
 30
0.0
 11
210.4999999999999
 21
6.0
 31
0.0
  0
LINE
  5
856
330
1E
100
AcDbEntity
  8
0
100
AcDbLine
 10
211.2
 20
9.9898
 30
0.0
 11
211.0
 21
9.9898
 31
0.0
  0
LINE
  5
857
330
1E
100
AcDbEntity
  8
0
100
AcDbLine
 10
211.5
 20
9.5
 30
0.0
 11
211.5
 21
8.5
 31
0.0
  0
LINE
  5
858
330
1E
100
AcDbEntity
  8
0
100
AcDbLine
 10
211.5
 20
9.5
 30
0.0
 11
211.0
 21
9.9898
 31
0.0
  0
LINE
  5
859
330
1E
100
AcDbEntity
  8
0
100
AcDbLine
 10
211.5
 20
8.5
 30
0.0
 11
211.5
 21
9.5
 31
0.0
  0
LINE
  5
85A
330
1E
100
AcDbEntity
  8
0
100
AcDbLine
 10
211.5
 20
8.5
 30
0.0
 11
211.0
 21
8.0
 31
0.0
  0
LINE
  5
85B
330
1E
100
AcDbEntity
  8
0
100
AcDbLine
 10
211.2
 20
8.0
 30
0.0
 11
211.0
 21
8.0
 31
0.0
  0
LINE
  5
85C
330
1E
100
AcDbEntity
  8
0
100
AcDbLine
 10
200.0
 20
-0.0000000000000042
 30
0.0
 11
200.0
 21
3.5
 31
0.0
  0
LINE
  5
85D
330
1E
100
AcDbEntity
  8
0
100
AcDbLine
 10
201.0
 20
-0.0000000000000038
 30
0.0
 11
200.3
 21
-0.000000000000004
 31
0.0
  0
LINE
  5
85E
330
1E
100
AcDbEntity
  8
0
100
AcDbLine
 10
201.0
 20
-0.0000000000000047
 30
0.0
 11
200.3
 21
-0.0000000000000045
 31
0.0
  0
LINE
  5
85F
330
1E
100
AcDbEntity
  8
0
100
AcDbLine
 10
202.1999999999999
 20
-0.0000000000000036
 30
0.0
 11
201.0
 21
-0.0000000000000038
 31
0.0
  0
LINE
  5
860
330
1E
100
AcDbEntity
  8
0
100
AcDbLine
 10
202.1999999999999
 20
-0.0000000000000049
 30
0.0
 11
201.0
 21
-0.0000000000000047
 31
0.0
  0
LINE
  5
861
330
1E
100
AcDbEntity
  8
0
100
AcDbLine
 10
200.3
 20
-0.000000000000004
 30
0.0
 11
200.0
 21
-0.0000000000000042
 31
0.0
  0
LINE
  5
862
330
1E
100
AcDbEntity
  8
0
100
AcDbLine
 10
200.3
 20
-0.0000000000000045
 30
0.0
 11
200.0
 21
-0.0000000000000042
 31
0.0
  0
LINE
  5
863
330
1E
100
AcDbEntity
  8
0
100
AcDbLine
 10
201.5
 20
4.0
 30
0.0
 11
200.8
 21
4.0
 31
0.0
  0
LINE
  5
864
330
1E
100
AcDbEntity
  8
0
100
AcDbLine
 10
200.8
 20
4.0
 30
0.0
 11
200.4999999999999
 21
4.0
 31
0.0
  0
LINE
  5
865
330
1E
100
AcDbEntity
  8
0
100
AcDbLine
 10
200.4999999999999
 20
4.0
 30
0.0
 11
200.0
 21
3.5
 31
0.0
  0
LINE
  5
866
330
1E
100
AcDbEntity
  8
0
100
AcDbLine
 10
214.6644
 20
33.22789999999999
 30
0.0
 11
213.7754
 21
32.9558
 31
0.0
  0
LINE
  5
867
330
1E
100
AcDbEntity
  8
0
  6
Continuous
100
AcDbLine
 10
224.2659999999999
 20
33.5
 30
0.0
 11
217.3315
 21
33.39119999999999
 31
0.0
  0
LINE
  5
868
330
1E
100
AcDbEntity
  8
0
100
AcDbLine
 10
225.3328999999999
 20
33.5
 30
0.0
 11
224.7994999999999
 21
33.5
 31
0.0
  0
LINE
  5
869
330
1E
100
AcDbEntity
  8
0
100
AcDbLine
 10
226.6664
 20
33.5
 30
0.0
 11
225.9551999999999
 21
33.5
 31
0.0
  0
LINE
  5
86A
330
1E
100
AcDbEntity
  8
0
100
AcDbLine
 10
225.9551999999999
 20
33.5
 30
0.0
 11
225.3328999999999
 21
33.5
 31
0.0
  0
LINE
  5
86B
330
1E
100
AcDbEntity
  8
0
100
AcDbLine
 10
224.7994999999999
 20
33.5
 30
0.0
 11
224.2659999999999
 21
33.5
 31
0.0
  0
LINE
  5
86C
330
1E
100
AcDbEntity
  8
0
100
AcDbLine
 10
217.3315
 20
33.39119999999999
 30
0.0
 11
214.6644
 21
33.22789999999999
 31
0.0
  0
LINE
  5
86D
330
1E
100
AcDbEntity
  8
0
100
AcDbLine
 10
213.7754
 20
32.9558
 30
0.0
 11
213.3308999999999
 21
32.4116
 31
0.0
  0
ENDSEC
  0
SECTION
  2
OBJECTS
  0
DICTIONARY
  5
C
330
0
100
AcDbDictionary
281
     1
  3
ACAD_GROUP
350
D
  3
ACAD_LAYOUT
350
19
  3
ACAD_MLINESTYLE
350
16
  3
ACAD_PLOTSETTINGS
350
18
  3
ACAD_PLOTSTYLENAME
350
E
  3
AcDbVariableDictionary
350
86F
  0
DICTIONARY
  5
D
102
{ACAD_REACTORS
330
C
102
}
330
C
100
AcDbDictionary
281
     1
  0
DICTIONARY
  5
19
102
{ACAD_REACTORS
330
C
102
}
330
C
100
AcDbDictionary
281
     1
  3
Layout1
350
1D
  3
Model
350
21
  0
DICTIONARY
  5
16
102
{ACAD_REACTORS
330
C
102
}
330
C
100
AcDbDictionary
281
     1
  3
Standard
350
17
  0
DICTIONARY
  5
18
102
{ACAD_REACTORS
330
C
102
}
330
C
100
AcDbDictionary
281
     1
  0
ACDBDICTIONARYWDFLT
  5
E
102
{ACAD_REACTORS
330
C
102
}
330
C
100
AcDbDictionary
281
     1
  3
Normal
350
F
100
AcDbDictionaryWithDefault
340
F
  0
DICTIONARY
  5
86F
102
{ACAD_REACTORS
330
C
102
}
330
C
100
AcDbDictionary
281
     1
  3
DIMASSOC
350
870
  0
LAYOUT
  5
1D
102
{ACAD_REACTORS
330
19
102
}
330
19
100
AcDbPlotSettings
  1

  2
C:\Programme\AutoCAD LT 2002 Deu\plotters\DWF ePlot (optimized for plotting).pc3
  4

  6

 40
0.0
 41
0.0
 42
0.0
 43
0.0
 44
0.0
 45
0.0
 46
0.0
 47
0.0
 48
0.0
 49
0.0
140
0.0
141
0.0
142
1.0
143
1.0
 70
   688
 72
     0
 73
     0
 74
     5
  7

 75
    16
147
1.0
148
0.0
149
0.0
100
AcDbLayout
  1
Layout1
 70
     1
 71
     1
 10
0.0
 20
0.0
 11
12.0
 21
9.0
 12
0.0
 22
0.0
 32
0.0
 14
1.000000000000000E+20
 24
1.000000000000000E+20
 34
1.000000000000000E+20
 15
-1.000000000000000E+20
 25
-1.000000000000000E+20
 35
-1.000000000000000E+20
146
0.0
 13
0.0
 23
0.0
 33
0.0
 16
1.0
 26
0.0
 36
0.0
 17
0.0
 27
1.0
 37
0.0
 76
     0
330
1A
  0
LAYOUT
  5
21
102
{ACAD_REACTORS
330
19
102
}
330
19
100
AcDbPlotSettings
  1

  2
C:\Programme\AutoCAD LT 2002 Deu\plotters\DWF ePlot (optimized for plotting).pc3
  4

  6

 40
0.0
 41
0.0
 42
0.0
 43
0.0
 44
0.0
 45
0.0
 46
0.0
 47
0.0
 48
0.0
 49
0.0
140
0.0
141
0.0
142
1.0
143
1.0
 70
  1712
 72
     0
 73
     0
 74
     0
  7

 75
     0
147
1.0
148
0.0
149
0.0
100
AcDbLayout
  1
Model
 70
     1
 71
     0
 10
0.0
 20
0.0
 11
12.0
 21
9.0
 12
0.0
 22
0.0
 32
0.0
 14
0.0
 24
0.0
 34
0.0
 15
0.0
 25
0.0
 35
0.0
146
0.0
 13
0.0
 23
0.0
 33
0.0
 16
1.0
 26
0.0
 36
0.0
 17
0.0
 27
1.0
 37
0.0
 76
     0
330
1E
  0
MLINESTYLE
  5
17
102
{ACAD_REACTORS
330
16
102
}
330
16
100
AcDbMlineStyle
  2
STANDARD
 70
     0
  3

 62
   256
 51
90.0
 52
90.0
 71
     2
 49
0.5
 62
   256
  6
BYLAYER
 49
-0.5
 62
   256
  6
BYLAYER
  0
ACDBPLACEHOLDER
  5
F
102
{ACAD_REACTORS
330
E
102
}
330
E
  0
DICTIONARYVAR
  5
870
102
{ACAD_REACTORS
330
86F
102
}
330
86F
100
DictionaryVariables
280
     0
  1
1
  0
ENDSEC
  0
EOF
