  0
SECTION
  2
HEADER
  9
$ACADVER
  1
AC1015
  9
$ACADMAINTVER
 70
    13
  9
$DWGCODEPAGE
  3
ANSI_1252
  9
$INSBASE
 10
0.0
 20
0.0
 30
0.0
  9
$EXTMIN
 10
0.0000000000000078
 20
-0.000000000000005
 30
0.0
  9
$EXTMAX
 10
140.0
 20
103.0
 30
0.0
  9
$LIMMIN
 10
0.0
 20
0.0
  9
$LIMMAX
 10
12.0
 20
9.0
  9
$ORTHOMODE
 70
     0
  9
$REGENMODE
 70
     1
  9
$FILLMODE
 70
     1
  9
$QTEXTMODE
 70
     0
  9
$MIRRTEXT
 70
     1
  9
$LTSCALE
 40
1.0
  9
$ATTMODE
 70
     1
  9
$TEXTSIZE
 40
0.2
  9
$TRACEWID
 40
0.05
  9
$TEXTSTYLE
  7
Standard
  9
$CLAYER
  8
0
  9
$CELTYPE
  6
Continuous
  9
$CECOLOR
 62
   256
  9
$CELTSCALE
 40
1.0
  9
$DISPSILH
 70
     0
  9
$DIMSCALE
 40
1.0
  9
$DIMASZ
 40
0.18
  9
$DIMEXO
 40
0.0625
  9
$DIMDLI
 40
0.38
  9
$DIMRND
 40
0.0
  9
$DIMDLE
 40
0.0
  9
$DIMEXE
 40
0.18
  9
$DIMTP
 40
0.0
  9
$DIMTM
 40
0.0
  9
$DIMTXT
 40
0.18
  9
$DIMCEN
 40
0.09
  9
$DIMTSZ
 40
0.0
  9
$DIMTOL
 70
     0
  9
$DIMLIM
 70
     0
  9
$DIMTIH
 70
     1
  9
$DIMTOH
 70
     1
  9
$DIMSE1
 70
     0
  9
$DIMSE2
 70
     0
  9
$DIMTAD
 70
     0
  9
$DIMZIN
 70
     0
  9
$DIMBLK
  1

  9
$DIMASO
 70
     1
  9
$DIMSHO
 70
     1
  9
$DIMPOST
  1

  9
$DIMAPOST
  1

  9
$DIMALT
 70
     0
  9
$DIMALTD
 70
     2
  9
$DIMALTF
 40
25.4
  9
$DIMLFAC
 40
1.0
  9
$DIMTOFL
 70
     0
  9
$DIMTVP
 40
0.0
  9
$DIMTIX
 70
     0
  9
$DIMSOXD
 70
     0
  9
$DIMSAH
 70
     0
  9
$DIMBLK1
  1

  9
$DIMBLK2
  1

  9
$DIMSTYLE
  2
Standard
  9
$DIMCLRD
 70
     0
  9
$DIMCLRE
 70
     0
  9
$DIMCLRT
 70
     0
  9
$DIMTFAC
 40
1.0
  9
$DIMGAP
 40
0.09
  9
$DIMJUST
 70
     0
  9
$DIMSD1
 70
     0
  9
$DIMSD2
 70
     0
  9
$DIMTOLJ
 70
     1
  9
$DIMTZIN
 70
     0
  9
$DIMALTZ
 70
     0
  9
$DIMALTTZ
 70
     0
  9
$DIMUPT
 70
     0
  9
$DIMDEC
 70
     4
  9
$DIMTDEC
 70
     4
  9
$DIMALTU
 70
     2
  9
$DIMALTTD
 70
     2
  9
$DIMTXSTY
  7
Standard
  9
$DIMAUNIT
 70
     0
  9
$DIMADEC
 70
     0
  9
$DIMALTRND
 40
0.0
  9
$DIMAZIN
 70
     0
  9
$DIMDSEP
 70
    46
  9
$DIMATFIT
 70
     3
  9
$DIMFRAC
 70
     0
  9
$DIMLDRBLK
  1

  9
$DIMLUNIT
 70
     2
  9
$DIMLWD
 70
    -2
  9
$DIMLWE
 70
    -2
  9
$DIMTMOVE
 70
     0
  9
$LUNITS
 70
     2
  9
$LUPREC
 70
     4
  9
$SKETCHINC
 40
0.1
  9
$FILLETRAD
 40
0.0
  9
$AUNITS
 70
     0
  9
$AUPREC
 70
     0
  9
$MENU
  1
.
  9
$ELEVATION
 40
0.0
  9
$PELEVATION
 40
0.0
  9
$THICKNESS
 40
0.0
  9
$LIMCHECK
 70
     0
  9
$CHAMFERA
 40
0.0
  9
$CHAMFERB
 40
0.0
  9
$CHAMFERC
 40
0.0
  9
$CHAMFERD
 40
0.0
  9
$SKPOLY
 70
     0
  9
$TDCREATE
 40
2455335.873962303
  9
$TDUCREATE
 40
2455335.790628970
  9
$TDUPDATE
 40
2455335.875324606
  9
$TDUUPDATE
 40
2455335.791991273
  9
$TDINDWG
 40
0.0013623032
  9
$TDUSRTIMER
 40
0.0013623032
  9
$USRTIMER
 70
     1
  9
$ANGBASE
 50
0.0
  9
$ANGDIR
 70
     0
  9
$PDMODE
 70
     0
  9
$PDSIZE
 40
0.0
  9
$PLINEWID
 40
0.0
  9
$SPLFRAME
 70
     0
  9
$SPLINETYPE
 70
     6
  9
$SPLINESEGS
 70
     8
  9
$HANDSEED
  5
15B
  9
$SURFTAB1
 70
     6
  9
$SURFTAB2
 70
     6
  9
$SURFTYPE
 70
     6
  9
$SURFU
 70
     6
  9
$SURFV
 70
     6
  9
$UCSBASE
  2

  9
$UCSNAME
  2

  9
$UCSORG
 10
0.0
 20
0.0
 30
0.0
  9
$UCSXDIR
 10
1.0
 20
0.0
 30
0.0
  9
$UCSYDIR
 10
0.0
 20
1.0
 30
0.0
  9
$UCSORTHOREF
  2

  9
$UCSORTHOVIEW
 70
     1
  9
$UCSORGTOP
 10
0.0
 20
0.0
 30
0.0
  9
$UCSORGBOTTOM
 10
0.0
 20
0.0
 30
0.0
  9
$UCSORGLEFT
 10
0.0
 20
0.0
 30
0.0
  9
$UCSORGRIGHT
 10
0.0
 20
0.0
 30
0.0
  9
$UCSORGFRONT
 10
0.0
 20
0.0
 30
0.0
  9
$UCSORGBACK
 10
0.0
 20
0.0
 30
0.0
  9
$PUCSBASE
  2

  9
$PUCSNAME
  2

  9
$PUCSORG
 10
0.0
 20
0.0
 30
0.0
  9
$PUCSXDIR
 10
1.0
 20
0.0
 30
0.0
  9
$PUCSYDIR
 10
0.0
 20
1.0
 30
0.0
  9
$PUCSORTHOREF
  2

  9
$PUCSORTHOVIEW
 70
     0
  9
$PUCSORGTOP
 10
0.0
 20
0.0
 30
0.0
  9
$PUCSORGBOTTOM
 10
0.0
 20
0.0
 30
0.0
  9
$PUCSORGLEFT
 10
0.0
 20
0.0
 30
0.0
  9
$PUCSORGRIGHT
 10
0.0
 20
0.0
 30
0.0
  9
$PUCSORGFRONT
 10
0.0
 20
0.0
 30
0.0
  9
$PUCSORGBACK
 10
0.0
 20
0.0
 30
0.0
  9
$USERI1
 70
     0
  9
$USERI2
 70
     0
  9
$USERI3
 70
     0
  9
$USERI4
 70
     0
  9
$USERI5
 70
     0
  9
$USERR1
 40
0.0
  9
$USERR2
 40
0.0
  9
$USERR3
 40
0.0
  9
$USERR4
 40
0.0
  9
$USERR5
 40
0.0
  9
$WORLDVIEW
 70
     1
  9
$SHADEDGE
 70
     3
  9
$SHADEDIF
 70
    70
  9
$TILEMODE
 70
     1
  9
$MAXACTVP
 70
    64
  9
$PINSBASE
 10
0.0
 20
0.0
 30
0.0
  9
$PLIMCHECK
 70
     0
  9
$PEXTMIN
 10
1.000000000000000E+20
 20
1.000000000000000E+20
 30
1.000000000000000E+20
  9
$PEXTMAX
 10
-1.000000000000000E+20
 20
-1.000000000000000E+20
 30
-1.000000000000000E+20
  9
$PLIMMIN
 10
0.0
 20
0.0
  9
$PLIMMAX
 10
12.0
 20
9.0
  9
$UNITMODE
 70
     0
  9
$VISRETAIN
 70
     1
  9
$PLINEGEN
 70
     0
  9
$PSLTSCALE
 70
     1
  9
$TREEDEPTH
 70
  3020
  9
$CMLSTYLE
  2
Standard
  9
$CMLJUST
 70
     0
  9
$CMLSCALE
 40
1.0
  9
$PROXYGRAPHICS
 70
     1
  9
$MEASUREMENT
 70
     0
  9
$CELWEIGHT
370
    -1
  9
$ENDCAPS
280
     0
  9
$JOINSTYLE
280
     0
  9
$LWDISPLAY
290
     0
  9
$INSUNITS
 70
     0
  9
$HYPERLINKBASE
  1

  9
$STYLESHEET
  1

  9
$XEDIT
290
     1
  9
$CEPSNTYPE
380
     0
  9
$PSTYLEMODE
290
     1
  9
$FINGERPRINTGUID
  2
{1804BA93-877F-4614-BE2C-EB2B4BB81BEB}
  9
$VERSIONGUID
  2
{8283A9D9-EDC3-40D8-8A74-75851F2B2C4D}
  9
$EXTNAMES
290
     1
  9
$PSVPSCALE
 40
0.0
  9
$OLESTARTUP
290
     0
  0
ENDSEC
  0
SECTION
  2
CLASSES
  0
CLASS
  1
ACDBDICTIONARYWDFLT
  2
AcDbDictionaryWithDefault
  3
AutoCAD 2000
 90
        0
280
     0
281
     0
  0
CLASS
  1
ACDBPLACEHOLDER
  2
AcDbPlaceHolder
  3
AutoCAD 2000
 90
        0
280
     0
281
     0
  0
CLASS
  1
LAYOUT
  2
AcDbLayout
  3
AutoCAD 2000
 90
        0
280
     0
281
     0
  0
CLASS
  1
DICTIONARYVAR
  2
AcDbDictionaryVar
  3
AutoCAD 2000
 90
        0
280
     0
281
     0
  0
ENDSEC
  0
SECTION
  2
TABLES
  0
TABLE
  2
VPORT
  5
8
330
0
100
AcDbSymbolTable
 70
     3
  0
VPORT
  5
15A
330
8
100
AcDbSymbolTableRecord
100
AcDbViewportTableRecord
  2
*Active
 70
     0
 10
0.0
 20
0.0
 11
1.0
 21
1.0
 12
70.00000000000001
 22
51.49999999999999
 13
0.0
 23
0.0
 14
1.0
 24
1.0
 15
0.0
 25
0.0
 16
0.0
 26
0.0
 36
1.0
 17
0.0
 27
0.0
 37
0.0
 40
103.6761487964989
 41
2.041621029572836
 42
50.0
 43
0.0
 44
0.0
 50
0.0
 51
0.0
 71
     0
 72
   100
 73
     1
 74
     3
 75
     0
 76
     0
 77
     0
 78
     0
281
     0
 65
     1
110
0.0
120
0.0
130
0.0
111
1.0
121
0.0
131
0.0
112
0.0
122
1.0
132
0.0
 79
     1
146
0.0
  0
ENDTAB
  0
TABLE
  2
LTYPE
  5
5
330
0
100
AcDbSymbolTable
 70
     1
  0
LTYPE
  5
13
330
5
100
AcDbSymbolTableRecord
100
AcDbLinetypeTableRecord
  2
ByBlock
 70
     0
  3

 72
    65
 73
     0
 40
0.0
  0
LTYPE
  5
14
330
5
100
AcDbSymbolTableRecord
100
AcDbLinetypeTableRecord
  2
ByLayer
 70
     0
  3

 72
    65
 73
     0
 40
0.0
  0
LTYPE
  5
15
330
5
100
AcDbSymbolTableRecord
100
AcDbLinetypeTableRecord
  2
Continuous
 70
     0
  3
Solid line
 72
    65
 73
     0
 40
0.0
  0
ENDTAB
  0
TABLE
  2
LAYER
  5
2
330
0
100
AcDbSymbolTable
 70
     1
  0
LAYER
  5
10
330
2
100
AcDbSymbolTableRecord
100
AcDbLayerTableRecord
  2
0
 70
     0
 62
     7
  6
Continuous
370
    -3
390
F
  0
ENDTAB
  0
TABLE
  2
STYLE
  5
3
330
0
100
AcDbSymbolTable
 70
     1
  0
STYLE
  5
11
330
3
100
AcDbSymbolTableRecord
100
AcDbTextStyleTableRecord
  2
Standard
 70
     0
 40
0.0
 41
1.0
 50
0.0
 71
     0
 42
0.2
  3
txt
  4

  0
ENDTAB
  0
TABLE
  2
VIEW
  5
6
330
0
100
AcDbSymbolTable
 70
     0
  0
ENDTAB
  0
TABLE
  2
UCS
  5
7
330
0
100
AcDbSymbolTable
 70
     0
  0
ENDTAB
  0
TABLE
  2
APPID
  5
9
330
0
100
AcDbSymbolTable
 70
     1
  0
APPID
  5
12
330
9
100
AcDbSymbolTableRecord
100
AcDbRegAppTableRecord
  2
ACAD
 70
     0
  0
ENDTAB
  0
TABLE
  2
DIMSTYLE
  5
A
330
0
100
AcDbSymbolTable
 70
     1
100
AcDbDimStyleTable
 71
     0
  0
DIMSTYLE
105
150
330
A
100
AcDbSymbolTableRecord
100
AcDbDimStyleTableRecord
  2
Standard
 70
     0
340
11
  0
ENDTAB
  0
TABLE
  2
BLOCK_RECORD
  5
1
330
0
100
AcDbSymbolTable
 70
     0
  0
BLOCK_RECORD
  5
1E
330
1
100
AcDbSymbolTableRecord
100
AcDbBlockTableRecord
  2
*Model_Space
340
21
  0
BLOCK_RECORD
  5
1A
330
1
100
AcDbSymbolTableRecord
100
AcDbBlockTableRecord
  2
*Paper_Space
340
1D
  0
ENDTAB
  0
ENDSEC
  0
SECTION
  2
BLOCKS
  0
BLOCK
  5
1F
330
1E
100
AcDbEntity
  8
0
100
AcDbBlockBegin
  2
*Model_Space
 70
     0
 10
0.0
 20
0.0
 30
0.0
  3
*Model_Space
  1

  0
ENDBLK
  5
20
330
1E
100
AcDbEntity
  8
0
100
AcDbBlockEnd
  0
BLOCK
  5
1B
330
1A
100
AcDbEntity
 67
     1
  8
0
100
AcDbBlockBegin
  2
*Paper_Space
 70
     0
 10
0.0
 20
0.0
 30
0.0
  3
*Paper_Space
  1

  0
ENDBLK
  5
1C
330
1A
100
AcDbEntity
 67
     1
  8
0
100
AcDbBlockEnd
  0
ENDSEC
  0
SECTION
  2
ENTITIES
  0
LINE
  5
22
330
1E
100
AcDbEntity
  8
0
100
AcDbLine
 10
14.24
 20
3.0
 30
0.0
 11
18.87999999999999
 21
3.0
 31
0.0
  0
LINE
  5
23
330
1E
100
AcDbEntity
  8
0
100
AcDbLine
 10
18.87999999999999
 20
3.0
 30
0.0
 11
26.5066
 21
3.0
 31
0.0
  0
LINE
  5
24
330
1E
100
AcDbEntity
  8
0
100
AcDbLine
 10
12.5333
 20
3.0
 30
0.0
 11
14.24
 21
3.0
 31
0.0
  0
LINE
  5
25
330
1E
100
AcDbEntity
  8
0
100
AcDbLine
 10
12.5333
 20
3.0
 30
0.0
 11
14.24
 21
3.0
 31
0.0
  0
LINE
  5
26
330
1E
100
AcDbEntity
  8
0
100
AcDbLine
 10
14.24
 20
3.0
 30
0.0
 11
18.87999999999999
 21
3.0
 31
0.0
  0
LINE
  5
27
330
1E
100
AcDbEntity
  8
0
100
AcDbLine
 10
25.0
 20
3.0
 30
0.0
 11
25.0
 21
0.7869799999999971
 31
0.0
  0
LINE
  5
28
330
1E
100
AcDbEntity
  8
0
100
AcDbLine
 10
26.6333
 20
-0.0000000000000025
 30
0.0
 11
30.0167
 21
-0.0000000000000018
 31
0.0
  0
LINE
  5
29
330
1E
100
AcDbEntity
  8
0
100
AcDbLine
 10
30.0167
 20
-0.0000000000000018
 30
0.0
 11
35.5778
 21
-0.0000000000000014
 31
0.0
  0
LINE
  5
2A
330
1E
100
AcDbEntity
  8
0
100
AcDbLine
 10
25.3889
 20
-0.0000000000000029
 30
0.0
 11
26.6333
 21
-0.0000000000000036
 31
0.0
  0
LINE
  5
2B
330
1E
100
AcDbEntity
  8
0
100
AcDbLine
 10
25.3889
 20
-0.0000000000000029
 30
0.0
 11
26.6333
 21
-0.0000000000000025
 31
0.0
  0
LINE
  5
2C
330
1E
100
AcDbEntity
  8
0
100
AcDbLine
 10
26.6333
 20
-0.0000000000000036
 30
0.0
 11
30.0167
 21
-0.0000000000000039
 31
0.0
  0
LINE
  5
2D
330
1E
100
AcDbEntity
  8
0
100
AcDbLine
 10
35.5778
 20
-0.0000000000000014
 30
0.0
 11
42.8111
 21
-0.0000000000000011
 31
0.0
  0
LINE
  5
2E
330
1E
100
AcDbEntity
  8
0
100
AcDbLine
 10
30.0167
 20
-0.0000000000000039
 30
0.0
 11
35.5778
 21
-0.0000000000000043
 31
0.0
  0
LINE
  5
2F
330
1E
100
AcDbEntity
  8
0
100
AcDbLine
 10
35.5778
 20
-0.0000000000000043
 30
0.0
 11
42.8111
 21
-0.0000000000000046
 31
0.0
  0
LINE
  5
30
330
1E
100
AcDbEntity
  8
0
100
AcDbLine
 10
25.0
 20
0.7869799999999971
 30
0.0
 11
25.0
 21
3.0
 31
0.0
  0
LINE
  5
31
330
1E
100
AcDbEntity
  8
0
100
AcDbLine
 10
25.0
 20
0.7869799999999971
 30
0.0
 11
25.3889
 21
-0.0000000000000029
 31
0.0
  0
LINE
  5
32
330
1E
100
AcDbEntity
  8
0
100
AcDbLine
 10
26.5066
 20
3.0
 30
0.0
 11
36.4266
 21
3.0
 31
0.0
  0
LINE
  5
33
330
1E
100
AcDbEntity
  8
0
100
AcDbLine
 10
51.0944
 20
-0.000000000000005
 30
0.0
 11
60.0
 21
-0.000000000000005
 31
0.0
  0
LINE
  5
34
330
1E
100
AcDbEntity
  8
0
100
AcDbLine
 10
68.9056
 20
-0.000000000000005
 30
0.0
 11
77.1889
 21
-0.0000000000000046
 31
0.0
  0
LINE
  5
35
330
1E
100
AcDbEntity
  8
0
100
AcDbLine
 10
42.8111
 20
-0.0000000000000011
 30
0.0
 11
51.0944
 21
-0.0000000000000011
 31
0.0
  0
LINE
  5
36
330
1E
100
AcDbEntity
  8
0
100
AcDbLine
 10
68.9056
 20
-0.0000000000000011
 30
0.0
 11
77.1889
 21
-0.0000000000000011
 31
0.0
  0
LINE
  5
37
330
1E
100
AcDbEntity
  8
0
100
AcDbLine
 10
60.0
 20
-0.0000000000000007
 30
0.0
 11
68.9056
 21
-0.0000000000000011
 31
0.0
  0
LINE
  5
38
330
1E
100
AcDbEntity
  8
0
100
AcDbLine
 10
51.0944
 20
-0.0000000000000011
 30
0.0
 11
60.0
 21
-0.0000000000000007
 31
0.0
  0
LINE
  5
39
330
1E
100
AcDbEntity
  8
0
100
AcDbLine
 10
42.8111
 20
-0.0000000000000046
 30
0.0
 11
51.0944
 21
-0.000000000000005
 31
0.0
  0
LINE
  5
3A
330
1E
100
AcDbEntity
  8
0
100
AcDbLine
 10
60.0
 20
-0.000000000000005
 30
0.0
 11
68.9056
 21
-0.000000000000005
 31
0.0
  0
LINE
  5
3B
330
1E
100
AcDbEntity
  8
0
100
AcDbLine
 10
77.1889
 20
-0.0000000000000011
 30
0.0
 11
84.4222
 21
-0.0000000000000014
 31
0.0
  0
LINE
  5
3C
330
1E
100
AcDbEntity
  8
0
100
AcDbLine
 10
77.1889
 20
-0.0000000000000046
 30
0.0
 11
84.4222
 21
-0.0000000000000043
 31
0.0
  0
LINE
  5
3D
330
1E
100
AcDbEntity
  8
0
100
AcDbLine
 10
83.5734
 20
3.0
 30
0.0
 11
93.49339999999999
 21
3.0
 31
0.0
  0
LINE
  5
3E
330
1E
100
AcDbEntity
  8
0
100
AcDbLine
 10
72.21339999999999
 20
3.0
 30
0.0
 11
83.5734
 21
3.0
 31
0.0
  0
LINE
  5
3F
330
1E
100
AcDbEntity
  8
0
100
AcDbLine
 10
60.0
 20
3.0
 30
0.0
 11
72.21339999999999
 21
3.0
 31
0.0
  0
LINE
  5
40
330
1E
100
AcDbEntity
  8
0
100
AcDbLine
 10
36.4266
 20
3.0
 30
0.0
 11
47.7866
 21
3.0
 31
0.0
  0
LINE
  5
41
330
1E
100
AcDbEntity
  8
0
100
AcDbLine
 10
47.7866
 20
3.0
 30
0.0
 11
60.0
 21
3.0
 31
0.0
  0
LINE
  5
42
330
1E
100
AcDbEntity
  8
0
100
AcDbLine
 10
18.87999999999999
 20
3.0
 30
0.0
 11
25.0
 21
2.99999999999999
 31
0.0
  0
LINE
  5
46
330
1E
100
AcDbEntity
  8
0
100
AcDbLine
 10
12.0
 20
3.78698
 30
0.0
 11
12.0
 21
7.0
 31
0.0
  0
LINE
  5
47
330
1E
100
AcDbEntity
  8
0
100
AcDbLine
 10
12.0
 20
3.78698
 30
0.0
 11
12.5333
 21
3.0
 31
0.0
  0
LINE
  5
48
330
1E
100
AcDbEntity
  8
0
100
AcDbLine
 10
84.4222
 20
-0.0000000000000014
 30
0.0
 11
89.98330000000001
 21
-0.0000000000000018
 31
0.0
  0
LINE
  5
49
330
1E
100
AcDbEntity
  8
0
100
AcDbLine
 10
93.36669999999999
 20
-0.0000000000000025
 30
0.0
 11
94.61109999999999
 21
-0.0000000000000029
 31
0.0
  0
LINE
  5
4A
330
1E
100
AcDbEntity
  8
0
100
AcDbLine
 10
89.98330000000001
 20
-0.0000000000000018
 30
0.0
 11
93.36669999999999
 21
-0.0000000000000025
 31
0.0
  0
LINE
  5
4B
330
1E
100
AcDbEntity
  8
0
100
AcDbLine
 10
95.0
 20
0.7869799999999971
 30
0.0
 11
95.0
 21
3.0
 31
0.0
  0
LINE
  5
4C
330
1E
100
AcDbEntity
  8
0
100
AcDbLine
 10
94.61109999999999
 20
-0.0000000000000029
 30
0.0
 11
95.0
 21
0.7869799999999971
 31
0.0
  0
LINE
  5
4D
330
1E
100
AcDbEntity
  8
0
100
AcDbLine
 10
93.36669999999999
 20
-0.0000000000000036
 30
0.0
 11
94.61109999999999
 21
-0.0000000000000029
 31
0.0
  0
LINE
  5
4E
330
1E
100
AcDbEntity
  8
0
100
AcDbLine
 10
89.98330000000001
 20
-0.0000000000000039
 30
0.0
 11
93.36669999999999
 21
-0.0000000000000036
 31
0.0
  0
LINE
  5
4F
330
1E
100
AcDbEntity
  8
0
100
AcDbLine
 10
84.4222
 20
-0.0000000000000043
 30
0.0
 11
89.98330000000001
 21
-0.0000000000000039
 31
0.0
  0
LINE
  5
50
330
1E
100
AcDbEntity
  8
0
100
AcDbLine
 10
95.0
 20
3.0
 30
0.0
 11
95.0
 21
0.7869799999999971
 31
0.0
  0
LINE
  5
51
330
1E
100
AcDbEntity
  8
0
100
AcDbLine
 10
101.12
 20
3.0
 30
0.0
 11
105.76
 21
3.0
 31
0.0
  0
LINE
  5
52
330
1E
100
AcDbEntity
  8
0
100
AcDbLine
 10
93.49339999999999
 20
3.0
 30
0.0
 11
101.12
 21
3.0
 31
0.0
  0
LINE
  5
54
330
1E
100
AcDbEntity
  8
0
100
AcDbLine
 10
105.76
 20
3.0
 30
0.0
 11
107.467
 21
3.0
 31
0.0
  0
LINE
  5
55
330
1E
100
AcDbEntity
  8
0
100
AcDbLine
 10
108.0
 20
3.78698
 30
0.0
 11
108.0
 21
7.0
 31
0.0
  0
LINE
  5
56
330
1E
100
AcDbEntity
  8
0
100
AcDbLine
 10
107.467
 20
3.0
 30
0.0
 11
108.0
 21
3.78698
 31
0.0
  0
LINE
  5
57
330
1E
100
AcDbEntity
  8
0
100
AcDbLine
 10
105.76
 20
3.0
 30
0.0
 11
107.467
 21
3.0
 31
0.0
  0
LINE
  5
58
330
1E
100
AcDbEntity
  8
0
100
AcDbLine
 10
101.12
 20
3.0
 30
0.0
 11
105.76
 21
3.0
 31
0.0
  0
LINE
  5
59
330
1E
100
AcDbEntity
  8
0
100
AcDbLine
 10
95.0
 20
2.99999999999999
 30
0.0
 11
101.12
 21
3.0
 31
0.0
  0
LINE
  5
5A
330
1E
100
AcDbEntity
  8
0
100
AcDbLine
 10
4.622200000000009
 20
7.0
 30
0.0
 11
12.0267
 21
7.0
 31
0.0
  0
LINE
  5
5B
330
1E
100
AcDbEntity
  8
0
100
AcDbLine
 10
12.0
 20
7.0
 30
0.0
 11
12.0
 21
3.78698
 31
0.0
  0
LINE
  5
5C
330
1E
100
AcDbEntity
  8
0
100
AcDbLine
 10
12.0
 20
7.0
 30
0.0
 11
13.76
 21
7.0
 31
0.0
  0
LINE
  5
5D
330
1E
100
AcDbEntity
  8
0
100
AcDbLine
 10
13.76
 20
7.0
 30
0.0
 11
18.45329999999999
 21
7.0
 31
0.0
  0
LINE
  5
5E
330
1E
100
AcDbEntity
  8
0
100
AcDbLine
 10
18.45329999999999
 20
7.0
 30
0.0
 11
26.08
 21
7.0
 31
0.0
  0
LINE
  5
5F
330
1E
100
AcDbEntity
  8
0
100
AcDbLine
 10
26.08
 20
7.0
 30
0.0
 11
36.15999999999999
 21
7.0
 31
0.0
  0
LINE
  5
60
330
1E
100
AcDbEntity
  8
0
100
AcDbLine
 10
36.15999999999999
 20
7.0
 30
0.0
 11
47.67999999999999
 21
7.0
 31
0.0
  0
LINE
  5
61
330
1E
100
AcDbEntity
  8
0
100
AcDbLine
 10
106.24
 20
7.0
 30
0.0
 11
108.0
 21
7.0
 31
0.0
  0
LINE
  5
62
330
1E
100
AcDbEntity
  8
0
100
AcDbLine
 10
101.547
 20
7.0
 30
0.0
 11
106.24
 21
7.0
 31
0.0
  0
LINE
  5
63
330
1E
100
AcDbEntity
  8
0
100
AcDbLine
 10
93.92000000000001
 20
7.0
 30
0.0
 11
101.547
 21
7.0
 31
0.0
  0
LINE
  5
64
330
1E
100
AcDbEntity
  8
0
100
AcDbLine
 10
83.84
 20
7.0
 30
0.0
 11
93.92000000000001
 21
7.0
 31
0.0
  0
LINE
  5
65
330
1E
100
AcDbEntity
  8
0
100
AcDbLine
 10
72.31999999999999
 20
7.0
 30
0.0
 11
83.84
 21
7.0
 31
0.0
  0
LINE
  5
66
330
1E
100
AcDbEntity
  8
0
100
AcDbLine
 10
60.0
 20
7.0
 30
0.0
 11
72.31999999999999
 21
7.0
 31
0.0
  0
LINE
  5
67
330
1E
100
AcDbEntity
  8
0
100
AcDbLine
 10
47.67999999999999
 20
7.0
 30
0.0
 11
60.0
 21
7.0
 31
0.0
  0
LINE
  5
68
330
1E
100
AcDbEntity
  8
0
100
AcDbLine
 10
108.0
 20
7.0
 30
0.0
 11
108.0
 21
3.78698
 31
0.0
  0
LINE
  5
69
330
1E
100
AcDbEntity
  8
0
100
AcDbLine
 10
4.622200000000009
 20
7.0
 30
0.0
 11
12.0
 21
6.99999999999999
 31
0.0
  0
LINE
  5
6A
330
1E
100
AcDbEntity
  8
0
100
AcDbLine
 10
6.0533
 20
7.26233
 30
0.0
 11
11.52889999999999
 21
7.26233
 31
0.0
  0
LINE
  5
6B
330
1E
100
AcDbEntity
  8
0
100
AcDbLine
 10
11.52889999999999
 20
7.26233
 30
0.0
 11
20.4267
 21
7.26233
 31
0.0
  0
LINE
  5
6C
330
1E
100
AcDbEntity
  8
0
100
AcDbLine
 10
20.4267
 20
7.26233
 30
0.0
 11
32.1867
 21
7.26233
 31
0.0
  0
LINE
  5
6D
330
1E
100
AcDbEntity
  8
0
100
AcDbLine
 10
4.000000000000009
 20
7.99999999999999
 30
0.0
 11
4.000000000000009
 21
7.26233
 31
0.0
  0
LINE
  5
6E
330
1E
100
AcDbEntity
  8
0
100
AcDbLine
 10
4.000000000000009
 20
7.99999999999999
 30
0.0
 11
6.0533
 21
8.0
 31
0.0
  0
LINE
  5
6F
330
1E
100
AcDbEntity
  8
0
100
AcDbLine
 10
32.1867
 20
7.26233
 30
0.0
 11
45.62669999999999
 21
7.26233
 31
0.0
  0
LINE
  5
70
330
1E
100
AcDbEntity
  8
0
100
AcDbLine
 10
108.471
 20
7.26233
 30
0.0
 11
113.9469999999999
 21
7.26233
 31
0.0
  0
LINE
  5
71
330
1E
100
AcDbEntity
  8
0
100
AcDbLine
 10
99.5733
 20
7.26233
 30
0.0
 11
108.471
 21
7.26233
 31
0.0
  0
LINE
  5
72
330
1E
100
AcDbEntity
  8
0
100
AcDbLine
 10
87.8133
 20
7.26233
 30
0.0
 11
99.5733
 21
7.26233
 31
0.0
  0
LINE
  5
73
330
1E
100
AcDbEntity
  8
0
100
AcDbLine
 10
74.3733
 20
7.26233
 30
0.0
 11
87.8133
 21
7.26233
 31
0.0
  0
LINE
  5
74
330
1E
100
AcDbEntity
  8
0
100
AcDbLine
 10
60.0
 20
7.26233
 30
0.0
 11
74.3733
 21
7.26233
 31
0.0
  0
LINE
  5
75
330
1E
100
AcDbEntity
  8
0
100
AcDbLine
 10
45.62669999999999
 20
7.26233
 30
0.0
 11
60.0
 21
7.26233
 31
0.0
  0
LINE
  5
76
330
1E
100
AcDbEntity
  8
0
100
AcDbLine
 10
4.000000000000009
 20
7.26233
 30
0.0
 11
4.000000000000009
 21
7.99999999999999
 31
0.0
  0
LINE
  5
77
330
1E
100
AcDbEntity
  8
0
100
AcDbLine
 10
4.000000000000009
 20
7.26233
 30
0.0
 11
4.622200000000009
 21
7.0
 31
0.0
  0
LINE
  5
78
330
1E
100
AcDbEntity
  8
0
100
AcDbLine
 10
4.000000000000009
 20
7.26233
 30
0.0
 11
6.0533
 21
7.26233
 31
0.0
  0
LINE
  5
79
330
1E
100
AcDbEntity
  8
0
100
AcDbLine
 10
113.9469999999999
 20
7.26233
 30
0.0
 11
116.0
 21
7.26233
 31
0.0
  0
LINE
  5
7A
330
1E
100
AcDbEntity
  8
0
100
AcDbLine
 10
116.0
 20
7.26233
 30
0.0
 11
116.0
 21
7.99999999999999
 31
0.0
  0
LINE
  5
7B
330
1E
100
AcDbEntity
  8
0
100
AcDbLine
 10
115.3779999999999
 20
7.0
 30
0.0
 11
116.0
 21
7.26233
 31
0.0
  0
LINE
  5
7C
330
1E
100
AcDbEntity
  8
0
100
AcDbLine
 10
113.3869999999999
 20
7.0
 30
0.0
 11
115.3779999999999
 21
7.0
 31
0.0
  0
LINE
  5
7D
330
1E
100
AcDbEntity
  8
0
100
AcDbLine
 10
108.0
 20
6.99999999999999
 30
0.0
 11
113.3869999999999
 21
7.0
 31
0.0
  0
LINE
  5
7E
330
1E
100
AcDbEntity
  8
0
100
AcDbLine
 10
0.666700000000003
 20
7.99999999999999
 30
0.0
 11
2.799999999999999
 21
7.99999999999999
 31
0.0
  0
LINE
  5
7F
330
1E
100
AcDbEntity
  8
0
100
AcDbLine
 10
0.666700000000003
 20
7.99999999999999
 30
0.0
 11
2.799999999999999
 21
8.0
 31
0.0
  0
LINE
  5
80
330
1E
100
AcDbEntity
  8
0
100
AcDbLine
 10
2.799999999999999
 20
7.99999999999999
 30
0.0
 11
4.000000000000009
 21
7.99999999999999
 31
0.0
  0
LINE
  5
81
330
1E
100
AcDbEntity
  8
0
100
AcDbLine
 10
119.3332999999999
 20
7.99999999999999
 30
0.0
 11
120.0
 21
8.787
 31
0.0
  0
LINE
  5
82
330
1E
100
AcDbEntity
  8
0
100
AcDbLine
 10
117.2
 20
7.99999999999999
 30
0.0
 11
119.3332999999999
 21
7.99999999999999
 31
0.0
  0
LINE
  5
83
330
1E
100
AcDbEntity
  8
0
100
AcDbLine
 10
0.0000000000000078
 20
8.787
 30
0.0
 11
0.0000000000000078
 21
38.5049
 31
0.0
  0
LINE
  5
84
330
1E
100
AcDbEntity
  8
0
100
AcDbLine
 10
0.0000000000000078
 20
8.787
 30
0.0
 11
0.666700000000003
 21
7.99999999999999
 31
0.0
  0
LINE
  5
85
330
1E
100
AcDbEntity
  8
0
100
AcDbLine
 10
0.0000000000000078
 20
8.787
 30
0.0
 11
2.200000000000009
 21
8.787
 31
0.0
  0
LINE
  5
86
330
1E
100
AcDbEntity
  8
0
100
AcDbLine
 10
2.200000000000009
 20
8.787
 30
0.0
 11
8.066700000000009
 21
8.787
 31
0.0
  0
LINE
  5
87
330
1E
100
AcDbEntity
  8
0
100
AcDbLine
 10
6.0533
 20
8.0
 30
0.0
 11
11.52889999999999
 21
8.0
 31
0.0
  0
LINE
  5
88
330
1E
100
AcDbEntity
  8
0
100
AcDbLine
 10
2.799999999999999
 20
8.0
 30
0.0
 11
8.60000000000001
 21
8.0
 31
0.0
  0
LINE
  5
89
330
1E
100
AcDbEntity
  8
0
100
AcDbLine
 10
11.52889999999999
 20
8.0
 30
0.0
 11
20.4267
 21
8.0
 31
0.0
  0
LINE
  5
8A
330
1E
100
AcDbEntity
  8
0
100
AcDbLine
 10
8.60000000000001
 20
8.0
 30
0.0
 11
18.13329999999999
 21
8.0
 31
0.0
  0
LINE
  5
8B
330
1E
100
AcDbEntity
  8
0
100
AcDbLine
 10
8.066700000000009
 20
8.787
 30
0.0
 11
17.6
 21
8.787
 31
0.0
  0
LINE
  5
8C
330
1E
100
AcDbEntity
  8
0
100
AcDbLine
 10
17.6
 20
8.787
 30
0.0
 11
30.2
 21
8.787
 31
0.0
  0
LINE
  5
8D
330
1E
100
AcDbEntity
  8
0
100
AcDbLine
 10
2.200000000000009
 20
38.5049
 30
0.0
 11
8.066700000000009
 21
38.5049
 31
0.0
  0
LINE
  5
8E
330
1E
100
AcDbEntity
  8
0
100
AcDbLine
 10
8.066700000000009
 20
38.5049
 30
0.0
 11
17.6
 21
38.5049
 31
0.0
  0
LINE
  5
8F
330
1E
100
AcDbEntity
  8
0
100
AcDbLine
 10
18.13329999999999
 20
8.0
 30
0.0
 11
30.5333
 21
8.0
 31
0.0
  0
LINE
  5
90
330
1E
100
AcDbEntity
  8
0
100
AcDbLine
 10
32.1867
 20
8.0
 30
0.0
 11
45.62669999999999
 21
8.0
 31
0.0
  0
LINE
  5
91
330
1E
100
AcDbEntity
  8
0
100
AcDbLine
 10
30.5333
 20
8.0
 30
0.0
 11
44.73329999999999
 21
8.0
 31
0.0
  0
LINE
  5
92
330
1E
100
AcDbEntity
  8
0
100
AcDbLine
 10
30.2
 20
8.787
 30
0.0
 11
44.59999999999999
 21
8.787
 31
0.0
  0
LINE
  5
93
330
1E
100
AcDbEntity
  8
0
100
AcDbLine
 10
44.59999999999999
 20
8.787
 30
0.0
 11
60.0
 21
8.787
 31
0.0
  0
LINE
  5
94
330
1E
100
AcDbEntity
  8
0
100
AcDbLine
 10
17.6
 20
38.5049
 30
0.0
 11
30.2
 21
38.5049
 31
0.0
  0
LINE
  5
95
330
1E
100
AcDbEntity
  8
0
100
AcDbLine
 10
30.2
 20
38.5049
 30
0.0
 11
44.59999999999999
 21
38.5049
 31
0.0
  0
LINE
  5
96
330
1E
100
AcDbEntity
  8
0
100
AcDbLine
 10
45.62669999999999
 20
8.0
 30
0.0
 11
60.0
 21
8.0
 31
0.0
  0
LINE
  5
97
330
1E
100
AcDbEntity
  8
0
100
AcDbLine
 10
74.3733
 20
8.0
 30
0.0
 11
87.8133
 21
8.0
 31
0.0
  0
LINE
  5
98
330
1E
100
AcDbEntity
  8
0
100
AcDbLine
 10
108.471
 20
8.0
 30
0.0
 11
113.9469999999999
 21
8.0
 31
0.0
  0
LINE
  5
99
330
1E
100
AcDbEntity
  8
0
100
AcDbLine
 10
99.5733
 20
8.0
 30
0.0
 11
108.471
 21
8.0
 31
0.0
  0
LINE
  5
9A
330
1E
100
AcDbEntity
  8
0
100
AcDbLine
 10
113.9469999999999
 20
8.0
 30
0.0
 11
116.0
 21
7.99999999999999
 31
0.0
  0
LINE
  5
9B
330
1E
100
AcDbEntity
  8
0
100
AcDbLine
 10
117.2
 20
8.0
 30
0.0
 11
119.3332999999999
 21
7.99999999999999
 31
0.0
  0
LINE
  5
9C
330
1E
100
AcDbEntity
  8
0
100
AcDbLine
 10
111.4
 20
8.0
 30
0.0
 11
117.2
 21
8.0
 31
0.0
  0
LINE
  5
9D
330
1E
100
AcDbEntity
  8
0
100
AcDbLine
 10
101.8666999999999
 20
8.0
 30
0.0
 11
111.4
 21
8.0
 31
0.0
  0
LINE
  5
9E
330
1E
100
AcDbEntity
  8
0
100
AcDbLine
 10
89.46670000000001
 20
8.0
 30
0.0
 11
101.8666999999999
 21
8.0
 31
0.0
  0
LINE
  5
9F
330
1E
100
AcDbEntity
  8
0
100
AcDbLine
 10
75.2667
 20
8.0
 30
0.0
 11
89.46670000000001
 21
8.0
 31
0.0
  0
LINE
  5
A0
330
1E
100
AcDbEntity
  8
0
100
AcDbLine
 10
60.0
 20
8.0
 30
0.0
 11
75.2667
 21
8.0
 31
0.0
  0
LINE
  5
A1
330
1E
100
AcDbEntity
  8
0
100
AcDbLine
 10
60.0
 20
8.0
 30
0.0
 11
74.3733
 21
8.0
 31
0.0
  0
LINE
  5
A2
330
1E
100
AcDbEntity
  8
0
100
AcDbLine
 10
60.0
 20
8.787
 30
0.0
 11
75.4
 21
8.787
 31
0.0
  0
LINE
  5
A3
330
1E
100
AcDbEntity
  8
0
100
AcDbLine
 10
89.8
 20
8.787
 30
0.0
 11
102.4
 21
8.787
 31
0.0
  0
LINE
  5
A4
330
1E
100
AcDbEntity
  8
0
100
AcDbLine
 10
75.4
 20
8.787
 30
0.0
 11
89.8
 21
8.787
 31
0.0
  0
LINE
  5
A5
330
1E
100
AcDbEntity
  8
0
100
AcDbLine
 10
111.9333
 20
8.787
 30
0.0
 11
117.7999999999999
 21
8.787
 31
0.0
  0
LINE
  5
A6
330
1E
100
AcDbEntity
  8
0
100
AcDbLine
 10
102.4
 20
8.787
 30
0.0
 11
111.9333
 21
8.787
 31
0.0
  0
LINE
  5
A7
330
1E
100
AcDbEntity
  8
0
100
AcDbLine
 10
117.7999999999999
 20
8.787
 30
0.0
 11
120.0
 21
8.787
 31
0.0
  0
LINE
  5
A8
330
1E
100
AcDbEntity
  8
0
100
AcDbLine
 10
120.0
 20
8.787
 30
0.0
 11
120.0
 21
38.5049
 31
0.0
  0
LINE
  5
A9
330
1E
100
AcDbEntity
  8
0
100
AcDbLine
 10
117.7999999999999
 20
38.5049
 30
0.0
 11
120.0
 21
38.5049
 31
0.0
  0
LINE
  5
AA
330
1E
100
AcDbEntity
  8
0
100
AcDbLine
 10
111.9333
 20
38.5049
 30
0.0
 11
117.7999999999999
 21
38.5049
 31
0.0
  0
LINE
  5
AB
330
1E
100
AcDbEntity
  8
0
100
AcDbLine
 10
102.4
 20
38.5049
 30
0.0
 11
111.9333
 21
38.5049
 31
0.0
  0
LINE
  5
AC
330
1E
100
AcDbEntity
  8
0
100
AcDbLine
 10
89.8
 20
38.5049
 30
0.0
 11
102.4
 21
38.5049
 31
0.0
  0
LINE
  5
AD
330
1E
100
AcDbEntity
  8
0
100
AcDbLine
 10
75.4
 20
38.5049
 30
0.0
 11
89.8
 21
38.5049
 31
0.0
  0
LINE
  5
AE
330
1E
100
AcDbEntity
  8
0
100
AcDbLine
 10
60.0
 20
38.5049
 30
0.0
 11
75.4
 21
38.5049
 31
0.0
  0
LINE
  5
AF
330
1E
100
AcDbEntity
  8
0
100
AcDbLine
 10
44.73329999999999
 20
8.0
 30
0.0
 11
60.0
 21
8.0
 31
0.0
  0
LINE
  5
B0
330
1E
100
AcDbEntity
  8
0
100
AcDbLine
 10
44.59999999999999
 20
38.5049
 30
0.0
 11
60.0
 21
38.5049
 31
0.0
  0
LINE
  5
B1
330
1E
100
AcDbEntity
  8
0
100
AcDbLine
 10
0.666700000000003
 20
39.2919
 30
0.0
 11
2.799999999999999
 21
39.2919
 31
0.0
  0
LINE
  5
B2
330
1E
100
AcDbEntity
  8
0
100
AcDbLine
 10
0.0000000000000078
 20
38.5049
 30
0.0
 11
0.666700000000003
 21
39.2919
 31
0.0
  0
LINE
  5
B3
330
1E
100
AcDbEntity
  8
0
100
AcDbLine
 10
0.0000000000000078
 20
38.5049
 30
0.0
 11
2.200000000000009
 21
38.5049
 31
0.0
  0
LINE
  5
B4
330
1E
100
AcDbEntity
  8
0
100
AcDbLine
 10
0.0000000000000078
 20
38.5049
 30
0.0
 11
0.0000000000000078
 21
8.787
 31
0.0
  0
LINE
  5
B5
330
1E
100
AcDbEntity
  8
0
100
AcDbLine
 10
116.0
 20
7.99999999999999
 30
0.0
 11
117.2
 21
7.99999999999999
 31
0.0
  0
LINE
  5
B6
330
1E
100
AcDbEntity
  8
0
100
AcDbLine
 10
116.0
 20
7.99999999999999
 30
0.0
 11
116.0
 21
7.26233
 31
0.0
  0
LINE
  5
B7
330
1E
100
AcDbEntity
  8
0
100
AcDbLine
 10
120.0
 20
38.5049
 30
0.0
 11
120.0
 21
8.787
 31
0.0
  0
LINE
  5
B8
330
1E
100
AcDbEntity
  8
0
100
AcDbLine
 10
2.799999999999999
 20
39.2919
 30
0.0
 11
8.60000000000001
 21
39.2919
 31
0.0
  0
LINE
  5
B9
330
1E
100
AcDbEntity
  8
0
100
AcDbLine
 10
2.200000000000009
 20
40.07889999999999
 30
0.0
 11
8.066700000000009
 21
40.07889999999999
 31
0.0
  0
LINE
  5
BA
330
1E
100
AcDbEntity
  8
0
100
AcDbLine
 10
8.60000000000001
 20
39.2919
 30
0.0
 11
18.13329999999999
 21
39.2919
 31
0.0
  0
LINE
  5
BB
330
1E
100
AcDbEntity
  8
0
100
AcDbLine
 10
18.13329999999999
 20
39.2919
 30
0.0
 11
30.5333
 21
39.2919
 31
0.0
  0
LINE
  5
BC
330
1E
100
AcDbEntity
  8
0
100
AcDbLine
 10
8.066700000000009
 20
40.07889999999999
 30
0.0
 11
17.6
 21
40.07889999999999
 31
0.0
  0
LINE
  5
BD
330
1E
100
AcDbEntity
  8
0
100
AcDbLine
 10
17.6
 20
40.07889999999999
 30
0.0
 11
30.2
 21
40.07889999999999
 31
0.0
  0
LINE
  5
BE
330
1E
100
AcDbEntity
  8
0
100
AcDbLine
 10
0.0000000000000078
 20
40.07889999999999
 30
0.0
 11
0.0000000000000078
 21
46.0
 31
0.0
  0
LINE
  5
BF
330
1E
100
AcDbEntity
  8
0
100
AcDbLine
 10
0.0000000000000078
 20
40.07889999999999
 30
0.0
 11
0.666700000000003
 21
39.2919
 31
0.0
  0
LINE
  5
C0
330
1E
100
AcDbEntity
  8
0
100
AcDbLine
 10
0.0000000000000078
 20
40.07889999999999
 30
0.0
 11
2.200000000000009
 21
40.07889999999999
 31
0.0
  0
LINE
  5
C1
330
1E
100
AcDbEntity
  8
0
100
AcDbLine
 10
2.200000000000009
 20
46.0
 30
0.0
 11
8.066700000000009
 21
46.0
 31
0.0
  0
LINE
  5
C2
330
1E
100
AcDbEntity
  8
0
100
AcDbLine
 10
8.066700000000009
 20
46.0
 30
0.0
 11
17.6
 21
46.0
 31
0.0
  0
LINE
  5
C3
330
1E
100
AcDbEntity
  8
0
100
AcDbLine
 10
17.6
 20
46.0
 30
0.0
 11
30.2
 21
46.0
 31
0.0
  0
LINE
  5
C4
330
1E
100
AcDbEntity
  8
0
100
AcDbLine
 10
0.0000000000000078
 20
46.0
 30
0.0
 11
29.0
 21
60.0
 31
0.0
  0
LINE
  5
C5
330
1E
100
AcDbEntity
  8
0
100
AcDbLine
 10
0.0000000000000078
 20
46.0
 30
0.0
 11
2.200000000000009
 21
46.0
 31
0.0
  0
LINE
  5
C6
330
1E
100
AcDbEntity
  8
0
100
AcDbLine
 10
0.0000000000000078
 20
46.0
 30
0.0
 11
0.0000000000000078
 21
40.07889999999999
 31
0.0
  0
LINE
  5
C7
330
1E
100
AcDbEntity
  8
0
100
AcDbLine
 10
30.5333
 20
39.2919
 30
0.0
 11
44.73329999999999
 21
39.2919
 31
0.0
  0
LINE
  5
C8
330
1E
100
AcDbEntity
  8
0
100
AcDbLine
 10
30.2
 20
40.07889999999999
 30
0.0
 11
44.59999999999999
 21
40.07889999999999
 31
0.0
  0
LINE
  5
C9
330
1E
100
AcDbEntity
  8
0
100
AcDbLine
 10
30.2
 20
46.0
 30
0.0
 11
44.59999999999999
 21
46.0
 31
0.0
  0
LINE
  5
CA
330
1E
100
AcDbEntity
  8
0
100
AcDbLine
 10
30.1367
 20
60.0
 30
0.0
 11
33.1678
 21
60.0
 31
0.0
  0
LINE
  5
CB
330
1E
100
AcDbEntity
  8
0
100
AcDbLine
 10
33.1678
 20
60.0
 30
0.0
 11
38.0933
 21
60.0
 31
0.0
  0
LINE
  5
CC
330
1E
100
AcDbEntity
  8
0
100
AcDbLine
 10
44.73329999999999
 20
39.2919
 30
0.0
 11
60.0
 21
39.2919
 31
0.0
  0
LINE
  5
CD
330
1E
100
AcDbEntity
  8
0
100
AcDbLine
 10
44.59999999999999
 20
40.07889999999999
 30
0.0
 11
60.0
 21
40.07889999999999
 31
0.0
  0
LINE
  5
CE
330
1E
100
AcDbEntity
  8
0
100
AcDbLine
 10
44.59999999999999
 20
46.0
 30
0.0
 11
60.0
 21
46.0
 31
0.0
  0
LINE
  5
CF
330
1E
100
AcDbEntity
  8
0
100
AcDbLine
 10
38.0933
 20
60.0
 30
0.0
 11
44.60329999999999
 21
60.0
 31
0.0
  0
LINE
  5
D0
330
1E
100
AcDbEntity
  8
0
100
AcDbLine
 10
44.60329999999999
 20
60.0
 30
0.0
 11
52.0433
 21
60.0
 31
0.0
  0
LINE
  5
D1
330
1E
100
AcDbEntity
  8
0
100
AcDbLine
 10
60.0
 20
39.2919
 30
0.0
 11
75.2667
 21
39.2919
 31
0.0
  0
LINE
  5
D2
330
1E
100
AcDbEntity
  8
0
100
AcDbLine
 10
60.0
 20
46.0
 30
0.0
 11
75.4
 21
46.0
 31
0.0
  0
LINE
  5
D3
330
1E
100
AcDbEntity
  8
0
100
AcDbLine
 10
60.0
 20
40.07889999999999
 30
0.0
 11
75.4
 21
40.07889999999999
 31
0.0
  0
LINE
  5
D4
330
1E
100
AcDbEntity
  8
0
100
AcDbLine
 10
75.2667
 20
39.2919
 30
0.0
 11
89.46670000000001
 21
39.2919
 31
0.0
  0
LINE
  5
D5
330
1E
100
AcDbEntity
  8
0
100
AcDbLine
 10
75.4
 20
46.0
 30
0.0
 11
89.8
 21
46.0
 31
0.0
  0
LINE
  5
D6
330
1E
100
AcDbEntity
  8
0
100
AcDbLine
 10
75.4
 20
40.07889999999999
 30
0.0
 11
89.8
 21
40.07889999999999
 31
0.0
  0
LINE
  5
D7
330
1E
100
AcDbEntity
  8
0
100
AcDbLine
 10
75.3967
 20
60.0
 30
0.0
 11
91.79096091514253
 21
59.83719572094156
 31
0.0
  0
LINE
  5
D8
330
1E
100
AcDbEntity
  8
0
100
AcDbLine
 10
67.9567
 20
60.0
 30
0.0
 11
75.3967
 21
60.0
 31
0.0
  0
LINE
  5
D9
330
1E
100
AcDbEntity
  8
0
100
AcDbLine
 10
60.0
 20
60.0
 30
0.0
 11
67.9567
 21
60.0
 31
0.0
  0
LINE
  5
DA
330
1E
100
AcDbEntity
  8
0
100
AcDbLine
 10
52.0433
 20
60.0
 30
0.0
 11
60.0
 21
60.0
 31
0.0
  0
LINE
  5
DB
330
1E
100
AcDbEntity
  8
0
100
AcDbLine
 10
31.3222
 20
83.0
 30
0.0
 11
32.35329999999999
 21
83.0
 31
0.0
  0
LINE
  5
DC
330
1E
100
AcDbEntity
  8
0
100
AcDbLine
 10
32.35329999999999
 20
83.0
 30
0.0
 11
35.1567
 21
83.0
 31
0.0
  0
LINE
  5
DD
330
1E
100
AcDbEntity
  8
0
100
AcDbLine
 10
35.1567
 20
83.0
 30
0.0
 11
39.7644
 21
83.0
 31
0.0
  0
LINE
  5
DE
330
1E
100
AcDbEntity
  8
0
100
AcDbLine
 10
44.0
 20
83.0
 30
0.0
 11
45.6422
 21
86.84780000000001
 31
0.0
  0
LINE
  5
DF
330
1E
100
AcDbEntity
  8
0
100
AcDbLine
 10
39.7644
 20
83.0
 30
0.0
 11
45.7578
 21
83.0
 31
0.0
  0
LINE
  5
E0
330
1E
100
AcDbEntity
  8
0
100
AcDbLine
 10
45.7578
 20
83.0
 30
0.0
 11
52.62109999999999
 21
83.0
 31
0.0
  0
LINE
  5
E1
330
1E
100
AcDbEntity
  8
0
100
AcDbLine
 10
87.6467
 20
83.0
 30
0.0
 11
88.67780000000001
 21
83.0
 31
0.0
  0
LINE
  5
E2
330
1E
100
AcDbEntity
  8
0
100
AcDbLine
 10
84.84329999999999
 20
83.0
 30
0.0
 11
87.6467
 21
83.0
 31
0.0
  0
LINE
  5
E3
330
1E
100
AcDbEntity
  8
0
100
AcDbLine
 10
80.23560000000001
 20
83.0
 30
0.0
 11
84.84329999999999
 21
83.0
 31
0.0
  0
LINE
  5
E4
330
1E
100
AcDbEntity
  8
0
100
AcDbLine
 10
74.2422
 20
83.0
 30
0.0
 11
80.23560000000001
 21
83.0
 31
0.0
  0
LINE
  5
E5
330
1E
100
AcDbEntity
  8
0
100
AcDbLine
 10
67.3789
 20
83.0
 30
0.0
 11
74.2422
 21
83.0
 31
0.0
  0
LINE
  5
E6
330
1E
100
AcDbEntity
  8
0
100
AcDbLine
 10
60.0
 20
83.0
 30
0.0
 11
67.3789
 21
83.0
 31
0.0
  0
LINE
  5
E7
330
1E
100
AcDbEntity
  8
0
100
AcDbLine
 10
52.62109999999999
 20
83.0
 30
0.0
 11
60.0
 21
83.0
 31
0.0
  0
LINE
  5
E8
330
1E
100
AcDbEntity
  8
0
100
AcDbLine
 10
31.0
 20
82.36490000000001
 30
0.0
 11
31.3222
 21
83.0
 31
0.0
  0
LINE
  5
E9
330
1E
100
AcDbEntity
  8
0
100
AcDbLine
 10
29.0
 20
60.0
 30
0.0
 11
31.0
 21
82.36490000000001
 31
0.0
  0
LINE
  5
EA
330
1E
100
AcDbEntity
  8
0
100
AcDbLine
 10
29.0
 20
60.0
 30
0.0
 11
30.1367
 21
60.0
 31
0.0
  0
LINE
  5
EB
330
1E
100
AcDbEntity
  8
0
100
AcDbLine
 10
45.6422
 20
86.84780000000001
 30
0.0
 11
48.5982
 21
90.8055
 31
0.0
  0
LINE
  5
EC
330
1E
100
AcDbEntity
  8
0
100
AcDbLine
 10
49.0
 20
91.1301277674649
 30
0.0
 11
49.0
 21
102.41
 31
0.0
  0
LINE
  5
ED
330
1E
100
AcDbEntity
  8
0
100
AcDbLine
 10
57.20111
 20
103.0
 30
0.0
 11
60.0
 21
103.0
 31
0.0
  0
LINE
  5
EE
330
1E
100
AcDbEntity
  8
0
100
AcDbLine
 10
54.59778
 20
103.0
 30
0.0
 11
57.20111
 21
103.0
 31
0.0
  0
LINE
  5
EF
330
1E
100
AcDbEntity
  8
0
100
AcDbLine
 10
52.32444
 20
103.0
 30
0.0
 11
54.59778
 21
103.0
 31
0.0
  0
LINE
  5
F0
330
1E
100
AcDbEntity
  8
0
100
AcDbLine
 10
50.57667
 20
103.0
 30
0.0
 11
52.32444
 21
103.0
 31
0.0
  0
LINE
  5
F1
330
1E
100
AcDbEntity
  8
0
100
AcDbLine
 10
49.5133
 20
103.0
 30
0.0
 11
50.57667
 21
103.0
 31
0.0
  0
LINE
  5
F2
330
1E
100
AcDbEntity
  8
0
100
AcDbLine
 10
49.1222
 20
103.0
 30
0.0
 11
49.5133
 21
103.0
 31
0.0
  0
LINE
  5
F3
330
1E
100
AcDbEntity
  8
0
100
AcDbLine
 10
49.0
 20
102.41
 30
0.0
 11
49.0
 21
91.1301277674649
 31
0.0
  0
LINE
  5
F4
330
1E
100
AcDbEntity
  8
0
100
AcDbLine
 10
49.0
 20
102.41
 30
0.0
 11
49.1222
 21
103.0
 31
0.0
  0
LINE
  5
F5
330
1E
100
AcDbEntity
  8
0
100
AcDbLine
 10
48.5982
 20
90.8055
 30
0.0
 11
49.0
 21
91.1585322406862
 31
0.0
  0
LINE
  5
F6
330
1E
100
AcDbEntity
  8
0
100
AcDbLine
 10
60.0
 20
103.0
 30
0.0
 11
62.79889
 21
103.0
 31
0.0
  0
LINE
  5
F7
330
1E
100
AcDbEntity
  8
0
100
AcDbLine
 10
62.79889
 20
103.0
 30
0.0
 11
65.40221999999999
 21
103.0
 31
0.0
  0
LINE
  5
F8
330
1E
100
AcDbEntity
  8
0
100
AcDbLine
 10
65.40221999999999
 20
103.0
 30
0.0
 11
67.67556
 21
103.0
 31
0.0
  0
LINE
  5
F9
330
1E
100
AcDbEntity
  8
0
100
AcDbLine
 10
67.67556
 20
103.0
 30
0.0
 11
69.42333000000001
 21
103.0
 31
0.0
  0
LINE
  5
FA
330
1E
100
AcDbEntity
  8
0
100
AcDbLine
 10
69.42333000000001
 20
103.0
 30
0.0
 11
70.4867
 21
103.0
 31
0.0
  0
LINE
  5
FB
330
1E
100
AcDbEntity
  8
0
100
AcDbLine
 10
70.99421673408871
 20
91.16361781316179
 30
0.0
 11
71.40179999999999
 21
90.8055
 31
0.0
  0
LINE
  5
FC
330
1E
100
AcDbEntity
  8
0
100
AcDbLine
 10
71.0
 20
91.15853642068501
 30
0.0
 11
71.0
 21
102.41
 31
0.0
  0
LINE
  5
FD
330
1E
100
AcDbEntity
  8
0
100
AcDbLine
 10
70.99421673408871
 20
91.16361781316179
 30
0.0
 11
71.40179999999999
 21
90.8055
 31
0.0
  0
LINE
  5
FE
330
1E
100
AcDbEntity
  8
0
100
AcDbLine
 10
70.4867
 20
103.0
 30
0.0
 11
70.87779999999999
 21
103.0
 31
0.0
  0
LINE
  5
FF
330
1E
100
AcDbEntity
  8
0
100
AcDbLine
 10
70.87779999999999
 20
103.0
 30
0.0
 11
71.0
 21
102.41
 31
0.0
  0
LINE
  5
100
330
1E
100
AcDbEntity
  8
0
100
AcDbLine
 10
74.3578
 20
86.84780000000001
 30
0.0
 11
76.0
 21
83.0
 31
0.0
  0
LINE
  5
101
330
1E
100
AcDbEntity
  8
0
100
AcDbLine
 10
71.40179999999999
 20
90.8055
 30
0.0
 11
74.3578
 21
86.84780000000001
 31
0.0
  0
LINE
  5
102
330
1E
100
AcDbEntity
  8
0
100
AcDbLine
 10
71.0
 20
102.41
 30
0.0
 11
71.0
 21
91.15853642068501
 31
0.0
  0
LINE
  5
103
330
1E
100
AcDbEntity
  8
0
100
AcDbLine
 10
88.67780000000001
 20
83.0
 30
0.0
 11
89.0
 21
82.36490000000001
 31
0.0
  0
LINE
  5
104
330
1E
100
AcDbEntity
  8
0
100
AcDbLine
 10
89.46670000000001
 20
39.2919
 30
0.0
 11
101.8666999999999
 21
39.2919
 31
0.0
  0
LINE
  5
105
330
1E
100
AcDbEntity
  8
0
100
AcDbLine
 10
89.8
 20
46.0
 30
0.0
 11
102.4
 21
46.0
 31
0.0
  0
LINE
  5
106
330
1E
100
AcDbEntity
  8
0
100
AcDbLine
 10
111.4
 20
39.2919
 30
0.0
 11
117.2
 21
39.2919
 31
0.0
  0
LINE
  5
107
330
1E
100
AcDbEntity
  8
0
100
AcDbLine
 10
101.8666999999999
 20
39.2919
 30
0.0
 11
111.4
 21
39.2919
 31
0.0
  0
LINE
  5
108
330
1E
100
AcDbEntity
  8
0
100
AcDbLine
 10
117.2
 20
39.2919
 30
0.0
 11
119.3332999999999
 21
39.2919
 31
0.0
  0
LINE
  5
109
330
1E
100
AcDbEntity
  8
0
100
AcDbLine
 10
117.7999999999999
 20
40.07889999999999
 30
0.0
 11
120.0
 21
40.07889999999999
 31
0.0
  0
LINE
  5
10A
330
1E
100
AcDbEntity
  8
0
100
AcDbLine
 10
111.9333
 20
40.07889999999999
 30
0.0
 11
117.7999999999999
 21
40.07889999999999
 31
0.0
  0
LINE
  5
10B
330
1E
100
AcDbEntity
  8
0
100
AcDbLine
 10
117.7999999999999
 20
46.0
 30
0.0
 11
118.9211
 21
46.0
 31
0.0
  0
LINE
  5
10C
330
1E
100
AcDbEntity
  8
0
100
AcDbLine
 10
111.9333
 20
46.0
 30
0.0
 11
117.7999999999999
 21
46.0
 31
0.0
  0
LINE
  5
10D
330
1E
100
AcDbEntity
  8
0
100
AcDbLine
 10
102.4
 20
46.0
 30
0.0
 11
111.9333
 21
46.0
 31
0.0
  0
LINE
  5
10E
330
1E
100
AcDbEntity
  8
0
100
AcDbLine
 10
102.4
 20
40.07889999999999
 30
0.0
 11
111.9333
 21
40.07889999999999
 31
0.0
  0
LINE
  5
10F
330
1E
100
AcDbEntity
  8
0
100
AcDbLine
 10
89.8
 20
40.07889999999999
 30
0.0
 11
102.4
 21
40.07889999999999
 31
0.0
  0
LINE
  5
110
330
1E
100
AcDbEntity
  8
0
100
AcDbLine
 10
120.0
 20
40.07889999999999
 30
0.0
 11
120.0
 21
43.1328025540025
 31
0.0
  0
LINE
  5
111
330
1E
100
AcDbEntity
  8
0
100
AcDbLine
 10
119.7081
 20
80.78889999999999
 30
0.0
 11
120.4950999999999
 21
81.0
 31
0.0
  0
LINE
  5
112
330
1E
100
AcDbEntity
  8
0
100
AcDbLine
 10
118.9211
 20
81.0
 30
0.0
 11
119.7081
 21
80.78889999999999
 31
0.0
  0
LINE
  5
113
330
1E
100
AcDbEntity
  8
0
100
AcDbLine
 10
89.12205733090692
 20
81.0
 30
0.0
 11
118.9211
 21
81.0
 31
0.0
  0
LINE
  5
114
330
1E
100
AcDbEntity
  8
0
100
AcDbLine
 10
89.0
 20
82.36490000000001
 30
0.0
 11
89.12205733090692
 21
81.0
 31
0.0
  0
LINE
  5
115
330
1E
100
AcDbEntity
  8
0
100
AcDbLine
 10
119.3332999999999
 20
39.2919
 30
0.0
 11
120.0
 21
40.07889999999999
 31
0.0
  0
LINE
  5
116
330
1E
100
AcDbEntity
  8
0
100
AcDbLine
 10
119.3332999999999
 20
39.2919
 30
0.0
 11
120.0
 21
38.5049
 31
0.0
  0
LINE
  5
117
330
1E
100
AcDbEntity
  8
0
100
AcDbLine
 10
122.787
 20
31.0
 30
0.0
 11
139.2129999999999
 21
31.0
 31
0.0
  0
LINE
  5
118
330
1E
100
AcDbEntity
  8
0
100
AcDbLine
 10
122.787
 20
31.3334
 30
0.0
 11
139.2129999999999
 21
31.3334
 31
0.0
  0
LINE
  5
119
330
1E
100
AcDbEntity
  8
0
100
AcDbLine
 10
122.0
 20
31.21109999999999
 30
0.0
 11
122.0
 21
31.565
 31
0.0
  0
LINE
  5
11A
330
1E
100
AcDbEntity
  8
0
100
AcDbLine
 10
122.0
 20
31.21109999999999
 30
0.0
 11
122.787
 21
31.0
 31
0.0
  0
LINE
  5
11B
330
1E
100
AcDbEntity
  8
0
100
AcDbLine
 10
122.0
 20
43.7
 30
0.0
 11
122.0
 21
36.0
 31
0.0
  0
LINE
  5
11C
330
1E
100
AcDbEntity
  8
0
100
AcDbLine
 10
122.0
 20
43.0
 30
0.0
 11
122.0
 21
36.0
 31
0.0
  0
LINE
  5
11D
330
1E
100
AcDbEntity
  8
0
100
AcDbLine
 10
122.0
 20
36.0
 30
0.0
 11
122.0
 21
34.2145
 31
0.0
  0
LINE
  5
11E
330
1E
100
AcDbEntity
  8
0
100
AcDbLine
 10
122.0
 20
36.0
 30
0.0
 11
122.0
 21
43.7
 31
0.0
  0
LINE
  5
11F
330
1E
100
AcDbEntity
  8
0
100
AcDbLine
 10
122.0
 20
36.0
 30
0.0
 11
122.0
 21
43.0
 31
0.0
  0
LINE
  5
120
330
1E
100
AcDbEntity
  8
0
100
AcDbLine
 10
122.0
 20
34.2145
 30
0.0
 11
122.0
 21
32.6968
 31
0.0
  0
LINE
  5
121
330
1E
100
AcDbEntity
  8
0
100
AcDbLine
 10
122.0
 20
34.2145
 30
0.0
 11
122.0
 21
36.0
 31
0.0
  0
LINE
  5
123
330
1E
100
AcDbEntity
  8
0
100
AcDbLine
 10
122.0
 20
32.6968
 30
0.0
 11
122.0
 21
31.565
 31
0.0
  0
LINE
  5
124
330
1E
100
AcDbEntity
  8
0
100
AcDbLine
 10
122.0
 20
32.6968
 30
0.0
 11
122.0
 21
34.2145
 31
0.0
  0
LINE
  5
125
330
1E
100
AcDbEntity
  8
0
100
AcDbLine
 10
122.0
 20
31.565
 30
0.0
 11
122.0
 21
31.21109999999999
 31
0.0
  0
LINE
  5
126
330
1E
100
AcDbEntity
  8
0
100
AcDbLine
 10
122.0
 20
31.565
 30
0.0
 11
122.0
 21
32.6968
 31
0.0
  0
LINE
  5
127
330
1E
100
AcDbEntity
  8
0
100
AcDbLine
 10
122.0
 20
31.565
 30
0.0
 11
122.787
 21
31.3334
 31
0.0
  0
LINE
  5
128
330
1E
100
AcDbEntity
  8
0
100
AcDbLine
 10
139.2129999999999
 20
31.3334
 30
0.0
 11
140.0
 21
31.565
 31
0.0
  0
LINE
  5
12A
330
1E
100
AcDbEntity
  8
0
100
AcDbLine
 10
120.4950999999999
 20
43.0
 30
0.0
 11
122.0
 21
43.0
 31
0.0
  0
LINE
  5
12B
330
1E
100
AcDbEntity
  8
0
100
AcDbLine
 10
139.2129999999999
 20
31.0
 30
0.0
 11
140.0
 21
31.21109999999999
 31
0.0
  0
LINE
  5
12C
330
1E
100
AcDbEntity
  8
0
100
AcDbLine
 10
140.0
 20
31.21109999999999
 30
0.0
 11
140.0
 21
31.565
 31
0.0
  0
LINE
  5
12D
330
1E
100
AcDbEntity
  8
0
100
AcDbLine
 10
140.0
 20
43.88
 30
0.0
 11
140.0
 21
45.7233
 31
0.0
  0
LINE
  5
12E
330
1E
100
AcDbEntity
  8
0
100
AcDbLine
 10
140.0
 20
43.88
 30
0.0
 11
140.0
 21
36.0
 31
0.0
  0
LINE
  5
12F
330
1E
100
AcDbEntity
  8
0
100
AcDbLine
 10
140.0
 20
45.7233
 30
0.0
 11
140.0
 21
48.7422
 31
0.0
  0
LINE
  5
130
330
1E
100
AcDbEntity
  8
0
100
AcDbLine
 10
140.0
 20
45.7233
 30
0.0
 11
140.0
 21
43.88
 31
0.0
  0
LINE
  5
131
330
1E
100
AcDbEntity
  8
0
100
AcDbLine
 10
140.0
 20
48.7422
 30
0.0
 11
140.0
 21
52.6689
 31
0.0
  0
LINE
  5
132
330
1E
100
AcDbEntity
  8
0
100
AcDbLine
 10
140.0
 20
48.7422
 30
0.0
 11
140.0
 21
45.7233
 31
0.0
  0
LINE
  5
133
330
1E
100
AcDbEntity
  8
0
100
AcDbLine
 10
140.0
 20
52.6689
 30
0.0
 11
140.0
 21
57.1656
 31
0.0
  0
LINE
  5
134
330
1E
100
AcDbEntity
  8
0
100
AcDbLine
 10
140.0
 20
52.6689
 30
0.0
 11
140.0
 21
48.7422
 31
0.0
  0
LINE
  5
135
330
1E
100
AcDbEntity
  8
0
100
AcDbLine
 10
140.0
 20
80.78889999999999
 30
0.0
 11
140.0
 21
80.11329999999999
 31
0.0
  0
LINE
  5
136
330
1E
100
AcDbEntity
  8
0
100
AcDbLine
 10
140.0
 20
80.11329999999999
 30
0.0
 11
140.0
 21
80.78889999999999
 31
0.0
  0
LINE
  5
137
330
1E
100
AcDbEntity
  8
0
100
AcDbLine
 10
140.0
 20
80.11329999999999
 30
0.0
 11
140.0
 21
78.27670000000001
 31
0.0
  0
LINE
  5
138
330
1E
100
AcDbEntity
  8
0
100
AcDbLine
 10
140.0
 20
78.27670000000001
 30
0.0
 11
140.0
 21
80.11329999999999
 31
0.0
  0
LINE
  5
139
330
1E
100
AcDbEntity
  8
0
100
AcDbLine
 10
140.0
 20
78.27670000000001
 30
0.0
 11
140.0
 21
75.25780000000001
 31
0.0
  0
LINE
  5
13A
330
1E
100
AcDbEntity
  8
0
100
AcDbLine
 10
140.0
 20
75.25780000000001
 30
0.0
 11
140.0
 21
78.27670000000001
 31
0.0
  0
LINE
  5
13B
330
1E
100
AcDbEntity
  8
0
100
AcDbLine
 10
140.0
 20
75.25780000000001
 30
0.0
 11
140.0
 21
71.33110000000001
 31
0.0
  0
LINE
  5
13C
330
1E
100
AcDbEntity
  8
0
100
AcDbLine
 10
140.0
 20
71.33110000000001
 30
0.0
 11
140.0
 21
75.25780000000001
 31
0.0
  0
LINE
  5
13D
330
1E
100
AcDbEntity
  8
0
100
AcDbLine
 10
140.0
 20
71.33110000000001
 30
0.0
 11
140.0
 21
66.8344
 31
0.0
  0
LINE
  5
13E
330
1E
100
AcDbEntity
  8
0
100
AcDbLine
 10
140.0
 20
66.8344
 30
0.0
 11
140.0
 21
71.33110000000001
 31
0.0
  0
LINE
  5
13F
330
1E
100
AcDbEntity
  8
0
100
AcDbLine
 10
140.0
 20
66.8344
 30
0.0
 11
140.0
 21
62.0
 31
0.0
  0
LINE
  5
140
330
1E
100
AcDbEntity
  8
0
100
AcDbLine
 10
140.0
 20
62.0
 30
0.0
 11
140.0
 21
57.1656
 31
0.0
  0
LINE
  5
141
330
1E
100
AcDbEntity
  8
0
100
AcDbLine
 10
140.0
 20
62.0
 30
0.0
 11
140.0
 21
66.8344
 31
0.0
  0
LINE
  5
142
330
1E
100
AcDbEntity
  8
0
100
AcDbLine
 10
140.0
 20
57.1656
 30
0.0
 11
140.0
 21
62.0
 31
0.0
  0
LINE
  5
143
330
1E
100
AcDbEntity
  8
0
100
AcDbLine
 10
140.0
 20
57.1656
 30
0.0
 11
140.0
 21
52.6689
 31
0.0
  0
LINE
  5
144
330
1E
100
AcDbEntity
  8
0
100
AcDbLine
 10
140.0
 20
36.0
 30
0.0
 11
140.0
 21
43.88
 31
0.0
  0
LINE
  5
145
330
1E
100
AcDbEntity
  8
0
100
AcDbLine
 10
140.0
 20
36.0
 30
0.0
 11
140.0
 21
34.2145
 31
0.0
  0
LINE
  5
146
330
1E
100
AcDbEntity
  8
0
100
AcDbLine
 10
140.0
 20
34.2145
 30
0.0
 11
140.0
 21
36.0
 31
0.0
  0
LINE
  5
147
330
1E
100
AcDbEntity
  8
0
100
AcDbLine
 10
140.0
 20
34.2145
 30
0.0
 11
140.0
 21
32.6968
 31
0.0
  0
LINE
  5
148
330
1E
100
AcDbEntity
  8
0
100
AcDbLine
 10
140.0
 20
32.6968
 30
0.0
 11
140.0
 21
34.2145
 31
0.0
  0
LINE
  5
149
330
1E
100
AcDbEntity
  8
0
100
AcDbLine
 10
140.0
 20
32.6968
 30
0.0
 11
140.0
 21
31.565
 31
0.0
  0
LINE
  5
14A
330
1E
100
AcDbEntity
  8
0
100
AcDbLine
 10
140.0
 20
31.565
 30
0.0
 11
140.0
 21
31.21109999999999
 31
0.0
  0
LINE
  5
14B
330
1E
100
AcDbEntity
  8
0
100
AcDbLine
 10
140.0
 20
31.565
 30
0.0
 11
140.0
 21
32.6968
 31
0.0
  0
LINE
  5
14C
330
1E
100
AcDbEntity
  8
0
100
AcDbLine
 10
139.2129999999999
 20
81.0
 30
0.0
 11
140.0
 21
80.78889999999999
 31
0.0
  0
LINE
  5
14D
330
1E
100
AcDbEntity
  8
0
100
AcDbLine
 10
120.4950999999999
 20
81.0
 30
0.0
 11
139.2129999999999
 21
81.0
 31
0.0
  0
LINE
  5
14E
330
1E
100
AcDbEntity
  8
0
100
AcDbLine
 10
120.0
 20
43.1328025540025
 30
0.0
 11
120.0
 21
40.07889999999999
 31
0.0
  0
LINE
  5
14F
330
1E
100
AcDbEntity
  8
0
100
AcDbLine
 10
120.0
 20
43.1328025540025
 30
0.0
 11
120.4950999999999
 21
43.0
 31
0.0
  0
LINE
  5
154
330
1E
100
AcDbEntity
  8
0
100
AcDbLine
 10
120.0
 20
43.1328025540025
 30
0.0
 11
118.9211
 21
46.0
 31
0.0
  0
LINE
  5
155
330
1E
100
AcDbEntity
  8
0
100
AcDbLine
 10
118.9211
 20
46.0
 30
0.0
 11
91.79096091514253
 21
59.83719572094156
 31
0.0
  0
LINE
  5
156
330
1E
100
AcDbEntity
  8
0
100
AcDbLine
 10
91.79096091514253
 20
59.83719572094156
 30
0.0
 11
89.12205733090692
 21
81.0
 31
0.0
  0
ENDSEC
  0
SECTION
  2
OBJECTS
  0
DICTIONARY
  5
C
330
0
100
AcDbDictionary
281
     1
  3
ACAD_GROUP
350
D
  3
ACAD_LAYOUT
350
19
  3
ACAD_MLINESTYLE
350
16
  3
ACAD_PLOTSETTINGS
350
18
  3
ACAD_PLOTSTYLENAME
350
E
  3
AcDbVariableDictionary
350
158
  0
DICTIONARY
  5
D
102
{ACAD_REACTORS
330
C
102
}
330
C
100
AcDbDictionary
281
     1
  0
DICTIONARY
  5
19
102
{ACAD_REACTORS
330
C
102
}
330
C
100
AcDbDictionary
281
     1
  3
Layout1
350
1D
  3
Model
350
21
  0
DICTIONARY
  5
16
102
{ACAD_REACTORS
330
C
102
}
330
C
100
AcDbDictionary
281
     1
  3
Standard
350
17
  0
DICTIONARY
  5
18
102
{ACAD_REACTORS
330
C
102
}
330
C
100
AcDbDictionary
281
     1
  0
ACDBDICTIONARYWDFLT
  5
E
102
{ACAD_REACTORS
330
C
102
}
330
C
100
AcDbDictionary
281
     1
  3
Normal
350
F
100
AcDbDictionaryWithDefault
340
F
  0
DICTIONARY
  5
158
102
{ACAD_REACTORS
330
C
102
}
330
C
100
AcDbDictionary
281
     1
  3
DIMASSOC
350
159
  0
LAYOUT
  5
1D
102
{ACAD_REACTORS
330
19
102
}
330
19
100
AcDbPlotSettings
  1

  2
hp deskjet 980c series
  4

  6

 40
0.0
 41
0.0
 42
0.0
 43
0.0
 44
0.0
 45
0.0
 46
0.0
 47
0.0
 48
0.0
 49
0.0
140
0.0
141
0.0
142
1.0
143
1.0
 70
   688
 72
     0
 73
     0
 74
     5
  7

 75
    16
147
1.0
148
0.0
149
0.0
100
AcDbLayout
  1
Layout1
 70
     1
 71
     1
 10
0.0
 20
0.0
 11
12.0
 21
9.0
 12
0.0
 22
0.0
 32
0.0
 14
1.000000000000000E+20
 24
1.000000000000000E+20
 34
1.000000000000000E+20
 15
-1.000000000000000E+20
 25
-1.000000000000000E+20
 35
-1.000000000000000E+20
146
0.0
 13
0.0
 23
0.0
 33
0.0
 16
1.0
 26
0.0
 36
0.0
 17
0.0
 27
1.0
 37
0.0
 76
     0
330
1A
  0
LAYOUT
  5
21
102
{ACAD_REACTORS
330
19
102
}
330
19
100
AcDbPlotSettings
  1

  2
hp deskjet 980c series
  4

  6

 40
0.0
 41
0.0
 42
0.0
 43
0.0
 44
0.0
 45
0.0
 46
0.0
 47
0.0
 48
0.0
 49
0.0
140
0.0
141
0.0
142
1.0
143
1.0
 70
  1712
 72
     0
 73
     0
 74
     0
  7

 75
     0
147
1.0
148
0.0
149
0.0
100
AcDbLayout
  1
Model
 70
     1
 71
     0
 10
0.0
 20
0.0
 11
12.0
 21
9.0
 12
0.0
 22
0.0
 32
0.0
 14
0.0
 24
0.0
 34
0.0
 15
0.0
 25
0.0
 35
0.0
146
0.0
 13
0.0
 23
0.0
 33
0.0
 16
1.0
 26
0.0
 36
0.0
 17
0.0
 27
1.0
 37
0.0
 76
     0
330
1E
  0
MLINESTYLE
  5
17
102
{ACAD_REACTORS
330
16
102
}
330
16
100
AcDbMlineStyle
  2
STANDARD
 70
     0
  3

 62
   256
 51
90.0
 52
90.0
 71
     2
 49
0.5
 62
   256
  6
BYLAYER
 49
-0.5
 62
   256
  6
BYLAYER
  0
ACDBPLACEHOLDER
  5
F
102
{ACAD_REACTORS
330
E
102
}
330
E
  0
DICTIONARYVAR
  5
159
102
{ACAD_REACTORS
330
158
102
}
330
158
100
DictionaryVariables
280
     0
  1
1
  0
ENDSEC
  0
EOF
