  0
SECTION
  2
HEADER
  9
$ACADVER
  1
AC1015
  9
$ACADMAINTVER
 70
    13
  9
$DWGCODEPAGE
  3
ANSI_1252
  9
$INSBASE
 10
0.0
 20
0.0
 30
0.0
  9
$EXTMIN
 10
-0.0779999999999985
 20
0.0000000000000117
 30
0.0
  9
$EXTMAX
 10
136.078
 20
209.0
 30
0.0
  9
$LIMMIN
 10
0.0
 20
0.0
  9
$LIMMAX
 10
12.0
 20
9.0
  9
$ORTHOMODE
 70
     0
  9
$REGENMODE
 70
     1
  9
$FILLMODE
 70
     1
  9
$QTEXTMODE
 70
     0
  9
$MIRRTEXT
 70
     1
  9
$LTSCALE
 40
1.0
  9
$ATTMODE
 70
     1
  9
$TEXTSIZE
 40
0.2
  9
$TRACEWID
 40
0.05
  9
$TEXTSTYLE
  7
Standard
  9
$CLAYER
  8
0
  9
$CELTYPE
  6
Continuous
  9
$CECOLOR
 62
   256
  9
$CELTSCALE
 40
1.0
  9
$DISPSILH
 70
     0
  9
$DIMSCALE
 40
1.0
  9
$DIMASZ
 40
0.18
  9
$DIMEXO
 40
0.0625
  9
$DIMDLI
 40
0.38
  9
$DIMRND
 40
0.0
  9
$DIMDLE
 40
0.0
  9
$DIMEXE
 40
0.18
  9
$DIMTP
 40
0.0
  9
$DIMTM
 40
0.0
  9
$DIMTXT
 40
0.18
  9
$DIMCEN
 40
0.09
  9
$DIMTSZ
 40
0.0
  9
$DIMTOL
 70
     0
  9
$DIMLIM
 70
     0
  9
$DIMTIH
 70
     1
  9
$DIMTOH
 70
     1
  9
$DIMSE1
 70
     0
  9
$DIMSE2
 70
     0
  9
$DIMTAD
 70
     0
  9
$DIMZIN
 70
     0
  9
$DIMBLK
  1

  9
$DIMASO
 70
     1
  9
$DIMSHO
 70
     1
  9
$DIMPOST
  1

  9
$DIMAPOST
  1

  9
$DIMALT
 70
     0
  9
$DIMALTD
 70
     2
  9
$DIMALTF
 40
25.4
  9
$DIMLFAC
 40
1.0
  9
$DIMTOFL
 70
     0
  9
$DIMTVP
 40
0.0
  9
$DIMTIX
 70
     0
  9
$DIMSOXD
 70
     0
  9
$DIMSAH
 70
     0
  9
$DIMBLK1
  1

  9
$DIMBLK2
  1

  9
$DIMSTYLE
  2
Standard
  9
$DIMCLRD
 70
     0
  9
$DIMCLRE
 70
     0
  9
$DIMCLRT
 70
     0
  9
$DIMTFAC
 40
1.0
  9
$DIMGAP
 40
0.09
  9
$DIMJUST
 70
     0
  9
$DIMSD1
 70
     0
  9
$DIMSD2
 70
     0
  9
$DIMTOLJ
 70
     1
  9
$DIMTZIN
 70
     0
  9
$DIMALTZ
 70
     0
  9
$DIMALTTZ
 70
     0
  9
$DIMUPT
 70
     0
  9
$DIMDEC
 70
     4
  9
$DIMTDEC
 70
     4
  9
$DIMALTU
 70
     2
  9
$DIMALTTD
 70
     2
  9
$DIMTXSTY
  7
Standard
  9
$DIMAUNIT
 70
     0
  9
$DIMADEC
 70
     0
  9
$DIMALTRND
 40
0.0
  9
$DIMAZIN
 70
     0
  9
$DIMDSEP
 70
    46
  9
$DIMATFIT
 70
     3
  9
$DIMFRAC
 70
     0
  9
$DIMLDRBLK
  1

  9
$DIMLUNIT
 70
     2
  9
$DIMLWD
 70
    -2
  9
$DIMLWE
 70
    -2
  9
$DIMTMOVE
 70
     0
  9
$LUNITS
 70
     2
  9
$LUPREC
 70
     4
  9
$SKETCHINC
 40
0.1
  9
$FILLETRAD
 40
0.0
  9
$AUNITS
 70
     0
  9
$AUPREC
 70
     0
  9
$MENU
  1
.
  9
$ELEVATION
 40
0.0
  9
$PELEVATION
 40
0.0
  9
$THICKNESS
 40
0.0
  9
$LIMCHECK
 70
     0
  9
$CHAMFERA
 40
0.0
  9
$CHAMFERB
 40
0.0
  9
$CHAMFERC
 40
0.0
  9
$CHAMFERD
 40
0.0
  9
$SKPOLY
 70
     0
  9
$TDCREATE
 40
2455335.869524189
  9
$TDUCREATE
 40
2455335.786190857
  9
$TDUPDATE
 40
2455335.870785404
  9
$TDUUPDATE
 40
2455335.787452071
  9
$TDINDWG
 40
0.0012612153
  9
$TDUSRTIMER
 40
0.0012612153
  9
$USRTIMER
 70
     1
  9
$ANGBASE
 50
0.0
  9
$ANGDIR
 70
     0
  9
$PDMODE
 70
     0
  9
$PDSIZE
 40
0.0
  9
$PLINEWID
 40
0.0
  9
$SPLFRAME
 70
     0
  9
$SPLINETYPE
 70
     6
  9
$SPLINESEGS
 70
     8
  9
$HANDSEED
  5
244
  9
$SURFTAB1
 70
     6
  9
$SURFTAB2
 70
     6
  9
$SURFTYPE
 70
     6
  9
$SURFU
 70
     6
  9
$SURFV
 70
     6
  9
$UCSBASE
  2

  9
$UCSNAME
  2

  9
$UCSORG
 10
0.0
 20
0.0
 30
0.0
  9
$UCSXDIR
 10
1.0
 20
0.0
 30
0.0
  9
$UCSYDIR
 10
0.0
 20
1.0
 30
0.0
  9
$UCSORTHOREF
  2

  9
$UCSORTHOVIEW
 70
     1
  9
$UCSORGTOP
 10
0.0
 20
0.0
 30
0.0
  9
$UCSORGBOTTOM
 10
0.0
 20
0.0
 30
0.0
  9
$UCSORGLEFT
 10
0.0
 20
0.0
 30
0.0
  9
$UCSORGRIGHT
 10
0.0
 20
0.0
 30
0.0
  9
$UCSORGFRONT
 10
0.0
 20
0.0
 30
0.0
  9
$UCSORGBACK
 10
0.0
 20
0.0
 30
0.0
  9
$PUCSBASE
  2

  9
$PUCSNAME
  2

  9
$PUCSORG
 10
0.0
 20
0.0
 30
0.0
  9
$PUCSXDIR
 10
1.0
 20
0.0
 30
0.0
  9
$PUCSYDIR
 10
0.0
 20
1.0
 30
0.0
  9
$PUCSORTHOREF
  2

  9
$PUCSORTHOVIEW
 70
     0
  9
$PUCSORGTOP
 10
0.0
 20
0.0
 30
0.0
  9
$PUCSORGBOTTOM
 10
0.0
 20
0.0
 30
0.0
  9
$PUCSORGLEFT
 10
0.0
 20
0.0
 30
0.0
  9
$PUCSORGRIGHT
 10
0.0
 20
0.0
 30
0.0
  9
$PUCSORGFRONT
 10
0.0
 20
0.0
 30
0.0
  9
$PUCSORGBACK
 10
0.0
 20
0.0
 30
0.0
  9
$USERI1
 70
     0
  9
$USERI2
 70
     0
  9
$USERI3
 70
     0
  9
$USERI4
 70
     0
  9
$USERI5
 70
     0
  9
$USERR1
 40
0.0
  9
$USERR2
 40
0.0
  9
$USERR3
 40
0.0
  9
$USERR4
 40
0.0
  9
$USERR5
 40
0.0
  9
$WORLDVIEW
 70
     1
  9
$SHADEDGE
 70
     3
  9
$SHADEDIF
 70
    70
  9
$TILEMODE
 70
     1
  9
$MAXACTVP
 70
    64
  9
$PINSBASE
 10
0.0
 20
0.0
 30
0.0
  9
$PLIMCHECK
 70
     0
  9
$PEXTMIN
 10
1.000000000000000E+20
 20
1.000000000000000E+20
 30
1.000000000000000E+20
  9
$PEXTMAX
 10
-1.000000000000000E+20
 20
-1.000000000000000E+20
 30
-1.000000000000000E+20
  9
$PLIMMIN
 10
0.0
 20
0.0
  9
$PLIMMAX
 10
12.0
 20
9.0
  9
$UNITMODE
 70
     0
  9
$VISRETAIN
 70
     1
  9
$PLINEGEN
 70
     0
  9
$PSLTSCALE
 70
     1
  9
$TREEDEPTH
 70
  3020
  9
$CMLSTYLE
  2
Standard
  9
$CMLJUST
 70
     0
  9
$CMLSCALE
 40
1.0
  9
$PROXYGRAPHICS
 70
     1
  9
$MEASUREMENT
 70
     0
  9
$CELWEIGHT
370
    -1
  9
$ENDCAPS
280
     0
  9
$JOINSTYLE
280
     0
  9
$LWDISPLAY
290
     0
  9
$INSUNITS
 70
     0
  9
$HYPERLINKBASE
  1

  9
$STYLESHEET
  1

  9
$XEDIT
290
     1
  9
$CEPSNTYPE
380
     0
  9
$PSTYLEMODE
290
     1
  9
$FINGERPRINTGUID
  2
{7FC0037C-A3C0-4D41-88E6-0EA2EFEF2D96}
  9
$VERSIONGUID
  2
{2AF4BBC8-56B2-496D-B078-2D3AEA98CDCF}
  9
$EXTNAMES
290
     1
  9
$PSVPSCALE
 40
0.0
  9
$OLESTARTUP
290
     0
  0
ENDSEC
  0
SECTION
  2
CLASSES
  0
CLASS
  1
ACDBDICTIONARYWDFLT
  2
AcDbDictionaryWithDefault
  3
AutoCAD 2000
 90
        0
280
     0
281
     0
  0
CLASS
  1
ACDBPLACEHOLDER
  2
AcDbPlaceHolder
  3
AutoCAD 2000
 90
        0
280
     0
281
     0
  0
CLASS
  1
LAYOUT
  2
AcDbLayout
  3
AutoCAD 2000
 90
        0
280
     0
281
     0
  0
CLASS
  1
DICTIONARYVAR
  2
AcDbDictionaryVar
  3
AutoCAD 2000
 90
        0
280
     0
281
     0
  0
ENDSEC
  0
SECTION
  2
TABLES
  0
TABLE
  2
VPORT
  5
8
330
0
100
AcDbSymbolTable
 70
     3
  0
VPORT
  5
243
330
8
100
AcDbSymbolTableRecord
100
AcDbViewportTableRecord
  2
*Active
 70
     0
 10
0.0
 20
0.0
 11
1.0
 21
1.0
 12
68.0
 22
104.5
 13
0.0
 23
0.0
 14
1.0
 24
1.0
 15
0.0
 25
0.0
 16
0.0
 26
0.0
 36
1.0
 17
0.0
 27
0.0
 37
0.0
 40
210.3719912472647
 41
2.041621029572836
 42
50.0
 43
0.0
 44
0.0
 50
0.0
 51
0.0
 71
     0
 72
   100
 73
     1
 74
     3
 75
     0
 76
     0
 77
     0
 78
     0
281
     0
 65
     1
110
0.0
120
0.0
130
0.0
111
1.0
121
0.0
131
0.0
112
0.0
122
1.0
132
0.0
 79
     1
146
0.0
  0
ENDTAB
  0
TABLE
  2
LTYPE
  5
5
330
0
100
AcDbSymbolTable
 70
     1
  0
LTYPE
  5
13
330
5
100
AcDbSymbolTableRecord
100
AcDbLinetypeTableRecord
  2
ByBlock
 70
     0
  3

 72
    65
 73
     0
 40
0.0
  0
LTYPE
  5
14
330
5
100
AcDbSymbolTableRecord
100
AcDbLinetypeTableRecord
  2
ByLayer
 70
     0
  3

 72
    65
 73
     0
 40
0.0
  0
LTYPE
  5
15
330
5
100
AcDbSymbolTableRecord
100
AcDbLinetypeTableRecord
  2
Continuous
 70
     0
  3
Solid line
 72
    65
 73
     0
 40
0.0
  0
ENDTAB
  0
TABLE
  2
LAYER
  5
2
330
0
100
AcDbSymbolTable
 70
     1
  0
LAYER
  5
10
330
2
100
AcDbSymbolTableRecord
100
AcDbLayerTableRecord
  2
0
 70
     0
 62
     7
  6
Continuous
370
    -3
390
F
  0
ENDTAB
  0
TABLE
  2
STYLE
  5
3
330
0
100
AcDbSymbolTable
 70
     1
  0
STYLE
  5
11
330
3
100
AcDbSymbolTableRecord
100
AcDbTextStyleTableRecord
  2
Standard
 70
     0
 40
0.0
 41
1.0
 50
0.0
 71
     0
 42
0.2
  3
txt
  4

  0
ENDTAB
  0
TABLE
  2
VIEW
  5
6
330
0
100
AcDbSymbolTable
 70
     0
  0
ENDTAB
  0
TABLE
  2
UCS
  5
7
330
0
100
AcDbSymbolTable
 70
     0
  0
ENDTAB
  0
TABLE
  2
APPID
  5
9
330
0
100
AcDbSymbolTable
 70
     1
  0
APPID
  5
12
330
9
100
AcDbSymbolTableRecord
100
AcDbRegAppTableRecord
  2
ACAD
 70
     0
  0
ENDTAB
  0
TABLE
  2
DIMSTYLE
  5
A
330
0
100
AcDbSymbolTable
 70
     1
100
AcDbDimStyleTable
 71
     0
  0
DIMSTYLE
105
23B
330
A
100
AcDbSymbolTableRecord
100
AcDbDimStyleTableRecord
  2
Standard
 70
     0
340
11
  0
ENDTAB
  0
TABLE
  2
BLOCK_RECORD
  5
1
330
0
100
AcDbSymbolTable
 70
     0
  0
BLOCK_RECORD
  5
1E
330
1
100
AcDbSymbolTableRecord
100
AcDbBlockTableRecord
  2
*Model_Space
340
21
  0
BLOCK_RECORD
  5
1A
330
1
100
AcDbSymbolTableRecord
100
AcDbBlockTableRecord
  2
*Paper_Space
340
1D
  0
ENDTAB
  0
ENDSEC
  0
SECTION
  2
BLOCKS
  0
BLOCK
  5
1F
330
1E
100
AcDbEntity
  8
0
100
AcDbBlockBegin
  2
*Model_Space
 70
     0
 10
0.0
 20
0.0
 30
0.0
  3
*Model_Space
  1

  0
ENDBLK
  5
20
330
1E
100
AcDbEntity
  8
0
100
AcDbBlockEnd
  0
BLOCK
  5
1B
330
1A
100
AcDbEntity
 67
     1
  8
0
100
AcDbBlockBegin
  2
*Paper_Space
 70
     0
 10
0.0
 20
0.0
 30
0.0
  3
*Paper_Space
  1

  0
ENDBLK
  5
1C
330
1A
100
AcDbEntity
 67
     1
  8
0
100
AcDbBlockEnd
  0
ENDSEC
  0
SECTION
  2
ENTITIES
  0
LINE
  5
22
330
1E
100
AcDbEntity
  8
0
100
AcDbLine
 10
0.829900000000002
 20
164.314
 30
0.0
 11
3.3887
 21
158.041
 31
0.0
  0
LINE
  5
23
330
1E
100
AcDbEntity
  8
0
100
AcDbLine
 10
0.829900000000001
 20
164.314
 30
0.0
 11
3.3887
 21
158.041
 31
0.0
  0
LINE
  5
24
330
1E
100
AcDbEntity
  8
0
100
AcDbLine
 10
0.334700000000002
 20
171.0
 30
0.0
 11
1.242599999999999
 21
177.6029999999999
 31
0.0
  0
LINE
  5
25
330
1E
100
AcDbEntity
  8
0
100
AcDbLine
 10
0.334700000000002
 20
171.0
 30
0.0
 11
1.242599999999999
 21
164.397
 31
0.0
  0
LINE
  5
26
330
1E
100
AcDbEntity
  8
0
100
AcDbLine
 10
-0.0779999999999985
 20
171.0
 30
0.0
 11
0.829900000000002
 21
177.6859999999999
 31
0.0
  0
LINE
  5
27
330
1E
100
AcDbEntity
  8
0
100
AcDbLine
 10
-0.0779999999999985
 20
171.0
 30
0.0
 11
0.829900000000002
 21
164.314
 31
0.0
  0
LINE
  5
28
330
1E
100
AcDbEntity
  8
0
100
AcDbLine
 10
0.829900000000001
 20
177.6859999999999
 30
0.0
 11
3.3887
 21
183.959
 31
0.0
  0
LINE
  5
29
330
1E
100
AcDbEntity
  8
0
100
AcDbLine
 10
1.242599999999999
 20
164.397
 30
0.0
 11
3.8014
 21
158.2889999999999
 31
0.0
  0
LINE
  5
2A
330
1E
100
AcDbEntity
  8
0
100
AcDbLine
 10
1.242599999999999
 20
164.397
 30
0.0
 11
3.8014
 21
158.2889999999999
 31
0.0
  0
LINE
  5
2B
330
1E
100
AcDbEntity
  8
0
100
AcDbLine
 10
3.8014
 20
158.2889999999999
 30
0.0
 11
6.922
 21
154.1494443180689
 31
0.0
  0
LINE
  5
2C
330
1E
100
AcDbEntity
  8
0
100
AcDbLine
 10
3.3887
 20
158.041
 30
0.0
 11
6.922
 21
153.537815655066
 31
0.0
  0
LINE
  5
2D
330
1E
100
AcDbEntity
  8
0
100
AcDbLine
 10
1.242599999999999
 20
177.6029999999999
 30
0.0
 11
3.8014
 21
183.7109999999999
 31
0.0
  0
LINE
  5
2E
330
1E
100
AcDbEntity
  8
0
100
AcDbLine
 10
1.242599999999999
 20
177.6029999999999
 30
0.0
 11
3.8014
 21
183.7109999999999
 31
0.0
  0
LINE
  5
2F
330
1E
100
AcDbEntity
  8
0
100
AcDbLine
 10
6.922
 20
15.97
 30
0.0
 11
6.922
 21
12.09999999999999
 31
0.0
  0
LINE
  5
30
330
1E
100
AcDbEntity
  8
0
100
AcDbLine
 10
6.922
 20
15.97
 30
0.0
 11
6.922
 21
20.28
 31
0.0
  0
LINE
  5
31
330
1E
100
AcDbEntity
  8
0
100
AcDbLine
 10
6.922
 20
20.28
 30
0.0
 11
6.922
 21
15.97
 31
0.0
  0
LINE
  5
32
330
1E
100
AcDbEntity
  8
0
100
AcDbLine
 10
6.922
 20
20.28
 30
0.0
 11
6.922
 21
24.92
 31
0.0
  0
LINE
  5
33
330
1E
100
AcDbEntity
  8
0
100
AcDbLine
 10
6.922
 20
24.92
 30
0.0
 11
6.922
 21
20.28
 31
0.0
  0
LINE
  5
34
330
1E
100
AcDbEntity
  8
0
100
AcDbLine
 10
6.922
 20
24.92
 30
0.0
 11
6.922
 21
29.75
 31
0.0
  0
LINE
  5
35
330
1E
100
AcDbEntity
  8
0
100
AcDbLine
 10
6.922
 20
24.1
 30
0.0
 11
6.922
 21
26.2666
 31
0.0
  0
LINE
  5
36
330
1E
100
AcDbEntity
  8
0
100
AcDbLine
 10
6.922
 20
24.1
 30
0.0
 11
6.922
 21
22.1183
 31
0.0
  0
LINE
  5
37
330
1E
100
AcDbEntity
  8
0
100
AcDbLine
 10
6.922
 20
26.2666
 30
0.0
 11
6.922
 21
28.7452
 31
0.0
  0
LINE
  5
38
330
1E
100
AcDbEntity
  8
0
100
AcDbLine
 10
6.922
 20
26.2666
 30
0.0
 11
6.922
 21
24.1
 31
0.0
  0
LINE
  5
39
330
1E
100
AcDbEntity
  8
0
100
AcDbLine
 10
6.922
 20
29.75
 30
0.0
 11
6.922
 21
24.92
 31
0.0
  0
LINE
  5
3A
330
1E
100
AcDbEntity
  8
0
100
AcDbLine
 10
6.922
 20
29.75
 30
0.0
 11
6.922
 21
34.84
 31
0.0
  0
LINE
  5
3B
330
1E
100
AcDbEntity
  8
0
100
AcDbLine
 10
6.922
 20
28.7452
 30
0.0
 11
6.922
 21
31.482
 31
0.0
  0
LINE
  5
3C
330
1E
100
AcDbEntity
  8
0
100
AcDbLine
 10
6.922
 20
28.7452
 30
0.0
 11
6.922
 21
26.2666
 31
0.0
  0
LINE
  5
3D
330
1E
100
AcDbEntity
  8
0
100
AcDbLine
 10
6.922
 20
31.482
 30
0.0
 11
6.922
 21
34.2188
 31
0.0
  0
LINE
  5
3E
330
1E
100
AcDbEntity
  8
0
100
AcDbLine
 10
6.922
 20
31.482
 30
0.0
 11
6.922
 21
28.7452
 31
0.0
  0
LINE
  5
3F
330
1E
100
AcDbEntity
  8
0
100
AcDbLine
 10
6.922
 20
34.84
 30
0.0
 11
6.922
 21
29.75
 31
0.0
  0
LINE
  5
40
330
1E
100
AcDbEntity
  8
0
100
AcDbLine
 10
6.922
 20
34.84
 30
0.0
 11
6.922
 21
40.0
 31
0.0
  0
LINE
  5
41
330
1E
100
AcDbEntity
  8
0
100
AcDbLine
 10
6.922
 20
34.2188
 30
0.0
 11
6.922
 21
37.0589
 31
0.0
  0
LINE
  5
42
330
1E
100
AcDbEntity
  8
0
100
AcDbLine
 10
6.922
 20
34.2188
 30
0.0
 11
6.922
 21
31.482
 31
0.0
  0
LINE
  5
43
330
1E
100
AcDbEntity
  8
0
100
AcDbLine
 10
6.922
 20
37.0589
 30
0.0
 11
6.922
 21
40.0
 31
0.0
  0
LINE
  5
44
330
1E
100
AcDbEntity
  8
0
100
AcDbLine
 10
6.922
 20
37.0589
 30
0.0
 11
6.922
 21
34.2188
 31
0.0
  0
LINE
  5
45
330
1E
100
AcDbEntity
  8
0
100
AcDbLine
 10
6.922
 20
135.941
 30
0.0
 11
6.922
 21
138.7809999999999
 31
0.0
  0
LINE
  5
46
330
1E
100
AcDbEntity
  8
0
100
AcDbLine
 10
6.922
 20
135.941
 30
0.0
 11
6.922
 21
133.0
 31
0.0
  0
LINE
  5
47
330
1E
100
AcDbEntity
  8
0
100
AcDbLine
 10
6.922
 20
146.733
 30
0.0
 11
6.922
 21
148.9
 31
0.0
  0
LINE
  5
48
330
1E
100
AcDbEntity
  8
0
100
AcDbLine
 10
6.922
 20
146.733
 30
0.0
 11
6.922
 21
144.2549999999999
 31
0.0
  0
LINE
  5
49
330
1E
100
AcDbEntity
  8
0
100
AcDbLine
 10
6.922
 20
144.2549999999999
 30
0.0
 11
6.922
 21
146.733
 31
0.0
  0
LINE
  5
4A
330
1E
100
AcDbEntity
  8
0
100
AcDbLine
 10
6.922
 20
144.2549999999999
 30
0.0
 11
6.922
 21
141.518
 31
0.0
  0
LINE
  5
4B
330
1E
100
AcDbEntity
  8
0
100
AcDbLine
 10
6.922
 20
141.518
 30
0.0
 11
6.922
 21
144.2549999999999
 31
0.0
  0
LINE
  5
4C
330
1E
100
AcDbEntity
  8
0
100
AcDbLine
 10
6.922
 20
141.518
 30
0.0
 11
6.922
 21
138.7809999999999
 31
0.0
  0
LINE
  5
4D
330
1E
100
AcDbEntity
  8
0
100
AcDbLine
 10
6.922
 20
138.7809999999999
 30
0.0
 11
6.922
 21
141.518
 31
0.0
  0
LINE
  5
4E
330
1E
100
AcDbEntity
  8
0
100
AcDbLine
 10
6.922
 20
138.7809999999999
 30
0.0
 11
6.922
 21
135.941
 31
0.0
  0
LINE
  5
4F
330
1E
100
AcDbEntity
  8
0
100
AcDbLine
 10
6.922
 20
148.9
 30
0.0
 11
6.922
 21
150.882
 31
0.0
  0
LINE
  5
50
330
1E
100
AcDbEntity
  8
0
100
AcDbLine
 10
6.922
 20
148.9
 30
0.0
 11
6.922
 21
146.733
 31
0.0
  0
LINE
  5
51
330
1E
100
AcDbEntity
  8
0
100
AcDbLine
 10
6.922
 20
150.882
 30
0.0
 11
6.922
 21
152.4809999999999
 31
0.0
  0
LINE
  5
52
330
1E
100
AcDbEntity
  8
0
100
AcDbLine
 10
6.922
 20
150.882
 30
0.0
 11
6.922
 21
148.9
 31
0.0
  0
LINE
  5
53
330
1E
100
AcDbEntity
  8
0
100
AcDbLine
 10
6.922
 20
152.4809999999999
 30
0.0
 11
6.922
 21
153.8229999999999
 31
0.0
  0
LINE
  5
54
330
1E
100
AcDbEntity
  8
0
100
AcDbLine
 10
6.922
 20
152.4809999999999
 30
0.0
 11
6.922
 21
150.882
 31
0.0
  0
LINE
  5
55
330
1E
100
AcDbEntity
  8
0
100
AcDbLine
 10
6.922
 20
153.8229999999999
 30
0.0
 11
6.922
 21
154.752
 31
0.0
  0
LINE
  5
56
330
1E
100
AcDbEntity
  8
0
100
AcDbLine
 10
6.922
 20
153.8229999999999
 30
0.0
 11
6.922
 21
152.4809999999999
 31
0.0
  0
LINE
  5
57
330
1E
100
AcDbEntity
  8
0
100
AcDbLine
 10
6.922
 20
154.752
 30
0.0
 11
6.922
 21
155.268
 31
0.0
  0
LINE
  5
58
330
1E
100
AcDbEntity
  8
0
100
AcDbLine
 10
6.922
 20
154.752
 30
0.0
 11
6.922
 21
153.8229999999999
 31
0.0
  0
LINE
  5
59
330
1E
100
AcDbEntity
  8
0
100
AcDbLine
 10
6.922
 20
155.268
 30
0.0
 11
6.922
 21
155.4999999999999
 31
0.0
  0
LINE
  5
5A
330
1E
100
AcDbEntity
  8
0
100
AcDbLine
 10
6.922
 20
155.268
 30
0.0
 11
6.922
 21
154.752
 31
0.0
  0
LINE
  5
5B
330
1E
100
AcDbEntity
  8
0
100
AcDbLine
 10
6.922
 20
164.29
 30
0.0
 11
6.922
 21
160.8999999999999
 31
0.0
  0
LINE
  5
5C
330
1E
100
AcDbEntity
  8
0
100
AcDbLine
 10
6.922
 20
164.29
 30
0.0
 11
6.922
 21
167.1599999999999
 31
0.0
  0
LINE
  5
5D
330
1E
100
AcDbEntity
  8
0
100
AcDbLine
 10
6.922
 20
167.1599999999999
 30
0.0
 11
6.922
 21
164.29
 31
0.0
  0
LINE
  5
5E
330
1E
100
AcDbEntity
  8
0
100
AcDbLine
 10
6.922
 20
167.1599999999999
 30
0.0
 11
6.922
 21
169.4499999999999
 31
0.0
  0
LINE
  5
5F
330
1E
100
AcDbEntity
  8
0
100
AcDbLine
 10
6.922
 20
169.4499999999999
 30
0.0
 11
6.922
 21
167.1599999999999
 31
0.0
  0
LINE
  5
60
330
1E
100
AcDbEntity
  8
0
100
AcDbLine
 10
6.922
 20
169.4499999999999
 30
0.0
 11
6.922
 21
171.1
 31
0.0
  0
LINE
  5
61
330
1E
100
AcDbEntity
  8
0
100
AcDbLine
 10
6.922
 20
171.1
 30
0.0
 11
6.922
 21
169.4499999999999
 31
0.0
  0
LINE
  5
62
330
1E
100
AcDbEntity
  8
0
100
AcDbLine
 10
6.922
 20
171.1
 30
0.0
 11
6.922
 21
172.13
 31
0.0
  0
LINE
  5
63
330
1E
100
AcDbEntity
  8
0
100
AcDbLine
 10
6.922
 20
172.13
 30
0.0
 11
6.922
 21
171.1
 31
0.0
  0
LINE
  5
64
330
1E
100
AcDbEntity
  8
0
100
AcDbLine
 10
6.922
 20
172.13
 30
0.0
 11
6.922
 21
172.5
 31
0.0
  0
LINE
  5
65
330
1E
100
AcDbEntity
  8
0
100
AcDbLine
 10
6.922
 20
160.8999999999999
 30
0.0
 11
6.922
 21
157.03
 31
0.0
  0
LINE
  5
66
330
1E
100
AcDbEntity
  8
0
100
AcDbLine
 10
6.922
 20
160.8999999999999
 30
0.0
 11
6.922
 21
164.29
 31
0.0
  0
LINE
  5
67
330
1E
100
AcDbEntity
  8
0
100
AcDbLine
 10
6.922
 20
157.03
 30
0.0
 11
6.922
 21
152.72
 31
0.0
  0
LINE
  5
68
330
1E
100
AcDbEntity
  8
0
100
AcDbLine
 10
6.922
 20
157.03
 30
0.0
 11
6.922
 21
160.8999999999999
 31
0.0
  0
LINE
  5
69
330
1E
100
AcDbEntity
  8
0
100
AcDbLine
 10
6.922
 20
152.72
 30
0.0
 11
6.922
 21
148.08
 31
0.0
  0
LINE
  5
6A
330
1E
100
AcDbEntity
  8
0
100
AcDbLine
 10
6.922
 20
152.72
 30
0.0
 11
6.922
 21
157.03
 31
0.0
  0
LINE
  5
6B
330
1E
100
AcDbEntity
  8
0
100
AcDbLine
 10
6.922
 20
148.08
 30
0.0
 11
6.922
 21
143.25
 31
0.0
  0
LINE
  5
6C
330
1E
100
AcDbEntity
  8
0
100
AcDbLine
 10
6.922
 20
148.08
 30
0.0
 11
6.922
 21
152.72
 31
0.0
  0
LINE
  5
6D
330
1E
100
AcDbEntity
  8
0
100
AcDbLine
 10
6.922
 20
143.25
 30
0.0
 11
6.922
 21
138.1599999999999
 31
0.0
  0
LINE
  5
6E
330
1E
100
AcDbEntity
  8
0
100
AcDbLine
 10
6.922
 20
143.25
 30
0.0
 11
6.922
 21
148.08
 31
0.0
  0
LINE
  5
6F
330
1E
100
AcDbEntity
  8
0
100
AcDbLine
 10
6.922
 20
138.1599999999999
 30
0.0
 11
6.922
 21
133.0
 31
0.0
  0
LINE
  5
70
330
1E
100
AcDbEntity
  8
0
100
AcDbLine
 10
6.922
 20
138.1599999999999
 30
0.0
 11
6.922
 21
143.25
 31
0.0
  0
LINE
  5
71
330
1E
100
AcDbEntity
  8
0
100
AcDbLine
 10
6.922
 20
172.5
 30
0.0
 11
6.922
 21
172.9129999999999
 31
0.0
  0
LINE
  5
72
330
1E
100
AcDbEntity
  8
0
100
AcDbLine
 10
6.922
 20
181.519
 30
0.0
 11
6.922
 21
179.4309999999999
 31
0.0
  0
LINE
  5
73
330
1E
100
AcDbEntity
  8
0
100
AcDbLine
 10
6.922
 20
181.519
 30
0.0
 11
6.922
 21
186.0829999999999
 31
0.0
  0
LINE
  5
74
330
1E
100
AcDbEntity
  8
0
100
AcDbLine
 10
6.922
 20
179.4309999999999
 30
0.0
 11
6.922
 21
177.1809999999999
 31
0.0
  0
LINE
  5
75
330
1E
100
AcDbEntity
  8
0
100
AcDbLine
 10
6.922
 20
179.4309999999999
 30
0.0
 11
6.922
 21
181.519
 31
0.0
  0
LINE
  5
76
330
1E
100
AcDbEntity
  8
0
100
AcDbLine
 10
6.922
 20
177.1809999999999
 30
0.0
 11
6.922
 21
175.324
 31
0.0
  0
LINE
  5
77
330
1E
100
AcDbEntity
  8
0
100
AcDbLine
 10
6.922
 20
177.1809999999999
 30
0.0
 11
6.922
 21
179.4309999999999
 31
0.0
  0
LINE
  5
78
330
1E
100
AcDbEntity
  8
0
100
AcDbLine
 10
6.922
 20
175.324
 30
0.0
 11
6.922
 21
173.9799999999999
 31
0.0
  0
LINE
  5
79
330
1E
100
AcDbEntity
  8
0
100
AcDbLine
 10
6.922
 20
175.324
 30
0.0
 11
6.922
 21
177.1809999999999
 31
0.0
  0
LINE
  5
7A
330
1E
100
AcDbEntity
  8
0
100
AcDbLine
 10
6.922
 20
173.9799999999999
 30
0.0
 11
6.922
 21
172.9129999999999
 31
0.0
  0
LINE
  5
7B
330
1E
100
AcDbEntity
  8
0
100
AcDbLine
 10
6.922
 20
173.9799999999999
 30
0.0
 11
6.922
 21
175.324
 31
0.0
  0
LINE
  5
7C
330
1E
100
AcDbEntity
  8
0
100
AcDbLine
 10
6.922
 20
172.9129999999999
 30
0.0
 11
6.922
 21
172.5
 31
0.0
  0
LINE
  5
7D
330
1E
100
AcDbEntity
  8
0
100
AcDbLine
 10
6.922
 20
172.9129999999999
 30
0.0
 11
6.922
 21
173.9799999999999
 31
0.0
  0
LINE
  5
7E
330
1E
100
AcDbEntity
  8
0
100
AcDbLine
 10
6.922
 20
172.5
 30
0.0
 11
7.422
 21
173.0
 31
0.0
  0
LINE
  5
7F
330
1E
100
AcDbEntity
  8
0
100
AcDbLine
 10
6.922
 20
172.5
 30
0.0
 11
6.922
 21
172.13
 31
0.0
  0
LINE
  5
80
330
1E
100
AcDbEntity
  8
0
100
AcDbLine
 10
6.922
 20
155.4999999999999
 30
0.0
 11
6.922
 21
155.268
 31
0.0
  0
LINE
  5
81
330
1E
100
AcDbEntity
  8
0
100
AcDbLine
 10
6.922
 20
40.0
 30
0.0
 11
6.922
 21
34.84
 31
0.0
  0
LINE
  5
82
330
1E
100
AcDbEntity
  8
0
100
AcDbLine
 10
6.922
 20
40.0
 30
0.0
 11
6.922
 21
133.0
 31
0.0
  0
LINE
  5
83
330
1E
100
AcDbEntity
  8
0
100
AcDbLine
 10
6.922
 20
133.0
 30
0.0
 11
6.922
 21
40.0
 31
0.0
  0
LINE
  5
84
330
1E
100
AcDbEntity
  8
0
100
AcDbLine
 10
6.922
 20
133.0
 30
0.0
 11
6.922
 21
135.941
 31
0.0
  0
LINE
  5
85
330
1E
100
AcDbEntity
  8
0
100
AcDbLine
 10
6.922
 20
133.0
 30
0.0
 11
6.922
 21
138.1599999999999
 31
0.0
  0
LINE
  5
86
330
1E
100
AcDbEntity
  8
0
100
AcDbLine
 10
6.922
 20
133.0
 30
0.0
 11
6.922
 21
40.0
 31
0.0
  0
LINE
  5
87
330
1E
100
AcDbEntity
  8
0
100
AcDbLine
 10
6.922
 20
40.0
 30
0.0
 11
6.922
 21
133.0
 31
0.0
  0
LINE
  5
88
330
1E
100
AcDbEntity
  8
0
100
AcDbLine
 10
6.922
 20
40.0
 30
0.0
 11
6.922
 21
37.0589
 31
0.0
  0
LINE
  5
89
330
1E
100
AcDbEntity
  8
0
100
AcDbLine
 10
6.922
 20
22.1183
 30
0.0
 11
6.922
 21
24.1
 31
0.0
  0
LINE
  5
8A
330
1E
100
AcDbEntity
  8
0
100
AcDbLine
 10
6.922
 20
22.1183
 30
0.0
 11
6.922
 21
20.51849999999999
 31
0.0
  0
LINE
  5
8B
330
1E
100
AcDbEntity
  8
0
100
AcDbLine
 10
6.922
 20
20.51849999999999
 30
0.0
 11
6.922
 21
22.1183
 31
0.0
  0
LINE
  5
8C
330
1E
100
AcDbEntity
  8
0
100
AcDbLine
 10
6.922
 20
20.51849999999999
 30
0.0
 11
6.922
 21
19.1767
 31
0.0
  0
LINE
  5
8D
330
1E
100
AcDbEntity
  8
0
100
AcDbLine
 10
6.922
 20
19.1767
 30
0.0
 11
6.922
 21
20.51849999999999
 31
0.0
  0
LINE
  5
8E
330
1E
100
AcDbEntity
  8
0
100
AcDbLine
 10
6.922
 20
19.1767
 30
0.0
 11
6.922
 21
18.2478
 31
0.0
  0
LINE
  5
8F
330
1E
100
AcDbEntity
  8
0
100
AcDbLine
 10
6.922
 20
18.2478
 30
0.0
 11
6.922
 21
19.1767
 31
0.0
  0
LINE
  5
90
330
1E
100
AcDbEntity
  8
0
100
AcDbLine
 10
6.922
 20
18.2478
 30
0.0
 11
6.922
 21
17.7317
 31
0.0
  0
LINE
  5
91
330
1E
100
AcDbEntity
  8
0
100
AcDbLine
 10
6.922
 20
17.7317
 30
0.0
 11
6.922
 21
18.2478
 31
0.0
  0
LINE
  5
92
330
1E
100
AcDbEntity
  8
0
100
AcDbLine
 10
6.922
 20
17.7317
 30
0.0
 11
6.922
 21
17.5
 31
0.0
  0
LINE
  5
93
330
1E
100
AcDbEntity
  8
0
100
AcDbLine
 10
6.922
 20
17.5
 30
0.0
 11
6.922
 21
17.7317
 31
0.0
  0
LINE
  5
94
330
1E
100
AcDbEntity
  8
0
100
AcDbLine
 10
6.922
 20
17.5
 30
0.0
 11
6.922
 21
0.5000000000000111
 31
0.0
  0
LINE
  5
95
330
1E
100
AcDbEntity
  8
0
100
AcDbLine
 10
6.922
 20
12.09999999999999
 30
0.0
 11
6.922
 21
8.710000000000009
 31
0.0
  0
LINE
  5
96
330
1E
100
AcDbEntity
  8
0
100
AcDbLine
 10
6.922
 20
12.09999999999999
 30
0.0
 11
6.922
 21
15.97
 31
0.0
  0
LINE
  5
97
330
1E
100
AcDbEntity
  8
0
100
AcDbLine
 10
6.922
 20
8.710000000000009
 30
0.0
 11
6.922
 21
5.840000000000009
 31
0.0
  0
LINE
  5
98
330
1E
100
AcDbEntity
  8
0
100
AcDbLine
 10
6.922
 20
8.710000000000009
 30
0.0
 11
6.922
 21
12.09999999999999
 31
0.0
  0
LINE
  5
99
330
1E
100
AcDbEntity
  8
0
100
AcDbLine
 10
6.922
 20
5.840000000000009
 30
0.0
 11
6.922
 21
3.550000000000009
 31
0.0
  0
LINE
  5
9A
330
1E
100
AcDbEntity
  8
0
100
AcDbLine
 10
6.922
 20
5.840000000000009
 30
0.0
 11
6.922
 21
8.710000000000009
 31
0.0
  0
LINE
  5
9B
330
1E
100
AcDbEntity
  8
0
100
AcDbLine
 10
6.922
 20
3.550000000000009
 30
0.0
 11
6.922
 21
1.90000000000001
 31
0.0
  0
LINE
  5
9C
330
1E
100
AcDbEntity
  8
0
100
AcDbLine
 10
6.922
 20
3.550000000000009
 30
0.0
 11
6.922
 21
5.840000000000009
 31
0.0
  0
LINE
  5
9D
330
1E
100
AcDbEntity
  8
0
100
AcDbLine
 10
6.922
 20
1.90000000000001
 30
0.0
 11
6.922
 21
0.870000000000013
 31
0.0
  0
LINE
  5
9E
330
1E
100
AcDbEntity
  8
0
100
AcDbLine
 10
6.922
 20
1.90000000000001
 30
0.0
 11
6.922
 21
3.550000000000009
 31
0.0
  0
LINE
  5
9F
330
1E
100
AcDbEntity
  8
0
100
AcDbLine
 10
6.922
 20
0.870000000000013
 30
0.0
 11
6.922
 21
0.500000000000013
 31
0.0
  0
LINE
  5
A0
330
1E
100
AcDbEntity
  8
0
100
AcDbLine
 10
6.922
 20
0.870000000000013
 30
0.0
 11
6.922
 21
1.90000000000001
 31
0.0
  0
LINE
  5
A1
330
1E
100
AcDbEntity
  8
0
100
AcDbLine
 10
3.8014
 20
183.7109999999999
 30
0.0
 11
6.922
 21
187.850555681931
 31
0.0
  0
LINE
  5
A2
330
1E
100
AcDbEntity
  8
0
100
AcDbLine
 10
6.922
 20
190.209
 30
0.0
 11
6.922
 21
187.375
 31
0.0
  0
LINE
  5
A3
330
1E
100
AcDbEntity
  8
0
100
AcDbLine
 10
6.922
 20
186.5
 30
0.0
 11
6.922
 21
187.375
 31
0.0
  0
LINE
  5
A4
330
1E
100
AcDbEntity
  8
0
100
AcDbLine
 10
6.922
 20
186.5
 30
0.0
 11
6.922
 21
155.4999999999999
 31
0.0
  0
LINE
  5
A5
330
1E
100
AcDbEntity
  8
0
100
AcDbLine
 10
6.922
 20
187.375
 30
0.0
 11
6.922
 21
190.209
 31
0.0
  0
LINE
  5
A6
330
1E
100
AcDbEntity
  8
0
100
AcDbLine
 10
6.922
 20
187.375
 30
0.0
 11
6.922
 21
186.5
 31
0.0
  0
LINE
  5
A7
330
1E
100
AcDbEntity
  8
0
100
AcDbLine
 10
6.922
 20
186.0829999999999
 30
0.0
 11
6.922
 21
181.519
 31
0.0
  0
LINE
  5
A8
330
1E
100
AcDbEntity
  8
0
100
AcDbLine
 10
6.922
 20
186.0829999999999
 30
0.0
 11
6.922
 21
189.8529999999999
 31
0.0
  0
LINE
  5
A9
330
1E
100
AcDbEntity
  8
0
100
AcDbLine
 10
6.922
 20
189.8529999999999
 30
0.0
 11
6.922
 21
186.0829999999999
 31
0.0
  0
LINE
  5
AA
330
1E
100
AcDbEntity
  8
0
100
AcDbLine
 10
6.922
 20
189.8529999999999
 30
0.0
 11
6.922
 21
194.085
 31
0.0
  0
LINE
  5
AB
330
1E
100
AcDbEntity
  8
0
100
AcDbLine
 10
6.922
 20
194.085
 30
0.0
 11
6.922
 21
189.8529999999999
 31
0.0
  0
LINE
  5
AC
330
1E
100
AcDbEntity
  8
0
100
AcDbLine
 10
6.922
 20
194.085
 30
0.0
 11
6.922
 21
197.6029999999999
 31
0.0
  0
LINE
  5
AD
330
1E
100
AcDbEntity
  8
0
100
AcDbLine
 10
6.922
 20
197.6029999999999
 30
0.0
 11
6.922
 21
194.085
 31
0.0
  0
LINE
  5
AE
330
1E
100
AcDbEntity
  8
0
100
AcDbLine
 10
6.922
 20
197.6029999999999
 30
0.0
 11
6.922
 21
200.654
 31
0.0
  0
LINE
  5
AF
330
1E
100
AcDbEntity
  8
0
100
AcDbLine
 10
6.922
 20
208.4999999999999
 30
0.0
 11
6.922
 21
208.162
 31
0.0
  0
LINE
  5
B0
330
1E
100
AcDbEntity
  8
0
100
AcDbLine
 10
6.922
 20
208.4999999999999
 30
0.0
 11
7.422
 21
209.0
 31
0.0
  0
LINE
  5
B1
330
1E
100
AcDbEntity
  8
0
100
AcDbLine
 10
6.922
 20
208.162
 30
0.0
 11
6.922
 21
207.0549999999999
 31
0.0
  0
LINE
  5
B2
330
1E
100
AcDbEntity
  8
0
100
AcDbLine
 10
6.922
 20
208.162
 30
0.0
 11
6.922
 21
208.4999999999999
 31
0.0
  0
LINE
  5
B3
330
1E
100
AcDbEntity
  8
0
100
AcDbLine
 10
6.922
 20
207.0549999999999
 30
0.0
 11
6.922
 21
205.3949999999999
 31
0.0
  0
LINE
  5
B4
330
1E
100
AcDbEntity
  8
0
100
AcDbLine
 10
6.922
 20
207.0549999999999
 30
0.0
 11
6.922
 21
208.162
 31
0.0
  0
LINE
  5
B5
330
1E
100
AcDbEntity
  8
0
100
AcDbLine
 10
6.922
 20
205.3949999999999
 30
0.0
 11
6.922
 21
203.499
 31
0.0
  0
LINE
  5
B6
330
1E
100
AcDbEntity
  8
0
100
AcDbLine
 10
6.922
 20
205.3949999999999
 30
0.0
 11
6.922
 21
207.0549999999999
 31
0.0
  0
LINE
  5
B7
330
1E
100
AcDbEntity
  8
0
100
AcDbLine
 10
6.922
 20
203.499
 30
0.0
 11
6.922
 21
200.654
 31
0.0
  0
LINE
  5
B8
330
1E
100
AcDbEntity
  8
0
100
AcDbLine
 10
6.922
 20
203.499
 30
0.0
 11
6.922
 21
205.3949999999999
 31
0.0
  0
LINE
  5
B9
330
1E
100
AcDbEntity
  8
0
100
AcDbLine
 10
6.922
 20
200.654
 30
0.0
 11
6.922
 21
197.6029999999999
 31
0.0
  0
LINE
  5
BA
330
1E
100
AcDbEntity
  8
0
100
AcDbLine
 10
6.922
 20
200.654
 30
0.0
 11
6.922
 21
203.499
 31
0.0
  0
LINE
  5
BB
330
1E
100
AcDbEntity
  8
0
100
AcDbLine
 10
3.3887
 20
183.959
 30
0.0
 11
6.922
 21
188.4621843449339
 31
0.0
  0
LINE
  5
BC
330
1E
100
AcDbEntity
  8
0
100
AcDbLine
 10
0.829900000000002
 20
177.6859999999999
 30
0.0
 11
3.3887
 21
183.959
 31
0.0
  0
LINE
  5
BD
330
1E
100
AcDbEntity
  8
0
100
AcDbLine
 10
6.922
 20
0.500000000000012
 30
0.0
 11
7.422
 21
0.0000000000000117
 31
0.0
  0
LINE
  5
BE
330
1E
100
AcDbEntity
  8
0
100
AcDbLine
 10
6.922
 20
0.500000000000012
 30
0.0
 11
7.422
 21
0.0000000000000117
 31
0.0
  0
LINE
  5
BF
330
1E
100
AcDbEntity
  8
0
100
AcDbLine
 10
6.922
 20
0.500000000000012
 30
0.0
 11
6.922
 21
17.5
 31
0.0
  0
LINE
  5
C0
330
1E
100
AcDbEntity
  8
0
100
AcDbLine
 10
7.422
 20
0.0000000000000117
 30
0.0
 11
44.42199999999999
 21
0.0000000000000117
 31
0.0
  0
LINE
  5
C1
330
1E
100
AcDbEntity
  8
0
100
AcDbLine
 10
7.422
 20
11.69999999999999
 30
0.0
 11
7.422
 21
15.6353
 31
0.0
  0
LINE
  5
C2
330
1E
100
AcDbEntity
  8
0
100
AcDbLine
 10
7.422
 20
11.69999999999999
 30
0.0
 11
7.422
 21
8.266370000000009
 31
0.0
  0
LINE
  5
C3
330
1E
100
AcDbEntity
  8
0
100
AcDbLine
 10
7.422
 20
15.6353
 30
0.0
 11
7.422
 21
19.9827
 31
0.0
  0
LINE
  5
C4
330
1E
100
AcDbEntity
  8
0
100
AcDbLine
 10
7.422
 20
15.6353
 30
0.0
 11
7.422
 21
11.69999999999999
 31
0.0
  0
LINE
  5
C5
330
1E
100
AcDbEntity
  8
0
100
AcDbLine
 10
7.422
 20
19.9827
 30
0.0
 11
7.422
 21
24.6985
 31
0.0
  0
LINE
  5
C6
330
1E
100
AcDbEntity
  8
0
100
AcDbLine
 10
7.422
 20
19.9827
 30
0.0
 11
7.422
 21
15.6353
 31
0.0
  0
LINE
  5
C7
330
1E
100
AcDbEntity
  8
0
100
AcDbLine
 10
7.422
 20
24.6985
 30
0.0
 11
7.422
 21
29.5985
 31
0.0
  0
LINE
  5
C8
330
1E
100
AcDbEntity
  8
0
100
AcDbLine
 10
7.422
 20
24.6985
 30
0.0
 11
7.422
 21
19.9827
 31
0.0
  0
LINE
  5
C9
330
1E
100
AcDbEntity
  8
0
100
AcDbLine
 10
7.422
 20
29.5985
 30
0.0
 11
7.422
 21
34.83019999999999
 31
0.0
  0
LINE
  5
CA
330
1E
100
AcDbEntity
  8
0
100
AcDbLine
 10
7.422
 20
29.5985
 30
0.0
 11
7.422
 21
24.6985
 31
0.0
  0
LINE
  5
CB
330
1E
100
AcDbEntity
  8
0
100
AcDbLine
 10
7.422
 20
34.83019999999999
 30
0.0
 11
7.422
 21
40.0
 31
0.0
  0
LINE
  5
CC
330
1E
100
AcDbEntity
  8
0
100
AcDbLine
 10
7.422
 20
34.83019999999999
 30
0.0
 11
7.422
 21
29.5985
 31
0.0
  0
LINE
  5
CD
330
1E
100
AcDbEntity
  8
0
100
AcDbLine
 10
7.422
 20
161.3
 30
0.0
 11
7.422
 21
164.7339999999999
 31
0.0
  0
LINE
  5
CE
330
1E
100
AcDbEntity
  8
0
100
AcDbLine
 10
7.422
 20
161.3
 30
0.0
 11
7.422
 21
157.365
 31
0.0
  0
LINE
  5
CF
330
1E
100
AcDbEntity
  8
0
100
AcDbLine
 10
7.422
 20
164.7339999999999
 30
0.0
 11
7.422
 21
167.6059999999999
 31
0.0
  0
LINE
  5
D0
330
1E
100
AcDbEntity
  8
0
100
AcDbLine
 10
7.422
 20
164.7339999999999
 30
0.0
 11
7.422
 21
161.3
 31
0.0
  0
LINE
  5
D1
330
1E
100
AcDbEntity
  8
0
100
AcDbLine
 10
7.422
 20
167.6059999999999
 30
0.0
 11
7.422
 21
169.925
 31
0.0
  0
LINE
  5
D2
330
1E
100
AcDbEntity
  8
0
100
AcDbLine
 10
7.422
 20
167.6059999999999
 30
0.0
 11
7.422
 21
164.7339999999999
 31
0.0
  0
LINE
  5
D3
330
1E
100
AcDbEntity
  8
0
100
AcDbLine
 10
7.422
 20
169.925
 30
0.0
 11
7.422
 21
171.5819999999999
 31
0.0
  0
LINE
  5
D4
330
1E
100
AcDbEntity
  8
0
100
AcDbLine
 10
7.422
 20
169.925
 30
0.0
 11
7.422
 21
167.6059999999999
 31
0.0
  0
LINE
  5
D5
330
1E
100
AcDbEntity
  8
0
100
AcDbLine
 10
7.422
 20
173.0
 30
0.0
 11
44.42199999999999
 21
173.0
 31
0.0
  0
LINE
  5
D6
330
1E
100
AcDbEntity
  8
0
100
AcDbLine
 10
7.422
 20
179.685
 30
0.0
 11
7.422
 21
181.9209999999999
 31
0.0
  0
LINE
  5
D7
330
1E
100
AcDbEntity
  8
0
100
AcDbLine
 10
7.422
 20
179.685
 30
0.0
 11
7.422
 21
177.418
 31
0.0
  0
LINE
  5
D8
330
1E
100
AcDbEntity
  8
0
100
AcDbLine
 10
7.422
 20
181.9209999999999
 30
0.0
 11
7.422
 21
186.4059999999999
 31
0.0
  0
LINE
  5
D9
330
1E
100
AcDbEntity
  8
0
100
AcDbLine
 10
7.422
 20
181.9209999999999
 30
0.0
 11
7.422
 21
179.685
 31
0.0
  0
LINE
  5
DA
330
1E
100
AcDbEntity
  8
0
100
AcDbLine
 10
7.422
 20
186.4059999999999
 30
0.0
 11
7.422
 21
190.254
 31
0.0
  0
LINE
  5
DB
330
1E
100
AcDbEntity
  8
0
100
AcDbLine
 10
7.422
 20
186.4059999999999
 30
0.0
 11
7.422
 21
181.9209999999999
 31
0.0
  0
LINE
  5
DC
330
1E
100
AcDbEntity
  8
0
100
AcDbLine
 10
7.422
 20
190.254
 30
0.0
 11
7.422
 21
194.487
 31
0.0
  0
LINE
  5
DD
330
1E
100
AcDbEntity
  8
0
100
AcDbLine
 10
7.422
 20
190.254
 30
0.0
 11
7.422
 21
186.4059999999999
 31
0.0
  0
LINE
  5
DE
330
1E
100
AcDbEntity
  8
0
100
AcDbLine
 10
7.422
 20
194.487
 30
0.0
 11
7.422
 21
198.0449999999999
 31
0.0
  0
LINE
  5
DF
330
1E
100
AcDbEntity
  8
0
100
AcDbLine
 10
7.422
 20
194.487
 30
0.0
 11
7.422
 21
190.254
 31
0.0
  0
LINE
  5
E0
330
1E
100
AcDbEntity
  8
0
100
AcDbLine
 10
7.422
 20
209.0
 30
0.0
 11
44.42199999999999
 21
209.0
 31
0.0
  0
LINE
  5
E1
330
1E
100
AcDbEntity
  8
0
100
AcDbLine
 10
7.422
 20
209.0
 30
0.0
 11
7.422
 21
208.557
 31
0.0
  0
LINE
  5
E2
330
1E
100
AcDbEntity
  8
0
100
AcDbLine
 10
7.422
 20
209.0
 30
0.0
 11
44.42199999999999
 21
209.0
 31
0.0
  0
LINE
  5
E3
330
1E
100
AcDbEntity
  8
0
100
AcDbLine
 10
7.422
 20
208.557
 30
0.0
 11
7.422
 21
209.0
 31
0.0
  0
LINE
  5
E4
330
1E
100
AcDbEntity
  8
0
100
AcDbLine
 10
7.422
 20
208.557
 30
0.0
 11
7.422
 21
207.529
 31
0.0
  0
LINE
  5
E5
330
1E
100
AcDbEntity
  8
0
100
AcDbLine
 10
7.422
 20
207.529
 30
0.0
 11
7.422
 21
208.557
 31
0.0
  0
LINE
  5
E6
330
1E
100
AcDbEntity
  8
0
100
AcDbLine
 10
7.422
 20
207.529
 30
0.0
 11
7.422
 21
205.8699999999999
 31
0.0
  0
LINE
  5
E7
330
1E
100
AcDbEntity
  8
0
100
AcDbLine
 10
7.422
 20
205.8699999999999
 30
0.0
 11
7.422
 21
207.529
 31
0.0
  0
LINE
  5
E8
330
1E
100
AcDbEntity
  8
0
100
AcDbLine
 10
7.422
 20
205.8699999999999
 30
0.0
 11
7.422
 21
203.894
 31
0.0
  0
LINE
  5
E9
330
1E
100
AcDbEntity
  8
0
100
AcDbLine
 10
7.422
 20
203.894
 30
0.0
 11
7.422
 21
205.8699999999999
 31
0.0
  0
LINE
  5
EA
330
1E
100
AcDbEntity
  8
0
100
AcDbLine
 10
7.422
 20
203.894
 30
0.0
 11
7.422
 21
201.1279999999999
 31
0.0
  0
LINE
  5
EB
330
1E
100
AcDbEntity
  8
0
100
AcDbLine
 10
7.422
 20
201.1279999999999
 30
0.0
 11
7.422
 21
203.894
 31
0.0
  0
LINE
  5
EC
330
1E
100
AcDbEntity
  8
0
100
AcDbLine
 10
7.422
 20
201.1279999999999
 30
0.0
 11
7.422
 21
198.0449999999999
 31
0.0
  0
LINE
  5
ED
330
1E
100
AcDbEntity
  8
0
100
AcDbLine
 10
7.422
 20
198.0449999999999
 30
0.0
 11
7.422
 21
201.1279999999999
 31
0.0
  0
LINE
  5
EE
330
1E
100
AcDbEntity
  8
0
100
AcDbLine
 10
7.422
 20
198.0449999999999
 30
0.0
 11
7.422
 21
194.487
 31
0.0
  0
LINE
  5
EF
330
1E
100
AcDbEntity
  8
0
100
AcDbLine
 10
7.422
 20
177.418
 30
0.0
 11
7.422
 21
179.685
 31
0.0
  0
LINE
  5
F0
330
1E
100
AcDbEntity
  8
0
100
AcDbLine
 10
7.422
 20
177.418
 30
0.0
 11
7.422
 21
175.657
 31
0.0
  0
LINE
  5
F1
330
1E
100
AcDbEntity
  8
0
100
AcDbLine
 10
7.422
 20
175.657
 30
0.0
 11
7.422
 21
177.418
 31
0.0
  0
LINE
  5
F2
330
1E
100
AcDbEntity
  8
0
100
AcDbLine
 10
7.422
 20
175.657
 30
0.0
 11
7.422
 21
174.3359999999999
 31
0.0
  0
LINE
  5
F3
330
1E
100
AcDbEntity
  8
0
100
AcDbLine
 10
7.422
 20
174.3359999999999
 30
0.0
 11
7.422
 21
175.657
 31
0.0
  0
LINE
  5
F4
330
1E
100
AcDbEntity
  8
0
100
AcDbLine
 10
7.422
 20
174.3359999999999
 30
0.0
 11
7.422
 21
173.358
 31
0.0
  0
LINE
  5
F5
330
1E
100
AcDbEntity
  8
0
100
AcDbLine
 10
7.422
 20
173.358
 30
0.0
 11
7.422
 21
174.3359999999999
 31
0.0
  0
LINE
  5
F6
330
1E
100
AcDbEntity
  8
0
100
AcDbLine
 10
7.422
 20
173.358
 30
0.0
 11
7.422
 21
173.0
 31
0.0
  0
LINE
  5
F7
330
1E
100
AcDbEntity
  8
0
100
AcDbLine
 10
7.422
 20
173.0
 30
0.0
 11
7.422
 21
173.358
 31
0.0
  0
LINE
  5
F8
330
1E
100
AcDbEntity
  8
0
100
AcDbLine
 10
7.422
 20
173.0
 30
0.0
 11
7.422
 21
172.687
 31
0.0
  0
LINE
  5
F9
330
1E
100
AcDbEntity
  8
0
100
AcDbLine
 10
7.422
 20
173.0
 30
0.0
 11
44.42199999999999
 21
173.0
 31
0.0
  0
LINE
  5
FA
330
1E
100
AcDbEntity
  8
0
100
AcDbLine
 10
7.422
 20
171.5819999999999
 30
0.0
 11
7.422
 21
172.687
 31
0.0
  0
LINE
  5
FB
330
1E
100
AcDbEntity
  8
0
100
AcDbLine
 10
7.422
 20
171.5819999999999
 30
0.0
 11
7.422
 21
169.925
 31
0.0
  0
LINE
  5
FC
330
1E
100
AcDbEntity
  8
0
100
AcDbLine
 10
7.422
 20
172.687
 30
0.0
 11
7.422
 21
173.0
 31
0.0
  0
LINE
  5
FD
330
1E
100
AcDbEntity
  8
0
100
AcDbLine
 10
7.422
 20
172.687
 30
0.0
 11
7.422
 21
171.5819999999999
 31
0.0
  0
LINE
  5
FE
330
1E
100
AcDbEntity
  8
0
100
AcDbLine
 10
7.422
 20
157.365
 30
0.0
 11
7.422
 21
161.3
 31
0.0
  0
LINE
  5
FF
330
1E
100
AcDbEntity
  8
0
100
AcDbLine
 10
7.422
 20
157.365
 30
0.0
 11
7.422
 21
153.017
 31
0.0
  0
LINE
  5
100
330
1E
100
AcDbEntity
  8
0
100
AcDbLine
 10
7.422
 20
153.017
 30
0.0
 11
7.422
 21
157.365
 31
0.0
  0
LINE
  5
101
330
1E
100
AcDbEntity
  8
0
100
AcDbLine
 10
7.422
 20
153.017
 30
0.0
 11
7.422
 21
148.301
 31
0.0
  0
LINE
  5
102
330
1E
100
AcDbEntity
  8
0
100
AcDbLine
 10
7.422
 20
148.301
 30
0.0
 11
7.422
 21
153.017
 31
0.0
  0
LINE
  5
103
330
1E
100
AcDbEntity
  8
0
100
AcDbLine
 10
7.422
 20
148.301
 30
0.0
 11
7.422
 21
143.401
 31
0.0
  0
LINE
  5
104
330
1E
100
AcDbEntity
  8
0
100
AcDbLine
 10
7.422
 20
143.401
 30
0.0
 11
7.422
 21
148.301
 31
0.0
  0
LINE
  5
105
330
1E
100
AcDbEntity
  8
0
100
AcDbLine
 10
7.422
 20
143.401
 30
0.0
 11
7.422
 21
138.1699999999999
 31
0.0
  0
LINE
  5
106
330
1E
100
AcDbEntity
  8
0
100
AcDbLine
 10
7.422
 20
138.1699999999999
 30
0.0
 11
7.422
 21
143.401
 31
0.0
  0
LINE
  5
107
330
1E
100
AcDbEntity
  8
0
100
AcDbLine
 10
7.422
 20
138.1699999999999
 30
0.0
 11
7.422
 21
133.0
 31
0.0
  0
LINE
  5
108
330
1E
100
AcDbEntity
  8
0
100
AcDbLine
 10
7.422
 20
133.0
 30
0.0
 11
7.422
 21
138.1699999999999
 31
0.0
  0
LINE
  5
109
330
1E
100
AcDbEntity
  8
0
100
AcDbLine
 10
7.422
 20
133.0
 30
0.0
 11
7.422
 21
40.0
 31
0.0
  0
LINE
  5
10A
330
1E
100
AcDbEntity
  8
0
100
AcDbLine
 10
7.422
 20
40.0
 30
0.0
 11
7.422
 21
133.0
 31
0.0
  0
LINE
  5
10B
330
1E
100
AcDbEntity
  8
0
100
AcDbLine
 10
7.422
 20
40.0
 30
0.0
 11
7.422
 21
34.83019999999999
 31
0.0
  0
LINE
  5
10C
330
1E
100
AcDbEntity
  8
0
100
AcDbLine
 10
7.422
 20
8.266370000000009
 30
0.0
 11
7.422
 21
11.69999999999999
 31
0.0
  0
LINE
  5
10D
330
1E
100
AcDbEntity
  8
0
100
AcDbLine
 10
7.422
 20
8.266370000000009
 30
0.0
 11
7.422
 21
5.394380000000009
 31
0.0
  0
LINE
  5
10E
330
1E
100
AcDbEntity
  8
0
100
AcDbLine
 10
7.422
 20
5.394380000000009
 30
0.0
 11
7.422
 21
8.266370000000009
 31
0.0
  0
LINE
  5
10F
330
1E
100
AcDbEntity
  8
0
100
AcDbLine
 10
7.422
 20
5.394380000000009
 30
0.0
 11
7.422
 21
3.074700000000009
 31
0.0
  0
LINE
  5
110
330
1E
100
AcDbEntity
  8
0
100
AcDbLine
 10
7.422
 20
3.074700000000009
 30
0.0
 11
7.422
 21
5.394380000000009
 31
0.0
  0
LINE
  5
111
330
1E
100
AcDbEntity
  8
0
100
AcDbLine
 10
7.422
 20
3.074700000000009
 30
0.0
 11
7.422
 21
1.41779000000001
 31
0.0
  0
LINE
  5
112
330
1E
100
AcDbEntity
  8
0
100
AcDbLine
 10
7.422
 20
1.41779000000001
 30
0.0
 11
7.422
 21
3.074700000000009
 31
0.0
  0
LINE
  5
113
330
1E
100
AcDbEntity
  8
0
100
AcDbLine
 10
7.422
 20
1.41779000000001
 30
0.0
 11
7.422
 21
0.313178000000013
 31
0.0
  0
LINE
  5
114
330
1E
100
AcDbEntity
  8
0
100
AcDbLine
 10
7.422
 20
0.313178000000013
 30
0.0
 11
7.422
 21
1.41779000000001
 31
0.0
  0
LINE
  5
115
330
1E
100
AcDbEntity
  8
0
100
AcDbLine
 10
7.422
 20
0.313178000000013
 30
0.0
 11
7.422
 21
0.0000000000000129
 31
0.0
  0
LINE
  5
116
330
1E
100
AcDbEntity
  8
0
100
AcDbLine
 10
7.422
 20
0.0000000000000129
 30
0.0
 11
7.422
 21
0.313178000000013
 31
0.0
  0
LINE
  5
117
330
1E
100
AcDbEntity
  8
0
100
AcDbLine
 10
44.42199999999999
 20
11.69999999999999
 30
0.0
 11
44.42199999999999
 21
8.266370000000009
 31
0.0
  0
LINE
  5
118
330
1E
100
AcDbEntity
  8
0
100
AcDbLine
 10
44.42199999999999
 20
11.69999999999999
 30
0.0
 11
44.42199999999999
 21
15.6353
 31
0.0
  0
LINE
  5
119
330
1E
100
AcDbEntity
  8
0
100
AcDbLine
 10
44.42199999999999
 20
8.266370000000009
 30
0.0
 11
44.42199999999999
 21
5.394380000000009
 31
0.0
  0
LINE
  5
11A
330
1E
100
AcDbEntity
  8
0
100
AcDbLine
 10
44.42199999999999
 20
8.266370000000009
 30
0.0
 11
44.42199999999999
 21
11.69999999999999
 31
0.0
  0
LINE
  5
11B
330
1E
100
AcDbEntity
  8
0
100
AcDbLine
 10
44.42199999999999
 20
5.394380000000009
 30
0.0
 11
44.42199999999999
 21
3.074700000000009
 31
0.0
  0
LINE
  5
11C
330
1E
100
AcDbEntity
  8
0
100
AcDbLine
 10
44.42199999999999
 20
5.394380000000009
 30
0.0
 11
44.42199999999999
 21
8.266370000000009
 31
0.0
  0
LINE
  5
11D
330
1E
100
AcDbEntity
  8
0
100
AcDbLine
 10
44.42199999999999
 20
3.074700000000009
 30
0.0
 11
44.42199999999999
 21
1.41779000000001
 31
0.0
  0
LINE
  5
11E
330
1E
100
AcDbEntity
  8
0
100
AcDbLine
 10
44.42199999999999
 20
3.074700000000009
 30
0.0
 11
44.42199999999999
 21
5.394380000000009
 31
0.0
  0
LINE
  5
11F
330
1E
100
AcDbEntity
  8
0
100
AcDbLine
 10
44.42199999999999
 20
1.41779000000001
 30
0.0
 11
44.42199999999999
 21
0.313178000000013
 31
0.0
  0
LINE
  5
120
330
1E
100
AcDbEntity
  8
0
100
AcDbLine
 10
44.42199999999999
 20
1.41779000000001
 30
0.0
 11
44.42199999999999
 21
3.074700000000009
 31
0.0
  0
LINE
  5
121
330
1E
100
AcDbEntity
  8
0
100
AcDbLine
 10
44.42199999999999
 20
0.313178000000013
 30
0.0
 11
44.42199999999999
 21
0.0000000000000129
 31
0.0
  0
LINE
  5
122
330
1E
100
AcDbEntity
  8
0
100
AcDbLine
 10
44.42199999999999
 20
0.313178000000013
 30
0.0
 11
44.42199999999999
 21
1.41779000000001
 31
0.0
  0
LINE
  5
123
330
1E
100
AcDbEntity
  8
0
100
AcDbLine
 10
44.42199999999999
 20
15.6353
 30
0.0
 11
44.42199999999999
 21
11.69999999999999
 31
0.0
  0
LINE
  5
124
330
1E
100
AcDbEntity
  8
0
100
AcDbLine
 10
44.42199999999999
 20
15.6353
 30
0.0
 11
44.42199999999999
 21
19.9827
 31
0.0
  0
LINE
  5
125
330
1E
100
AcDbEntity
  8
0
100
AcDbLine
 10
44.42199999999999
 20
19.9827
 30
0.0
 11
44.42199999999999
 21
15.6353
 31
0.0
  0
LINE
  5
126
330
1E
100
AcDbEntity
  8
0
100
AcDbLine
 10
44.42199999999999
 20
19.9827
 30
0.0
 11
44.42199999999999
 21
24.6985
 31
0.0
  0
LINE
  5
127
330
1E
100
AcDbEntity
  8
0
100
AcDbLine
 10
44.42199999999999
 20
24.6985
 30
0.0
 11
44.42199999999999
 21
19.9827
 31
0.0
  0
LINE
  5
128
330
1E
100
AcDbEntity
  8
0
100
AcDbLine
 10
44.42199999999999
 20
24.6985
 30
0.0
 11
44.42199999999999
 21
29.5985
 31
0.0
  0
LINE
  5
129
330
1E
100
AcDbEntity
  8
0
100
AcDbLine
 10
44.42199999999999
 20
29.5985
 30
0.0
 11
44.42199999999999
 21
24.6985
 31
0.0
  0
LINE
  5
12A
330
1E
100
AcDbEntity
  8
0
100
AcDbLine
 10
44.42199999999999
 20
29.5985
 30
0.0
 11
44.42199999999999
 21
34.83019999999999
 31
0.0
  0
LINE
  5
12B
330
1E
100
AcDbEntity
  8
0
100
AcDbLine
 10
44.42199999999999
 20
34.83019999999999
 30
0.0
 11
44.42199999999999
 21
29.5985
 31
0.0
  0
LINE
  5
12C
330
1E
100
AcDbEntity
  8
0
100
AcDbLine
 10
44.42199999999999
 20
34.83019999999999
 30
0.0
 11
44.42199999999999
 21
40.0
 31
0.0
  0
LINE
  5
12D
330
1E
100
AcDbEntity
  8
0
100
AcDbLine
 10
44.42199999999999
 20
40.0
 30
0.0
 11
44.42199999999999
 21
34.83019999999999
 31
0.0
  0
LINE
  5
12E
330
1E
100
AcDbEntity
  8
0
100
AcDbLine
 10
44.42199999999999
 20
40.0
 30
0.0
 11
44.42199999999999
 21
133.0
 31
0.0
  0
LINE
  5
12F
330
1E
100
AcDbEntity
  8
0
100
AcDbLine
 10
44.42199999999999
 20
153.017
 30
0.0
 11
44.42199999999999
 21
148.301
 31
0.0
  0
LINE
  5
130
330
1E
100
AcDbEntity
  8
0
100
AcDbLine
 10
44.42199999999999
 20
153.017
 30
0.0
 11
44.42199999999999
 21
157.365
 31
0.0
  0
LINE
  5
131
330
1E
100
AcDbEntity
  8
0
100
AcDbLine
 10
44.42199999999999
 20
148.301
 30
0.0
 11
44.42199999999999
 21
143.401
 31
0.0
  0
LINE
  5
132
330
1E
100
AcDbEntity
  8
0
100
AcDbLine
 10
44.42199999999999
 20
148.301
 30
0.0
 11
44.42199999999999
 21
153.017
 31
0.0
  0
LINE
  5
133
330
1E
100
AcDbEntity
  8
0
100
AcDbLine
 10
44.42199999999999
 20
143.401
 30
0.0
 11
44.42199999999999
 21
138.1699999999999
 31
0.0
  0
LINE
  5
134
330
1E
100
AcDbEntity
  8
0
100
AcDbLine
 10
44.42199999999999
 20
143.401
 30
0.0
 11
44.42199999999999
 21
148.301
 31
0.0
  0
LINE
  5
135
330
1E
100
AcDbEntity
  8
0
100
AcDbLine
 10
44.42199999999999
 20
138.1699999999999
 30
0.0
 11
44.42199999999999
 21
133.0
 31
0.0
  0
LINE
  5
136
330
1E
100
AcDbEntity
  8
0
100
AcDbLine
 10
44.42199999999999
 20
138.1699999999999
 30
0.0
 11
44.42199999999999
 21
143.401
 31
0.0
  0
LINE
  5
137
330
1E
100
AcDbEntity
  8
0
100
AcDbLine
 10
44.42199999999999
 20
133.0
 30
0.0
 11
44.42199999999999
 21
40.0
 31
0.0
  0
LINE
  5
138
330
1E
100
AcDbEntity
  8
0
100
AcDbLine
 10
44.42199999999999
 20
133.0
 30
0.0
 11
44.42199999999999
 21
138.1699999999999
 31
0.0
  0
LINE
  5
139
330
1E
100
AcDbEntity
  8
0
100
AcDbLine
 10
44.92199999999999
 20
8.710000000000009
 30
0.0
 11
44.92199999999999
 21
12.09999999999999
 31
0.0
  0
LINE
  5
13A
330
1E
100
AcDbEntity
  8
0
100
AcDbLine
 10
44.92199999999999
 20
8.710000000000009
 30
0.0
 11
44.92199999999999
 21
5.840000000000009
 31
0.0
  0
LINE
  5
13B
330
1E
100
AcDbEntity
  8
0
100
AcDbLine
 10
44.92199999999999
 20
5.840000000000009
 30
0.0
 11
44.92199999999999
 21
8.710000000000009
 31
0.0
  0
LINE
  5
13C
330
1E
100
AcDbEntity
  8
0
100
AcDbLine
 10
44.92199999999999
 20
5.840000000000009
 30
0.0
 11
44.92199999999999
 21
3.550000000000009
 31
0.0
  0
LINE
  5
13D
330
1E
100
AcDbEntity
  8
0
100
AcDbLine
 10
44.92199999999999
 20
3.550000000000009
 30
0.0
 11
44.92199999999999
 21
5.840000000000009
 31
0.0
  0
LINE
  5
13E
330
1E
100
AcDbEntity
  8
0
100
AcDbLine
 10
44.92199999999999
 20
3.550000000000009
 30
0.0
 11
44.92199999999999
 21
1.90000000000001
 31
0.0
  0
LINE
  5
13F
330
1E
100
AcDbEntity
  8
0
100
AcDbLine
 10
44.92199999999999
 20
1.90000000000001
 30
0.0
 11
44.92199999999999
 21
3.550000000000009
 31
0.0
  0
LINE
  5
140
330
1E
100
AcDbEntity
  8
0
100
AcDbLine
 10
44.92199999999999
 20
1.90000000000001
 30
0.0
 11
44.92199999999999
 21
0.870000000000013
 31
0.0
  0
LINE
  5
141
330
1E
100
AcDbEntity
  8
0
100
AcDbLine
 10
44.92199999999999
 20
0.870000000000013
 30
0.0
 11
44.92199999999999
 21
1.90000000000001
 31
0.0
  0
LINE
  5
142
330
1E
100
AcDbEntity
  8
0
100
AcDbLine
 10
44.92199999999999
 20
0.870000000000013
 30
0.0
 11
44.92199999999999
 21
0.500000000000013
 31
0.0
  0
LINE
  5
143
330
1E
100
AcDbEntity
  8
0
100
AcDbLine
 10
44.92199999999999
 20
0.500000000000013
 30
0.0
 11
44.92199999999999
 21
0.870000000000013
 31
0.0
  0
LINE
  5
144
330
1E
100
AcDbEntity
  8
0
100
AcDbLine
 10
44.92199999999999
 20
12.09999999999999
 30
0.0
 11
44.92199999999999
 21
15.97
 31
0.0
  0
LINE
  5
145
330
1E
100
AcDbEntity
  8
0
100
AcDbLine
 10
44.92199999999999
 20
12.09999999999999
 30
0.0
 11
44.92199999999999
 21
8.710000000000009
 31
0.0
  0
LINE
  5
146
330
1E
100
AcDbEntity
  8
0
100
AcDbLine
 10
44.92199999999999
 20
15.97
 30
0.0
 11
44.92199999999999
 21
20.28
 31
0.0
  0
LINE
  5
147
330
1E
100
AcDbEntity
  8
0
100
AcDbLine
 10
44.92199999999999
 20
15.97
 30
0.0
 11
44.92199999999999
 21
12.09999999999999
 31
0.0
  0
LINE
  5
148
330
1E
100
AcDbEntity
  8
0
100
AcDbLine
 10
44.92199999999999
 20
20.28
 30
0.0
 11
44.92199999999999
 21
24.92
 31
0.0
  0
LINE
  5
149
330
1E
100
AcDbEntity
  8
0
100
AcDbLine
 10
44.92199999999999
 20
20.28
 30
0.0
 11
44.92199999999999
 21
15.97
 31
0.0
  0
LINE
  5
14A
330
1E
100
AcDbEntity
  8
0
100
AcDbLine
 10
44.92199999999999
 20
24.92
 30
0.0
 11
44.92199999999999
 21
29.75
 31
0.0
  0
LINE
  5
14B
330
1E
100
AcDbEntity
  8
0
100
AcDbLine
 10
44.92199999999999
 20
24.92
 30
0.0
 11
44.92199999999999
 21
20.28
 31
0.0
  0
LINE
  5
14C
330
1E
100
AcDbEntity
  8
0
100
AcDbLine
 10
44.92199999999999
 20
29.75
 30
0.0
 11
44.92199999999999
 21
34.84
 31
0.0
  0
LINE
  5
14D
330
1E
100
AcDbEntity
  8
0
100
AcDbLine
 10
44.92199999999999
 20
29.75
 30
0.0
 11
44.92199999999999
 21
24.92
 31
0.0
  0
LINE
  5
14E
330
1E
100
AcDbEntity
  8
0
100
AcDbLine
 10
44.92199999999999
 20
34.84
 30
0.0
 11
44.92199999999999
 21
40.0
 31
0.0
  0
LINE
  5
14F
330
1E
100
AcDbEntity
  8
0
100
AcDbLine
 10
44.92199999999999
 20
34.84
 30
0.0
 11
44.92199999999999
 21
29.75
 31
0.0
  0
LINE
  5
150
330
1E
100
AcDbEntity
  8
0
100
AcDbLine
 10
44.92199999999999
 20
152.72
 30
0.0
 11
44.92199999999999
 21
157.03
 31
0.0
  0
LINE
  5
151
330
1E
100
AcDbEntity
  8
0
100
AcDbLine
 10
44.92199999999999
 20
152.72
 30
0.0
 11
44.92199999999999
 21
148.08
 31
0.0
  0
LINE
  5
152
330
1E
100
AcDbEntity
  8
0
100
AcDbLine
 10
44.92199999999999
 20
148.08
 30
0.0
 11
44.92199999999999
 21
152.72
 31
0.0
  0
LINE
  5
153
330
1E
100
AcDbEntity
  8
0
100
AcDbLine
 10
44.92199999999999
 20
148.08
 30
0.0
 11
44.92199999999999
 21
143.25
 31
0.0
  0
LINE
  5
154
330
1E
100
AcDbEntity
  8
0
100
AcDbLine
 10
44.92199999999999
 20
143.25
 30
0.0
 11
44.92199999999999
 21
148.08
 31
0.0
  0
LINE
  5
155
330
1E
100
AcDbEntity
  8
0
100
AcDbLine
 10
44.92199999999999
 20
143.25
 30
0.0
 11
44.92199999999999
 21
138.1599999999999
 31
0.0
  0
LINE
  5
156
330
1E
100
AcDbEntity
  8
0
100
AcDbLine
 10
44.92199999999999
 20
138.1599999999999
 30
0.0
 11
44.92199999999999
 21
143.25
 31
0.0
  0
LINE
  5
157
330
1E
100
AcDbEntity
  8
0
100
AcDbLine
 10
44.92199999999999
 20
138.1599999999999
 30
0.0
 11
44.92199999999999
 21
133.0
 31
0.0
  0
LINE
  5
158
330
1E
100
AcDbEntity
  8
0
100
AcDbLine
 10
44.92199999999999
 20
133.0
 30
0.0
 11
44.92199999999999
 21
138.1599999999999
 31
0.0
  0
LINE
  5
159
330
1E
100
AcDbEntity
  8
0
100
AcDbLine
 10
44.92199999999999
 20
133.0
 30
0.0
 11
44.92199999999999
 21
40.0
 31
0.0
  0
LINE
  5
15A
330
1E
100
AcDbEntity
  8
0
100
AcDbLine
 10
44.92199999999999
 20
40.0
 30
0.0
 11
44.92199999999999
 21
133.0
 31
0.0
  0
LINE
  5
15B
330
1E
100
AcDbEntity
  8
0
100
AcDbLine
 10
44.92199999999999
 20
40.0
 30
0.0
 11
44.92199999999999
 21
34.84
 31
0.0
  0
LINE
  5
15C
330
1E
100
AcDbEntity
  8
0
100
AcDbLine
 10
44.42199999999999
 20
0.0000000000000129
 30
0.0
 11
44.42199999999999
 21
0.313178000000013
 31
0.0
  0
LINE
  5
15D
330
1E
100
AcDbEntity
  8
0
100
AcDbLine
 10
44.92199999999999
 20
157.03
 30
0.0
 11
44.92199999999999
 21
160.8999999999999
 31
0.0
  0
LINE
  5
15E
330
1E
100
AcDbEntity
  8
0
100
AcDbLine
 10
44.92199999999999
 20
157.03
 30
0.0
 11
44.92199999999999
 21
152.72
 31
0.0
  0
LINE
  5
15F
330
1E
100
AcDbEntity
  8
0
100
AcDbLine
 10
44.42199999999999
 20
157.365
 30
0.0
 11
44.42199999999999
 21
153.017
 31
0.0
  0
LINE
  5
160
330
1E
100
AcDbEntity
  8
0
100
AcDbLine
 10
44.42199999999999
 20
157.365
 30
0.0
 11
44.42199999999999
 21
161.3
 31
0.0
  0
LINE
  5
161
330
1E
100
AcDbEntity
  8
0
100
AcDbLine
 10
44.92199999999999
 20
154.1494443180689
 30
0.0
 11
48.0426
 21
158.2889999999999
 31
0.0
  0
LINE
  5
162
330
1E
100
AcDbEntity
  8
0
100
AcDbLine
 10
44.92199999999999
 20
153.53779518244
 30
0.0
 11
48.45539999999999
 21
158.041
 31
0.0
  0
LINE
  5
163
330
1E
100
AcDbEntity
  8
0
100
AcDbLine
 10
44.92199999999999
 20
160.8999999999999
 30
0.0
 11
44.92199999999999
 21
164.29
 31
0.0
  0
LINE
  5
164
330
1E
100
AcDbEntity
  8
0
100
AcDbLine
 10
44.92199999999999
 20
160.8999999999999
 30
0.0
 11
44.92199999999999
 21
157.03
 31
0.0
  0
LINE
  5
165
330
1E
100
AcDbEntity
  8
0
100
AcDbLine
 10
44.42199999999999
 20
164.7339999999999
 30
0.0
 11
44.42199999999999
 21
161.3
 31
0.0
  0
LINE
  5
166
330
1E
100
AcDbEntity
  8
0
100
AcDbLine
 10
44.42199999999999
 20
164.7339999999999
 30
0.0
 11
44.42199999999999
 21
167.6059999999999
 31
0.0
  0
LINE
  5
167
330
1E
100
AcDbEntity
  8
0
100
AcDbLine
 10
44.92199999999999
 20
164.29
 30
0.0
 11
44.92199999999999
 21
167.1599999999999
 31
0.0
  0
LINE
  5
168
330
1E
100
AcDbEntity
  8
0
100
AcDbLine
 10
44.92199999999999
 20
164.29
 30
0.0
 11
44.92199999999999
 21
160.8999999999999
 31
0.0
  0
LINE
  5
169
330
1E
100
AcDbEntity
  8
0
100
AcDbLine
 10
44.92199999999999
 20
169.0
 30
0.0
 11
66.547
 21
169.0
 31
0.0
  0
LINE
  5
16A
330
1E
100
AcDbEntity
  8
0
100
AcDbLine
 10
44.42199999999999
 20
167.6059999999999
 30
0.0
 11
44.42199999999999
 21
164.7339999999999
 31
0.0
  0
LINE
  5
16B
330
1E
100
AcDbEntity
  8
0
100
AcDbLine
 10
44.42199999999999
 20
167.6059999999999
 30
0.0
 11
44.42199999999999
 21
169.925
 31
0.0
  0
LINE
  5
16C
330
1E
100
AcDbEntity
  8
0
100
AcDbLine
 10
44.92199999999999
 20
167.1599999999999
 30
0.0
 11
44.92199999999999
 21
169.4499999999999
 31
0.0
  0
LINE
  5
16D
330
1E
100
AcDbEntity
  8
0
100
AcDbLine
 10
44.92199999999999
 20
167.1599999999999
 30
0.0
 11
44.92199999999999
 21
164.29
 31
0.0
  0
LINE
  5
16E
330
1E
100
AcDbEntity
  8
0
100
AcDbLine
 10
44.42199999999999
 20
169.925
 30
0.0
 11
44.42199999999999
 21
167.6059999999999
 31
0.0
  0
LINE
  5
16F
330
1E
100
AcDbEntity
  8
0
100
AcDbLine
 10
44.42199999999999
 20
169.925
 30
0.0
 11
44.42199999999999
 21
171.5819999999999
 31
0.0
  0
LINE
  5
170
330
1E
100
AcDbEntity
  8
0
100
AcDbLine
 10
44.92199999999999
 20
169.4499999999999
 30
0.0
 11
44.92199999999999
 21
171.1
 31
0.0
  0
LINE
  5
171
330
1E
100
AcDbEntity
  8
0
100
AcDbLine
 10
44.92199999999999
 20
169.4499999999999
 30
0.0
 11
44.92199999999999
 21
167.1599999999999
 31
0.0
  0
LINE
  5
172
330
1E
100
AcDbEntity
  8
0
100
AcDbLine
 10
44.42199999999999
 20
171.5819999999999
 30
0.0
 11
44.42199999999999
 21
169.925
 31
0.0
  0
LINE
  5
173
330
1E
100
AcDbEntity
  8
0
100
AcDbLine
 10
44.42199999999999
 20
171.5819999999999
 30
0.0
 11
44.42199999999999
 21
172.687
 31
0.0
  0
LINE
  5
174
330
1E
100
AcDbEntity
  8
0
100
AcDbLine
 10
44.92199999999999
 20
171.1
 30
0.0
 11
44.92199999999999
 21
172.13
 31
0.0
  0
LINE
  5
175
330
1E
100
AcDbEntity
  8
0
100
AcDbLine
 10
44.92199999999999
 20
171.1
 30
0.0
 11
44.92199999999999
 21
169.4499999999999
 31
0.0
  0
LINE
  5
176
330
1E
100
AcDbEntity
  8
0
100
AcDbLine
 10
44.42199999999999
 20
172.687
 30
0.0
 11
44.42199999999999
 21
171.5819999999999
 31
0.0
  0
LINE
  5
177
330
1E
100
AcDbEntity
  8
0
100
AcDbLine
 10
44.42199999999999
 20
172.687
 30
0.0
 11
44.42199999999999
 21
173.0
 31
0.0
  0
LINE
  5
178
330
1E
100
AcDbEntity
  8
0
100
AcDbLine
 10
44.92199999999999
 20
172.13
 30
0.0
 11
44.92199999999999
 21
172.5
 31
0.0
  0
LINE
  5
179
330
1E
100
AcDbEntity
  8
0
100
AcDbLine
 10
44.92199999999999
 20
172.13
 30
0.0
 11
44.92199999999999
 21
171.1
 31
0.0
  0
LINE
  5
17A
330
1E
100
AcDbEntity
  8
0
100
AcDbLine
 10
44.42199999999999
 20
161.3
 30
0.0
 11
44.42199999999999
 21
157.365
 31
0.0
  0
LINE
  5
17B
330
1E
100
AcDbEntity
  8
0
100
AcDbLine
 10
44.42199999999999
 20
161.3
 30
0.0
 11
44.42199999999999
 21
164.7339999999999
 31
0.0
  0
LINE
  5
17C
330
1E
100
AcDbEntity
  8
0
100
AcDbLine
 10
44.92199999999999
 20
172.9129999999999
 30
0.0
 11
44.92199999999999
 21
173.9799999999999
 31
0.0
  0
LINE
  5
17D
330
1E
100
AcDbEntity
  8
0
100
AcDbLine
 10
44.92199999999999
 20
172.9129999999999
 30
0.0
 11
44.92199999999999
 21
172.5
 31
0.0
  0
LINE
  5
17E
330
1E
100
AcDbEntity
  8
0
100
AcDbLine
 10
28.422
 20
173.0
 30
0.0
 11
28.422
 21
185.954
 31
0.0
  0
LINE
  5
17F
330
1E
100
AcDbEntity
  8
0
100
AcDbLine
 10
23.42199999999999
 20
173.0
 30
0.0
 11
23.42199999999999
 21
185.954
 31
0.0
  0
LINE
  5
180
330
1E
100
AcDbEntity
  8
0
100
AcDbLine
 10
23.42199999999999
 20
173.0
 30
0.0
 11
23.42199999999999
 21
173.0979999999999
 31
0.0
  0
LINE
  5
181
330
1E
100
AcDbEntity
  8
0
100
AcDbLine
 10
44.92199999999999
 20
172.5
 30
0.0
 11
44.92199999999999
 21
172.9129999999999
 31
0.0
  0
LINE
  5
182
330
1E
100
AcDbEntity
  8
0
100
AcDbLine
 10
44.92199999999999
 20
172.5
 30
0.0
 11
44.92199999999999
 21
172.13
 31
0.0
  0
LINE
  5
183
330
1E
100
AcDbEntity
  8
0
100
AcDbLine
 10
23.42199999999999
 20
173.0979999999999
 30
0.0
 11
23.42199999999999
 21
185.954
 31
0.0
  0
LINE
  5
184
330
1E
100
AcDbEntity
  8
0
100
AcDbLine
 10
23.42199999999999
 20
173.0979999999999
 30
0.0
 11
23.42199999999999
 21
173.0
 31
0.0
  0
LINE
  5
185
330
1E
100
AcDbEntity
  8
0
100
AcDbLine
 10
28.422
 20
185.954
 30
0.0
 11
28.422
 21
173.0
 31
0.0
  0
LINE
  5
186
330
1E
100
AcDbEntity
  8
0
100
AcDbLine
 10
25.922
 20
185.954
 30
0.0
 11
28.422
 21
185.954
 31
0.0
  0
LINE
  5
187
330
1E
100
AcDbEntity
  8
0
100
AcDbLine
 10
23.42199999999999
 20
185.954
 30
0.0
 11
25.922
 21
185.954
 31
0.0
  0
LINE
  5
188
330
1E
100
AcDbEntity
  8
0
100
AcDbLine
 10
23.42199999999999
 20
185.954
 30
0.0
 11
23.42199999999999
 21
173.0979999999999
 31
0.0
  0
LINE
  5
189
330
1E
100
AcDbEntity
  8
0
100
AcDbLine
 10
23.42199999999999
 20
185.954
 30
0.0
 11
23.42199999999999
 21
173.0
 31
0.0
  0
LINE
  5
18A
330
1E
100
AcDbEntity
  8
0
100
AcDbLine
 10
44.42199999999999
 20
181.9209999999999
 30
0.0
 11
44.42199999999999
 21
179.685
 31
0.0
  0
LINE
  5
18B
330
1E
100
AcDbEntity
  8
0
100
AcDbLine
 10
44.42199999999999
 20
181.9209999999999
 30
0.0
 11
44.42199999999999
 21
186.4059999999999
 31
0.0
  0
LINE
  5
18C
330
1E
100
AcDbEntity
  8
0
100
AcDbLine
 10
44.42199999999999
 20
186.4059999999999
 30
0.0
 11
44.42199999999999
 21
181.9209999999999
 31
0.0
  0
LINE
  5
18D
330
1E
100
AcDbEntity
  8
0
100
AcDbLine
 10
44.42199999999999
 20
186.4059999999999
 30
0.0
 11
44.42199999999999
 21
190.254
 31
0.0
  0
LINE
  5
18E
330
1E
100
AcDbEntity
  8
0
100
AcDbLine
 10
44.42199999999999
 20
190.254
 30
0.0
 11
44.42199999999999
 21
186.4059999999999
 31
0.0
  0
LINE
  5
18F
330
1E
100
AcDbEntity
  8
0
100
AcDbLine
 10
44.42199999999999
 20
190.254
 30
0.0
 11
44.42199999999999
 21
194.487
 31
0.0
  0
LINE
  5
190
330
1E
100
AcDbEntity
  8
0
100
AcDbLine
 10
44.42199999999999
 20
194.487
 30
0.0
 11
44.42199999999999
 21
190.254
 31
0.0
  0
LINE
  5
191
330
1E
100
AcDbEntity
  8
0
100
AcDbLine
 10
44.42199999999999
 20
194.487
 30
0.0
 11
44.42199999999999
 21
198.0449999999999
 31
0.0
  0
LINE
  5
192
330
1E
100
AcDbEntity
  8
0
100
AcDbLine
 10
44.42199999999999
 20
198.0449999999999
 30
0.0
 11
44.42199999999999
 21
194.487
 31
0.0
  0
LINE
  5
193
330
1E
100
AcDbEntity
  8
0
100
AcDbLine
 10
44.42199999999999
 20
198.0449999999999
 30
0.0
 11
44.42199999999999
 21
201.1279999999999
 31
0.0
  0
LINE
  5
194
330
1E
100
AcDbEntity
  8
0
100
AcDbLine
 10
44.42199999999999
 20
209.0
 30
0.0
 11
44.42199999999999
 21
208.557
 31
0.0
  0
LINE
  5
195
330
1E
100
AcDbEntity
  8
0
100
AcDbLine
 10
44.42199999999999
 20
209.0
 30
0.0
 11
44.92199999999999
 21
208.4999999999999
 31
0.0
  0
LINE
  5
196
330
1E
100
AcDbEntity
  8
0
100
AcDbLine
 10
44.42199999999999
 20
208.557
 30
0.0
 11
44.42199999999999
 21
207.529
 31
0.0
  0
LINE
  5
197
330
1E
100
AcDbEntity
  8
0
100
AcDbLine
 10
44.42199999999999
 20
208.557
 30
0.0
 11
44.42199999999999
 21
209.0
 31
0.0
  0
LINE
  5
198
330
1E
100
AcDbEntity
  8
0
100
AcDbLine
 10
44.42199999999999
 20
207.529
 30
0.0
 11
44.42199999999999
 21
205.8699999999999
 31
0.0
  0
LINE
  5
199
330
1E
100
AcDbEntity
  8
0
100
AcDbLine
 10
44.42199999999999
 20
207.529
 30
0.0
 11
44.42199999999999
 21
208.557
 31
0.0
  0
LINE
  5
19A
330
1E
100
AcDbEntity
  8
0
100
AcDbLine
 10
44.42199999999999
 20
205.8699999999999
 30
0.0
 11
44.42199999999999
 21
203.894
 31
0.0
  0
LINE
  5
19B
330
1E
100
AcDbEntity
  8
0
100
AcDbLine
 10
44.42199999999999
 20
205.8699999999999
 30
0.0
 11
44.42199999999999
 21
207.529
 31
0.0
  0
LINE
  5
19C
330
1E
100
AcDbEntity
  8
0
100
AcDbLine
 10
44.42199999999999
 20
203.894
 30
0.0
 11
44.42199999999999
 21
201.1279999999999
 31
0.0
  0
LINE
  5
19D
330
1E
100
AcDbEntity
  8
0
100
AcDbLine
 10
44.42199999999999
 20
203.894
 30
0.0
 11
44.42199999999999
 21
205.8699999999999
 31
0.0
  0
LINE
  5
19E
330
1E
100
AcDbEntity
  8
0
100
AcDbLine
 10
44.42199999999999
 20
201.1279999999999
 30
0.0
 11
44.42199999999999
 21
198.0449999999999
 31
0.0
  0
LINE
  5
19F
330
1E
100
AcDbEntity
  8
0
100
AcDbLine
 10
44.42199999999999
 20
201.1279999999999
 30
0.0
 11
44.42199999999999
 21
203.894
 31
0.0
  0
LINE
  5
1A0
330
1E
100
AcDbEntity
  8
0
100
AcDbLine
 10
44.42199999999999
 20
179.685
 30
0.0
 11
44.42199999999999
 21
177.418
 31
0.0
  0
LINE
  5
1A1
330
1E
100
AcDbEntity
  8
0
100
AcDbLine
 10
44.42199999999999
 20
179.685
 30
0.0
 11
44.42199999999999
 21
181.9209999999999
 31
0.0
  0
LINE
  5
1A2
330
1E
100
AcDbEntity
  8
0
100
AcDbLine
 10
44.42199999999999
 20
177.418
 30
0.0
 11
44.42199999999999
 21
175.657
 31
0.0
  0
LINE
  5
1A3
330
1E
100
AcDbEntity
  8
0
100
AcDbLine
 10
44.42199999999999
 20
177.418
 30
0.0
 11
44.42199999999999
 21
179.685
 31
0.0
  0
LINE
  5
1A4
330
1E
100
AcDbEntity
  8
0
100
AcDbLine
 10
44.42199999999999
 20
175.657
 30
0.0
 11
44.42199999999999
 21
174.3359999999999
 31
0.0
  0
LINE
  5
1A5
330
1E
100
AcDbEntity
  8
0
100
AcDbLine
 10
44.42199999999999
 20
175.657
 30
0.0
 11
44.42199999999999
 21
177.418
 31
0.0
  0
LINE
  5
1A6
330
1E
100
AcDbEntity
  8
0
100
AcDbLine
 10
44.42199999999999
 20
174.3359999999999
 30
0.0
 11
44.42199999999999
 21
173.358
 31
0.0
  0
LINE
  5
1A7
330
1E
100
AcDbEntity
  8
0
100
AcDbLine
 10
44.42199999999999
 20
174.3359999999999
 30
0.0
 11
44.42199999999999
 21
175.657
 31
0.0
  0
LINE
  5
1A8
330
1E
100
AcDbEntity
  8
0
100
AcDbLine
 10
44.92199999999999
 20
179.4309999999999
 30
0.0
 11
44.92199999999999
 21
181.519
 31
0.0
  0
LINE
  5
1A9
330
1E
100
AcDbEntity
  8
0
100
AcDbLine
 10
44.92199999999999
 20
179.4309999999999
 30
0.0
 11
44.92199999999999
 21
177.1809999999999
 31
0.0
  0
LINE
  5
1AA
330
1E
100
AcDbEntity
  8
0
100
AcDbLine
 10
44.92199999999999
 20
181.519
 30
0.0
 11
44.92199999999999
 21
186.0829999999999
 31
0.0
  0
LINE
  5
1AB
330
1E
100
AcDbEntity
  8
0
100
AcDbLine
 10
44.92199999999999
 20
181.519
 30
0.0
 11
44.92199999999999
 21
179.4309999999999
 31
0.0
  0
LINE
  5
1AC
330
1E
100
AcDbEntity
  8
0
100
AcDbLine
 10
44.92199999999999
 20
186.0829999999999
 30
0.0
 11
44.92199999999999
 21
189.8529999999999
 31
0.0
  0
LINE
  5
1AD
330
1E
100
AcDbEntity
  8
0
100
AcDbLine
 10
44.92199999999999
 20
186.0829999999999
 30
0.0
 11
44.92199999999999
 21
181.519
 31
0.0
  0
LINE
  5
1AE
330
1E
100
AcDbEntity
  8
0
100
AcDbLine
 10
44.92199999999999
 20
189.8529999999999
 30
0.0
 11
44.92199999999999
 21
194.085
 31
0.0
  0
LINE
  5
1AF
330
1E
100
AcDbEntity
  8
0
100
AcDbLine
 10
44.92199999999999
 20
189.8529999999999
 30
0.0
 11
44.92199999999999
 21
186.0829999999999
 31
0.0
  0
LINE
  5
1B0
330
1E
100
AcDbEntity
  8
0
100
AcDbLine
 10
44.92199999999999
 20
194.085
 30
0.0
 11
44.92199999999999
 21
197.6029999999999
 31
0.0
  0
LINE
  5
1B1
330
1E
100
AcDbEntity
  8
0
100
AcDbLine
 10
44.92199999999999
 20
194.085
 30
0.0
 11
44.92199999999999
 21
189.8529999999999
 31
0.0
  0
LINE
  5
1B2
330
1E
100
AcDbEntity
  8
0
100
AcDbLine
 10
44.92199999999999
 20
205.0
 30
0.0
 11
66.547
 21
205.0
 31
0.0
  0
LINE
  5
1B3
330
1E
100
AcDbEntity
  8
0
100
AcDbLine
 10
44.92199999999999
 20
208.4999999999999
 30
0.0
 11
44.92199999999999
 21
208.162
 31
0.0
  0
LINE
  5
1B4
330
1E
100
AcDbEntity
  8
0
100
AcDbLine
 10
44.92199999999999
 20
208.162
 30
0.0
 11
44.92199999999999
 21
208.4999999999999
 31
0.0
  0
LINE
  5
1B5
330
1E
100
AcDbEntity
  8
0
100
AcDbLine
 10
44.92199999999999
 20
208.162
 30
0.0
 11
44.92199999999999
 21
207.0549999999999
 31
0.0
  0
LINE
  5
1B6
330
1E
100
AcDbEntity
  8
0
100
AcDbLine
 10
44.92199999999999
 20
207.0549999999999
 30
0.0
 11
44.92199999999999
 21
208.162
 31
0.0
  0
LINE
  5
1B7
330
1E
100
AcDbEntity
  8
0
100
AcDbLine
 10
44.92199999999999
 20
207.0549999999999
 30
0.0
 11
44.92199999999999
 21
205.3949999999999
 31
0.0
  0
LINE
  5
1B8
330
1E
100
AcDbEntity
  8
0
100
AcDbLine
 10
44.92199999999999
 20
205.3949999999999
 30
0.0
 11
44.92199999999999
 21
207.0549999999999
 31
0.0
  0
LINE
  5
1B9
330
1E
100
AcDbEntity
  8
0
100
AcDbLine
 10
44.92199999999999
 20
205.3949999999999
 30
0.0
 11
44.92199999999999
 21
203.499
 31
0.0
  0
LINE
  5
1BA
330
1E
100
AcDbEntity
  8
0
100
AcDbLine
 10
44.92199999999999
 20
203.499
 30
0.0
 11
44.92199999999999
 21
205.3949999999999
 31
0.0
  0
LINE
  5
1BB
330
1E
100
AcDbEntity
  8
0
100
AcDbLine
 10
44.92199999999999
 20
203.499
 30
0.0
 11
44.92199999999999
 21
200.654
 31
0.0
  0
LINE
  5
1BC
330
1E
100
AcDbEntity
  8
0
100
AcDbLine
 10
44.92199999999999
 20
200.654
 30
0.0
 11
44.92199999999999
 21
203.499
 31
0.0
  0
LINE
  5
1BD
330
1E
100
AcDbEntity
  8
0
100
AcDbLine
 10
44.92199999999999
 20
200.654
 30
0.0
 11
44.92199999999999
 21
197.6029999999999
 31
0.0
  0
LINE
  5
1BE
330
1E
100
AcDbEntity
  8
0
100
AcDbLine
 10
44.92199999999999
 20
197.6029999999999
 30
0.0
 11
44.92199999999999
 21
200.654
 31
0.0
  0
LINE
  5
1BF
330
1E
100
AcDbEntity
  8
0
100
AcDbLine
 10
44.92199999999999
 20
197.6029999999999
 30
0.0
 11
44.92199999999999
 21
194.085
 31
0.0
  0
LINE
  5
1C0
330
1E
100
AcDbEntity
  8
0
100
AcDbLine
 10
44.92199999999999
 20
177.1809999999999
 30
0.0
 11
44.92199999999999
 21
179.4309999999999
 31
0.0
  0
LINE
  5
1C1
330
1E
100
AcDbEntity
  8
0
100
AcDbLine
 10
44.92199999999999
 20
177.1809999999999
 30
0.0
 11
44.92199999999999
 21
175.324
 31
0.0
  0
LINE
  5
1C2
330
1E
100
AcDbEntity
  8
0
100
AcDbLine
 10
44.92199999999999
 20
175.324
 30
0.0
 11
44.92199999999999
 21
177.1809999999999
 31
0.0
  0
LINE
  5
1C3
330
1E
100
AcDbEntity
  8
0
100
AcDbLine
 10
44.92199999999999
 20
175.324
 30
0.0
 11
44.92199999999999
 21
173.9799999999999
 31
0.0
  0
LINE
  5
1C4
330
1E
100
AcDbEntity
  8
0
100
AcDbLine
 10
44.92199999999999
 20
173.9799999999999
 30
0.0
 11
44.92199999999999
 21
175.324
 31
0.0
  0
LINE
  5
1C5
330
1E
100
AcDbEntity
  8
0
100
AcDbLine
 10
44.92199999999999
 20
173.9799999999999
 30
0.0
 11
44.92199999999999
 21
172.9129999999999
 31
0.0
  0
LINE
  5
1C6
330
1E
100
AcDbEntity
  8
0
100
AcDbLine
 10
44.42199999999999
 20
173.358
 30
0.0
 11
44.42199999999999
 21
173.0
 31
0.0
  0
LINE
  5
1C7
330
1E
100
AcDbEntity
  8
0
100
AcDbLine
 10
44.42199999999999
 20
173.358
 30
0.0
 11
44.42199999999999
 21
174.3359999999999
 31
0.0
  0
LINE
  5
1C8
330
1E
100
AcDbEntity
  8
0
100
AcDbLine
 10
44.42199999999999
 20
173.0
 30
0.0
 11
44.92199999999999
 21
172.5
 31
0.0
  0
LINE
  5
1C9
330
1E
100
AcDbEntity
  8
0
100
AcDbLine
 10
44.42199999999999
 20
173.0
 30
0.0
 11
44.42199999999999
 21
172.687
 31
0.0
  0
LINE
  5
1CA
330
1E
100
AcDbEntity
  8
0
100
AcDbLine
 10
44.42199999999999
 20
173.0
 30
0.0
 11
44.42199999999999
 21
173.358
 31
0.0
  0
LINE
  5
1CB
330
1E
100
AcDbEntity
  8
0
100
AcDbLine
 10
50.6014
 20
164.397
 30
0.0
 11
51.23430378615779
 21
169.0
 31
0.0
  0
LINE
  5
1CC
330
1E
100
AcDbEntity
  8
0
100
AcDbLine
 10
48.0426
 20
158.2889999999999
 30
0.0
 11
50.6014
 21
164.397
 31
0.0
  0
LINE
  5
1CD
330
1E
100
AcDbEntity
  8
0
100
AcDbLine
 10
66.547
 20
182.3709999999999
 30
0.0
 11
66.547
 21
187.0
 31
0.0
  0
LINE
  5
1CE
330
1E
100
AcDbEntity
  8
0
100
AcDbLine
 10
66.547
 20
182.3709999999999
 30
0.0
 11
66.547
 21
178.029
 31
0.0
  0
LINE
  5
1CF
330
1E
100
AcDbEntity
  8
0
100
AcDbLine
 10
66.547
 20
178.029
 30
0.0
 11
66.547
 21
182.3709999999999
 31
0.0
  0
LINE
  5
1D0
330
1E
100
AcDbEntity
  8
0
100
AcDbLine
 10
66.547
 20
178.029
 30
0.0
 11
66.547
 21
174.314
 31
0.0
  0
LINE
  5
1D1
330
1E
100
AcDbEntity
  8
0
100
AcDbLine
 10
66.547
 20
174.314
 30
0.0
 11
66.547
 21
178.029
 31
0.0
  0
LINE
  5
1D2
330
1E
100
AcDbEntity
  8
0
100
AcDbLine
 10
66.547
 20
174.314
 30
0.0
 11
66.547
 21
171.4
 31
0.0
  0
LINE
  5
1D3
330
1E
100
AcDbEntity
  8
0
100
AcDbLine
 10
66.547
 20
171.4
 30
0.0
 11
66.547
 21
174.314
 31
0.0
  0
LINE
  5
1D4
330
1E
100
AcDbEntity
  8
0
100
AcDbLine
 10
66.547
 20
171.4
 30
0.0
 11
66.547
 21
169.629
 31
0.0
  0
LINE
  5
1D5
330
1E
100
AcDbEntity
  8
0
100
AcDbLine
 10
66.547
 20
169.629
 30
0.0
 11
66.547
 21
171.4
 31
0.0
  0
LINE
  5
1D6
330
1E
100
AcDbEntity
  8
0
100
AcDbLine
 10
66.547
 20
169.629
 30
0.0
 11
66.547
 21
169.0
 31
0.0
  0
LINE
  5
1D7
330
1E
100
AcDbEntity
  8
0
100
AcDbLine
 10
66.547
 20
169.0
 30
0.0
 11
66.547
 21
169.629
 31
0.0
  0
LINE
  5
1D8
330
1E
100
AcDbEntity
  8
0
100
AcDbLine
 10
66.547
 20
169.0
 30
0.0
 11
66.92199999999999
 21
169.2859999999999
 31
0.0
  0
LINE
  5
1D9
330
1E
100
AcDbEntity
  8
0
100
AcDbLine
 10
66.547
 20
187.0
 30
0.0
 11
66.547
 21
191.629
 31
0.0
  0
LINE
  5
1DA
330
1E
100
AcDbEntity
  8
0
100
AcDbLine
 10
66.547
 20
187.0
 30
0.0
 11
66.547
 21
182.3709999999999
 31
0.0
  0
LINE
  5
1DB
330
1E
100
AcDbEntity
  8
0
100
AcDbLine
 10
66.547
 20
191.629
 30
0.0
 11
66.547
 21
195.9709999999999
 31
0.0
  0
LINE
  5
1DC
330
1E
100
AcDbEntity
  8
0
100
AcDbLine
 10
66.547
 20
191.629
 30
0.0
 11
66.547
 21
187.0
 31
0.0
  0
LINE
  5
1DD
330
1E
100
AcDbEntity
  8
0
100
AcDbLine
 10
66.547
 20
195.9709999999999
 30
0.0
 11
66.547
 21
199.6859999999999
 31
0.0
  0
LINE
  5
1DE
330
1E
100
AcDbEntity
  8
0
100
AcDbLine
 10
66.547
 20
195.9709999999999
 30
0.0
 11
66.547
 21
191.629
 31
0.0
  0
LINE
  5
1DF
330
1E
100
AcDbEntity
  8
0
100
AcDbLine
 10
66.547
 20
199.6859999999999
 30
0.0
 11
66.547
 21
202.5999999999999
 31
0.0
  0
LINE
  5
1E0
330
1E
100
AcDbEntity
  8
0
100
AcDbLine
 10
66.547
 20
199.6859999999999
 30
0.0
 11
66.547
 21
195.9709999999999
 31
0.0
  0
LINE
  5
1E1
330
1E
100
AcDbEntity
  8
0
100
AcDbLine
 10
66.92199999999999
 20
178.8
 30
0.0
 11
67.72199999999999
 21
180.1999999999999
 31
0.0
  0
LINE
  5
1E2
330
1E
100
AcDbEntity
  8
0
100
AcDbLine
 10
66.92199999999999
 20
182.4289999999999
 30
0.0
 11
66.92199999999999
 21
187.0
 31
0.0
  0
LINE
  5
1E3
330
1E
100
AcDbEntity
  8
0
100
AcDbLine
 10
66.92199999999999
 20
182.4289999999999
 30
0.0
 11
66.92199999999999
 21
178.2
 31
0.0
  0
LINE
  5
1E4
330
1E
100
AcDbEntity
  8
0
100
AcDbLine
 10
66.92199999999999
 20
178.2
 30
0.0
 11
66.92199999999999
 21
182.4289999999999
 31
0.0
  0
LINE
  5
1E5
330
1E
100
AcDbEntity
  8
0
100
AcDbLine
 10
66.92199999999999
 20
178.2
 30
0.0
 11
66.92199999999999
 21
174.4859999999999
 31
0.0
  0
LINE
  5
1E6
330
1E
100
AcDbEntity
  8
0
100
AcDbLine
 10
66.92199999999999
 20
174.4859999999999
 30
0.0
 11
66.92199999999999
 21
178.2
 31
0.0
  0
LINE
  5
1E7
330
1E
100
AcDbEntity
  8
0
100
AcDbLine
 10
66.92199999999999
 20
174.4859999999999
 30
0.0
 11
66.92199999999999
 21
171.6859999999999
 31
0.0
  0
LINE
  5
1E8
330
1E
100
AcDbEntity
  8
0
100
AcDbLine
 10
66.92199999999999
 20
171.6859999999999
 30
0.0
 11
66.92199999999999
 21
174.4859999999999
 31
0.0
  0
LINE
  5
1E9
330
1E
100
AcDbEntity
  8
0
100
AcDbLine
 10
66.92199999999999
 20
171.6859999999999
 30
0.0
 11
66.92199999999999
 21
169.914
 31
0.0
  0
LINE
  5
1EA
330
1E
100
AcDbEntity
  8
0
100
AcDbLine
 10
66.92199999999999
 20
169.914
 30
0.0
 11
66.92199999999999
 21
171.6859999999999
 31
0.0
  0
LINE
  5
1EB
330
1E
100
AcDbEntity
  8
0
100
AcDbLine
 10
66.92199999999999
 20
169.914
 30
0.0
 11
66.92199999999999
 21
169.2859999999999
 31
0.0
  0
LINE
  5
1EC
330
1E
100
AcDbEntity
  8
0
100
AcDbLine
 10
66.92199999999999
 20
169.2859999999999
 30
0.0
 11
66.92199999999999
 21
169.914
 31
0.0
  0
LINE
  5
1ED
330
1E
100
AcDbEntity
  8
0
100
AcDbLine
 10
66.92199999999999
 20
187.0
 30
0.0
 11
66.92199999999999
 21
191.5709999999999
 31
0.0
  0
LINE
  5
1EE
330
1E
100
AcDbEntity
  8
0
100
AcDbLine
 10
66.92199999999999
 20
187.0
 30
0.0
 11
66.92199999999999
 21
182.4289999999999
 31
0.0
  0
LINE
  5
1EF
330
1E
100
AcDbEntity
  8
0
100
AcDbLine
 10
66.92199999999999
 20
195.1999999999999
 30
0.0
 11
67.72199999999999
 21
193.8
 31
0.0
  0
LINE
  5
1F0
330
1E
100
AcDbEntity
  8
0
100
AcDbLine
 10
66.92199999999999
 20
191.5709999999999
 30
0.0
 11
66.92199999999999
 21
195.8
 31
0.0
  0
LINE
  5
1F1
330
1E
100
AcDbEntity
  8
0
100
AcDbLine
 10
66.92199999999999
 20
191.5709999999999
 30
0.0
 11
66.92199999999999
 21
187.0
 31
0.0
  0
LINE
  5
1F2
330
1E
100
AcDbEntity
  8
0
100
AcDbLine
 10
66.92199999999999
 20
195.8
 30
0.0
 11
66.92199999999999
 21
199.514
 31
0.0
  0
LINE
  5
1F3
330
1E
100
AcDbEntity
  8
0
100
AcDbLine
 10
66.92199999999999
 20
195.8
 30
0.0
 11
66.92199999999999
 21
191.5709999999999
 31
0.0
  0
LINE
  5
1F4
330
1E
100
AcDbEntity
  8
0
100
AcDbLine
 10
66.92199999999999
 20
199.514
 30
0.0
 11
66.92199999999999
 21
202.314
 31
0.0
  0
LINE
  5
1F5
330
1E
100
AcDbEntity
  8
0
100
AcDbLine
 10
66.92199999999999
 20
199.514
 30
0.0
 11
66.92199999999999
 21
195.8
 31
0.0
  0
LINE
  5
1F6
330
1E
100
AcDbEntity
  8
0
100
AcDbLine
 10
68.22199999999999
 20
184.0
 30
0.0
 11
74.0784
 21
184.0
 31
0.0
  0
LINE
  5
1F9
330
1E
100
AcDbEntity
  8
0
100
AcDbLine
 10
67.72199999999999
 20
180.1999999999999
 30
0.0
 11
68.22199999999999
 21
182.5
 31
0.0
  0
LINE
  5
1FA
330
1E
100
AcDbEntity
  8
0
100
AcDbLine
 10
74.6179
 20
183.0
 30
0.0
 11
135.5389999999999
 21
183.0
 31
0.0
  0
LINE
  5
1FB
330
1E
100
AcDbEntity
  8
0
100
AcDbLine
 10
136.078
 20
183.3999999999999
 30
0.0
 11
136.078
 21
187.0
 31
0.0
  0
LINE
  5
1FC
330
1E
100
AcDbEntity
  8
0
100
AcDbLine
 10
135.5389999999999
 20
183.0
 30
0.0
 11
136.078
 21
183.3999999999999
 31
0.0
  0
LINE
  5
1FD
330
1E
100
AcDbEntity
  8
0
100
AcDbLine
 10
135.5389999999999
 20
183.3999999999999
 30
0.0
 11
135.5389999999999
 21
187.0
 31
0.0
  0
LINE
  5
1FE
330
1E
100
AcDbEntity
  8
0
100
AcDbLine
 10
135.5389999999999
 20
183.3999999999999
 30
0.0
 11
136.078
 21
183.3999999999999
 31
0.0
  0
LINE
  5
1FF
330
1E
100
AcDbEntity
  8
0
100
AcDbLine
 10
74.6179
 20
183.3999999999999
 30
0.0
 11
74.6179
 21
187.0
 31
0.0
  0
LINE
  5
200
330
1E
100
AcDbEntity
  8
0
100
AcDbLine
 10
74.6179
 20
183.3999999999999
 30
0.0
 11
135.5389999999999
 21
183.3999999999999
 31
0.0
  0
LINE
  5
201
330
1E
100
AcDbEntity
  8
0
100
AcDbLine
 10
74.0784
 20
184.0749999999999
 30
0.0
 11
74.0784
 21
184.375
 31
0.0
  0
LINE
  5
202
330
1E
100
AcDbEntity
  8
0
100
AcDbLine
 10
74.0784
 20
184.375
 30
0.0
 11
74.0784
 21
184.8249999999999
 31
0.0
  0
LINE
  5
203
330
1E
100
AcDbEntity
  8
0
100
AcDbLine
 10
74.0784
 20
184.0
 30
0.0
 11
74.0784
 21
183.3999999999999
 31
0.0
  0
LINE
  5
204
330
1E
100
AcDbEntity
  8
0
100
AcDbLine
 10
74.0784
 20
184.0
 30
0.0
 11
74.0784
 21
184.0749999999999
 31
0.0
  0
LINE
  5
205
330
1E
100
AcDbEntity
  8
0
100
AcDbLine
 10
74.0784
 20
183.3999999999999
 30
0.0
 11
74.0784
 21
187.0
 31
0.0
  0
LINE
  5
206
330
1E
100
AcDbEntity
  8
0
100
AcDbLine
 10
74.0784
 20
183.3999999999999
 30
0.0
 11
74.6179
 21
183.3999999999999
 31
0.0
  0
LINE
  5
207
330
1E
100
AcDbEntity
  8
0
100
AcDbLine
 10
74.0784
 20
183.3999999999999
 30
0.0
 11
74.6179
 21
183.0
 31
0.0
  0
LINE
  5
208
330
1E
100
AcDbEntity
  8
0
100
AcDbLine
 10
74.0784
 20
183.3999999999999
 30
0.0
 11
74.0784
 21
184.0
 31
0.0
  0
LINE
  5
20A
330
1E
100
AcDbEntity
  8
0
100
AcDbLine
 10
68.22199999999999
 20
190.0
 30
0.0
 11
74.0784
 21
190.0
 31
0.0
  0
LINE
  5
20D
330
1E
100
AcDbEntity
  8
0
100
AcDbLine
 10
67.72199999999999
 20
193.8
 30
0.0
 11
68.22199999999999
 21
191.5
 31
0.0
  0
LINE
  5
20E
330
1E
100
AcDbEntity
  8
0
100
AcDbLine
 10
74.0784
 20
184.8249999999999
 30
0.0
 11
74.0784
 21
185.5
 31
0.0
  0
LINE
  5
20F
330
1E
100
AcDbEntity
  8
0
100
AcDbLine
 10
74.0784
 20
185.5
 30
0.0
 11
74.0784
 21
186.25
 31
0.0
  0
LINE
  5
210
330
1E
100
AcDbEntity
  8
0
100
AcDbLine
 10
74.0784
 20
186.25
 30
0.0
 11
74.0784
 21
187.0
 31
0.0
  0
LINE
  5
211
330
1E
100
AcDbEntity
  8
0
100
AcDbLine
 10
136.078
 20
187.0
 30
0.0
 11
136.078
 21
183.3999999999999
 31
0.0
  0
LINE
  5
212
330
1E
100
AcDbEntity
  8
0
100
AcDbLine
 10
136.078
 20
187.0
 30
0.0
 11
136.078
 21
190.5999999999999
 31
0.0
  0
LINE
  5
213
330
1E
100
AcDbEntity
  8
0
100
AcDbLine
 10
135.5389999999999
 20
187.0
 30
0.0
 11
135.5389999999999
 21
183.3999999999999
 31
0.0
  0
LINE
  5
214
330
1E
100
AcDbEntity
  8
0
100
AcDbLine
 10
135.5389999999999
 20
187.0
 30
0.0
 11
135.5389999999999
 21
190.5999999999999
 31
0.0
  0
LINE
  5
215
330
1E
100
AcDbEntity
  8
0
100
AcDbLine
 10
74.6179
 20
187.0
 30
0.0
 11
74.6179
 21
183.3999999999999
 31
0.0
  0
LINE
  5
216
330
1E
100
AcDbEntity
  8
0
100
AcDbLine
 10
74.6179
 20
187.0
 30
0.0
 11
74.6179
 21
190.5999999999999
 31
0.0
  0
LINE
  5
217
330
1E
100
AcDbEntity
  8
0
100
AcDbLine
 10
74.0784
 20
189.925
 30
0.0
 11
74.0784
 21
190.0
 31
0.0
  0
LINE
  5
218
330
1E
100
AcDbEntity
  8
0
100
AcDbLine
 10
74.0784
 20
189.625
 30
0.0
 11
74.0784
 21
189.925
 31
0.0
  0
LINE
  5
219
330
1E
100
AcDbEntity
  8
0
100
AcDbLine
 10
74.0784
 20
189.175
 30
0.0
 11
74.0784
 21
189.625
 31
0.0
  0
LINE
  5
21A
330
1E
100
AcDbEntity
  8
0
100
AcDbLine
 10
74.0784
 20
188.4999999999999
 30
0.0
 11
74.0784
 21
189.175
 31
0.0
  0
LINE
  5
21B
330
1E
100
AcDbEntity
  8
0
100
AcDbLine
 10
74.0784
 20
187.7499999999999
 30
0.0
 11
74.0784
 21
188.4999999999999
 31
0.0
  0
LINE
  5
21C
330
1E
100
AcDbEntity
  8
0
100
AcDbLine
 10
74.0784
 20
190.0
 30
0.0
 11
74.0784
 21
190.5999999999999
 31
0.0
  0
LINE
  5
21D
330
1E
100
AcDbEntity
  8
0
100
AcDbLine
 10
136.078
 20
190.5999999999999
 30
0.0
 11
136.078
 21
187.0
 31
0.0
  0
LINE
  5
21E
330
1E
100
AcDbEntity
  8
0
100
AcDbLine
 10
135.5389999999999
 20
191.0
 30
0.0
 11
136.078
 21
190.5999999999999
 31
0.0
  0
LINE
  5
21F
330
1E
100
AcDbEntity
  8
0
100
AcDbLine
 10
135.5389999999999
 20
190.5999999999999
 30
0.0
 11
135.5389999999999
 21
187.0
 31
0.0
  0
LINE
  5
220
330
1E
100
AcDbEntity
  8
0
100
AcDbLine
 10
135.5389999999999
 20
190.5999999999999
 30
0.0
 11
136.078
 21
190.5999999999999
 31
0.0
  0
LINE
  5
221
330
1E
100
AcDbEntity
  8
0
100
AcDbLine
 10
74.6179
 20
190.5999999999999
 30
0.0
 11
74.6179
 21
187.0
 31
0.0
  0
LINE
  5
222
330
1E
100
AcDbEntity
  8
0
100
AcDbLine
 10
74.6179
 20
190.5999999999999
 30
0.0
 11
135.5389999999999
 21
190.5999999999999
 31
0.0
  0
LINE
  5
223
330
1E
100
AcDbEntity
  8
0
100
AcDbLine
 10
74.6179
 20
191.0
 30
0.0
 11
135.5389999999999
 21
191.0
 31
0.0
  0
LINE
  5
224
330
1E
100
AcDbEntity
  8
0
100
AcDbLine
 10
74.0784
 20
190.5999999999999
 30
0.0
 11
74.0784
 21
190.0
 31
0.0
  0
LINE
  5
225
330
1E
100
AcDbEntity
  8
0
100
AcDbLine
 10
74.0784
 20
190.5999999999999
 30
0.0
 11
74.0784
 21
187.0
 31
0.0
  0
LINE
  5
226
330
1E
100
AcDbEntity
  8
0
100
AcDbLine
 10
74.0784
 20
190.5999999999999
 30
0.0
 11
74.6179
 21
190.5999999999999
 31
0.0
  0
LINE
  5
227
330
1E
100
AcDbEntity
  8
0
100
AcDbLine
 10
74.0784
 20
190.5999999999999
 30
0.0
 11
74.6179
 21
191.0
 31
0.0
  0
LINE
  5
228
330
1E
100
AcDbEntity
  8
0
100
AcDbLine
 10
74.0784
 20
187.0
 30
0.0
 11
74.0784
 21
183.3999999999999
 31
0.0
  0
LINE
  5
229
330
1E
100
AcDbEntity
  8
0
100
AcDbLine
 10
74.0784
 20
187.0
 30
0.0
 11
74.0784
 21
190.5999999999999
 31
0.0
  0
LINE
  5
22A
330
1E
100
AcDbEntity
  8
0
100
AcDbLine
 10
74.0784
 20
187.0
 30
0.0
 11
74.0784
 21
187.7499999999999
 31
0.0
  0
LINE
  5
22C
330
1E
100
AcDbEntity
  8
0
100
AcDbLine
 10
66.92199999999999
 20
202.314
 30
0.0
 11
66.92199999999999
 21
204.0859999999999
 31
0.0
  0
LINE
  5
22D
330
1E
100
AcDbEntity
  8
0
100
AcDbLine
 10
66.92199999999999
 20
202.314
 30
0.0
 11
66.92199999999999
 21
199.514
 31
0.0
  0
LINE
  5
22E
330
1E
100
AcDbEntity
  8
0
100
AcDbLine
 10
66.92199999999999
 20
204.0859999999999
 30
0.0
 11
66.92199999999999
 21
204.714
 31
0.0
  0
LINE
  5
22F
330
1E
100
AcDbEntity
  8
0
100
AcDbLine
 10
66.92199999999999
 20
204.0859999999999
 30
0.0
 11
66.92199999999999
 21
202.314
 31
0.0
  0
LINE
  5
230
330
1E
100
AcDbEntity
  8
0
100
AcDbLine
 10
66.547
 20
202.5999999999999
 30
0.0
 11
66.547
 21
204.3709999999999
 31
0.0
  0
LINE
  5
231
330
1E
100
AcDbEntity
  8
0
100
AcDbLine
 10
66.547
 20
202.5999999999999
 30
0.0
 11
66.547
 21
199.6859999999999
 31
0.0
  0
LINE
  5
232
330
1E
100
AcDbEntity
  8
0
100
AcDbLine
 10
66.92199999999999
 20
204.714
 30
0.0
 11
66.92199999999999
 21
204.0859999999999
 31
0.0
  0
LINE
  5
233
330
1E
100
AcDbEntity
  8
0
100
AcDbLine
 10
66.547
 20
205.0
 30
0.0
 11
66.547
 21
204.3709999999999
 31
0.0
  0
LINE
  5
234
330
1E
100
AcDbEntity
  8
0
100
AcDbLine
 10
66.547
 20
205.0
 30
0.0
 11
66.92199999999999
 21
204.714
 31
0.0
  0
LINE
  5
235
330
1E
100
AcDbEntity
  8
0
100
AcDbLine
 10
66.547
 20
204.3709999999999
 30
0.0
 11
66.547
 21
205.0
 31
0.0
  0
LINE
  5
236
330
1E
100
AcDbEntity
  8
0
100
AcDbLine
 10
66.547
 20
204.3709999999999
 30
0.0
 11
66.547
 21
202.5999999999999
 31
0.0
  0
LINE
  5
237
330
1E
100
AcDbEntity
  8
0
100
AcDbLine
 10
51.01399999999999
 20
164.314
 30
0.0
 11
51.65038767574039
 21
169.0
 31
0.0
  0
LINE
  5
238
330
1E
100
AcDbEntity
  8
0
100
AcDbLine
 10
48.45539999999999
 20
158.041
 30
0.0
 11
51.01399999999999
 21
164.314
 31
0.0
  0
LINE
  5
239
330
1E
100
AcDbEntity
  8
0
100
AcDbLine
 10
7.422
 20
0.0000000000000117
 30
0.0
 11
44.42199999999999
 21
0.0000000000000117
 31
0.0
  0
LINE
  5
23A
330
1E
100
AcDbEntity
  8
0
100
AcDbLine
 10
6.922
 20
0.500000000000013
 30
0.0
 11
6.922
 21
0.870000000000013
 31
0.0
  0
LINE
  5
23F
330
1E
100
AcDbEntity
  8
0
100
AcDbLine
 10
68.22199999999999
 20
191.5
 30
0.0
 11
68.22199999999999
 21
182.5
 31
0.0
  0
ENDSEC
  0
SECTION
  2
OBJECTS
  0
DICTIONARY
  5
C
330
0
100
AcDbDictionary
281
     1
  3
ACAD_GROUP
350
D
  3
ACAD_LAYOUT
350
19
  3
ACAD_MLINESTYLE
350
16
  3
ACAD_PLOTSETTINGS
350
18
  3
ACAD_PLOTSTYLENAME
350
E
  3
AcDbVariableDictionary
350
241
  0
DICTIONARY
  5
D
102
{ACAD_REACTORS
330
C
102
}
330
C
100
AcDbDictionary
281
     1
  0
DICTIONARY
  5
19
102
{ACAD_REACTORS
330
C
102
}
330
C
100
AcDbDictionary
281
     1
  3
Layout1
350
1D
  3
Model
350
21
  0
DICTIONARY
  5
16
102
{ACAD_REACTORS
330
C
102
}
330
C
100
AcDbDictionary
281
     1
  3
Standard
350
17
  0
DICTIONARY
  5
18
102
{ACAD_REACTORS
330
C
102
}
330
C
100
AcDbDictionary
281
     1
  0
ACDBDICTIONARYWDFLT
  5
E
102
{ACAD_REACTORS
330
C
102
}
330
C
100
AcDbDictionary
281
     1
  3
Normal
350
F
100
AcDbDictionaryWithDefault
340
F
  0
DICTIONARY
  5
241
102
{ACAD_REACTORS
330
C
102
}
330
C
100
AcDbDictionary
281
     1
  3
DIMASSOC
350
242
  0
LAYOUT
  5
1D
102
{ACAD_REACTORS
330
19
102
}
330
19
100
AcDbPlotSettings
  1

  2
hp deskjet 980c series
  4

  6

 40
0.0
 41
0.0
 42
0.0
 43
0.0
 44
0.0
 45
0.0
 46
0.0
 47
0.0
 48
0.0
 49
0.0
140
0.0
141
0.0
142
1.0
143
1.0
 70
   688
 72
     0
 73
     0
 74
     5
  7

 75
    16
147
1.0
148
0.0
149
0.0
100
AcDbLayout
  1
Layout1
 70
     1
 71
     1
 10
0.0
 20
0.0
 11
12.0
 21
9.0
 12
0.0
 22
0.0
 32
0.0
 14
1.000000000000000E+20
 24
1.000000000000000E+20
 34
1.000000000000000E+20
 15
-1.000000000000000E+20
 25
-1.000000000000000E+20
 35
-1.000000000000000E+20
146
0.0
 13
0.0
 23
0.0
 33
0.0
 16
1.0
 26
0.0
 36
0.0
 17
0.0
 27
1.0
 37
0.0
 76
     0
330
1A
  0
LAYOUT
  5
21
102
{ACAD_REACTORS
330
19
102
}
330
19
100
AcDbPlotSettings
  1

  2
hp deskjet 980c series
  4

  6

 40
0.0
 41
0.0
 42
0.0
 43
0.0
 44
0.0
 45
0.0
 46
0.0
 47
0.0
 48
0.0
 49
0.0
140
0.0
141
0.0
142
1.0
143
1.0
 70
  1712
 72
     0
 73
     0
 74
     0
  7

 75
     0
147
1.0
148
0.0
149
0.0
100
AcDbLayout
  1
Model
 70
     1
 71
     0
 10
0.0
 20
0.0
 11
12.0
 21
9.0
 12
0.0
 22
0.0
 32
0.0
 14
0.0
 24
0.0
 34
0.0
 15
0.0
 25
0.0
 35
0.0
146
0.0
 13
0.0
 23
0.0
 33
0.0
 16
1.0
 26
0.0
 36
0.0
 17
0.0
 27
1.0
 37
0.0
 76
     0
330
1E
  0
MLINESTYLE
  5
17
102
{ACAD_REACTORS
330
16
102
}
330
16
100
AcDbMlineStyle
  2
STANDARD
 70
     0
  3

 62
   256
 51
90.0
 52
90.0
 71
     2
 49
0.5
 62
   256
  6
BYLAYER
 49
-0.5
 62
   256
  6
BYLAYER
  0
ACDBPLACEHOLDER
  5
F
102
{ACAD_REACTORS
330
E
102
}
330
E
  0
DICTIONARYVAR
  5
242
102
{ACAD_REACTORS
330
241
102
}
330
241
100
DictionaryVariables
280
     0
  1
1
  0
ENDSEC
  0
EOF
