  0
SECTION
  2
HEADER
  9
$ACADVER
  1
AC1015
  9
$ACADMAINTVER
 70
    13
  9
$DWGCODEPAGE
  3
ANSI_1252
  9
$INSBASE
 10
0.0
 20
0.0
 30
0.0
  9
$EXTMIN
 10
0.0000000000000117
 20
-0.0000000000000122
 30
0.0
  9
$EXTMAX
 10
209.0
 20
251.0
 30
0.0
  9
$LIMMIN
 10
0.0
 20
0.0
  9
$LIMMAX
 10
12.0
 20
9.0
  9
$ORTHOMODE
 70
     0
  9
$REGENMODE
 70
     1
  9
$FILLMODE
 70
     1
  9
$QTEXTMODE
 70
     0
  9
$MIRRTEXT
 70
     1
  9
$LTSCALE
 40
1.0
  9
$ATTMODE
 70
     1
  9
$TEXTSIZE
 40
0.2
  9
$TRACEWID
 40
0.05
  9
$TEXTSTYLE
  7
Standard
  9
$CLAYER
  8
0
  9
$CELTYPE
  6
Continuous
  9
$CECOLOR
 62
   256
  9
$CELTSCALE
 40
1.0
  9
$DISPSILH
 70
     0
  9
$DIMSCALE
 40
1.0
  9
$DIMASZ
 40
0.18
  9
$DIMEXO
 40
0.0625
  9
$DIMDLI
 40
0.38
  9
$DIMRND
 40
0.0
  9
$DIMDLE
 40
0.0
  9
$DIMEXE
 40
0.18
  9
$DIMTP
 40
0.0
  9
$DIMTM
 40
0.0
  9
$DIMTXT
 40
0.18
  9
$DIMCEN
 40
0.09
  9
$DIMTSZ
 40
0.0
  9
$DIMTOL
 70
     0
  9
$DIMLIM
 70
     0
  9
$DIMTIH
 70
     1
  9
$DIMTOH
 70
     1
  9
$DIMSE1
 70
     0
  9
$DIMSE2
 70
     0
  9
$DIMTAD
 70
     0
  9
$DIMZIN
 70
     0
  9
$DIMBLK
  1

  9
$DIMASO
 70
     1
  9
$DIMSHO
 70
     1
  9
$DIMPOST
  1

  9
$DIMAPOST
  1

  9
$DIMALT
 70
     0
  9
$DIMALTD
 70
     2
  9
$DIMALTF
 40
25.4
  9
$DIMLFAC
 40
1.0
  9
$DIMTOFL
 70
     0
  9
$DIMTVP
 40
0.0
  9
$DIMTIX
 70
     0
  9
$DIMSOXD
 70
     0
  9
$DIMSAH
 70
     0
  9
$DIMBLK1
  1

  9
$DIMBLK2
  1

  9
$DIMSTYLE
  2
Standard
  9
$DIMCLRD
 70
     0
  9
$DIMCLRE
 70
     0
  9
$DIMCLRT
 70
     0
  9
$DIMTFAC
 40
1.0
  9
$DIMGAP
 40
0.09
  9
$DIMJUST
 70
     0
  9
$DIMSD1
 70
     0
  9
$DIMSD2
 70
     0
  9
$DIMTOLJ
 70
     1
  9
$DIMTZIN
 70
     0
  9
$DIMALTZ
 70
     0
  9
$DIMALTTZ
 70
     0
  9
$DIMUPT
 70
     0
  9
$DIMDEC
 70
     4
  9
$DIMTDEC
 70
     4
  9
$DIMALTU
 70
     2
  9
$DIMALTTD
 70
     2
  9
$DIMTXSTY
  7
Standard
  9
$DIMAUNIT
 70
     0
  9
$DIMADEC
 70
     0
  9
$DIMALTRND
 40
0.0
  9
$DIMAZIN
 70
     0
  9
$DIMDSEP
 70
    46
  9
$DIMATFIT
 70
     3
  9
$DIMFRAC
 70
     0
  9
$DIMLDRBLK
  1

  9
$DIMLUNIT
 70
     2
  9
$DIMLWD
 70
    -2
  9
$DIMLWE
 70
    -2
  9
$DIMTMOVE
 70
     0
  9
$LUNITS
 70
     2
  9
$LUPREC
 70
     4
  9
$SKETCHINC
 40
0.1
  9
$FILLETRAD
 40
0.0
  9
$AUNITS
 70
     0
  9
$AUPREC
 70
     0
  9
$MENU
  1
.
  9
$ELEVATION
 40
0.0
  9
$PELEVATION
 40
0.0
  9
$THICKNESS
 40
0.0
  9
$LIMCHECK
 70
     0
  9
$CHAMFERA
 40
0.0
  9
$CHAMFERB
 40
0.0
  9
$CHAMFERC
 40
0.0
  9
$CHAMFERD
 40
0.0
  9
$SKPOLY
 70
     0
  9
$TDCREATE
 40
2455335.869530706
  9
$TDUCREATE
 40
2455335.786197372
  9
$TDUPDATE
 40
2455335.869872141
  9
$TDUUPDATE
 40
2455335.786538807
  9
$TDINDWG
 40
0.0003414352
  9
$TDUSRTIMER
 40
0.0003414352
  9
$USRTIMER
 70
     1
  9
$ANGBASE
 50
0.0
  9
$ANGDIR
 70
     0
  9
$PDMODE
 70
     0
  9
$PDSIZE
 40
0.0
  9
$PLINEWID
 40
0.0
  9
$SPLFRAME
 70
     0
  9
$SPLINETYPE
 70
     6
  9
$SPLINESEGS
 70
     8
  9
$HANDSEED
  5
178
  9
$SURFTAB1
 70
     6
  9
$SURFTAB2
 70
     6
  9
$SURFTYPE
 70
     6
  9
$SURFU
 70
     6
  9
$SURFV
 70
     6
  9
$UCSBASE
  2

  9
$UCSNAME
  2

  9
$UCSORG
 10
0.0
 20
0.0
 30
0.0
  9
$UCSXDIR
 10
1.0
 20
0.0
 30
0.0
  9
$UCSYDIR
 10
0.0
 20
1.0
 30
0.0
  9
$UCSORTHOREF
  2

  9
$UCSORTHOVIEW
 70
     1
  9
$UCSORGTOP
 10
0.0
 20
0.0
 30
0.0
  9
$UCSORGBOTTOM
 10
0.0
 20
0.0
 30
0.0
  9
$UCSORGLEFT
 10
0.0
 20
0.0
 30
0.0
  9
$UCSORGRIGHT
 10
0.0
 20
0.0
 30
0.0
  9
$UCSORGFRONT
 10
0.0
 20
0.0
 30
0.0
  9
$UCSORGBACK
 10
0.0
 20
0.0
 30
0.0
  9
$PUCSBASE
  2

  9
$PUCSNAME
  2

  9
$PUCSORG
 10
0.0
 20
0.0
 30
0.0
  9
$PUCSXDIR
 10
1.0
 20
0.0
 30
0.0
  9
$PUCSYDIR
 10
0.0
 20
1.0
 30
0.0
  9
$PUCSORTHOREF
  2

  9
$PUCSORTHOVIEW
 70
     0
  9
$PUCSORGTOP
 10
0.0
 20
0.0
 30
0.0
  9
$PUCSORGBOTTOM
 10
0.0
 20
0.0
 30
0.0
  9
$PUCSORGLEFT
 10
0.0
 20
0.0
 30
0.0
  9
$PUCSORGRIGHT
 10
0.0
 20
0.0
 30
0.0
  9
$PUCSORGFRONT
 10
0.0
 20
0.0
 30
0.0
  9
$PUCSORGBACK
 10
0.0
 20
0.0
 30
0.0
  9
$USERI1
 70
     0
  9
$USERI2
 70
     0
  9
$USERI3
 70
     0
  9
$USERI4
 70
     0
  9
$USERI5
 70
     0
  9
$USERR1
 40
0.0
  9
$USERR2
 40
0.0
  9
$USERR3
 40
0.0
  9
$USERR4
 40
0.0
  9
$USERR5
 40
0.0
  9
$WORLDVIEW
 70
     1
  9
$SHADEDGE
 70
     3
  9
$SHADEDIF
 70
    70
  9
$TILEMODE
 70
     1
  9
$MAXACTVP
 70
    64
  9
$PINSBASE
 10
0.0
 20
0.0
 30
0.0
  9
$PLIMCHECK
 70
     0
  9
$PEXTMIN
 10
1.000000000000000E+20
 20
1.000000000000000E+20
 30
1.000000000000000E+20
  9
$PEXTMAX
 10
-1.000000000000000E+20
 20
-1.000000000000000E+20
 30
-1.000000000000000E+20
  9
$PLIMMIN
 10
0.0
 20
0.0
  9
$PLIMMAX
 10
12.0
 20
9.0
  9
$UNITMODE
 70
     0
  9
$VISRETAIN
 70
     1
  9
$PLINEGEN
 70
     0
  9
$PSLTSCALE
 70
     1
  9
$TREEDEPTH
 70
  3020
  9
$CMLSTYLE
  2
Standard
  9
$CMLJUST
 70
     0
  9
$CMLSCALE
 40
1.0
  9
$PROXYGRAPHICS
 70
     1
  9
$MEASUREMENT
 70
     0
  9
$CELWEIGHT
370
    -1
  9
$ENDCAPS
280
     0
  9
$JOINSTYLE
280
     0
  9
$LWDISPLAY
290
     0
  9
$INSUNITS
 70
     0
  9
$HYPERLINKBASE
  1

  9
$STYLESHEET
  1

  9
$XEDIT
290
     1
  9
$CEPSNTYPE
380
     0
  9
$PSTYLEMODE
290
     1
  9
$FINGERPRINTGUID
  2
{32AF014F-D15E-4493-A7D5-09853D5013EA}
  9
$VERSIONGUID
  2
{0AC58527-99C5-4851-8D95-B9ED66BC4A0E}
  9
$EXTNAMES
290
     1
  9
$PSVPSCALE
 40
0.0
  9
$OLESTARTUP
290
     0
  0
ENDSEC
  0
SECTION
  2
CLASSES
  0
CLASS
  1
ACDBDICTIONARYWDFLT
  2
AcDbDictionaryWithDefault
  3
AutoCAD 2000
 90
        0
280
     0
281
     0
  0
CLASS
  1
ACDBPLACEHOLDER
  2
AcDbPlaceHolder
  3
AutoCAD 2000
 90
        0
280
     0
281
     0
  0
CLASS
  1
LAYOUT
  2
AcDbLayout
  3
AutoCAD 2000
 90
        0
280
     0
281
     0
  0
CLASS
  1
DICTIONARYVAR
  2
AcDbDictionaryVar
  3
AutoCAD 2000
 90
        0
280
     0
281
     0
  0
ENDSEC
  0
SECTION
  2
TABLES
  0
TABLE
  2
VPORT
  5
8
330
0
100
AcDbSymbolTable
 70
     3
  0
VPORT
  5
177
330
8
100
AcDbSymbolTableRecord
100
AcDbViewportTableRecord
  2
*Active
 70
     0
 10
0.0
 20
0.0
 11
1.0
 21
1.0
 12
104.5
 22
125.4999999999999
 13
0.0
 23
0.0
 14
1.0
 24
1.0
 15
0.0
 25
0.0
 16
0.0
 26
0.0
 36
1.0
 17
0.0
 27
0.0
 37
0.0
 40
252.6477024070021
 41
2.041621029572836
 42
50.0
 43
0.0
 44
0.0
 50
0.0
 51
0.0
 71
     0
 72
   100
 73
     1
 74
     3
 75
     0
 76
     0
 77
     0
 78
     0
281
     0
 65
     1
110
0.0
120
0.0
130
0.0
111
1.0
121
0.0
131
0.0
112
0.0
122
1.0
132
0.0
 79
     1
146
0.0
  0
ENDTAB
  0
TABLE
  2
LTYPE
  5
5
330
0
100
AcDbSymbolTable
 70
     1
  0
LTYPE
  5
13
330
5
100
AcDbSymbolTableRecord
100
AcDbLinetypeTableRecord
  2
ByBlock
 70
     0
  3

 72
    65
 73
     0
 40
0.0
  0
LTYPE
  5
14
330
5
100
AcDbSymbolTableRecord
100
AcDbLinetypeTableRecord
  2
ByLayer
 70
     0
  3

 72
    65
 73
     0
 40
0.0
  0
LTYPE
  5
15
330
5
100
AcDbSymbolTableRecord
100
AcDbLinetypeTableRecord
  2
Continuous
 70
     0
  3
Solid line
 72
    65
 73
     0
 40
0.0
  0
ENDTAB
  0
TABLE
  2
LAYER
  5
2
330
0
100
AcDbSymbolTable
 70
     1
  0
LAYER
  5
10
330
2
100
AcDbSymbolTableRecord
100
AcDbLayerTableRecord
  2
0
 70
     0
 62
     7
  6
Continuous
370
    -3
390
F
  0
ENDTAB
  0
TABLE
  2
STYLE
  5
3
330
0
100
AcDbSymbolTable
 70
     1
  0
STYLE
  5
11
330
3
100
AcDbSymbolTableRecord
100
AcDbTextStyleTableRecord
  2
Standard
 70
     0
 40
0.0
 41
1.0
 50
0.0
 71
     0
 42
0.2
  3
txt
  4

  0
ENDTAB
  0
TABLE
  2
VIEW
  5
6
330
0
100
AcDbSymbolTable
 70
     0
  0
ENDTAB
  0
TABLE
  2
UCS
  5
7
330
0
100
AcDbSymbolTable
 70
     0
  0
ENDTAB
  0
TABLE
  2
APPID
  5
9
330
0
100
AcDbSymbolTable
 70
     1
  0
APPID
  5
12
330
9
100
AcDbSymbolTableRecord
100
AcDbRegAppTableRecord
  2
ACAD
 70
     0
  0
ENDTAB
  0
TABLE
  2
DIMSTYLE
  5
A
330
0
100
AcDbSymbolTable
 70
     1
100
AcDbDimStyleTable
 71
     0
  0
DIMSTYLE
105
16F
330
A
100
AcDbSymbolTableRecord
100
AcDbDimStyleTableRecord
  2
Standard
 70
     0
340
11
  0
ENDTAB
  0
TABLE
  2
BLOCK_RECORD
  5
1
330
0
100
AcDbSymbolTable
 70
     0
  0
BLOCK_RECORD
  5
1E
330
1
100
AcDbSymbolTableRecord
100
AcDbBlockTableRecord
  2
*Model_Space
340
21
  0
BLOCK_RECORD
  5
1A
330
1
100
AcDbSymbolTableRecord
100
AcDbBlockTableRecord
  2
*Paper_Space
340
1D
  0
ENDTAB
  0
ENDSEC
  0
SECTION
  2
BLOCKS
  0
BLOCK
  5
1F
330
1E
100
AcDbEntity
  8
0
100
AcDbBlockBegin
  2
*Model_Space
 70
     0
 10
0.0
 20
0.0
 30
0.0
  3
*Model_Space
  1

  0
ENDBLK
  5
20
330
1E
100
AcDbEntity
  8
0
100
AcDbBlockEnd
  0
BLOCK
  5
1B
330
1A
100
AcDbEntity
 67
     1
  8
0
100
AcDbBlockBegin
  2
*Paper_Space
 70
     0
 10
0.0
 20
0.0
 30
0.0
  3
*Paper_Space
  1

  0
ENDBLK
  5
1C
330
1A
100
AcDbEntity
 67
     1
  8
0
100
AcDbBlockEnd
  0
ENDSEC
  0
SECTION
  2
ENTITIES
  0
LINE
  5
22
330
1E
100
AcDbEntity
  8
0
100
AcDbLine
 10
0.0000000000000117
 20
191.5
 30
0.0
 11
0.500000000000012
 21
191.0
 31
0.0
  0
LINE
  5
23
330
1E
100
AcDbEntity
  8
0
100
AcDbLine
 10
0.0000000000000117
 20
191.5
 30
0.0
 11
0.500000000000012
 21
191.5
 31
0.0
  0
LINE
  5
24
330
1E
100
AcDbEntity
  8
0
100
AcDbLine
 10
197.0
 20
-0.0000000000000121
 30
0.0
 11
197.0
 21
5.62499999999999
 31
0.0
  0
LINE
  5
25
330
1E
100
AcDbEntity
  8
0
100
AcDbLine
 10
145.9079999999999
 20
-0.0000000000000089
 30
0.0
 11
148.467
 21
-0.0000000000000091
 31
0.0
  0
LINE
  5
26
330
1E
100
AcDbEntity
  8
0
100
AcDbLine
 10
158.041
 20
-0.0000000000000097
 30
0.0
 11
164.314
 21
-0.0000000000000101
 31
0.0
  0
LINE
  5
27
330
1E
100
AcDbEntity
  8
0
100
AcDbLine
 10
152.676
 20
-0.0000000000000093
 30
0.0
 11
158.041
 21
-0.0000000000000097
 31
0.0
  0
LINE
  5
28
330
1E
100
AcDbEntity
  8
0
100
AcDbLine
 10
164.314
 20
-0.0000000000000101
 30
0.0
 11
171.0
 21
-0.0000000000000105
 31
0.0
  0
LINE
  5
29
330
1E
100
AcDbEntity
  8
0
100
AcDbLine
 10
148.467
 20
-0.0000000000000091
 30
0.0
 11
152.676
 21
-0.0000000000000093
 31
0.0
  0
LINE
  5
2A
330
1E
100
AcDbEntity
  8
0
100
AcDbLine
 10
0.0000000000000129
 20
211.0
 30
0.0
 11
0.313178000000013
 21
216.1699999999999
 31
0.0
  0
LINE
  5
2B
330
1E
100
AcDbEntity
  8
0
100
AcDbLine
 10
0.313178000000013
 20
216.1699999999999
 30
0.0
 11
1.41779000000001
 21
221.401
 31
0.0
  0
LINE
  5
2C
330
1E
100
AcDbEntity
  8
0
100
AcDbLine
 10
0.0000000000000129
 20
211.0
 30
0.0
 11
0.313178000000013
 21
216.1699999999999
 31
0.0
  0
LINE
  5
2D
330
1E
100
AcDbEntity
  8
0
100
AcDbLine
 10
0.5000000000000111
 20
191.5
 30
0.0
 11
17.5
 21
191.5
 31
0.0
  0
LINE
  5
2E
330
1E
100
AcDbEntity
  8
0
100
AcDbLine
 10
0.500000000000012
 20
191.0
 30
0.0
 11
17.5
 21
191.0
 31
0.0
  0
LINE
  5
2F
330
1E
100
AcDbEntity
  8
0
100
AcDbLine
 10
0.500000000000012
 20
191.0
 30
0.0
 11
0.500000000000012
 21
191.5
 31
0.0
  0
LINE
  5
30
330
1E
100
AcDbEntity
  8
0
100
AcDbLine
 10
17.5
 20
191.0
 30
0.0
 11
17.5
 21
191.5
 31
0.0
  0
LINE
  5
31
330
1E
100
AcDbEntity
  8
0
100
AcDbLine
 10
17.5
 20
191.0
 30
0.0
 11
18.0
 21
191.5
 31
0.0
  0
LINE
  5
32
330
1E
100
AcDbEntity
  8
0
100
AcDbLine
 10
0.500000000000012
 20
191.5
 30
0.0
 11
0.500000000000013
 21
211.0
 31
0.0
  0
LINE
  5
33
330
1E
100
AcDbEntity
  8
0
100
AcDbLine
 10
0.500000000000012
 20
191.5
 30
0.0
 11
0.500000000000012
 21
191.0
 31
0.0
  0
LINE
  5
34
330
1E
100
AcDbEntity
  8
0
100
AcDbLine
 10
0.500000000000012
 20
191.5
 30
0.0
 11
17.5
 21
191.5
 31
0.0
  0
LINE
  5
35
330
1E
100
AcDbEntity
  8
0
100
AcDbLine
 10
17.5
 20
191.5
 30
0.0
 11
18.0
 21
191.5
 31
0.0
  0
LINE
  5
36
330
1E
100
AcDbEntity
  8
0
100
AcDbLine
 10
17.5
 20
191.5
 30
0.0
 11
17.5
 21
191.0
 31
0.0
  0
LINE
  5
37
330
1E
100
AcDbEntity
  8
0
100
AcDbLine
 10
17.5
 20
191.5
 30
0.0
 11
17.5
 21
211.0
 31
0.0
  0
LINE
  5
38
330
1E
100
AcDbEntity
  8
0
100
AcDbLine
 10
0.870000000000013
 20
216.1599999999999
 30
0.0
 11
1.90000000000001
 21
221.2499999999999
 31
0.0
  0
LINE
  5
39
330
1E
100
AcDbEntity
  8
0
100
AcDbLine
 10
0.500000000000013
 20
211.0
 30
0.0
 11
0.870000000000013
 21
216.1599999999999
 31
0.0
  0
LINE
  5
3A
330
1E
100
AcDbEntity
  8
0
100
AcDbLine
 10
17.7317
 20
213.9409999999999
 30
0.0
 11
18.2478
 21
216.7809999999999
 31
0.0
  0
LINE
  5
3B
330
1E
100
AcDbEntity
  8
0
100
AcDbLine
 10
18.2478
 20
213.838
 30
0.0
 11
18.71229999999999
 21
216.678
 31
0.0
  0
LINE
  5
3C
330
1E
100
AcDbEntity
  8
0
100
AcDbLine
 10
18.0
 20
211.0
 30
0.0
 11
18.2478
 21
213.838
 31
0.0
  0
LINE
  5
3D
330
1E
100
AcDbEntity
  8
0
100
AcDbLine
 10
18.0
 20
211.0
 30
0.0
 11
18.0
 21
191.5
 31
0.0
  0
LINE
  5
3E
330
1E
100
AcDbEntity
  8
0
100
AcDbLine
 10
17.5
 20
211.0
 30
0.0
 11
17.5
 21
191.5
 31
0.0
  0
LINE
  5
3F
330
1E
100
AcDbEntity
  8
0
100
AcDbLine
 10
17.5
 20
211.0
 30
0.0
 11
17.7317
 21
213.9409999999999
 31
0.0
  0
LINE
  5
40
330
1E
100
AcDbEntity
  8
0
100
AcDbLine
 10
18.0
 20
191.5
 30
0.0
 11
18.0
 21
211.0
 31
0.0
  0
LINE
  5
41
330
1E
100
AcDbEntity
  8
0
100
AcDbLine
 10
0.5000000000000111
 20
191.0
 30
0.0
 11
17.5
 21
191.0
 31
0.0
  0
LINE
  5
42
330
1E
100
AcDbEntity
  8
0
100
AcDbLine
 10
18.2478
 20
216.7809999999999
 30
0.0
 11
19.1767
 21
219.518
 31
0.0
  0
LINE
  5
43
330
1E
100
AcDbEntity
  8
0
100
AcDbLine
 10
19.1767
 20
219.518
 30
0.0
 11
20.51849999999999
 21
222.255
 31
0.0
  0
LINE
  5
44
330
1E
100
AcDbEntity
  8
0
100
AcDbLine
 10
18.71229999999999
 20
216.678
 30
0.0
 11
19.6412
 21
219.363
 31
0.0
  0
LINE
  5
45
330
1E
100
AcDbEntity
  8
0
100
AcDbLine
 10
3.074700000000009
 20
226.3009999999999
 30
0.0
 11
5.394380000000009
 21
231.0169999999999
 31
0.0
  0
LINE
  5
46
330
1E
100
AcDbEntity
  8
0
100
AcDbLine
 10
1.41779000000001
 20
221.401
 30
0.0
 11
3.074700000000009
 21
226.3009999999999
 31
0.0
  0
LINE
  5
47
330
1E
100
AcDbEntity
  8
0
100
AcDbLine
 10
3.550000000000009
 20
226.08
 30
0.0
 11
5.840000000000009
 21
230.7199999999999
 31
0.0
  0
LINE
  5
48
330
1E
100
AcDbEntity
  8
0
100
AcDbLine
 10
1.90000000000001
 20
221.2499999999999
 30
0.0
 11
3.550000000000009
 21
226.08
 31
0.0
  0
LINE
  5
49
330
1E
100
AcDbEntity
  8
0
100
AcDbLine
 10
22.5312
 20
224.424
 30
0.0
 11
24.5
 21
226.5
 31
0.0
  0
LINE
  5
4A
330
1E
100
AcDbEntity
  8
0
100
AcDbLine
 10
22.1183
 20
224.733
 30
0.0
 11
24.1
 21
226.9
 31
0.0
  0
LINE
  5
4B
330
1E
100
AcDbEntity
  8
0
100
AcDbLine
 10
20.51849999999999
 20
222.255
 30
0.0
 11
22.1183
 21
224.733
 31
0.0
  0
LINE
  5
4C
330
1E
100
AcDbEntity
  8
0
100
AcDbLine
 10
20.9314
 20
221.945
 30
0.0
 11
22.5312
 21
224.424
 31
0.0
  0
LINE
  5
4D
330
1E
100
AcDbEntity
  8
0
100
AcDbLine
 10
19.6412
 20
219.363
 30
0.0
 11
20.9314
 21
221.945
 31
0.0
  0
LINE
  5
4E
330
1E
100
AcDbEntity
  8
0
100
AcDbLine
 10
24.1
 20
226.9
 30
0.0
 11
26.2666
 21
228.882
 31
0.0
  0
LINE
  5
4F
330
1E
100
AcDbEntity
  8
0
100
AcDbLine
 10
24.5
 20
226.5
 30
0.0
 11
26.5764
 21
228.469
 31
0.0
  0
LINE
  5
50
330
1E
100
AcDbEntity
  8
0
100
AcDbLine
 10
26.2666
 20
228.882
 30
0.0
 11
28.7452
 21
230.4809999999999
 31
0.0
  0
LINE
  5
51
330
1E
100
AcDbEntity
  8
0
100
AcDbLine
 10
29.05499999999999
 20
230.069
 30
0.0
 11
31.6369
 21
231.359
 31
0.0
  0
LINE
  5
52
330
1E
100
AcDbEntity
  8
0
100
AcDbLine
 10
28.7452
 20
230.4809999999999
 30
0.0
 11
31.482
 21
231.8229999999999
 31
0.0
  0
LINE
  5
53
330
1E
100
AcDbEntity
  8
0
100
AcDbLine
 10
31.6369
 20
231.359
 30
0.0
 11
34.32209999999999
 21
232.288
 31
0.0
  0
LINE
  5
54
330
1E
100
AcDbEntity
  8
0
100
AcDbLine
 10
31.482
 20
231.8229999999999
 30
0.0
 11
34.2188
 21
232.752
 31
0.0
  0
LINE
  5
55
330
1E
100
AcDbEntity
  8
0
100
AcDbLine
 10
34.32209999999999
 20
232.288
 30
0.0
 11
37.16219999999999
 21
232.752
 31
0.0
  0
LINE
  5
56
330
1E
100
AcDbEntity
  8
0
100
AcDbLine
 10
34.2188
 20
232.752
 30
0.0
 11
37.0589
 21
233.2679999999999
 31
0.0
  0
LINE
  5
57
330
1E
100
AcDbEntity
  8
0
100
AcDbLine
 10
37.16219999999999
 20
232.752
 30
0.0
 11
40.0
 21
233.0
 31
0.0
  0
LINE
  5
58
330
1E
100
AcDbEntity
  8
0
100
AcDbLine
 10
37.0589
 20
233.2679999999999
 30
0.0
 11
40.0
 21
233.4999999999999
 31
0.0
  0
LINE
  5
59
330
1E
100
AcDbEntity
  8
0
100
AcDbLine
 10
8.710000000000009
 20
235.03
 30
0.0
 11
12.09999999999999
 21
238.9
 31
0.0
  0
LINE
  5
5A
330
1E
100
AcDbEntity
  8
0
100
AcDbLine
 10
5.840000000000009
 20
230.7199999999999
 30
0.0
 11
8.710000000000009
 21
235.03
 31
0.0
  0
LINE
  5
5B
330
1E
100
AcDbEntity
  8
0
100
AcDbLine
 10
40.0
 20
233.4999999999999
 30
0.0
 11
133.0
 21
233.4999999999999
 31
0.0
  0
LINE
  5
5C
330
1E
100
AcDbEntity
  8
0
100
AcDbLine
 10
26.5764
 20
228.469
 30
0.0
 11
29.05499999999999
 21
230.069
 31
0.0
  0
LINE
  5
5D
330
1E
100
AcDbEntity
  8
0
100
AcDbLine
 10
144.2549999999999
 20
230.4809999999999
 30
0.0
 11
146.733
 21
228.882
 31
0.0
  0
LINE
  5
5E
330
1E
100
AcDbEntity
  8
0
100
AcDbLine
 10
141.518
 20
231.8229999999999
 30
0.0
 11
144.2549999999999
 21
230.4809999999999
 31
0.0
  0
LINE
  5
5F
330
1E
100
AcDbEntity
  8
0
100
AcDbLine
 10
143.9449999999999
 20
230.069
 30
0.0
 11
146.424
 21
228.469
 31
0.0
  0
LINE
  5
60
330
1E
100
AcDbEntity
  8
0
100
AcDbLine
 10
141.3629999999999
 20
231.359
 30
0.0
 11
143.9449999999999
 21
230.069
 31
0.0
  0
LINE
  5
61
330
1E
100
AcDbEntity
  8
0
100
AcDbLine
 10
133.0
 20
233.0
 30
0.0
 11
135.8379999999999
 21
232.752
 31
0.0
  0
LINE
  5
62
330
1E
100
AcDbEntity
  8
0
100
AcDbLine
 10
138.7809999999999
 20
232.752
 30
0.0
 11
141.518
 21
231.8229999999999
 31
0.0
  0
LINE
  5
63
330
1E
100
AcDbEntity
  8
0
100
AcDbLine
 10
135.8379999999999
 20
232.752
 30
0.0
 11
138.6779999999999
 21
232.288
 31
0.0
  0
LINE
  5
64
330
1E
100
AcDbEntity
  8
0
100
AcDbLine
 10
135.941
 20
233.2679999999999
 30
0.0
 11
138.7809999999999
 21
232.752
 31
0.0
  0
LINE
  5
65
330
1E
100
AcDbEntity
  8
0
100
AcDbLine
 10
133.0
 20
233.4999999999999
 30
0.0
 11
135.941
 21
233.2679999999999
 31
0.0
  0
LINE
  5
66
330
1E
100
AcDbEntity
  8
0
100
AcDbLine
 10
138.6779999999999
 20
232.288
 30
0.0
 11
141.3629999999999
 21
231.359
 31
0.0
  0
LINE
  5
67
330
1E
100
AcDbEntity
  8
0
100
AcDbLine
 10
40.0
 20
233.0
 30
0.0
 11
133.0
 21
233.0
 31
0.0
  0
LINE
  5
68
330
1E
100
AcDbEntity
  8
0
100
AcDbLine
 10
12.09999999999999
 20
238.9
 30
0.0
 11
15.97
 21
242.2899999999999
 31
0.0
  0
LINE
  5
69
330
1E
100
AcDbEntity
  8
0
100
AcDbLine
 10
15.6353
 20
242.734
 30
0.0
 11
19.9827
 21
245.6059999999999
 31
0.0
  0
LINE
  5
6A
330
1E
100
AcDbEntity
  8
0
100
AcDbLine
 10
15.97
 20
242.2899999999999
 30
0.0
 11
20.28
 21
245.16
 31
0.0
  0
LINE
  5
6B
330
1E
100
AcDbEntity
  8
0
100
AcDbLine
 10
11.69999999999999
 20
239.3
 30
0.0
 11
15.6353
 21
242.734
 31
0.0
  0
LINE
  5
6C
330
1E
100
AcDbEntity
  8
0
100
AcDbLine
 10
20.28
 20
245.16
 30
0.0
 11
24.92
 21
247.4499999999999
 31
0.0
  0
LINE
  5
6D
330
1E
100
AcDbEntity
  8
0
100
AcDbLine
 10
24.6985
 20
247.9249999999999
 30
0.0
 11
29.5985
 21
249.582
 31
0.0
  0
LINE
  5
6E
330
1E
100
AcDbEntity
  8
0
100
AcDbLine
 10
24.92
 20
247.4499999999999
 30
0.0
 11
29.75
 21
249.1
 31
0.0
  0
LINE
  5
6F
330
1E
100
AcDbEntity
  8
0
100
AcDbLine
 10
19.9827
 20
245.6059999999999
 30
0.0
 11
24.6985
 21
247.9249999999999
 31
0.0
  0
LINE
  5
70
330
1E
100
AcDbEntity
  8
0
100
AcDbLine
 10
29.75
 20
249.1
 30
0.0
 11
34.84
 21
250.13
 31
0.0
  0
LINE
  5
71
330
1E
100
AcDbEntity
  8
0
100
AcDbLine
 10
34.83019999999999
 20
250.687
 30
0.0
 11
40.0
 21
251.0
 31
0.0
  0
LINE
  5
72
330
1E
100
AcDbEntity
  8
0
100
AcDbLine
 10
34.84
 20
250.13
 30
0.0
 11
40.0
 21
250.4999999999999
 31
0.0
  0
LINE
  5
73
330
1E
100
AcDbEntity
  8
0
100
AcDbLine
 10
40.0
 20
250.4999999999999
 30
0.0
 11
133.0
 21
250.4999999999999
 31
0.0
  0
LINE
  5
74
330
1E
100
AcDbEntity
  8
0
100
AcDbLine
 10
143.401
 20
249.582
 30
0.0
 11
148.301
 21
247.9249999999999
 31
0.0
  0
LINE
  5
75
330
1E
100
AcDbEntity
  8
0
100
AcDbLine
 10
143.25
 20
249.1
 30
0.0
 11
148.08
 21
247.4499999999999
 31
0.0
  0
LINE
  5
76
330
1E
100
AcDbEntity
  8
0
100
AcDbLine
 10
138.1599999999999
 20
250.13
 30
0.0
 11
143.25
 21
249.1
 31
0.0
  0
LINE
  5
77
330
1E
100
AcDbEntity
  8
0
100
AcDbLine
 10
133.0
 20
250.4999999999999
 30
0.0
 11
138.1599999999999
 21
250.13
 31
0.0
  0
LINE
  5
78
330
1E
100
AcDbEntity
  8
0
100
AcDbLine
 10
40.0
 20
250.4999999999999
 30
0.0
 11
133.0
 21
250.4999999999999
 31
0.0
  0
LINE
  5
79
330
1E
100
AcDbEntity
  8
0
100
AcDbLine
 10
40.0
 20
251.0
 30
0.0
 11
133.0
 21
251.0
 31
0.0
  0
LINE
  5
7A
330
1E
100
AcDbEntity
  8
0
100
AcDbLine
 10
133.0
 20
251.0
 30
0.0
 11
138.1699999999999
 21
250.687
 31
0.0
  0
LINE
  5
7B
330
1E
100
AcDbEntity
  8
0
100
AcDbLine
 10
40.0
 20
251.0
 30
0.0
 11
133.0
 21
251.0
 31
0.0
  0
LINE
  5
7C
330
1E
100
AcDbEntity
  8
0
100
AcDbLine
 10
138.1699999999999
 20
250.687
 30
0.0
 11
143.401
 21
249.582
 31
0.0
  0
LINE
  5
7D
330
1E
100
AcDbEntity
  8
0
100
AcDbLine
 10
29.5985
 20
249.582
 30
0.0
 11
34.83019999999999
 21
250.687
 31
0.0
  0
LINE
  5
7E
330
1E
100
AcDbEntity
  8
0
100
AcDbLine
 10
8.266370000000009
 20
235.365
 30
0.0
 11
11.69999999999999
 21
239.3
 31
0.0
  0
LINE
  5
7F
330
1E
100
AcDbEntity
  8
0
100
AcDbLine
 10
5.394380000000009
 20
231.0169999999999
 30
0.0
 11
8.266370000000009
 21
235.365
 31
0.0
  0
LINE
  5
80
330
1E
100
AcDbEntity
  8
0
100
AcDbLine
 10
3.074700000000009
 20
226.3009999999999
 30
0.0
 11
5.394380000000009
 21
231.0169999999999
 31
0.0
  0
LINE
  5
81
330
1E
100
AcDbEntity
  8
0
100
AcDbLine
 10
1.41779000000001
 20
221.401
 30
0.0
 11
3.074700000000009
 21
226.3009999999999
 31
0.0
  0
LINE
  5
82
330
1E
100
AcDbEntity
  8
0
100
AcDbLine
 10
0.313178000000013
 20
216.1699999999999
 30
0.0
 11
1.41779000000001
 21
221.401
 31
0.0
  0
LINE
  5
83
330
1E
100
AcDbEntity
  8
0
100
AcDbLine
 10
145.4129999999999
 20
5.99999999999999
 30
0.0
 11
146.3209999999999
 21
5.99999999999999
 31
0.0
  0
LINE
  5
84
330
1E
100
AcDbEntity
  8
0
100
AcDbLine
 10
171.0
 20
5.62499999999999
 30
0.0
 11
177.6859999999999
 21
5.62499999999999
 31
0.0
  0
LINE
  5
85
330
1E
100
AcDbEntity
  8
0
100
AcDbLine
 10
164.314
 20
5.62499999999999
 30
0.0
 11
171.0
 21
5.62499999999999
 31
0.0
  0
LINE
  5
86
330
1E
100
AcDbEntity
  8
0
100
AcDbLine
 10
158.041
 20
5.62499999999999
 30
0.0
 11
164.314
 21
5.62499999999999
 31
0.0
  0
LINE
  5
87
330
1E
100
AcDbEntity
  8
0
100
AcDbLine
 10
152.676
 20
5.62499999999999
 30
0.0
 11
158.041
 21
5.62499999999999
 31
0.0
  0
LINE
  5
88
330
1E
100
AcDbEntity
  8
0
100
AcDbLine
 10
155.4999999999999
 20
5.99999999999999
 30
0.0
 11
155.4999999999999
 21
211.0
 31
0.0
  0
LINE
  5
89
330
1E
100
AcDbEntity
  8
0
100
AcDbLine
 10
155.0
 20
5.99999999999999
 30
0.0
 11
155.0
 21
211.0
 31
0.0
  0
LINE
  5
8A
330
1E
100
AcDbEntity
  8
0
100
AcDbLine
 10
171.0
 20
5.99999999999999
 30
0.0
 11
177.6029999999999
 21
5.99999999999999
 31
0.0
  0
LINE
  5
8B
330
1E
100
AcDbEntity
  8
0
100
AcDbLine
 10
164.397
 20
5.99999999999999
 30
0.0
 11
171.0
 21
5.99999999999999
 31
0.0
  0
LINE
  5
8C
330
1E
100
AcDbEntity
  8
0
100
AcDbLine
 10
158.2889999999999
 20
5.99999999999999
 30
0.0
 11
164.397
 21
5.99999999999999
 31
0.0
  0
LINE
  5
8D
330
1E
100
AcDbEntity
  8
0
100
AcDbLine
 10
158.2889999999999
 20
5.99999999999999
 30
0.0
 11
171.0
 21
5.99999999999999
 31
0.0
  0
LINE
  5
8E
330
1E
100
AcDbEntity
  8
0
100
AcDbLine
 10
152.924
 20
5.99999999999999
 30
0.0
 11
158.2889999999999
 21
5.99999999999999
 31
0.0
  0
LINE
  5
8F
330
1E
100
AcDbEntity
  8
0
100
AcDbLine
 10
146.3209999999999
 20
5.99999999999999
 30
0.0
 11
148.8789999999999
 21
5.99999999999999
 31
0.0
  0
LINE
  5
90
330
1E
100
AcDbEntity
  8
0
100
AcDbLine
 10
148.467
 20
5.62499999999999
 30
0.0
 11
152.676
 21
5.62499999999999
 31
0.0
  0
LINE
  5
91
330
1E
100
AcDbEntity
  8
0
100
AcDbLine
 10
145.9079999999999
 20
5.62499999999999
 30
0.0
 11
148.467
 21
5.62499999999999
 31
0.0
  0
LINE
  5
92
330
1E
100
AcDbEntity
  8
0
100
AcDbLine
 10
169.914
 20
47.4286
 30
0.0
 11
171.6859999999999
 21
43.2
 31
0.0
  0
LINE
  5
93
330
1E
100
AcDbEntity
  8
0
100
AcDbLine
 10
169.629
 20
47.3714
 30
0.0
 11
171.4
 21
43.0285
 31
0.0
  0
LINE
  5
94
330
1E
100
AcDbEntity
  8
0
100
AcDbLine
 10
169.914
 20
56.5714
 30
0.0
 11
171.6859999999999
 21
60.8
 31
0.0
  0
LINE
  5
95
330
1E
100
AcDbEntity
  8
0
100
AcDbLine
 10
169.2859999999999
 20
52.0
 30
0.0
 11
169.914
 21
56.5714
 31
0.0
  0
LINE
  5
96
330
1E
100
AcDbEntity
  8
0
100
AcDbLine
 10
169.2859999999999
 20
52.0
 30
0.0
 11
169.914
 21
47.4286
 31
0.0
  0
LINE
  5
97
330
1E
100
AcDbEntity
  8
0
100
AcDbLine
 10
169.629
 20
56.6286
 30
0.0
 11
171.4
 21
60.9715
 31
0.0
  0
LINE
  5
98
330
1E
100
AcDbEntity
  8
0
100
AcDbLine
 10
169.0
 20
52.0
 30
0.0
 11
169.629
 21
56.6286
 31
0.0
  0
LINE
  5
99
330
1E
100
AcDbEntity
  8
0
100
AcDbLine
 10
169.0
 20
52.0
 30
0.0
 11
169.629
 21
47.3714
 31
0.0
  0
LINE
  5
9A
330
1E
100
AcDbEntity
  8
0
100
AcDbLine
 10
155.4999999999999
 20
5.99999999999999
 30
0.0
 11
155.4999999999999
 21
211.0
 31
0.0
  0
LINE
  5
9B
330
1E
100
AcDbEntity
  8
0
100
AcDbLine
 10
155.0
 20
5.99999999999999
 30
0.0
 11
155.0
 21
211.0
 31
0.0
  0
LINE
  5
9C
330
1E
100
AcDbEntity
  8
0
100
AcDbLine
 10
146.733
 20
228.882
 30
0.0
 11
148.9
 21
226.9
 31
0.0
  0
LINE
  5
9D
330
1E
100
AcDbEntity
  8
0
100
AcDbLine
 10
148.5
 20
226.5
 30
0.0
 11
150.469
 21
224.424
 31
0.0
  0
LINE
  5
9E
330
1E
100
AcDbEntity
  8
0
100
AcDbLine
 10
148.9
 20
226.9
 30
0.0
 11
150.882
 21
224.733
 31
0.0
  0
LINE
  5
9F
330
1E
100
AcDbEntity
  8
0
100
AcDbLine
 10
150.882
 20
224.733
 30
0.0
 11
152.4809999999999
 21
222.255
 31
0.0
  0
LINE
  5
A0
330
1E
100
AcDbEntity
  8
0
100
AcDbLine
 10
148.301
 20
247.9249999999999
 30
0.0
 11
153.017
 21
245.6059999999999
 31
0.0
  0
LINE
  5
A1
330
1E
100
AcDbEntity
  8
0
100
AcDbLine
 10
148.08
 20
247.4499999999999
 30
0.0
 11
152.72
 21
245.16
 31
0.0
  0
LINE
  5
A2
330
1E
100
AcDbEntity
  8
0
100
AcDbLine
 10
150.469
 20
224.424
 30
0.0
 11
152.0689999999999
 21
221.945
 31
0.0
  0
LINE
  5
A3
330
1E
100
AcDbEntity
  8
0
100
AcDbLine
 10
152.4809999999999
 20
222.255
 30
0.0
 11
153.8229999999999
 21
219.518
 31
0.0
  0
LINE
  5
A4
330
1E
100
AcDbEntity
  8
0
100
AcDbLine
 10
153.8229999999999
 20
219.518
 30
0.0
 11
154.752
 21
216.7809999999999
 31
0.0
  0
LINE
  5
A5
330
1E
100
AcDbEntity
  8
0
100
AcDbLine
 10
153.017
 20
245.6059999999999
 30
0.0
 11
157.365
 21
242.734
 31
0.0
  0
LINE
  5
A6
330
1E
100
AcDbEntity
  8
0
100
AcDbLine
 10
152.72
 20
245.16
 30
0.0
 11
157.03
 21
242.2899999999999
 31
0.0
  0
LINE
  5
A7
330
1E
100
AcDbEntity
  8
0
100
AcDbLine
 10
152.0689999999999
 20
221.945
 30
0.0
 11
153.359
 21
219.363
 31
0.0
  0
LINE
  5
A8
330
1E
100
AcDbEntity
  8
0
100
AcDbLine
 10
153.359
 20
219.363
 30
0.0
 11
154.2879999999999
 21
216.678
 31
0.0
  0
LINE
  5
A9
330
1E
100
AcDbEntity
  8
0
100
AcDbLine
 10
154.752
 20
216.7809999999999
 30
0.0
 11
155.268
 21
213.9409999999999
 31
0.0
  0
LINE
  5
AA
330
1E
100
AcDbEntity
  8
0
100
AcDbLine
 10
161.3
 20
239.3
 30
0.0
 11
164.7339999999999
 21
235.365
 31
0.0
  0
LINE
  5
AB
330
1E
100
AcDbEntity
  8
0
100
AcDbLine
 10
160.8999999999999
 20
238.9
 30
0.0
 11
164.29
 21
235.03
 31
0.0
  0
LINE
  5
AC
330
1E
100
AcDbEntity
  8
0
100
AcDbLine
 10
164.7339999999999
 20
235.365
 30
0.0
 11
167.6059999999999
 21
231.0169999999999
 31
0.0
  0
LINE
  5
AD
330
1E
100
AcDbEntity
  8
0
100
AcDbLine
 10
164.29
 20
235.03
 30
0.0
 11
167.1599999999999
 21
230.7199999999999
 31
0.0
  0
LINE
  5
AE
330
1E
100
AcDbEntity
  8
0
100
AcDbLine
 10
167.6059999999999
 20
231.0169999999999
 30
0.0
 11
169.925
 21
226.3009999999999
 31
0.0
  0
LINE
  5
AF
330
1E
100
AcDbEntity
  8
0
100
AcDbLine
 10
167.1599999999999
 20
230.7199999999999
 30
0.0
 11
169.4499999999999
 21
226.08
 31
0.0
  0
LINE
  5
B0
330
1E
100
AcDbEntity
  8
0
100
AcDbLine
 10
169.925
 20
226.3009999999999
 30
0.0
 11
171.5819999999999
 21
221.401
 31
0.0
  0
LINE
  5
B1
330
1E
100
AcDbEntity
  8
0
100
AcDbLine
 10
169.4499999999999
 20
226.08
 30
0.0
 11
171.1
 21
221.2499999999999
 31
0.0
  0
LINE
  5
B2
330
1E
100
AcDbEntity
  8
0
100
AcDbLine
 10
155.268
 20
213.9409999999999
 30
0.0
 11
155.4999999999999
 21
211.0
 31
0.0
  0
LINE
  5
B3
330
1E
100
AcDbEntity
  8
0
100
AcDbLine
 10
157.365
 20
242.734
 30
0.0
 11
161.3
 21
239.3
 31
0.0
  0
LINE
  5
B4
330
1E
100
AcDbEntity
  8
0
100
AcDbLine
 10
157.03
 20
242.2899999999999
 30
0.0
 11
160.8999999999999
 21
238.9
 31
0.0
  0
LINE
  5
B5
330
1E
100
AcDbEntity
  8
0
100
AcDbLine
 10
154.2879999999999
 20
216.678
 30
0.0
 11
154.752
 21
213.838
 31
0.0
  0
LINE
  5
B6
330
1E
100
AcDbEntity
  8
0
100
AcDbLine
 10
154.752
 20
213.838
 30
0.0
 11
155.0
 21
211.0
 31
0.0
  0
LINE
  5
B7
330
1E
100
AcDbEntity
  8
0
100
AcDbLine
 10
146.424
 20
228.469
 30
0.0
 11
148.5
 21
226.5
 31
0.0
  0
LINE
  5
B8
330
1E
100
AcDbEntity
  8
0
100
AcDbLine
 10
148.8789999999999
 20
5.99999999999999
 30
0.0
 11
152.924
 21
5.99999999999999
 31
0.0
  0
LINE
  5
B9
330
1E
100
AcDbEntity
  8
0
100
AcDbLine
 10
145.0
 20
5.62499999999999
 30
0.0
 11
145.4129999999999
 21
5.99999999999999
 31
0.0
  0
LINE
  5
BA
330
1E
100
AcDbEntity
  8
0
100
AcDbLine
 10
145.0
 20
5.62499999999999
 30
0.0
 11
145.0
 21
-0.0000000000000087
 31
0.0
  0
LINE
  5
BB
330
1E
100
AcDbEntity
  8
0
100
AcDbLine
 10
145.0
 20
5.62499999999999
 30
0.0
 11
145.9079999999999
 21
5.62499999999999
 31
0.0
  0
LINE
  5
BC
330
1E
100
AcDbEntity
  8
0
100
AcDbLine
 10
145.0
 20
-0.0000000000000089
 30
0.0
 11
145.9079999999999
 21
-0.0000000000000089
 31
0.0
  0
LINE
  5
BD
330
1E
100
AcDbEntity
  8
0
100
AcDbLine
 10
145.0
 20
-0.0000000000000089
 30
0.0
 11
145.0
 21
5.62499999999999
 31
0.0
  0
LINE
  5
BE
330
1E
100
AcDbEntity
  8
0
100
AcDbLine
 10
171.6859999999999
 20
43.2
 30
0.0
 11
174.4859999999999
 21
39.4857
 31
0.0
  0
LINE
  5
BF
330
1E
100
AcDbEntity
  8
0
100
AcDbLine
 10
171.4
 20
43.0285
 30
0.0
 11
174.314
 21
39.3143
 31
0.0
  0
LINE
  5
C0
330
1E
100
AcDbEntity
  8
0
100
AcDbLine
 10
171.6859999999999
 20
60.8
 30
0.0
 11
174.4859999999999
 21
64.51430000000001
 31
0.0
  0
LINE
  5
C1
330
1E
100
AcDbEntity
  8
0
100
AcDbLine
 10
171.4
 20
60.9715
 30
0.0
 11
174.314
 21
64.68569999999999
 31
0.0
  0
LINE
  5
C2
330
1E
100
AcDbEntity
  8
0
100
AcDbLine
 10
172.9129999999999
 20
94.41129999999999
 30
0.0
 11
173.9799999999999
 21
92.35519999999999
 31
0.0
  0
LINE
  5
C3
330
1E
100
AcDbEntity
  8
0
100
AcDbLine
 10
171.5819999999999
 20
221.401
 30
0.0
 11
172.687
 21
216.1699999999999
 31
0.0
  0
LINE
  5
C4
330
1E
100
AcDbEntity
  8
0
100
AcDbLine
 10
171.1
 20
221.2499999999999
 30
0.0
 11
172.13
 21
216.1599999999999
 31
0.0
  0
LINE
  5
C5
330
1E
100
AcDbEntity
  8
0
100
AcDbLine
 10
172.13
 20
216.1599999999999
 30
0.0
 11
172.5
 21
211.0
 31
0.0
  0
LINE
  5
C6
330
1E
100
AcDbEntity
  8
0
100
AcDbLine
 10
173.0
 20
102.5695
 30
0.0
 11
173.0979999999999
 21
102.5939999999999
 31
0.0
  0
LINE
  5
C7
330
1E
100
AcDbEntity
  8
0
100
AcDbLine
 10
173.0
 20
105.377
 30
0.0
 11
185.954
 21
105.377
 31
0.0
  0
LINE
  5
C8
330
1E
100
AcDbEntity
  8
0
100
AcDbLine
 10
172.687
 20
216.1699999999999
 30
0.0
 11
173.0
 21
211.0
 31
0.0
  0
LINE
  5
C9
330
1E
100
AcDbEntity
  8
0
100
AcDbLine
 10
172.5
 20
97.0
 30
0.0
 11
172.5
 21
211.0
 31
0.0
  0
LINE
  5
CA
330
1E
100
AcDbEntity
  8
0
100
AcDbLine
 10
172.5
 20
97.0
 30
0.0
 11
172.9129999999999
 21
94.41129999999999
 31
0.0
  0
LINE
  5
CB
330
1E
100
AcDbEntity
  8
0
100
AcDbLine
 10
174.4859999999999
 20
39.4857
 30
0.0
 11
178.2
 21
36.68569999999999
 31
0.0
  0
LINE
  5
CC
330
1E
100
AcDbEntity
  8
0
100
AcDbLine
 10
174.314
 20
39.3143
 30
0.0
 11
178.029
 21
36.4
 31
0.0
  0
LINE
  5
CD
330
1E
100
AcDbEntity
  8
0
100
AcDbLine
 10
174.4859999999999
 20
64.51430000000001
 30
0.0
 11
178.2
 21
67.3143
 31
0.0
  0
LINE
  5
CE
330
1E
100
AcDbEntity
  8
0
100
AcDbLine
 10
174.314
 20
64.68569999999999
 30
0.0
 11
178.029
 21
67.59999999999999
 31
0.0
  0
LINE
  5
CF
330
1E
100
AcDbEntity
  8
0
100
AcDbLine
 10
177.0
 20
52.0
 30
0.0
 11
177.4
 21
54.6
 31
0.0
  0
LINE
  5
D0
330
1E
100
AcDbEntity
  8
0
100
AcDbLine
 10
177.0
 20
52.0
 30
0.0
 11
177.4
 21
49.4
 31
0.0
  0
LINE
  5
D1
330
1E
100
AcDbEntity
  8
0
100
AcDbLine
 10
177.4
 20
49.4
 30
0.0
 11
178.3
 21
47.0
 31
0.0
  0
LINE
  5
D2
330
1E
100
AcDbEntity
  8
0
100
AcDbLine
 10
177.4
 20
54.6
 30
0.0
 11
178.3
 21
57.0
 31
0.0
  0
LINE
  5
D3
330
1E
100
AcDbEntity
  8
0
100
AcDbLine
 10
177.418
 20
90.09619999999999
 30
0.0
 11
179.685
 21
89.18359999999999
 31
0.0
  0
LINE
  5
D4
330
1E
100
AcDbEntity
  8
0
100
AcDbLine
 10
177.1809999999999
 20
89.7456
 30
0.0
 11
179.4309999999999
 21
88.8202
 31
0.0
  0
LINE
  5
D5
330
1E
100
AcDbEntity
  8
0
100
AcDbLine
 10
175.657
 20
91.31999999999999
 30
0.0
 11
177.418
 21
90.09619999999999
 31
0.0
  0
LINE
  5
D6
330
1E
100
AcDbEntity
  8
0
100
AcDbLine
 10
175.324
 20
90.8923
 30
0.0
 11
177.1809999999999
 21
89.7456
 31
0.0
  0
LINE
  5
D7
330
1E
100
AcDbEntity
  8
0
100
AcDbLine
 10
174.3359999999999
 20
92.69070000000001
 30
0.0
 11
175.657
 21
91.31999999999999
 31
0.0
  0
LINE
  5
D8
330
1E
100
AcDbEntity
  8
0
100
AcDbLine
 10
173.9799999999999
 20
92.35519999999999
 30
0.0
 11
175.324
 21
90.8923
 31
0.0
  0
LINE
  5
D9
330
1E
100
AcDbEntity
  8
0
100
AcDbLine
 10
173.0979999999999
 20
102.5939999999999
 30
0.0
 11
185.954
 21
102.377
 31
0.0
  0
LINE
  5
DA
330
1E
100
AcDbEntity
  8
0
100
AcDbLine
 10
173.358
 20
94.64870000000001
 30
0.0
 11
174.3359999999999
 21
92.69070000000001
 31
0.0
  0
LINE
  5
DB
330
1E
100
AcDbEntity
  8
0
100
AcDbLine
 10
173.0
 20
97.0
 30
0.0
 11
173.358
 21
94.64870000000001
 31
0.0
  0
LINE
  5
DC
330
1E
100
AcDbEntity
  8
0
100
AcDbLine
 10
173.0
 20
97.0
 30
0.0
 11
173.0
 21
211.0
 31
0.0
  0
LINE
  5
DD
330
1E
100
AcDbEntity
  8
0
100
AcDbLine
 10
177.6029999999999
 20
5.99999999999999
 30
0.0
 11
183.7109999999999
 21
5.99999999999999
 31
0.0
  0
LINE
  5
DE
330
1E
100
AcDbEntity
  8
0
100
AcDbLine
 10
178.029
 20
36.4
 30
0.0
 11
182.3709999999999
 21
34.6286
 31
0.0
  0
LINE
  5
DF
330
1E
100
AcDbEntity
  8
0
100
AcDbLine
 10
178.3
 20
47.0
 30
0.0
 11
179.9
 21
44.9
 31
0.0
  0
LINE
  5
E0
330
1E
100
AcDbEntity
  8
0
100
AcDbLine
 10
179.9
 20
44.9
 30
0.0
 11
182.0
 21
43.3
 31
0.0
  0
LINE
  5
E1
330
1E
100
AcDbEntity
  8
0
100
AcDbLine
 10
178.3
 20
57.0
 30
0.0
 11
179.9
 21
59.1
 31
0.0
  0
LINE
  5
E2
330
1E
100
AcDbEntity
  8
0
100
AcDbLine
 10
179.9
 20
59.1
 30
0.0
 11
182.0
 21
60.7
 31
0.0
  0
LINE
  5
E3
330
1E
100
AcDbEntity
  8
0
100
AcDbLine
 10
178.2
 20
36.68569999999999
 30
0.0
 11
182.4289999999999
 21
34.91429999999999
 31
0.0
  0
LINE
  5
E4
330
1E
100
AcDbEntity
  8
0
100
AcDbLine
 10
178.2
 20
67.3143
 30
0.0
 11
182.4289999999999
 21
69.0857
 31
0.0
  0
LINE
  5
E5
330
1E
100
AcDbEntity
  8
0
100
AcDbLine
 10
178.029
 20
67.59999999999999
 30
0.0
 11
182.3709999999999
 21
69.37139999999999
 31
0.0
  0
LINE
  5
E6
330
1E
100
AcDbEntity
  8
0
100
AcDbLine
 10
179.685
 20
89.18359999999999
 30
0.0
 11
181.9209999999999
 21
88.4181
 31
0.0
  0
LINE
  5
E7
330
1E
100
AcDbEntity
  8
0
100
AcDbLine
 10
179.4309999999999
 20
88.8202
 30
0.0
 11
181.519
 21
87.94929999999999
 31
0.0
  0
LINE
  5
E8
330
1E
100
AcDbEntity
  8
0
100
AcDbLine
 10
182.0
 20
43.3
 30
0.0
 11
184.4
 21
42.4
 31
0.0
  0
LINE
  5
E9
330
1E
100
AcDbEntity
  8
0
100
AcDbLine
 10
182.0
 20
60.7
 30
0.0
 11
184.4
 21
61.6
 31
0.0
  0
LINE
  5
EA
330
1E
100
AcDbEntity
  8
0
100
AcDbLine
 10
182.3709999999999
 20
34.6286
 30
0.0
 11
187.0
 21
34.0
 31
0.0
  0
LINE
  5
EB
330
1E
100
AcDbEntity
  8
0
100
AcDbLine
 10
183.3999999999999
 20
45.505
 30
0.0
 11
183.3999999999999
 21
58.571
 31
0.0
  0
LINE
  5
EC
330
1E
100
AcDbEntity
  8
0
100
AcDbLine
 10
183.3999999999999
 20
45.505
 30
0.0
 11
183.3999999999999
 21
45.038
 31
0.0
  0
LINE
  5
ED
330
1E
100
AcDbEntity
  8
0
100
AcDbLine
 10
183.3999999999999
 20
45.505
 30
0.0
 11
187.0
 21
45.505
 31
0.0
  0
LINE
  5
EE
330
1E
100
AcDbEntity
  8
0
100
AcDbLine
 10
183.3999999999999
 20
45.038
 30
0.0
 11
187.0
 21
45.038
 31
0.0
  0
LINE
  5
EF
330
1E
100
AcDbEntity
  8
0
100
AcDbLine
 10
183.3999999999999
 20
45.038
 30
0.0
 11
183.3999999999999
 21
45.505
 31
0.0
  0
LINE
  5
F0
330
1E
100
AcDbEntity
  8
0
100
AcDbLine
 10
183.3999999999999
 20
58.571
 30
0.0
 11
187.0
 21
58.571
 31
0.0
  0
LINE
  5
F1
330
1E
100
AcDbEntity
  8
0
100
AcDbLine
 10
183.3999999999999
 20
58.571
 30
0.0
 11
183.3999999999999
 21
59.038
 31
0.0
  0
LINE
  5
F2
330
1E
100
AcDbEntity
  8
0
100
AcDbLine
 10
183.3999999999999
 20
58.571
 30
0.0
 11
183.3999999999999
 21
45.505
 31
0.0
  0
LINE
  5
F3
330
1E
100
AcDbEntity
  8
0
100
AcDbLine
 10
183.0
 20
58.571
 30
0.0
 11
183.3999999999999
 21
59.038
 31
0.0
  0
LINE
  5
F4
330
1E
100
AcDbEntity
  8
0
100
AcDbLine
 10
183.0
 20
58.571
 30
0.0
 11
183.0
 21
45.505
 31
0.0
  0
LINE
  5
F5
330
1E
100
AcDbEntity
  8
0
100
AcDbLine
 10
183.0
 20
58.571
 30
0.0
 11
183.3999999999999
 21
58.571
 31
0.0
  0
LINE
  5
F6
330
1E
100
AcDbEntity
  8
0
100
AcDbLine
 10
183.3999999999999
 20
59.038
 30
0.0
 11
187.0
 21
59.038
 31
0.0
  0
LINE
  5
F7
330
1E
100
AcDbEntity
  8
0
100
AcDbLine
 10
183.3999999999999
 20
59.038
 30
0.0
 11
183.3999999999999
 21
58.571
 31
0.0
  0
LINE
  5
F8
330
1E
100
AcDbEntity
  8
0
100
AcDbLine
 10
183.0
 20
45.505
 30
0.0
 11
183.0
 21
58.571
 31
0.0
  0
LINE
  5
F9
330
1E
100
AcDbEntity
  8
0
100
AcDbLine
 10
183.0
 20
45.505
 30
0.0
 11
183.3999999999999
 21
45.038
 31
0.0
  0
LINE
  5
FA
330
1E
100
AcDbEntity
  8
0
100
AcDbLine
 10
183.0
 20
45.505
 30
0.0
 11
183.3999999999999
 21
45.505
 31
0.0
  0
LINE
  5
FB
330
1E
100
AcDbEntity
  8
0
100
AcDbLine
 10
182.4289999999999
 20
34.91429999999999
 30
0.0
 11
187.0
 21
34.2857
 31
0.0
  0
LINE
  5
FC
330
1E
100
AcDbEntity
  8
0
100
AcDbLine
 10
182.4289999999999
 20
69.0857
 30
0.0
 11
187.0
 21
69.71429999999999
 31
0.0
  0
LINE
  5
FD
330
1E
100
AcDbEntity
  8
0
100
AcDbLine
 10
182.3709999999999
 20
69.37139999999999
 30
0.0
 11
187.0
 21
70.0
 31
0.0
  0
LINE
  5
FE
330
1E
100
AcDbEntity
  8
0
100
AcDbLine
 10
181.9209999999999
 20
88.4181
 30
0.0
 11
186.4059999999999
 21
86.6979
 31
0.0
  0
LINE
  5
FF
330
1E
100
AcDbEntity
  8
0
100
AcDbLine
 10
181.519
 20
87.94929999999999
 30
0.0
 11
186.0829999999999
 21
86.22799999999999
 31
0.0
  0
LINE
  5
100
330
1E
100
AcDbEntity
  8
0
100
AcDbLine
 10
183.7109999999999
 20
5.99999999999999
 30
0.0
 11
189.076
 21
5.99999999999999
 31
0.0
  0
LINE
  5
101
330
1E
100
AcDbEntity
  8
0
100
AcDbLine
 10
177.6859999999999
 20
5.62499999999999
 30
0.0
 11
183.959
 21
5.62499999999999
 31
0.0
  0
LINE
  5
102
330
1E
100
AcDbEntity
  8
0
100
AcDbLine
 10
183.959
 20
5.62499999999999
 30
0.0
 11
189.324
 21
5.62499999999999
 31
0.0
  0
LINE
  5
103
330
1E
100
AcDbEntity
  8
0
100
AcDbLine
 10
171.0
 20
-0.0000000000000105
 30
0.0
 11
177.6859999999999
 21
-0.0000000000000109
 31
0.0
  0
LINE
  5
104
330
1E
100
AcDbEntity
  8
0
100
AcDbLine
 10
177.6859999999999
 20
-0.0000000000000109
 30
0.0
 11
183.959
 21
-0.0000000000000113
 31
0.0
  0
LINE
  5
105
330
1E
100
AcDbEntity
  8
0
100
AcDbLine
 10
186.5
 20
5.99999999999999
 30
0.0
 11
187.375
 21
7.76209999999999
 31
0.0
  0
LINE
  5
106
330
1E
100
AcDbEntity
  8
0
100
AcDbLine
 10
187.0
 20
5.99999999999999
 30
0.0
 11
187.8249999999999
 21
7.50752999999999
 31
0.0
  0
LINE
  5
107
330
1E
100
AcDbEntity
  8
0
100
AcDbLine
 10
184.4
 20
42.4
 30
0.0
 11
187.0
 21
42.0
 31
0.0
  0
LINE
  5
108
330
1E
100
AcDbEntity
  8
0
100
AcDbLine
 10
184.4
 20
61.6
 30
0.0
 11
187.0
 21
62.0
 31
0.0
  0
LINE
  5
109
330
1E
100
AcDbEntity
  8
0
100
AcDbLine
 10
185.954
 20
105.377
 30
0.0
 11
185.954
 21
102.377
 31
0.0
  0
LINE
  5
10A
330
1E
100
AcDbEntity
  8
0
100
AcDbLine
 10
185.954
 20
102.377
 30
0.0
 11
185.954
 21
105.377
 31
0.0
  0
LINE
  5
10B
330
1E
100
AcDbEntity
  8
0
100
AcDbLine
 10
186.0829999999999
 20
86.22799999999999
 30
0.0
 11
189.8529999999999
 21
84.28040000000001
 31
0.0
  0
LINE
  5
10C
330
1E
100
AcDbEntity
  8
0
100
AcDbLine
 10
187.0
 20
45.505
 30
0.0
 11
190.5999999999999
 21
45.505
 31
0.0
  0
LINE
  5
10D
330
1E
100
AcDbEntity
  8
0
100
AcDbLine
 10
187.0
 20
58.571
 30
0.0
 11
190.5999999999999
 21
58.571
 31
0.0
  0
LINE
  5
10E
330
1E
100
AcDbEntity
  8
0
100
AcDbLine
 10
187.0
 20
59.038
 30
0.0
 11
190.5999999999999
 21
59.038
 31
0.0
  0
LINE
  5
10F
330
1E
100
AcDbEntity
  8
0
100
AcDbLine
 10
187.0
 20
45.038
 30
0.0
 11
190.5999999999999
 21
45.038
 31
0.0
  0
LINE
  5
110
330
1E
100
AcDbEntity
  8
0
100
AcDbLine
 10
187.0
 20
62.0
 30
0.0
 11
189.5999999999999
 21
61.6
 31
0.0
  0
LINE
  5
111
330
1E
100
AcDbEntity
  8
0
100
AcDbLine
 10
187.0
 20
42.0
 30
0.0
 11
189.5999999999999
 21
42.4
 31
0.0
  0
LINE
  5
112
330
1E
100
AcDbEntity
  8
0
100
AcDbLine
 10
187.0
 20
34.2857
 30
0.0
 11
191.5709999999999
 21
34.91429999999999
 31
0.0
  0
LINE
  5
113
330
1E
100
AcDbEntity
  8
0
100
AcDbLine
 10
187.0
 20
34.0
 30
0.0
 11
191.629
 21
34.6286
 31
0.0
  0
LINE
  5
114
330
1E
100
AcDbEntity
  8
0
100
AcDbLine
 10
187.0
 20
69.71429999999999
 30
0.0
 11
191.5709999999999
 21
69.0857
 31
0.0
  0
LINE
  5
115
330
1E
100
AcDbEntity
  8
0
100
AcDbLine
 10
187.0
 20
70.0
 30
0.0
 11
191.629
 21
69.37139999999999
 31
0.0
  0
LINE
  5
116
330
1E
100
AcDbEntity
  8
0
100
AcDbLine
 10
187.375
 20
7.76209999999999
 30
0.0
 11
190.209
 21
12.69449999999999
 31
0.0
  0
LINE
  5
117
330
1E
100
AcDbEntity
  8
0
100
AcDbLine
 10
187.8249999999999
 20
7.50752999999999
 30
0.0
 11
190.8749999999999
 21
12.1608
 31
0.0
  0
LINE
  5
118
330
1E
100
AcDbEntity
  8
0
100
AcDbLine
 10
186.4059999999999
 20
86.6979
 30
0.0
 11
190.254
 21
84.67019999999999
 31
0.0
  0
LINE
  5
119
330
1E
100
AcDbEntity
  8
0
100
AcDbLine
 10
189.076
 20
5.99999999999999
 30
0.0
 11
193.1209999999999
 21
5.99999999999999
 31
0.0
  0
LINE
  5
11A
330
1E
100
AcDbEntity
  8
0
100
AcDbLine
 10
190.5999999999999
 20
45.505
 30
0.0
 11
191.0
 21
45.505
 31
0.0
  0
LINE
  5
11B
330
1E
100
AcDbEntity
  8
0
100
AcDbLine
 10
190.5999999999999
 20
45.505
 30
0.0
 11
190.5999999999999
 21
45.038
 31
0.0
  0
LINE
  5
11C
330
1E
100
AcDbEntity
  8
0
100
AcDbLine
 10
190.5999999999999
 20
45.505
 30
0.0
 11
190.5999999999999
 21
58.571
 31
0.0
  0
LINE
  5
11D
330
1E
100
AcDbEntity
  8
0
100
AcDbLine
 10
190.5999999999999
 20
58.571
 30
0.0
 11
190.5999999999999
 21
59.038
 31
0.0
  0
LINE
  5
11E
330
1E
100
AcDbEntity
  8
0
100
AcDbLine
 10
190.5999999999999
 20
58.571
 30
0.0
 11
191.0
 21
58.571
 31
0.0
  0
LINE
  5
11F
330
1E
100
AcDbEntity
  8
0
100
AcDbLine
 10
190.5999999999999
 20
58.571
 30
0.0
 11
190.5999999999999
 21
45.505
 31
0.0
  0
LINE
  5
120
330
1E
100
AcDbEntity
  8
0
100
AcDbLine
 10
190.5999999999999
 20
45.038
 30
0.0
 11
191.0
 21
45.505
 31
0.0
  0
LINE
  5
121
330
1E
100
AcDbEntity
  8
0
100
AcDbLine
 10
190.5999999999999
 20
45.038
 30
0.0
 11
190.5999999999999
 21
45.505
 31
0.0
  0
LINE
  5
122
330
1E
100
AcDbEntity
  8
0
100
AcDbLine
 10
190.5999999999999
 20
59.038
 30
0.0
 11
191.0
 21
58.571
 31
0.0
  0
LINE
  5
123
330
1E
100
AcDbEntity
  8
0
100
AcDbLine
 10
190.5999999999999
 20
59.038
 30
0.0
 11
190.5999999999999
 21
58.571
 31
0.0
  0
LINE
  5
124
330
1E
100
AcDbEntity
  8
0
100
AcDbLine
 10
189.5999999999999
 20
61.6
 30
0.0
 11
192.0
 21
60.7
 31
0.0
  0
LINE
  5
125
330
1E
100
AcDbEntity
  8
0
100
AcDbLine
 10
189.5999999999999
 20
42.4
 30
0.0
 11
192.0
 21
43.3
 31
0.0
  0
LINE
  5
126
330
1E
100
AcDbEntity
  8
0
100
AcDbLine
 10
190.8749999999999
 20
12.1608
 30
0.0
 11
195.4749999999999
 21
19.2314
 31
0.0
  0
LINE
  5
127
330
1E
100
AcDbEntity
  8
0
100
AcDbLine
 10
190.254
 20
84.67019999999999
 30
0.0
 11
194.487
 21
81.8468
 31
0.0
  0
LINE
  5
128
330
1E
100
AcDbEntity
  8
0
100
AcDbLine
 10
189.8529999999999
 20
84.28040000000001
 30
0.0
 11
194.085
 21
81.378
 31
0.0
  0
LINE
  5
129
330
1E
100
AcDbEntity
  8
0
100
AcDbLine
 10
191.0
 20
45.505
 30
0.0
 11
191.0
 21
58.571
 31
0.0
  0
LINE
  5
12A
330
1E
100
AcDbEntity
  8
0
100
AcDbLine
 10
191.0
 20
58.571
 30
0.0
 11
191.0
 21
45.505
 31
0.0
  0
LINE
  5
12B
330
1E
100
AcDbEntity
  8
0
100
AcDbLine
 10
191.5709999999999
 20
34.91429999999999
 30
0.0
 11
195.8
 21
36.68569999999999
 31
0.0
  0
LINE
  5
12C
330
1E
100
AcDbEntity
  8
0
100
AcDbLine
 10
192.0
 20
60.7
 30
0.0
 11
194.1
 21
59.1
 31
0.0
  0
LINE
  5
12D
330
1E
100
AcDbEntity
  8
0
100
AcDbLine
 10
192.0
 20
43.3
 30
0.0
 11
194.1
 21
44.9
 31
0.0
  0
LINE
  5
12E
330
1E
100
AcDbEntity
  8
0
100
AcDbLine
 10
191.629
 20
34.6286
 30
0.0
 11
195.9709999999999
 21
36.4
 31
0.0
  0
LINE
  5
12F
330
1E
100
AcDbEntity
  8
0
100
AcDbLine
 10
191.5709999999999
 20
69.0857
 30
0.0
 11
195.8
 21
67.3143
 31
0.0
  0
LINE
  5
130
330
1E
100
AcDbEntity
  8
0
100
AcDbLine
 10
191.629
 20
69.37139999999999
 30
0.0
 11
195.9709999999999
 21
67.59999999999999
 31
0.0
  0
LINE
  5
131
330
1E
100
AcDbEntity
  8
0
100
AcDbLine
 10
193.1209999999999
 20
5.99999999999999
 30
0.0
 11
195.6789999999999
 21
5.99999999999999
 31
0.0
  0
LINE
  5
132
330
1E
100
AcDbEntity
  8
0
100
AcDbLine
 10
189.324
 20
5.62499999999999
 30
0.0
 11
193.533
 21
5.62499999999999
 31
0.0
  0
LINE
  5
133
330
1E
100
AcDbEntity
  8
0
100
AcDbLine
 10
193.533
 20
5.62499999999999
 30
0.0
 11
196.092
 21
5.62499999999999
 31
0.0
  0
LINE
  5
134
330
1E
100
AcDbEntity
  8
0
100
AcDbLine
 10
183.959
 20
-0.0000000000000113
 30
0.0
 11
189.324
 21
-0.0000000000000116
 31
0.0
  0
LINE
  5
135
330
1E
100
AcDbEntity
  8
0
100
AcDbLine
 10
189.324
 20
-0.0000000000000116
 30
0.0
 11
193.533
 21
-0.0000000000000119
 31
0.0
  0
LINE
  5
136
330
1E
100
AcDbEntity
  8
0
100
AcDbLine
 10
196.092
 20
5.62499999999999
 30
0.0
 11
197.0
 21
5.62499999999999
 31
0.0
  0
LINE
  5
137
330
1E
100
AcDbEntity
  8
0
100
AcDbLine
 10
194.1
 20
59.1
 30
0.0
 11
195.6999999999999
 21
57.0
 31
0.0
  0
LINE
  5
138
330
1E
100
AcDbEntity
  8
0
100
AcDbLine
 10
194.1
 20
44.9
 30
0.0
 11
195.6999999999999
 21
47.0
 31
0.0
  0
LINE
  5
139
330
1E
100
AcDbEntity
  8
0
100
AcDbLine
 10
195.6999999999999
 20
57.0
 30
0.0
 11
196.6
 21
54.6
 31
0.0
  0
LINE
  5
13A
330
1E
100
AcDbEntity
  8
0
100
AcDbLine
 10
195.6999999999999
 20
47.0
 30
0.0
 11
196.6
 21
49.4
 31
0.0
  0
LINE
  5
13B
330
1E
100
AcDbEntity
  8
0
100
AcDbLine
 10
195.8
 20
36.68569999999999
 30
0.0
 11
199.514
 21
39.4857
 31
0.0
  0
LINE
  5
13C
330
1E
100
AcDbEntity
  8
0
100
AcDbLine
 10
195.9709999999999
 20
36.4
 30
0.0
 11
199.6859999999999
 21
39.3143
 31
0.0
  0
LINE
  5
13D
330
1E
100
AcDbEntity
  8
0
100
AcDbLine
 10
195.8
 20
67.3143
 30
0.0
 11
199.514
 21
64.51430000000001
 31
0.0
  0
LINE
  5
13E
330
1E
100
AcDbEntity
  8
0
100
AcDbLine
 10
195.9709999999999
 20
67.59999999999999
 30
0.0
 11
199.6859999999999
 21
64.68569999999999
 31
0.0
  0
LINE
  5
13F
330
1E
100
AcDbEntity
  8
0
100
AcDbLine
 10
195.4749999999999
 20
19.2314
 30
0.0
 11
198.4079999999999
 21
23.9006
 31
0.0
  0
LINE
  5
140
330
1E
100
AcDbEntity
  8
0
100
AcDbLine
 10
194.487
 20
81.8468
 30
0.0
 11
198.0449999999999
 21
78.7535
 31
0.0
  0
LINE
  5
141
330
1E
100
AcDbEntity
  8
0
100
AcDbLine
 10
194.085
 20
81.378
 30
0.0
 11
197.6029999999999
 21
78.32720000000001
 31
0.0
  0
LINE
  5
142
330
1E
100
AcDbEntity
  8
0
100
AcDbLine
 10
195.6789999999999
 20
5.99999999999999
 30
0.0
 11
196.587
 21
5.99999999999999
 31
0.0
  0
LINE
  5
143
330
1E
100
AcDbEntity
  8
0
100
AcDbLine
 10
198.4079999999999
 20
23.9006
 30
0.0
 11
201.1279999999999
 21
28.8841
 31
0.0
  0
LINE
  5
144
330
1E
100
AcDbEntity
  8
0
100
AcDbLine
 10
196.6
 20
54.6
 30
0.0
 11
197.0
 21
52.0
 31
0.0
  0
LINE
  5
145
330
1E
100
AcDbEntity
  8
0
100
AcDbLine
 10
196.6
 20
49.4
 30
0.0
 11
197.0
 21
52.0
 31
0.0
  0
LINE
  5
146
330
1E
100
AcDbEntity
  8
0
100
AcDbLine
 10
199.514
 20
39.4857
 30
0.0
 11
202.314
 21
43.2
 31
0.0
  0
LINE
  5
147
330
1E
100
AcDbEntity
  8
0
100
AcDbLine
 10
199.6859999999999
 20
39.3143
 30
0.0
 11
202.5999999999999
 21
43.0285
 31
0.0
  0
LINE
  5
148
330
1E
100
AcDbEntity
  8
0
100
AcDbLine
 10
199.514
 20
64.51430000000001
 30
0.0
 11
202.314
 21
60.8
 31
0.0
  0
LINE
  5
149
330
1E
100
AcDbEntity
  8
0
100
AcDbLine
 10
199.6859999999999
 20
64.68569999999999
 30
0.0
 11
202.5999999999999
 21
60.9715
 31
0.0
  0
LINE
  5
14A
330
1E
100
AcDbEntity
  8
0
100
AcDbLine
 10
200.654
 20
29.2795
 30
0.0
 11
203.499
 21
33.54979999999999
 31
0.0
  0
LINE
  5
14B
330
1E
100
AcDbEntity
  8
0
100
AcDbLine
 10
202.314
 20
43.2
 30
0.0
 11
204.0859999999999
 21
47.4286
 31
0.0
  0
LINE
  5
14C
330
1E
100
AcDbEntity
  8
0
100
AcDbLine
 10
202.5999999999999
 20
43.0285
 30
0.0
 11
204.3709999999999
 21
47.3714
 31
0.0
  0
LINE
  5
14D
330
1E
100
AcDbEntity
  8
0
100
AcDbLine
 10
202.314
 20
60.8
 30
0.0
 11
204.0859999999999
 21
56.5714
 31
0.0
  0
LINE
  5
14E
330
1E
100
AcDbEntity
  8
0
100
AcDbLine
 10
202.5999999999999
 20
60.9715
 30
0.0
 11
204.3709999999999
 21
56.6286
 31
0.0
  0
LINE
  5
14F
330
1E
100
AcDbEntity
  8
0
100
AcDbLine
 10
203.499
 20
33.54979999999999
 30
0.0
 11
205.3949999999999
 21
37.3456
 31
0.0
  0
LINE
  5
150
330
1E
100
AcDbEntity
  8
0
100
AcDbLine
 10
201.1279999999999
 20
28.8841
 30
0.0
 11
203.894
 21
33.1544
 31
0.0
  0
LINE
  5
151
330
1E
100
AcDbEntity
  8
0
100
AcDbLine
 10
204.0859999999999
 20
47.4286
 30
0.0
 11
204.714
 21
52.0
 31
0.0
  0
LINE
  5
152
330
1E
100
AcDbEntity
  8
0
100
AcDbLine
 10
204.3709999999999
 20
47.3714
 30
0.0
 11
205.0
 21
52.0
 31
0.0
  0
LINE
  5
153
330
1E
100
AcDbEntity
  8
0
100
AcDbLine
 10
204.0859999999999
 20
56.5714
 30
0.0
 11
204.714
 21
52.0
 31
0.0
  0
LINE
  5
154
330
1E
100
AcDbEntity
  8
0
100
AcDbLine
 10
204.3709999999999
 20
56.6286
 30
0.0
 11
205.0
 21
52.0
 31
0.0
  0
LINE
  5
155
330
1E
100
AcDbEntity
  8
0
100
AcDbLine
 10
205.3949999999999
 20
37.3456
 30
0.0
 11
207.0549999999999
 21
41.93229999999999
 31
0.0
  0
LINE
  5
156
330
1E
100
AcDbEntity
  8
0
100
AcDbLine
 10
203.894
 20
33.1544
 30
0.0
 11
205.8699999999999
 21
37.0293
 31
0.0
  0
LINE
  5
157
330
1E
100
AcDbEntity
  8
0
100
AcDbLine
 10
207.0549999999999
 20
41.93229999999999
 30
0.0
 11
208.162
 21
46.91429999999999
 31
0.0
  0
LINE
  5
158
330
1E
100
AcDbEntity
  8
0
100
AcDbLine
 10
205.8699999999999
 20
37.0293
 30
0.0
 11
207.529
 21
41.5369
 31
0.0
  0
LINE
  5
159
330
1E
100
AcDbEntity
  8
0
100
AcDbLine
 10
208.162
 20
46.91429999999999
 30
0.0
 11
208.4999999999999
 21
52.0
 31
0.0
  0
LINE
  5
15A
330
1E
100
AcDbEntity
  8
0
100
AcDbLine
 10
208.557
 20
46.59799999999999
 30
0.0
 11
209.0
 21
52.0
 31
0.0
  0
LINE
  5
15B
330
1E
100
AcDbEntity
  8
0
100
AcDbLine
 10
207.529
 20
41.5369
 30
0.0
 11
208.557
 21
46.59799999999999
 31
0.0
  0
LINE
  5
15C
330
1E
100
AcDbEntity
  8
0
100
AcDbLine
 10
208.162
 20
57.0857
 30
0.0
 11
208.4999999999999
 21
52.0
 31
0.0
  0
LINE
  5
15D
330
1E
100
AcDbEntity
  8
0
100
AcDbLine
 10
208.557
 20
57.402
 30
0.0
 11
209.0
 21
52.0
 31
0.0
  0
LINE
  5
15E
330
1E
100
AcDbEntity
  8
0
100
AcDbLine
 10
207.529
 20
62.4631
 30
0.0
 11
208.557
 21
57.402
 31
0.0
  0
LINE
  5
15F
330
1E
100
AcDbEntity
  8
0
100
AcDbLine
 10
207.0549999999999
 20
62.0677
 30
0.0
 11
208.162
 21
57.0857
 31
0.0
  0
LINE
  5
160
330
1E
100
AcDbEntity
  8
0
100
AcDbLine
 10
205.8699999999999
 20
66.9707
 30
0.0
 11
207.529
 21
62.4631
 31
0.0
  0
LINE
  5
161
330
1E
100
AcDbEntity
  8
0
100
AcDbLine
 10
205.3949999999999
 20
66.6544
 30
0.0
 11
207.0549999999999
 21
62.0677
 31
0.0
  0
LINE
  5
162
330
1E
100
AcDbEntity
  8
0
100
AcDbLine
 10
203.894
 20
70.8456
 30
0.0
 11
205.8699999999999
 21
66.9707
 31
0.0
  0
LINE
  5
163
330
1E
100
AcDbEntity
  8
0
100
AcDbLine
 10
203.499
 20
70.4502
 30
0.0
 11
205.3949999999999
 21
66.6544
 31
0.0
  0
LINE
  5
164
330
1E
100
AcDbEntity
  8
0
100
AcDbLine
 10
201.1279999999999
 20
75.11589999999999
 30
0.0
 11
203.894
 21
70.8456
 31
0.0
  0
LINE
  5
165
330
1E
100
AcDbEntity
  8
0
100
AcDbLine
 10
200.654
 20
74.7205
 30
0.0
 11
203.499
 21
70.4502
 31
0.0
  0
LINE
  5
166
330
1E
100
AcDbEntity
  8
0
100
AcDbLine
 10
198.0449999999999
 20
78.7535
 30
0.0
 11
201.1279999999999
 21
75.11589999999999
 31
0.0
  0
LINE
  5
167
330
1E
100
AcDbEntity
  8
0
100
AcDbLine
 10
197.6029999999999
 20
78.32720000000001
 30
0.0
 11
200.654
 21
74.7205
 31
0.0
  0
LINE
  5
168
330
1E
100
AcDbEntity
  8
0
100
AcDbLine
 10
196.587
 20
5.99999999999999
 30
0.0
 11
197.0
 21
5.62499999999999
 31
0.0
  0
LINE
  5
169
330
1E
100
AcDbEntity
  8
0
100
AcDbLine
 10
197.0
 20
5.62499999999999
 30
0.0
 11
197.0
 21
-0.0000000000000122
 31
0.0
  0
LINE
  5
16A
330
1E
100
AcDbEntity
  8
0
100
AcDbLine
 10
193.533
 20
-0.0000000000000119
 30
0.0
 11
196.092
 21
-0.000000000000012
 31
0.0
  0
LINE
  5
16B
330
1E
100
AcDbEntity
  8
0
100
AcDbLine
 10
196.092
 20
-0.000000000000012
 30
0.0
 11
197.0
 21
-0.0000000000000121
 31
0.0
  0
LINE
  5
16C
330
1E
100
AcDbEntity
  8
0
100
AcDbLine
 10
0.0000000000000117
 20
191.5
 30
0.0
 11
0.0000000000000129
 21
211.0
 31
0.0
  0
LINE
  5
16D
330
1E
100
AcDbEntity
  8
0
100
AcDbLine
 10
0.0000000000000117
 20
191.5
 30
0.0
 11
0.500000000000012
 21
191.5
 31
0.0
  0
LINE
  5
16E
330
1E
100
AcDbEntity
  8
0
100
AcDbLine
 10
0.0000000000000117
 20
191.5
 30
0.0
 11
0.500000000000012
 21
191.0
 31
0.0
  0
LINE
  5
173
330
1E
100
AcDbEntity
  8
0
100
AcDbLine
 10
190.209
 20
12.69449999999999
 30
0.0
 11
200.654
 21
29.2795
 31
0.0
  0
ENDSEC
  0
SECTION
  2
OBJECTS
  0
DICTIONARY
  5
C
330
0
100
AcDbDictionary
281
     1
  3
ACAD_GROUP
350
D
  3
ACAD_LAYOUT
350
19
  3
ACAD_MLINESTYLE
350
16
  3
ACAD_PLOTSETTINGS
350
18
  3
ACAD_PLOTSTYLENAME
350
E
  3
AcDbVariableDictionary
350
175
  0
DICTIONARY
  5
D
102
{ACAD_REACTORS
330
C
102
}
330
C
100
AcDbDictionary
281
     1
  0
DICTIONARY
  5
19
102
{ACAD_REACTORS
330
C
102
}
330
C
100
AcDbDictionary
281
     1
  3
Layout1
350
1D
  3
Model
350
21
  0
DICTIONARY
  5
16
102
{ACAD_REACTORS
330
C
102
}
330
C
100
AcDbDictionary
281
     1
  3
Standard
350
17
  0
DICTIONARY
  5
18
102
{ACAD_REACTORS
330
C
102
}
330
C
100
AcDbDictionary
281
     1
  0
ACDBDICTIONARYWDFLT
  5
E
102
{ACAD_REACTORS
330
C
102
}
330
C
100
AcDbDictionary
281
     1
  3
Normal
350
F
100
AcDbDictionaryWithDefault
340
F
  0
DICTIONARY
  5
175
102
{ACAD_REACTORS
330
C
102
}
330
C
100
AcDbDictionary
281
     1
  3
DIMASSOC
350
176
  0
LAYOUT
  5
1D
102
{ACAD_REACTORS
330
19
102
}
330
19
100
AcDbPlotSettings
  1

  2
hp deskjet 980c series
  4

  6

 40
0.0
 41
0.0
 42
0.0
 43
0.0
 44
0.0
 45
0.0
 46
0.0
 47
0.0
 48
0.0
 49
0.0
140
0.0
141
0.0
142
1.0
143
1.0
 70
   688
 72
     0
 73
     0
 74
     5
  7

 75
    16
147
1.0
148
0.0
149
0.0
100
AcDbLayout
  1
Layout1
 70
     1
 71
     1
 10
0.0
 20
0.0
 11
12.0
 21
9.0
 12
0.0
 22
0.0
 32
0.0
 14
1.000000000000000E+20
 24
1.000000000000000E+20
 34
1.000000000000000E+20
 15
-1.000000000000000E+20
 25
-1.000000000000000E+20
 35
-1.000000000000000E+20
146
0.0
 13
0.0
 23
0.0
 33
0.0
 16
1.0
 26
0.0
 36
0.0
 17
0.0
 27
1.0
 37
0.0
 76
     0
330
1A
  0
LAYOUT
  5
21
102
{ACAD_REACTORS
330
19
102
}
330
19
100
AcDbPlotSettings
  1

  2
hp deskjet 980c series
  4

  6

 40
0.0
 41
0.0
 42
0.0
 43
0.0
 44
0.0
 45
0.0
 46
0.0
 47
0.0
 48
0.0
 49
0.0
140
0.0
141
0.0
142
1.0
143
1.0
 70
  1712
 72
     0
 73
     0
 74
     0
  7

 75
     0
147
1.0
148
0.0
149
0.0
100
AcDbLayout
  1
Model
 70
     1
 71
     0
 10
0.0
 20
0.0
 11
12.0
 21
9.0
 12
0.0
 22
0.0
 32
0.0
 14
0.0
 24
0.0
 34
0.0
 15
0.0
 25
0.0
 35
0.0
146
0.0
 13
0.0
 23
0.0
 33
0.0
 16
1.0
 26
0.0
 36
0.0
 17
0.0
 27
1.0
 37
0.0
 76
     0
330
1E
  0
MLINESTYLE
  5
17
102
{ACAD_REACTORS
330
16
102
}
330
16
100
AcDbMlineStyle
  2
STANDARD
 70
     0
  3

 62
   256
 51
90.0
 52
90.0
 71
     2
 49
0.5
 62
   256
  6
BYLAYER
 49
-0.5
 62
   256
  6
BYLAYER
  0
ACDBPLACEHOLDER
  5
F
102
{ACAD_REACTORS
330
E
102
}
330
E
  0
DICTIONARYVAR
  5
176
102
{ACAD_REACTORS
330
175
102
}
330
175
100
DictionaryVariables
280
     0
  1
1
  0
ENDSEC
  0
EOF
