  0
SECTION
  2
HEADER
  9
$ACADVER
  1
AC1014
  9
$ACADMAINTVER
 70
     9
  9
$DWGCODEPAGE
  3
ANSI_1252
  9
$INSBASE
 10
0.0
 20
0.0
 30
0.0
  9
$EXTMIN
 10
0.000000000000002
 20
0.172099999999995
 30
0.0
  9
$EXTMAX
 10
118.0
 20
153.8278999999999
 30
0.0
  9
$LIMMIN
 10
0.0
 20
0.0
  9
$LIMMAX
 10
12.0
 20
9.0
  9
$ORTHOMODE
 70
     0
  9
$REGENMODE
 70
     1
  9
$FILLMODE
 70
     1
  9
$QTEXTMODE
 70
     0
  9
$MIRRTEXT
 70
     1
  9
$DRAGMODE
 70
     2
  9
$LTSCALE
 40
1.0
  9
$OSMODE
 70
    37
  9
$ATTMODE
 70
     1
  9
$TEXTSIZE
 40
0.2
  9
$TRACEWID
 40
0.05
  9
$TEXTSTYLE
  7
STANDARD
  9
$CLAYER
  8
0
  9
$CELTYPE
  6
CONTINUOUS
  9
$CECOLOR
 62
   256
  9
$CELTSCALE
 40
1.0
  9
$DELOBJ
 70
     1
  9
$DISPSILH
 70
     0
  9
$DIMSCALE
 40
1.0
  9
$DIMASZ
 40
0.18
  9
$DIMEXO
 40
0.0625
  9
$DIMDLI
 40
0.38
  9
$DIMRND
 40
0.0
  9
$DIMDLE
 40
0.0
  9
$DIMEXE
 40
0.18
  9
$DIMTP
 40
0.0
  9
$DIMTM
 40
0.0
  9
$DIMTXT
 40
0.18
  9
$DIMCEN
 40
0.09
  9
$DIMTSZ
 40
0.0
  9
$DIMTOL
 70
     0
  9
$DIMLIM
 70
     0
  9
$DIMTIH
 70
     1
  9
$DIMTOH
 70
     1
  9
$DIMSE1
 70
     0
  9
$DIMSE2
 70
     0
  9
$DIMTAD
 70
     0
  9
$DIMZIN
 70
     0
  9
$DIMBLK
  1

  9
$DIMASO
 70
     1
  9
$DIMSHO
 70
     1
  9
$DIMPOST
  1

  9
$DIMAPOST
  1

  9
$DIMALT
 70
     0
  9
$DIMALTD
 70
     2
  9
$DIMALTF
 40
25.4
  9
$DIMLFAC
 40
1.0
  9
$DIMTOFL
 70
     0
  9
$DIMTVP
 40
0.0
  9
$DIMTIX
 70
     0
  9
$DIMSOXD
 70
     0
  9
$DIMSAH
 70
     0
  9
$DIMBLK1
  1

  9
$DIMBLK2
  1

  9
$DIMSTYLE
  2
STANDARD
  9
$DIMCLRD
 70
     0
  9
$DIMCLRE
 70
     0
  9
$DIMCLRT
 70
     0
  9
$DIMTFAC
 40
1.0
  9
$DIMGAP
 40
0.09
  9
$DIMJUST
 70
     0
  9
$DIMSD1
 70
     0
  9
$DIMSD2
 70
     0
  9
$DIMTOLJ
 70
     1
  9
$DIMTZIN
 70
     0
  9
$DIMALTZ
 70
     0
  9
$DIMALTTZ
 70
     0
  9
$DIMFIT
 70
     3
  9
$DIMUPT
 70
     0
  9
$DIMUNIT
 70
     2
  9
$DIMDEC
 70
     4
  9
$DIMTDEC
 70
     4
  9
$DIMALTU
 70
     2
  9
$DIMALTTD
 70
     2
  9
$DIMTXSTY
  7
STANDARD
  9
$DIMAUNIT
 70
     0
  9
$LUNITS
 70
     2
  9
$LUPREC
 70
     4
  9
$SKETCHINC
 40
0.1
  9
$FILLETRAD
 40
0.0
  9
$AUNITS
 70
     0
  9
$AUPREC
 70
     0
  9
$MENU
  1
.
  9
$ELEVATION
 40
0.0
  9
$PELEVATION
 40
0.0
  9
$THICKNESS
 40
0.0
  9
$LIMCHECK
 70
     0
  9
$BLIPMODE
 70
     0
  9
$CHAMFERA
 40
0.0
  9
$CHAMFERB
 40
0.0
  9
$CHAMFERC
 40
0.0
  9
$CHAMFERD
 40
0.0
  9
$SKPOLY
 70
     0
  9
$TDCREATE
 40
2455235.747920278
  9
$TDUPDATE
 40
2455235.750001261
  9
$TDINDWG
 40
0.0020811690
  9
$TDUSRTIMER
 40
0.0020811690
  9
$USRTIMER
 70
     1
  9
$ANGBASE
 50
0.0
  9
$ANGDIR
 70
     0
  9
$PDMODE
 70
     0
  9
$PDSIZE
 40
0.0
  9
$PLINEWID
 40
0.0
  9
$COORDS
 70
     1
  9
$SPLFRAME
 70
     0
  9
$SPLINETYPE
 70
     6
  9
$SPLINESEGS
 70
     8
  9
$ATTDIA
 70
     0
  9
$ATTREQ
 70
     1
  9
$HANDLING
 70
 22529
  9
$HANDSEED
  5
236
  9
$SURFTAB1
 70
     6
  9
$SURFTAB2
 70
     6
  9
$SURFTYPE
 70
     6
  9
$SURFU
 70
     6
  9
$SURFV
 70
     6
  9
$UCSNAME
  2

  9
$UCSORG
 10
0.0
 20
0.0
 30
0.0
  9
$UCSXDIR
 10
1.0
 20
0.0
 30
0.0
  9
$UCSYDIR
 10
0.0
 20
1.0
 30
0.0
  9
$PUCSNAME
  2

  9
$PUCSORG
 10
0.0
 20
0.0
 30
0.0
  9
$PUCSXDIR
 10
1.0
 20
0.0
 30
0.0
  9
$PUCSYDIR
 10
0.0
 20
1.0
 30
0.0
  9
$USERI1
 70
     0
  9
$USERI2
 70
     0
  9
$USERI3
 70
     0
  9
$USERI4
 70
     0
  9
$USERI5
 70
     0
  9
$USERR1
 40
0.0
  9
$USERR2
 40
0.0
  9
$USERR3
 40
0.0
  9
$USERR4
 40
0.0
  9
$USERR5
 40
0.0
  9
$WORLDVIEW
 70
     1
  9
$SHADEDGE
 70
     3
  9
$SHADEDIF
 70
    70
  9
$TILEMODE
 70
     1
  9
$MAXACTVP
 70
    64
  9
$PINSBASE
 10
0.0
 20
0.0
 30
0.0
  9
$PLIMCHECK
 70
     0
  9
$PEXTMIN
 10
1.000000000000000E+20
 20
1.000000000000000E+20
 30
1.000000000000000E+20
  9
$PEXTMAX
 10
-1.000000000000000E+20
 20
-1.000000000000000E+20
 30
-1.000000000000000E+20
  9
$PLIMMIN
 10
0.0
 20
0.0
  9
$PLIMMAX
 10
12.0
 20
9.0
  9
$UNITMODE
 70
     0
  9
$VISRETAIN
 70
     1
  9
$PLINEGEN
 70
     0
  9
$PSLTSCALE
 70
     1
  9
$TREEDEPTH
 70
  3020
  9
$PICKSTYLE
 70
     1
  9
$CMLSTYLE
  2
STANDARD
  9
$CMLJUST
 70
     0
  9
$CMLSCALE
 40
1.0
  9
$PROXYGRAPHICS
 70
     1
  9
$MEASUREMENT
 70
     0
  0
ENDSEC
  0
SECTION
  2
CLASSES
  0
CLASS
  1
ACDBDICTIONARYWDFLT
  2
AcDbDictionaryWithDefault
  3
AutoCAD 2000
 90
        0
280
     0
281
     0
  0
CLASS
  1
ACDBPLACEHOLDER
  2
AcDbPlaceHolder
  3
AutoCAD 2000
 90
        0
280
     0
281
     0
  0
CLASS
  1
LAYOUT
  2
AcDbLayout
  3
AutoCAD 2000
 90
        0
280
     0
281
     0
  0
CLASS
  1
DICTIONARYVAR
  2
AcDbDictionaryVar
  3
AutoCAD 2000
 90
        0
280
     0
281
     0
  0
CLASS
  1
LONG_TRANSACTION
  2
AcDbLongTransaction
  3
AutoCAD 2000
 90
        0
280
     0
281
     0
  0
CLASS
  1
LWPOLYLINE
  2
AcDbPolyline
  3
AutoCAD 2000
 90
        0
280
     0
281
     1
  0
CLASS
  1
HATCH
  2
AcDbHatch
  3
AutoCAD 2000
 90
        0
280
     0
281
     1
  0
CLASS
  1
XRECORD
  2
AcDbXrecord
  3
AutoCAD 2000
 90
        0
280
     0
281
     0
  0
ENDSEC
  0
SECTION
  2
TABLES
  0
TABLE
  2
VPORT
  5
8
330
0
100
AcDbSymbolTable
 70
     2
  0
VPORT
  5
211
330
8
100
AcDbSymbolTableRecord
100
AcDbViewportTableRecord
  2
*ACTIVE
 70
     0
 10
0.0
 20
0.0
 11
1.0
 21
1.0
 12
59.0
 22
77.0
 13
0.0
 23
0.0
 14
1.0
 24
1.0
 15
0.0
 25
0.0
 16
0.0
 26
0.0
 36
1.0
 17
0.0
 27
0.0
 37
0.0
 40
154.6644814004376
 41
2.041621029572836
 42
50.0
 43
0.0
 44
0.0
 50
0.0
 51
0.0
 71
     0
 72
   100
 73
     1
 74
     3
 75
     0
 76
     0
 77
     0
 78
     0
  0
ENDTAB
  0
TABLE
  2
LTYPE
  5
5
330
0
100
AcDbSymbolTable
 70
     1
  0
LTYPE
  5
13
330
5
100
AcDbSymbolTableRecord
100
AcDbLinetypeTableRecord
  2
BYBLOCK
 70
     0
  3

 72
    65
 73
     0
 40
0.0
  0
LTYPE
  5
14
330
5
100
AcDbSymbolTableRecord
100
AcDbLinetypeTableRecord
  2
BYLAYER
 70
     0
  3

 72
    65
 73
     0
 40
0.0
  0
LTYPE
  5
15
330
5
100
AcDbSymbolTableRecord
100
AcDbLinetypeTableRecord
  2
CONTINUOUS
 70
     0
  3
Solid line
 72
    65
 73
     0
 40
0.0
  0
ENDTAB
  0
TABLE
  2
LAYER
  5
2
330
0
100
AcDbSymbolTable
 70
     1
  0
LAYER
  5
10
330
2
100
AcDbSymbolTableRecord
100
AcDbLayerTableRecord
  2
0
 70
     0
 62
     7
  6
CONTINUOUS
  0
ENDTAB
  0
TABLE
  2
STYLE
  5
3
330
0
100
AcDbSymbolTable
 70
     1
  0
STYLE
  5
11
330
3
100
AcDbSymbolTableRecord
100
AcDbTextStyleTableRecord
  2
STANDARD
 70
     0
 40
0.0
 41
1.0
 50
0.0
 71
     0
 42
0.2
  3
txt
  4

  0
ENDTAB
  0
TABLE
  2
VIEW
  5
6
330
0
100
AcDbSymbolTable
 70
     0
  0
ENDTAB
  0
TABLE
  2
UCS
  5
7
330
0
100
AcDbSymbolTable
 70
     0
  0
ENDTAB
  0
TABLE
  2
APPID
  5
9
330
0
100
AcDbSymbolTable
 70
     1
  0
APPID
  5
12
330
9
100
AcDbSymbolTableRecord
100
AcDbRegAppTableRecord
  2
ACAD
 70
     0
  0
ENDTAB
  0
TABLE
  2
DIMSTYLE
  5
A
330
0
100
AcDbSymbolTable
 70
     1
  0
DIMSTYLE
105
207
330
A
100
AcDbSymbolTableRecord
100
AcDbDimStyleTableRecord
  2
STANDARD
 70
     0
  3

  4

  5

  6

  7

 40
1.0
 41
0.18
 42
0.0625
 43
0.38
 44
0.18
 45
0.0
 46
0.0
 47
0.0
 48
0.0
140
0.18
141
0.09
142
0.0
143
25.4
144
1.0
145
0.0
146
1.0
147
0.09
 71
     0
 72
     0
 73
     1
 74
     1
 75
     0
 76
     0
 77
     0
 78
     0
170
     0
171
     2
172
     0
173
     0
174
     0
175
     0
176
     0
177
     0
178
     0
270
     2
271
     4
272
     4
273
     2
274
     2
340
11
275
     0
280
     0
281
     0
282
     0
283
     1
284
     0
285
     0
286
     0
287
     3
288
     0
  0
ENDTAB
  0
TABLE
  2
BLOCK_RECORD
  5
1
330
0
100
AcDbSymbolTable
 70
     0
  0
BLOCK_RECORD
  5
1E
102
{ACAD_XDICTIONARY
360
234
102
}
330
1
100
AcDbSymbolTableRecord
100
AcDbBlockTableRecord
  2
*MODEL_SPACE
  0
BLOCK_RECORD
  5
1A
102
{ACAD_XDICTIONARY
360
232
102
}
330
1
100
AcDbSymbolTableRecord
100
AcDbBlockTableRecord
  2
*PAPER_SPACE
  0
ENDTAB
  0
ENDSEC
  0
SECTION
  2
BLOCKS
  0
BLOCK
  5
1F
330
1E
100
AcDbEntity
  8
0
100
AcDbBlockBegin
  2
*MODEL_SPACE
 70
     0
 10
0.0
 20
0.0
 30
0.0
  3
*MODEL_SPACE
  1

  0
ENDBLK
  5
20
330
1E
100
AcDbEntity
  8
0
100
AcDbBlockEnd
  0
BLOCK
  5
1B
330
1A
100
AcDbEntity
 67
     1
  8
0
100
AcDbBlockBegin
  2
*PAPER_SPACE
 70
     0
 10
0.0
 20
0.0
 30
0.0
  3
*PAPER_SPACE
  1

  0
ENDBLK
  5
1C
330
1A
100
AcDbEntity
 67
     1
  8
0
100
AcDbBlockEnd
  0
ENDSEC
  0
SECTION
  2
ENTITIES
  0
LINE
  5
22
330
1E
100
AcDbEntity
  8
0
100
AcDbLine
 10
18.81629999999999
 20
60.1721
 30
0.0
 11
19.2163
 21
60.1721
 31
0.0
  0
LINE
  5
23
330
1E
100
AcDbEntity
  8
0
100
AcDbLine
 10
22.11629999999999
 20
5.783199999999981
 30
0.0
 11
22.81629999999999
 21
6.98259999999999
 31
0.0
  0
LINE
  5
24
330
1E
100
AcDbEntity
  8
0
100
AcDbLine
 10
21.91629999999999
 20
60.1721
 30
0.0
 11
24.1163
 21
60.1721
 31
0.0
  0
LINE
  5
25
330
1E
100
AcDbEntity
  8
0
100
AcDbLine
 10
21.81629999999999
 20
60.1721
 30
0.0
 11
22.11629999999999
 21
60.1721
 31
0.0
  0
LINE
  5
26
330
1E
100
AcDbEntity
  8
0
100
AcDbLine
 10
22.11629999999999
 20
60.1721
 30
0.0
 11
22.81629999999999
 21
60.1721
 31
0.0
  0
LINE
  5
27
330
1E
100
AcDbEntity
  8
0
100
AcDbLine
 10
22.81629999999999
 20
6.98259999999999
 30
0.0
 11
24.0163
 21
8.182099999999991
 31
0.0
  0
LINE
  5
28
330
1E
100
AcDbEntity
  8
0
100
AcDbLine
 10
21.81629999999999
 20
4.433799999999969
 30
0.0
 11
22.11629999999999
 21
2.447299999999979
 31
0.0
  0
LINE
  5
29
330
1E
100
AcDbEntity
  8
0
100
AcDbLine
 10
21.81629999999999
 20
4.433799999999969
 30
0.0
 11
21.81629999999999
 21
60.1721
 31
0.0
  0
LINE
  5
2A
330
1E
100
AcDbEntity
  8
0
100
AcDbLine
 10
21.81629999999999
 20
4.433799999999969
 30
0.0
 11
22.11629999999999
 21
5.783199999999981
 31
0.0
  0
LINE
  5
2B
330
1E
100
AcDbEntity
  8
0
100
AcDbLine
 10
22.11629999999999
 20
2.447299999999979
 30
0.0
 11
22.81629999999999
 21
1.322799999999979
 31
0.0
  0
LINE
  5
2C
330
1E
100
AcDbEntity
  8
0
100
AcDbLine
 10
24.0163
 20
8.182099999999991
 30
0.0
 11
25.6163
 21
9.23159999999998
 31
0.0
  0
LINE
  5
2D
330
1E
100
AcDbEntity
  8
0
100
AcDbLine
 10
22.81629999999999
 20
60.1721
 30
0.0
 11
24.0163
 21
60.1721
 31
0.0
  0
LINE
  5
2E
330
1E
100
AcDbEntity
  8
0
100
AcDbLine
 10
24.1163
 20
60.1721
 30
0.0
 11
26.6163
 21
60.1721
 31
0.0
  0
LINE
  5
2F
330
1E
100
AcDbEntity
  8
0
100
AcDbLine
 10
24.0163
 20
60.1721
 30
0.0
 11
25.6163
 21
60.1721
 31
0.0
  0
LINE
  5
30
330
1E
100
AcDbEntity
  8
0
100
AcDbLine
 10
25.6163
 20
9.23159999999998
 30
0.0
 11
27.4163
 21
9.943799999999981
 31
0.0
  0
LINE
  5
31
330
1E
100
AcDbEntity
  8
0
100
AcDbLine
 10
22.81629999999999
 20
1.322799999999979
 30
0.0
 11
24.0163
 21
0.6480999999999941
 31
0.0
  0
LINE
  5
32
330
1E
100
AcDbEntity
  8
0
100
AcDbLine
 10
24.0163
 20
0.6480999999999941
 30
0.0
 11
25.6163
 21
0.273299999999978
 31
0.0
  0
LINE
  5
33
330
1E
100
AcDbEntity
  8
0
100
AcDbLine
 10
26.6163
 20
60.1721
 30
0.0
 11
29.3163
 21
60.1721
 31
0.0
  0
LINE
  5
34
330
1E
100
AcDbEntity
  8
0
100
AcDbLine
 10
25.6163
 20
60.1721
 30
0.0
 11
27.4163
 21
60.1721
 31
0.0
  0
LINE
  5
35
330
1E
100
AcDbEntity
  8
0
100
AcDbLine
 10
27.4163
 20
60.1721
 30
0.0
 11
29.3163
 21
60.1721
 31
0.0
  0
LINE
  5
36
330
1E
100
AcDbEntity
  8
0
100
AcDbLine
 10
27.4163
 20
9.943799999999981
 30
0.0
 11
29.3163
 21
10.1721
 31
0.0
  0
LINE
  5
37
330
1E
100
AcDbEntity
  8
0
100
AcDbLine
 10
25.6163
 20
0.273299999999978
 30
0.0
 11
27.4163
 21
0.198299999999987
 31
0.0
  0
LINE
  5
38
330
1E
100
AcDbEntity
  8
0
100
AcDbLine
 10
27.4163
 20
0.198299999999987
 30
0.0
 11
29.3163
 21
0.172099999999995
 31
0.0
  0
LINE
  5
39
330
1E
100
AcDbEntity
  8
0
100
AcDbLine
 10
19.2163
 20
60.1721
 30
0.0
 11
20.2163
 21
60.1721
 31
0.0
  0
LINE
  5
3A
330
1E
100
AcDbEntity
  8
0
100
AcDbLine
 10
20.2163
 20
60.1721
 30
0.0
 11
21.81629999999999
 21
60.1721
 31
0.0
  0
LINE
  5
3B
330
1E
100
AcDbEntity
  8
0
100
AcDbLine
 10
20.2163
 20
60.1721
 30
0.0
 11
21.91629999999999
 21
60.1721
 31
0.0
  0
LINE
  5
3D
330
1E
100
AcDbEntity
  8
0
100
AcDbLine
 10
0.000000000000002
 20
108.0278999999999
 30
0.0
 11
0.500000000000002
 21
107.5279
 31
0.0
  0
LINE
  5
3E
330
1E
100
AcDbEntity
  8
0
100
AcDbLine
 10
0.500000000000002
 20
107.5279
 30
0.0
 11
3.0
 21
107.0278999999999
 31
0.0
  0
LINE
  5
3F
330
1E
100
AcDbEntity
  8
0
100
AcDbLine
 10
0.500000000000002
 20
107.5279
 30
0.0
 11
3.0
 21
107.0278999999999
 31
0.0
  0
LINE
  5
41
330
1E
100
AcDbEntity
  8
0
100
AcDbLine
 10
3.0
 20
107.0278999999999
 30
0.0
 11
6.0
 21
106.8278999999999
 31
0.0
  0
LINE
  5
49
330
1E
100
AcDbEntity
  8
0
100
AcDbLine
 10
0.0000000000000021
 20
108.8278999999999
 30
0.0
 11
0.0000000000000021
 21
109.6279
 31
0.0
  0
LINE
  5
4B
330
1E
100
AcDbEntity
  8
0
100
AcDbLine
 10
0.000000000000002
 20
108.0278999999999
 30
0.0
 11
0.0000000000000021
 21
108.8278999999999
 31
0.0
  0
LINE
  5
4C
330
1E
100
AcDbEntity
  8
0
100
AcDbLine
 10
0.000000000000002
 20
108.0278999999999
 30
0.0
 11
0.500000000000002
 21
107.5279
 31
0.0
  0
LINE
  5
4E
330
1E
100
AcDbEntity
  8
0
100
AcDbLine
 10
6.0
 20
106.8278999999999
 30
0.0
 11
6.273972602739729
 21
106.807352054795
 31
0.0
  0
LINE
  5
4F
330
1E
100
AcDbEntity
  8
0
100
AcDbLine
 10
6.0
 20
106.8278999999999
 30
0.0
 11
6.273972602739729
 21
106.807352054795
 31
0.0
  0
LINE
  5
50
330
1E
100
AcDbEntity
  8
0
100
AcDbLine
 10
6.0
 20
108.8278999999999
 30
0.0
 11
6.799999999999999
 21
102.9279
 31
0.0
  0
LINE
  5
51
330
1E
100
AcDbEntity
  8
0
100
AcDbLine
 10
6.0
 20
108.8278999999999
 30
0.0
 11
6.799999999999999
 21
114.7279
 31
0.0
  0
LINE
  5
5E
330
1E
100
AcDbEntity
  8
0
100
AcDbLine
 10
0.0000000000000021
 20
109.6279
 30
0.0
 11
0.500000000000002
 21
110.1278999999999
 31
0.0
  0
LINE
  5
5F
330
1E
100
AcDbEntity
  8
0
100
AcDbLine
 10
0.500000000000002
 20
110.1278999999999
 30
0.0
 11
3.0
 21
110.6279
 31
0.0
  0
LINE
  5
63
330
1E
100
AcDbEntity
  8
0
100
AcDbLine
 10
3.0
 20
110.6279
 30
0.0
 11
6.0
 21
110.8279
 31
0.0
  0
LINE
  5
64
330
1E
100
AcDbEntity
  8
0
100
AcDbLine
 10
0.500000000000002
 20
110.1278999999999
 30
0.0
 11
3.0
 21
110.6279
 31
0.0
  0
LINE
  5
65
330
1E
100
AcDbEntity
  8
0
100
AcDbLine
 10
0.0000000000000021
 20
109.6279
 30
0.0
 11
0.500000000000002
 21
110.1278999999999
 31
0.0
  0
LINE
  5
68
330
1E
100
AcDbEntity
  8
0
100
AcDbLine
 10
6.0
 20
110.8279
 30
0.0
 11
6.273972602739729
 21
110.848447945205
 31
0.0
  0
LINE
  5
69
330
1E
100
AcDbEntity
  8
0
100
AcDbLine
 10
6.799999999999999
 20
114.7279
 30
0.0
 11
9.099999999999999
 21
120.2279
 31
0.0
  0
LINE
  5
6B
330
1E
100
AcDbEntity
  8
0
100
AcDbLine
 10
8.0
 20
108.8278999999999
 30
0.0
 11
8.756
 21
114.2039
 31
0.0
  0
LINE
  5
6C
330
1E
100
AcDbEntity
  8
0
100
AcDbLine
 10
8.0
 20
108.8278999999999
 30
0.0
 11
8.756
 21
103.4518999999999
 31
0.0
  0
LINE
  5
6D
330
1E
100
AcDbEntity
  8
0
100
AcDbLine
 10
9.099999999999999
 20
97.42789999999999
 30
0.0
 11
12.8
 21
92.6279
 31
0.0
  0
LINE
  5
6F
330
1E
100
AcDbEntity
  8
0
100
AcDbLine
 10
12.8
 20
92.6279
 30
0.0
 11
17.6
 21
88.92789999999999
 31
0.0
  0
LINE
  5
72
330
1E
100
AcDbEntity
  8
0
100
AcDbLine
 10
8.756
 20
103.4518999999999
 30
0.0
 11
10.8
 21
98.32790000000001
 31
0.0
  0
LINE
  5
73
330
1E
100
AcDbEntity
  8
0
100
AcDbLine
 10
10.5200000000001
 20
118.6139
 30
0.0
 11
10.8
 21
119.3278999999999
 31
0.0
  0
LINE
  5
76
330
1E
100
AcDbEntity
  8
0
100
AcDbLine
 10
10.8
 20
98.32790000000001
 30
0.0
 11
14.13199999999999
 21
93.95990000000001
 31
0.0
  0
LINE
  5
79
330
1E
100
AcDbEntity
  8
0
100
AcDbLine
 10
9.099999999999999
 20
97.42789999999999
 30
0.0
 11
6.799999999999999
 21
102.9279
 31
0.0
  0
LINE
  5
7A
330
1E
100
AcDbEntity
  8
0
100
AcDbLine
 10
14.13199999999999
 20
93.95990000000001
 30
0.0
 11
18.58399999999999
 21
90.5999
 31
0.0
  0
LINE
  5
7B
330
1E
100
AcDbEntity
  8
0
100
AcDbLine
 10
8.756
 20
114.2039
 30
0.0
 11
10.5200000000001
 21
118.6139
 31
0.0
  0
LINE
  5
7C
330
1E
100
AcDbEntity
  8
0
100
AcDbLine
 10
11.5778536585365
 20
120.311656097561
 30
0.0
 11
14.13199999999999
 21
123.6958999999999
 31
0.0
  0
LINE
  5
7E
330
1E
100
AcDbEntity
  8
0
100
AcDbLine
 10
9.099999999999999
 20
120.2279
 30
0.0
 11
12.8
 21
125.0279
 31
0.0
  0
LINE
  5
81
330
1E
100
AcDbEntity
  8
0
100
AcDbLine
 10
12.8
 20
125.0279
 30
0.0
 11
17.6
 21
128.7279
 31
0.0
  0
LINE
  5
82
330
1E
100
AcDbEntity
  8
0
100
AcDbLine
 10
10.8
 20
119.3278999999999
 30
0.0
 11
11.5778536585365
 21
120.311656097561
 31
0.0
  0
LINE
  5
86
330
1E
100
AcDbEntity
  8
0
100
AcDbLine
 10
17.6
 20
88.92789999999999
 30
0.0
 11
17.8614173325138
 21
88.81858002458509
 31
0.0
  0
LINE
  5
87
330
1E
100
AcDbEntity
  8
0
100
AcDbLine
 10
18.2163
 20
90.1721
 30
0.0
 11
19.3163
 21
90.1721
 31
0.0
  0
LINE
  5
88
330
1E
100
AcDbEntity
  8
0
100
AcDbLine
 10
17.81629999999999
 20
90.1721
 30
0.0
 11
18.81629999999999
 21
60.1721
 31
0.0
  0
LINE
  5
89
330
1E
100
AcDbEntity
  8
0
100
AcDbLine
 10
17.81629999999999
 20
90.1721
 30
0.0
 11
18.2163
 21
90.1721
 31
0.0
  0
LINE
  5
8A
330
1E
100
AcDbEntity
  8
0
100
AcDbLine
 10
17.5162439024389
 20
91.40575365853669
 30
0.0
 11
18.5
 21
90.62789999999999
 31
0.0
  0
LINE
  5
8B
330
1E
100
AcDbEntity
  8
0
100
AcDbLine
 10
18.5
 20
90.62789999999999
 30
0.0
 11
19.0
 21
90.43182156862748
 31
0.0
  0
LINE
  5
8C
330
1E
100
AcDbEntity
  8
0
100
AcDbLine
 10
18.5
 20
90.62789999999999
 30
0.0
 11
19.2140000000001
 21
90.34789999999999
 31
0.0
  0
LINE
  5
8D
330
1E
100
AcDbEntity
  8
0
100
AcDbLine
 10
18.5
 20
90.62789999999999
 30
0.0
 11
19.2140000000001
 21
90.34789999999999
 31
0.0
  0
LINE
  5
8F
330
1E
100
AcDbEntity
  8
0
100
AcDbLine
 10
14.13199999999999
 20
123.6958999999999
 30
0.0
 11
18.5
 21
127.0279
 31
0.0
  0
LINE
  5
90
330
1E
100
AcDbEntity
  8
0
100
AcDbLine
 10
17.5162439024389
 20
91.40575365853669
 30
0.0
 11
18.5
 21
90.62789999999999
 31
0.0
  0
LINE
  5
91
330
1E
100
AcDbEntity
  8
0
100
AcDbLine
 10
19.0
 20
90.43182156862748
 30
0.0
 11
19.0
 21
90.1721
 31
0.0
  0
LINE
  5
92
330
1E
100
AcDbEntity
  8
0
100
AcDbLine
 10
19.3163
 20
90.1721
 30
0.0
 11
19.6535
 21
90.1721
 31
0.0
  0
LINE
  5
93
330
1E
100
AcDbEntity
  8
0
100
AcDbLine
 10
19.0
 20
90.1721
 30
0.0
 11
19.0
 21
90.43182156862748
 31
0.0
  0
LINE
  5
95
330
1E
100
AcDbEntity
  8
0
100
AcDbLine
 10
18.58399999999999
 20
90.5999
 30
0.0
 11
23.624
 21
88.58389999999999
 31
0.0
  0
LINE
  5
96
330
1E
100
AcDbEntity
  8
0
100
AcDbLine
 10
23.624
 20
88.58389999999999
 30
0.0
 11
29.0
 21
87.8279
 31
0.0
  0
LINE
  5
98
330
1E
100
AcDbEntity
  8
0
100
AcDbLine
 10
18.5
 20
127.0279
 30
0.0
 11
23.624
 21
129.0718999999999
 31
0.0
  0
LINE
  5
9C
330
1E
100
AcDbEntity
  8
0
100
AcDbLine
 10
17.6
 20
128.7279
 30
0.0
 11
23.1
 21
131.0278999999999
 31
0.0
  0
LINE
  5
9D
330
1E
100
AcDbEntity
  8
0
100
AcDbLine
 10
23.1
 20
131.0278999999999
 30
0.0
 11
25.0
 21
131.285527118644
 31
0.0
  0
LINE
  5
A2
330
1E
100
AcDbEntity
  8
0
100
AcDbLine
 10
25.0
 20
133.4519
 30
0.0
 11
25.096
 21
133.5471
 31
0.0
  0
LINE
  5
A3
330
1E
100
AcDbEntity
  8
0
100
AcDbLine
 10
25.0
 20
133.4519
 30
0.0
 11
25.0
 21
129.2653999999999
 31
0.0
  0
LINE
  5
A4
330
1E
100
AcDbEntity
  8
0
100
AcDbLine
 10
25.0
 20
133.4519
 30
0.0
 11
25.144
 21
133.4519
 31
0.0
  0
LINE
  5
A5
330
1E
100
AcDbEntity
  8
0
100
AcDbLine
 10
25.144
 20
133.4519
 30
0.0
 11
25.528
 21
133.4519
 31
0.0
  0
LINE
  5
A6
330
1E
100
AcDbEntity
  8
0
100
AcDbLine
 10
25.528
 20
133.4519
 30
0.0
 11
26.168
 21
133.4519
 31
0.0
  0
LINE
  5
A7
330
1E
100
AcDbEntity
  8
0
100
AcDbLine
 10
26.168
 20
133.4519
 30
0.0
 11
27.016
 21
133.4519
 31
0.0
  0
LINE
  5
A8
330
1E
100
AcDbEntity
  8
0
100
AcDbLine
 10
27.016
 20
133.4519
 30
0.0
 11
27.976
 21
133.4519
 31
0.0
  0
LINE
  5
A9
330
1E
100
AcDbEntity
  8
0
100
AcDbLine
 10
25.096
 20
133.5471
 30
0.0
 11
25.24
 21
133.5471
 31
0.0
  0
LINE
  5
AA
330
1E
100
AcDbEntity
  8
0
100
AcDbLine
 10
25.24
 20
133.5471
 30
0.0
 11
25.624
 21
133.5471
 31
0.0
  0
LINE
  5
AB
330
1E
100
AcDbEntity
  8
0
100
AcDbLine
 10
25.624
 20
133.5471
 30
0.0
 11
26.248
 21
133.5471
 31
0.0
  0
LINE
  5
AC
330
1E
100
AcDbEntity
  8
0
100
AcDbLine
 10
27.1146133333333
 20
133.5471
 30
0.0
 11
27.2
 21
134.8279
 31
0.0
  0
LINE
  5
AD
330
1E
100
AcDbEntity
  8
0
100
AcDbLine
 10
26.248
 20
133.5471
 30
0.0
 11
27.064
 21
133.5471
 31
0.0
  0
LINE
  5
AF
330
1E
100
AcDbEntity
  8
0
100
AcDbLine
 10
27.2
 20
134.8279
 30
0.0
 11
27.7
 21
137.3278999999999
 31
0.0
  0
LINE
  5
B5
330
1E
100
AcDbEntity
  8
0
100
AcDbLine
 10
27.7
 20
137.3278999999999
 30
0.0
 11
28.2
 21
137.8279
 31
0.0
  0
LINE
  5
B6
330
1E
100
AcDbEntity
  8
0
100
AcDbLine
 10
27.064
 20
133.5471
 30
0.0
 11
27.99199999999999
 21
133.5471
 31
0.0
  0
LINE
  5
C3
330
1E
100
AcDbEntity
  8
0
100
AcDbLine
 10
28.2
 20
137.8279
 30
0.0
 11
29.0
 21
137.8279
 31
0.0
  0
LINE
  5
C4
330
1E
100
AcDbEntity
  8
0
100
AcDbLine
 10
27.99199999999999
 20
133.5471
 30
0.0
 11
29.0
 21
133.5471
 31
0.0
  0
LINE
  5
C5
330
1E
100
AcDbEntity
  8
0
100
AcDbLine
 10
27.976
 20
133.4519
 30
0.0
 11
29.0
 21
133.4519
 31
0.0
  0
LINE
  5
C6
330
1E
100
AcDbEntity
  8
0
100
AcDbLine
 10
25.0
 20
129.2653999999999
 30
0.0
 11
25.0
 21
133.4519
 31
0.0
  0
LINE
  5
C8
330
1E
100
AcDbEntity
  8
0
100
AcDbLine
 10
23.624
 20
129.0718999999999
 30
0.0
 11
29.0
 21
129.8278999999999
 31
0.0
  0
LINE
  5
C9
330
1E
100
AcDbEntity
  8
0
100
AcDbLine
 10
23.624
 20
129.0718999999999
 30
0.0
 11
25.0
 21
129.2653999999999
 31
0.0
  0
LINE
  5
CB
330
1E
100
AcDbEntity
  8
0
100
AcDbLine
 10
31.2163
 20
0.198299999999987
 30
0.0
 11
33.0163
 21
0.273299999999978
 31
0.0
  0
LINE
  5
CC
330
1E
100
AcDbEntity
  8
0
100
AcDbLine
 10
29.3163
 20
0.172099999999995
 30
0.0
 11
31.2163
 21
0.198299999999987
 31
0.0
  0
LINE
  5
CD
330
1E
100
AcDbEntity
  8
0
100
AcDbLine
 10
31.2163
 20
9.943799999999981
 30
0.0
 11
33.0163
 21
9.23159999999998
 31
0.0
  0
LINE
  5
CE
330
1E
100
AcDbEntity
  8
0
100
AcDbLine
 10
31.2163
 20
60.1721
 30
0.0
 11
33.0163
 21
60.1721
 31
0.0
  0
LINE
  5
CF
330
1E
100
AcDbEntity
  8
0
100
AcDbLine
 10
29.3163
 20
10.1721
 30
0.0
 11
31.2163
 21
9.943799999999981
 31
0.0
  0
LINE
  5
D0
330
1E
100
AcDbEntity
  8
0
100
AcDbLine
 10
34.6163
 20
0.6480999999999941
 30
0.0
 11
35.8163
 21
1.322799999999979
 31
0.0
  0
LINE
  5
D1
330
1E
100
AcDbEntity
  8
0
100
AcDbLine
 10
33.0163
 20
0.273299999999978
 30
0.0
 11
34.6163
 21
0.6480999999999941
 31
0.0
  0
LINE
  5
D2
330
1E
100
AcDbEntity
  8
0
100
AcDbLine
 10
36.5163
 20
2.447299999999979
 30
0.0
 11
36.8163
 21
4.433799999999969
 31
0.0
  0
LINE
  5
D3
330
1E
100
AcDbEntity
  8
0
100
AcDbLine
 10
35.8163
 20
1.322799999999979
 30
0.0
 11
36.5163
 21
2.447299999999979
 31
0.0
  0
LINE
  5
D4
330
1E
100
AcDbEntity
  8
0
100
AcDbLine
 10
36.5163
 20
5.783199999999981
 30
0.0
 11
36.8163
 21
4.433799999999969
 31
0.0
  0
LINE
  5
D5
330
1E
100
AcDbEntity
  8
0
100
AcDbLine
 10
35.8163
 20
6.98259999999999
 30
0.0
 11
36.5163
 21
5.783199999999981
 31
0.0
  0
LINE
  5
D6
330
1E
100
AcDbEntity
  8
0
100
AcDbLine
 10
34.6163
 20
8.182099999999991
 30
0.0
 11
35.8163
 21
6.98259999999999
 31
0.0
  0
LINE
  5
D7
330
1E
100
AcDbEntity
  8
0
100
AcDbLine
 10
36.5163
 20
60.1721
 30
0.0
 11
36.8163
 21
60.1721
 31
0.0
  0
LINE
  5
D8
330
1E
100
AcDbEntity
  8
0
100
AcDbLine
 10
35.8163
 20
60.1721
 30
0.0
 11
36.5163
 21
60.1721
 31
0.0
  0
LINE
  5
D9
330
1E
100
AcDbEntity
  8
0
100
AcDbLine
 10
34.6163
 20
60.1721
 30
0.0
 11
35.8163
 21
60.1721
 31
0.0
  0
LINE
  5
DA
330
1E
100
AcDbEntity
  8
0
100
AcDbLine
 10
33.0163
 20
60.1721
 30
0.0
 11
34.6163
 21
60.1721
 31
0.0
  0
LINE
  5
DB
330
1E
100
AcDbEntity
  8
0
100
AcDbLine
 10
33.0163
 20
9.23159999999998
 30
0.0
 11
34.6163
 21
8.182099999999991
 31
0.0
  0
LINE
  5
DC
330
1E
100
AcDbEntity
  8
0
100
AcDbLine
 10
36.8163
 20
4.433799999999969
 30
0.0
 11
36.8163
 21
60.1721
 31
0.0
  0
LINE
  5
DD
330
1E
100
AcDbEntity
  8
0
100
AcDbLine
 10
36.71629999999999
 20
60.1721
 30
0.0
 11
38.4163
 21
60.1721
 31
0.0
  0
LINE
  5
DE
330
1E
100
AcDbEntity
  8
0
100
AcDbLine
 10
34.5163
 20
60.1721
 30
0.0
 11
36.71629999999999
 21
60.1721
 31
0.0
  0
LINE
  5
DF
330
1E
100
AcDbEntity
  8
0
100
AcDbLine
 10
32.0163
 20
60.1721
 30
0.0
 11
34.5163
 21
60.1721
 31
0.0
  0
LINE
  5
E0
330
1E
100
AcDbEntity
  8
0
100
AcDbLine
 10
29.3163
 20
60.1721
 30
0.0
 11
32.0163
 21
60.1721
 31
0.0
  0
LINE
  5
E1
330
1E
100
AcDbEntity
  8
0
100
AcDbLine
 10
29.3163
 20
60.1721
 30
0.0
 11
31.2163
 21
60.1721
 31
0.0
  0
LINE
  5
E2
330
1E
100
AcDbEntity
  8
0
100
AcDbLine
 10
39.8163
 20
60.1721
 30
0.0
 11
40.81629999999999
 21
90.1721
 31
0.0
  0
LINE
  5
E3
330
1E
100
AcDbEntity
  8
0
100
AcDbLine
 10
39.41629999999999
 20
60.1721
 30
0.0
 11
39.8163
 21
60.1721
 31
0.0
  0
LINE
  5
E4
330
1E
100
AcDbEntity
  8
0
100
AcDbLine
 10
97.5
 20
84.3279
 30
0.0
 11
105.0
 21
78.3279
 31
0.0
  0
LINE
  5
E5
330
1E
100
AcDbEntity
  8
0
100
AcDbLine
 10
105.0
 20
78.3279
 30
0.0
 11
109.4999999999999
 21
72.8279
 31
0.0
  0
LINE
  5
E6
330
1E
100
AcDbEntity
  8
0
100
AcDbLine
 10
110.4999999999999
 20
82.42789999999999
 30
0.0
 11
110.4999999999999
 21
76.32789999999999
 31
0.0
  0
LINE
  5
E7
330
1E
100
AcDbEntity
  8
0
100
AcDbLine
 10
110.4999999999999
 20
82.42789999999999
 30
0.0
 11
110.4999999999999
 21
90.2279
 31
0.0
  0
LINE
  5
E8
330
1E
100
AcDbEntity
  8
0
100
AcDbLine
 10
112.0
 20
82.0279
 30
0.0
 11
112.0
 21
75.92789999999999
 31
0.0
  0
LINE
  5
E9
330
1E
100
AcDbEntity
  8
0
100
AcDbLine
 10
112.0
 20
82.0279
 30
0.0
 11
112.0
 21
89.92789999999999
 31
0.0
  0
LINE
  5
EA
330
1E
100
AcDbEntity
  8
0
100
AcDbLine
 10
110.4999999999999
 20
76.32789999999999
 30
0.0
 11
110.4999999999999
 21
82.42789999999999
 31
0.0
  0
LINE
  5
EB
330
1E
100
AcDbEntity
  8
0
100
AcDbLine
 10
110.4999999999999
 20
76.32789999999999
 30
0.0
 11
110.4999999999999
 21
72.7279
 31
0.0
  0
LINE
  5
EC
330
1E
100
AcDbEntity
  8
0
100
AcDbLine
 10
110.4999999999999
 20
72.7279
 30
0.0
 11
110.4999999999999
 21
76.32789999999999
 31
0.0
  0
LINE
  5
ED
330
1E
100
AcDbEntity
  8
0
100
AcDbLine
 10
110.4999999999999
 20
72.7279
 30
0.0
 11
110.4999999999999
 21
71.32789999999999
 31
0.0
  0
LINE
  5
EE
330
1E
100
AcDbEntity
  8
0
100
AcDbLine
 10
112.0
 20
75.92789999999999
 30
0.0
 11
112.0
 21
82.0279
 31
0.0
  0
LINE
  5
EF
330
1E
100
AcDbEntity
  8
0
100
AcDbLine
 10
112.0
 20
75.92789999999999
 30
0.0
 11
112.0
 21
72.2279
 31
0.0
  0
LINE
  5
F0
330
1E
100
AcDbEntity
  8
0
100
AcDbLine
 10
112.0
 20
72.2279
 30
0.0
 11
112.0
 21
75.92789999999999
 31
0.0
  0
LINE
  5
F1
330
1E
100
AcDbEntity
  8
0
100
AcDbLine
 10
112.0
 20
72.2279
 30
0.0
 11
112.0
 21
70.8279
 31
0.0
  0
LINE
  5
F2
330
1E
100
AcDbEntity
  8
0
100
AcDbLine
 10
109.4999999999999
 20
72.8279
 30
0.0
 11
110.4999999999999
 21
71.32789999999999
 31
0.0
  0
LINE
  5
F3
330
1E
100
AcDbEntity
  8
0
100
AcDbLine
 10
110.4999999999999
 20
71.32789999999999
 30
0.0
 11
112.0
 21
70.8279
 31
0.0
  0
LINE
  5
F4
330
1E
100
AcDbEntity
  8
0
100
AcDbLine
 10
110.4999999999999
 20
71.32789999999999
 30
0.0
 11
110.4999999999999
 21
72.7279
 31
0.0
  0
LINE
  5
F5
330
1E
100
AcDbEntity
  8
0
100
AcDbLine
 10
112.0
 20
70.8279
 30
0.0
 11
113.0
 21
68.82789999999999
 31
0.0
  0
LINE
  5
F6
330
1E
100
AcDbEntity
  8
0
100
AcDbLine
 10
112.0
 20
70.8279
 30
0.0
 11
112.0
 21
72.2279
 31
0.0
  0
LINE
  5
F7
330
1E
100
AcDbEntity
  8
0
100
AcDbLine
 10
113.0
 20
68.82789999999999
 30
0.0
 11
113.5
 21
66.32789999999999
 31
0.0
  0
LINE
  5
F8
330
1E
100
AcDbEntity
  8
0
100
AcDbLine
 10
115.5
 20
64.3279
 30
0.0
 11
118.0
 21
63.82789999999999
 31
0.0
  0
LINE
  5
F9
330
1E
100
AcDbEntity
  8
0
100
AcDbLine
 10
118.0
 20
86.42789999999999
 30
0.0
 11
118.0
 21
97.22790000000001
 31
0.0
  0
LINE
  5
FA
330
1E
100
AcDbEntity
  8
0
100
AcDbLine
 10
118.0
 20
86.42789999999999
 30
0.0
 11
118.0
 21
77.1279
 31
0.0
  0
LINE
  5
FB
330
1E
100
AcDbEntity
  8
0
100
AcDbLine
 10
118.0
 20
77.1279
 30
0.0
 11
118.0
 21
69.8279
 31
0.0
  0
LINE
  5
FC
330
1E
100
AcDbEntity
  8
0
100
AcDbLine
 10
118.0
 20
77.1279
 30
0.0
 11
118.0
 21
86.42789999999999
 31
0.0
  0
LINE
  5
FD
330
1E
100
AcDbEntity
  8
0
100
AcDbLine
 10
118.0
 20
69.8279
 30
0.0
 11
118.0
 21
77.1279
 31
0.0
  0
LINE
  5
FE
330
1E
100
AcDbEntity
  8
0
100
AcDbLine
 10
118.0
 20
69.8279
 30
0.0
 11
118.0
 21
65.4279
 31
0.0
  0
LINE
  5
FF
330
1E
100
AcDbEntity
  8
0
100
AcDbLine
 10
118.0
 20
65.4279
 30
0.0
 11
118.0
 21
69.8279
 31
0.0
  0
LINE
  5
100
330
1E
100
AcDbEntity
  8
0
100
AcDbLine
 10
118.0
 20
65.4279
 30
0.0
 11
118.0
 21
63.82789999999999
 31
0.0
  0
LINE
  5
101
330
1E
100
AcDbEntity
  8
0
100
AcDbLine
 10
118.0
 20
63.82789999999999
 30
0.0
 11
118.0
 21
65.4279
 31
0.0
  0
LINE
  5
102
330
1E
100
AcDbEntity
  8
0
100
AcDbLine
 10
113.5
 20
66.32789999999999
 30
0.0
 11
115.5
 21
64.3279
 31
0.0
  0
LINE
  5
103
330
1E
100
AcDbEntity
  8
0
100
AcDbLine
 10
38.4163
 20
60.1721
 30
0.0
 11
39.41629999999999
 21
60.1721
 31
0.0
  0
LINE
  5
104
330
1E
100
AcDbEntity
  8
0
100
AcDbLine
 10
36.8163
 20
60.1721
 30
0.0
 11
38.4163
 21
60.1721
 31
0.0
  0
LINE
  5
105
330
1E
100
AcDbEntity
  8
0
100
AcDbLine
 10
33.0
 20
129.2653999999999
 30
0.0
 11
33.0
 21
133.4519
 31
0.0
  0
LINE
  5
108
330
1E
100
AcDbEntity
  8
0
100
AcDbLine
 10
38.34649999999999
 20
90.1721
 30
0.0
 11
39.3163
 21
90.1721
 31
0.0
  0
LINE
  5
109
330
1E
100
AcDbEntity
  8
0
100
AcDbLine
 10
39.0
 20
90.1721
 30
0.0
 11
39.0
 21
90.43182156862748
 31
0.0
  0
LINE
  5
10A
330
1E
100
AcDbEntity
  8
0
100
AcDbLine
 10
38.7859999999999
 20
90.34789999999999
 30
0.0
 11
39.5
 21
90.62789999999999
 31
0.0
  0
LINE
  5
10B
330
1E
100
AcDbEntity
  8
0
100
AcDbLine
 10
38.78599999999979
 20
90.34789999999999
 30
0.0
 11
39.5
 21
90.62789999999999
 31
0.0
  0
LINE
  5
10C
330
1E
100
AcDbEntity
  8
0
100
AcDbLine
 10
39.0
 20
90.43182156862748
 30
0.0
 11
39.5
 21
90.62789999999999
 31
0.0
  0
LINE
  5
10D
330
1E
100
AcDbEntity
  8
0
100
AcDbLine
 10
39.0
 20
90.43182156862748
 30
0.0
 11
39.0
 21
90.1721
 31
0.0
  0
LINE
  5
10E
330
1E
100
AcDbEntity
  8
0
100
AcDbLine
 10
38.78599999999959
 20
127.3079
 30
0.0
 11
39.5
 21
127.0279
 31
0.0
  0
LINE
  5
112
330
1E
100
AcDbEntity
  8
0
100
AcDbLine
 10
29.0
 20
137.8279
 30
0.0
 11
29.8
 21
137.8279
 31
0.0
  0
LINE
  5
113
330
1E
100
AcDbEntity
  8
0
100
AcDbLine
 10
29.0
 20
133.5471
 30
0.0
 11
30.008
 21
133.5471
 31
0.0
  0
LINE
  5
114
330
1E
100
AcDbEntity
  8
0
100
AcDbLine
 10
34.9
 20
131.0278999999999
 30
0.0
 11
40.4
 21
128.7279
 31
0.0
  0
LINE
  5
117
330
1E
100
AcDbEntity
  8
0
100
AcDbLine
 10
32.856
 20
133.4519
 30
0.0
 11
33.0
 21
133.4519
 31
0.0
  0
LINE
  5
118
330
1E
100
AcDbEntity
  8
0
100
AcDbLine
 10
32.472
 20
133.4519
 30
0.0
 11
32.856
 21
133.4519
 31
0.0
  0
LINE
  5
119
330
1E
100
AcDbEntity
  8
0
100
AcDbLine
 10
31.83199999999999
 20
133.4519
 30
0.0
 11
32.472
 21
133.4519
 31
0.0
  0
LINE
  5
11A
330
1E
100
AcDbEntity
  8
0
100
AcDbLine
 10
30.984
 20
133.4519
 30
0.0
 11
31.83199999999999
 21
133.4519
 31
0.0
  0
LINE
  5
125
330
1E
100
AcDbEntity
  8
0
100
AcDbLine
 10
29.8
 20
137.8279
 30
0.0
 11
30.3
 21
137.3278999999999
 31
0.0
  0
LINE
  5
128
330
1E
100
AcDbEntity
  8
0
100
AcDbLine
 10
32.904
 20
133.5471
 30
0.0
 11
33.0
 21
133.4519
 31
0.0
  0
LINE
  5
129
330
1E
100
AcDbEntity
  8
0
100
AcDbLine
 10
32.75999999999999
 20
133.5471
 30
0.0
 11
32.904
 21
133.5471
 31
0.0
  0
LINE
  5
12A
330
1E
100
AcDbEntity
  8
0
100
AcDbLine
 10
32.376
 20
133.5471
 30
0.0
 11
32.75999999999999
 21
133.5471
 31
0.0
  0
LINE
  5
12B
330
1E
100
AcDbEntity
  8
0
100
AcDbLine
 10
31.752
 20
133.5471
 30
0.0
 11
32.376
 21
133.5471
 31
0.0
  0
LINE
  5
12E
330
1E
100
AcDbEntity
  8
0
100
AcDbLine
 10
30.3
 20
137.3278999999999
 30
0.0
 11
30.8
 21
134.8279
 31
0.0
  0
LINE
  5
131
330
1E
100
AcDbEntity
  8
0
100
AcDbLine
 10
30.8
 20
134.8279
 30
0.0
 11
30.8853866666667
 21
133.5471
 31
0.0
  0
LINE
  5
134
330
1E
100
AcDbEntity
  8
0
100
AcDbLine
 10
30.936
 20
133.5471
 30
0.0
 11
31.752
 21
133.5471
 31
0.0
  0
LINE
  5
135
330
1E
100
AcDbEntity
  8
0
100
AcDbLine
 10
30.008
 20
133.5471
 30
0.0
 11
30.936
 21
133.5471
 31
0.0
  0
LINE
  5
136
330
1E
100
AcDbEntity
  8
0
100
AcDbLine
 10
30.024
 20
133.4519
 30
0.0
 11
30.984
 21
133.4519
 31
0.0
  0
LINE
  5
137
330
1E
100
AcDbEntity
  8
0
100
AcDbLine
 10
29.0
 20
133.4519
 30
0.0
 11
30.024
 21
133.4519
 31
0.0
  0
LINE
  5
138
330
1E
100
AcDbEntity
  8
0
100
AcDbLine
 10
29.0
 20
129.8278999999999
 30
0.0
 11
34.37599999999999
 21
129.0718999999999
 31
0.0
  0
LINE
  5
139
330
1E
100
AcDbEntity
  8
0
100
AcDbLine
 10
39.3163
 20
90.1721
 30
0.0
 11
40.4163
 21
90.1721
 31
0.0
  0
LINE
  5
13D
330
1E
100
AcDbEntity
  8
0
100
AcDbLine
 10
112.0
 20
89.92789999999999
 30
0.0
 11
112.0
 21
99.02790000000001
 31
0.0
  0
LINE
  5
13E
330
1E
100
AcDbEntity
  8
0
100
AcDbLine
 10
112.0
 20
89.92789999999999
 30
0.0
 11
112.0
 21
82.0279
 31
0.0
  0
LINE
  5
13F
330
1E
100
AcDbEntity
  8
0
100
AcDbLine
 10
88.0
 20
89.82789999999999
 30
0.0
 11
97.5
 21
84.3279
 31
0.0
  0
LINE
  5
140
330
1E
100
AcDbEntity
  8
0
100
AcDbLine
 10
40.80357030567689
 20
89.79020917030572
 30
0.0
 11
43.4638888888889
 21
91.8279
 31
0.0
  0
LINE
  5
141
330
1E
100
AcDbEntity
  8
0
100
AcDbLine
 10
63.0
 20
91.8279
 30
0.0
 11
63.0
 21
92.42789999999999
 31
0.0
  0
LINE
  5
143
330
1E
100
AcDbEntity
  8
0
100
AcDbLine
 10
69.0
 20
93.04219999999999
 30
0.0
 11
71.0
 21
91.8279
 31
0.0
  0
LINE
  5
144
330
1E
100
AcDbEntity
  8
0
100
AcDbLine
 10
63.0
 20
92.42789999999999
 30
0.0
 11
63.0
 21
94.12789999999999
 31
0.0
  0
LINE
  5
145
330
1E
100
AcDbEntity
  8
0
100
AcDbLine
 10
63.0
 20
92.42789999999999
 30
0.0
 11
63.0
 21
91.8279
 31
0.0
  0
LINE
  5
146
330
1E
100
AcDbEntity
  8
0
100
AcDbLine
 10
41.0431
 20
91.8279
 30
0.0
 11
63.0
 21
91.8279
 31
0.0
  0
LINE
  5
147
330
1E
100
AcDbEntity
  8
0
100
AcDbLine
 10
77.0
 20
91.8279
 30
0.0
 11
79.0
 21
93.04219999999999
 31
0.0
  0
LINE
  5
148
330
1E
100
AcDbEntity
  8
0
100
AcDbLine
 10
110.4999999999999
 20
90.2279
 30
0.0
 11
110.4999999999999
 21
99.2279
 31
0.0
  0
LINE
  5
149
330
1E
100
AcDbEntity
  8
0
100
AcDbLine
 10
110.4999999999999
 20
90.2279
 30
0.0
 11
110.4999999999999
 21
82.42789999999999
 31
0.0
  0
LINE
  5
14A
330
1E
100
AcDbEntity
  8
0
100
AcDbLine
 10
87.0
 20
91.8279
 30
0.0
 11
88.0
 21
89.82789999999999
 31
0.0
  0
LINE
  5
14C
330
1E
100
AcDbEntity
  8
0
100
AcDbLine
 10
79.0
 20
93.04219999999999
 30
0.0
 11
81.0
 21
95.47079999999999
 31
0.0
  0
LINE
  5
14D
330
1E
100
AcDbEntity
  8
0
100
AcDbLine
 10
87.0
 20
91.8279
 30
0.0
 11
87.0
 21
120.8279
 31
0.0
  0
LINE
  5
14E
330
1E
100
AcDbEntity
  8
0
100
AcDbLine
 10
74.0
 20
91.8279
 30
0.0
 11
77.0
 21
91.8279
 31
0.0
  0
LINE
  5
14F
330
1E
100
AcDbEntity
  8
0
100
AcDbLine
 10
71.0
 20
91.8279
 30
0.0
 11
74.0
 21
91.8279
 31
0.0
  0
LINE
  5
150
330
1E
100
AcDbEntity
  8
0
100
AcDbLine
 10
40.4163
 20
90.1721
 30
0.0
 11
40.81629999999999
 21
90.1721
 31
0.0
  0
LINE
  5
151
330
1E
100
AcDbEntity
  8
0
100
AcDbLine
 10
39.5
 20
90.62789999999999
 30
0.0
 11
40.48375609756109
 21
91.40575365853669
 31
0.0
  0
LINE
  5
152
330
1E
100
AcDbEntity
  8
0
100
AcDbLine
 10
46.4221463414635
 20
97.34414390243919
 30
0.0
 11
47.2
 21
98.32790000000001
 31
0.0
  0
LINE
  5
153
330
1E
100
AcDbEntity
  8
0
100
AcDbLine
 10
46.4221463414636
 20
120.311656097561
 30
0.0
 11
47.2
 21
119.3278999999999
 31
0.0
  0
LINE
  5
155
330
1E
100
AcDbEntity
  8
0
100
AcDbLine
 10
47.4799999999997
 20
118.613900000001
 30
0.0
 11
49.244
 21
114.2039
 31
0.0
  0
LINE
  5
156
330
1E
100
AcDbEntity
  8
0
100
AcDbLine
 10
43.868
 20
123.6958999999999
 30
0.0
 11
46.4221463414636
 21
120.311656097561
 31
0.0
  0
LINE
  5
157
330
1E
100
AcDbEntity
  8
0
100
AcDbLine
 10
41.0431
 20
125.8278999999999
 30
0.0
 11
63.0
 21
125.8278999999999
 31
0.0
  0
LINE
  5
158
330
1E
100
AcDbEntity
  8
0
100
AcDbLine
 10
40.4
 20
128.7279
 30
0.0
 11
44.16216216216219
 21
125.8278999999999
 31
0.0
  0
LINE
  5
15A
330
1E
100
AcDbEntity
  8
0
100
AcDbLine
 10
39.5
 20
127.0279
 30
0.0
 11
40.48375609756099
 21
126.2500463414629
 31
0.0
  0
LINE
  5
15D
330
1E
100
AcDbEntity
  8
0
100
AcDbLine
 10
47.2
 20
98.32790000000001
 30
0.0
 11
47.4799999999997
 21
99.04189999999928
 31
0.0
  0
LINE
  5
15E
330
1E
100
AcDbEntity
  8
0
100
AcDbLine
 10
47.2
 20
98.32790000000001
 30
0.0
 11
47.4799999999997
 21
99.04189999999928
 31
0.0
  0
LINE
  5
15F
330
1E
100
AcDbEntity
  8
0
100
AcDbLine
 10
47.2
 20
119.3278999999999
 30
0.0
 11
47.4799999999997
 21
118.613900000001
 31
0.0
  0
LINE
  5
164
330
1E
100
AcDbEntity
  8
0
100
AcDbLine
 10
63.0
 20
94.12789999999999
 30
0.0
 11
63.0
 21
96.82780000000001
 31
0.0
  0
LINE
  5
165
330
1E
100
AcDbEntity
  8
0
100
AcDbLine
 10
63.0
 20
94.12789999999999
 30
0.0
 11
63.0
 21
92.42789999999999
 31
0.0
  0
LINE
  5
166
330
1E
100
AcDbEntity
  8
0
100
AcDbLine
 10
63.0
 20
96.82780000000001
 30
0.0
 11
63.0
 21
100.3778999999999
 31
0.0
  0
LINE
  5
167
330
1E
100
AcDbEntity
  8
0
100
AcDbLine
 10
63.0
 20
96.82780000000001
 30
0.0
 11
63.0
 21
94.12789999999999
 31
0.0
  0
LINE
  5
168
330
1E
100
AcDbEntity
  8
0
100
AcDbLine
 10
67.0
 20
102.7922
 30
0.0
 11
67.0
 21
105.6850999999999
 31
0.0
  0
LINE
  5
169
330
1E
100
AcDbEntity
  8
0
100
AcDbLine
 10
67.0
 20
102.7922
 30
0.0
 11
67.0
 21
100.2565
 31
0.0
  0
LINE
  5
16A
330
1E
100
AcDbEntity
  8
0
100
AcDbLine
 10
67.0
 20
100.2565
 30
0.0
 11
67.0
 21
102.7922
 31
0.0
  0
LINE
  5
16B
330
1E
100
AcDbEntity
  8
0
100
AcDbLine
 10
67.0
 20
100.2565
 30
0.0
 11
67.0
 21
98.32790000000001
 31
0.0
  0
LINE
  5
16C
330
1E
100
AcDbEntity
  8
0
100
AcDbLine
 10
67.0
 20
98.32790000000001
 30
0.0
 11
67.0
 21
100.2565
 31
0.0
  0
LINE
  5
16D
330
1E
100
AcDbEntity
  8
0
100
AcDbLine
 10
67.0
 20
98.32790000000001
 30
0.0
 11
67.0
 21
97.1136
 31
0.0
  0
LINE
  5
16E
330
1E
100
AcDbEntity
  8
0
100
AcDbLine
 10
67.0
 20
97.1136
 30
0.0
 11
67.0
 21
98.32790000000001
 31
0.0
  0
LINE
  5
16F
330
1E
100
AcDbEntity
  8
0
100
AcDbLine
 10
67.0
 20
97.1136
 30
0.0
 11
67.0
 21
96.68500000000001
 31
0.0
  0
LINE
  5
170
330
1E
100
AcDbEntity
  8
0
100
AcDbLine
 10
63.0
 20
100.3778999999999
 30
0.0
 11
63.0
 21
104.4278999999999
 31
0.0
  0
LINE
  5
171
330
1E
100
AcDbEntity
  8
0
100
AcDbLine
 10
63.0
 20
100.3778999999999
 30
0.0
 11
63.0
 21
96.82780000000001
 31
0.0
  0
LINE
  5
172
330
1E
100
AcDbEntity
  8
0
100
AcDbLine
 10
63.0
 20
96.68500000000001
 30
0.0
 11
67.0
 21
96.68500000000001
 31
0.0
  0
LINE
  5
176
330
1E
100
AcDbEntity
  8
0
100
AcDbLine
 10
81.0
 20
102.1492999999999
 30
0.0
 11
81.0
 21
99.3565
 31
0.0
  0
LINE
  5
177
330
1E
100
AcDbEntity
  8
0
100
AcDbLine
 10
81.0
 20
99.3565
 30
0.0
 11
81.0
 21
97.29219999999999
 31
0.0
  0
LINE
  5
178
330
1E
100
AcDbEntity
  8
0
100
AcDbLine
 10
81.0
 20
97.29219999999999
 30
0.0
 11
81.0
 21
95.9565
 31
0.0
  0
LINE
  5
179
330
1E
100
AcDbEntity
  8
0
100
AcDbLine
 10
81.0
 20
95.9565
 30
0.0
 11
81.0
 21
95.47079999999999
 31
0.0
  0
LINE
  5
17D
330
1E
100
AcDbEntity
  8
0
100
AcDbLine
 10
110.4999999999999
 20
99.2279
 30
0.0
 11
110.4999999999999
 21
108.8278999999999
 31
0.0
  0
LINE
  5
17E
330
1E
100
AcDbEntity
  8
0
100
AcDbLine
 10
110.4999999999999
 20
99.2279
 30
0.0
 11
110.4999999999999
 21
90.2279
 31
0.0
  0
LINE
  5
17F
330
1E
100
AcDbEntity
  8
0
100
AcDbLine
 10
112.0
 20
99.02790000000001
 30
0.0
 11
112.0
 21
108.8278999999999
 31
0.0
  0
LINE
  5
180
330
1E
100
AcDbEntity
  8
0
100
AcDbLine
 10
112.0
 20
99.02790000000001
 30
0.0
 11
112.0
 21
89.92789999999999
 31
0.0
  0
LINE
  5
181
330
1E
100
AcDbEntity
  8
0
100
AcDbLine
 10
118.0
 20
97.22790000000001
 30
0.0
 11
118.0
 21
108.8278999999999
 31
0.0
  0
LINE
  5
182
330
1E
100
AcDbEntity
  8
0
100
AcDbLine
 10
118.0
 20
97.22790000000001
 30
0.0
 11
118.0
 21
86.42789999999999
 31
0.0
  0
LINE
  5
183
330
1E
100
AcDbEntity
  8
0
100
AcDbLine
 10
81.0
 20
95.82790000000001
 30
0.0
 11
87.0
 21
95.82790000000001
 31
0.0
  0
LINE
  5
184
330
1E
100
AcDbEntity
  8
0
100
AcDbLine
 10
87.0
 20
120.8279
 30
0.0
 11
87.0
 21
91.8279
 31
0.0
  0
LINE
  5
185
330
1E
100
AcDbEntity
  8
0
100
AcDbLine
 10
67.0
 20
96.68500000000001
 30
0.0
 11
69.0
 21
93.04219999999999
 31
0.0
  0
LINE
  5
186
330
1E
100
AcDbEntity
  8
0
100
AcDbLine
 10
67.0
 20
96.68500000000001
 30
0.0
 11
67.0
 21
97.1136
 31
0.0
  0
LINE
  5
188
330
1E
100
AcDbEntity
  8
0
100
AcDbLine
 10
63.0
 20
104.4278999999999
 30
0.0
 11
63.0
 21
108.8278999999999
 31
0.0
  0
LINE
  5
189
330
1E
100
AcDbEntity
  8
0
100
AcDbLine
 10
63.0
 20
104.4278999999999
 30
0.0
 11
63.0
 21
100.3778999999999
 31
0.0
  0
LINE
  5
18A
330
1E
100
AcDbEntity
  8
0
100
AcDbLine
 10
63.0
 20
113.2279
 30
0.0
 11
63.0
 21
117.2779
 31
0.0
  0
LINE
  5
18B
330
1E
100
AcDbEntity
  8
0
100
AcDbLine
 10
63.0
 20
113.2279
 30
0.0
 11
63.0
 21
108.8278999999999
 31
0.0
  0
LINE
  5
18D
330
1E
100
AcDbEntity
  8
0
100
AcDbLine
 10
81.0
 20
105.4278999999999
 30
0.0
 11
81.0
 21
102.1492999999999
 31
0.0
  0
LINE
  5
18F
330
1E
100
AcDbEntity
  8
0
100
AcDbLine
 10
67.0
 20
108.8278999999999
 30
0.0
 11
67.0
 21
111.9707
 31
0.0
  0
LINE
  5
190
330
1E
100
AcDbEntity
  8
0
100
AcDbLine
 10
67.0
 20
108.8278999999999
 30
0.0
 11
67.0
 21
105.6850999999999
 31
0.0
  0
LINE
  5
192
330
1E
100
AcDbEntity
  8
0
100
AcDbLine
 10
67.0
 20
111.9707
 30
0.0
 11
67.0
 21
114.8635999999999
 31
0.0
  0
LINE
  5
193
330
1E
100
AcDbEntity
  8
0
100
AcDbLine
 10
67.0
 20
111.9707
 30
0.0
 11
67.0
 21
108.8278999999999
 31
0.0
  0
LINE
  5
194
330
1E
100
AcDbEntity
  8
0
100
AcDbLine
 10
110.4999999999999
 20
108.8278999999999
 30
0.0
 11
110.4999999999999
 21
99.2279
 31
0.0
  0
LINE
  5
195
330
1E
100
AcDbEntity
  8
0
100
AcDbLine
 10
110.4999999999999
 20
108.8278999999999
 30
0.0
 11
110.4999999999999
 21
118.4278999999999
 31
0.0
  0
LINE
  5
196
330
1E
100
AcDbEntity
  8
0
100
AcDbLine
 10
112.0
 20
108.8278999999999
 30
0.0
 11
112.0
 21
99.02790000000001
 31
0.0
  0
LINE
  5
197
330
1E
100
AcDbEntity
  8
0
100
AcDbLine
 10
112.0
 20
108.8278999999999
 30
0.0
 11
112.0
 21
118.6279
 31
0.0
  0
LINE
  5
198
330
1E
100
AcDbEntity
  8
0
100
AcDbLine
 10
118.0
 20
108.8278999999999
 30
0.0
 11
118.0
 21
97.22790000000001
 31
0.0
  0
LINE
  5
199
330
1E
100
AcDbEntity
  8
0
100
AcDbLine
 10
118.0
 20
108.8278999999999
 30
0.0
 11
118.0
 21
120.4278999999999
 31
0.0
  0
LINE
  5
19A
330
1E
100
AcDbEntity
  8
0
100
AcDbLine
 10
81.0
 20
108.8278999999999
 30
0.0
 11
81.0
 21
105.4278999999999
 31
0.0
  0
LINE
  5
19C
330
1E
100
AcDbEntity
  8
0
100
AcDbLine
 10
81.0
 20
112.2279
 30
0.0
 11
81.0
 21
108.8278999999999
 31
0.0
  0
LINE
  5
1A1
330
1E
100
AcDbEntity
  8
0
100
AcDbLine
 10
67.0
 20
105.6850999999999
 30
0.0
 11
67.0
 21
108.8278999999999
 31
0.0
  0
LINE
  5
1A2
330
1E
100
AcDbEntity
  8
0
100
AcDbLine
 10
67.0
 20
105.6850999999999
 30
0.0
 11
67.0
 21
102.7922
 31
0.0
  0
LINE
  5
1A3
330
1E
100
AcDbEntity
  8
0
100
AcDbLine
 10
63.0
 20
108.8278999999999
 30
0.0
 11
63.0
 21
113.2279
 31
0.0
  0
LINE
  5
1A4
330
1E
100
AcDbEntity
  8
0
100
AcDbLine
 10
63.0
 20
108.8278999999999
 30
0.0
 11
63.0
 21
104.4278999999999
 31
0.0
  0
LINE
  5
1A5
330
1E
100
AcDbEntity
  8
0
100
AcDbLine
 10
67.0
 20
114.8635999999999
 30
0.0
 11
67.0
 21
117.3993
 31
0.0
  0
LINE
  5
1A6
330
1E
100
AcDbEntity
  8
0
100
AcDbLine
 10
67.0
 20
114.8635999999999
 30
0.0
 11
67.0
 21
111.9707
 31
0.0
  0
LINE
  5
1A7
330
1E
100
AcDbEntity
  8
0
100
AcDbLine
 10
63.0
 20
120.9708
 30
0.0
 11
67.0
 21
120.9708
 31
0.0
  0
LINE
  5
1A8
330
1E
100
AcDbEntity
  8
0
100
AcDbLine
 10
63.0
 20
125.8278999999999
 30
0.0
 11
63.0
 21
125.2279
 31
0.0
  0
LINE
  5
1A9
330
1E
100
AcDbEntity
  8
0
100
AcDbLine
 10
63.0
 20
125.2279
 30
0.0
 11
63.0
 21
125.8278999999999
 31
0.0
  0
LINE
  5
1AA
330
1E
100
AcDbEntity
  8
0
100
AcDbLine
 10
63.0
 20
125.2279
 30
0.0
 11
63.0
 21
123.5279
 31
0.0
  0
LINE
  5
1AB
330
1E
100
AcDbEntity
  8
0
100
AcDbLine
 10
63.0
 20
123.5279
 30
0.0
 11
63.0
 21
125.2279
 31
0.0
  0
LINE
  5
1AC
330
1E
100
AcDbEntity
  8
0
100
AcDbLine
 10
63.0
 20
123.5279
 30
0.0
 11
63.0
 21
120.828
 31
0.0
  0
LINE
  5
1AD
330
1E
100
AcDbEntity
  8
0
100
AcDbLine
 10
67.0
 20
117.3993
 30
0.0
 11
67.0
 21
119.3278999999999
 31
0.0
  0
LINE
  5
1AE
330
1E
100
AcDbEntity
  8
0
100
AcDbLine
 10
67.0
 20
117.3993
 30
0.0
 11
67.0
 21
114.8635999999999
 31
0.0
  0
LINE
  5
1AF
330
1E
100
AcDbEntity
  8
0
100
AcDbLine
 10
67.0
 20
119.3278999999999
 30
0.0
 11
67.0
 21
120.5421999999999
 31
0.0
  0
LINE
  5
1B0
330
1E
100
AcDbEntity
  8
0
100
AcDbLine
 10
67.0
 20
119.3278999999999
 30
0.0
 11
67.0
 21
117.3993
 31
0.0
  0
LINE
  5
1B1
330
1E
100
AcDbEntity
  8
0
100
AcDbLine
 10
67.0
 20
120.5421999999999
 30
0.0
 11
67.0
 21
120.9708
 31
0.0
  0
LINE
  5
1B2
330
1E
100
AcDbEntity
  8
0
100
AcDbLine
 10
67.0
 20
120.5421999999999
 30
0.0
 11
67.0
 21
119.3278999999999
 31
0.0
  0
LINE
  5
1B3
330
1E
100
AcDbEntity
  8
0
100
AcDbLine
 10
63.0
 20
120.828
 30
0.0
 11
63.0
 21
123.5279
 31
0.0
  0
LINE
  5
1B4
330
1E
100
AcDbEntity
  8
0
100
AcDbLine
 10
63.0
 20
120.828
 30
0.0
 11
63.0
 21
117.2779
 31
0.0
  0
LINE
  5
1B5
330
1E
100
AcDbEntity
  8
0
100
AcDbLine
 10
63.0
 20
117.2779
 30
0.0
 11
63.0
 21
120.828
 31
0.0
  0
LINE
  5
1B6
330
1E
100
AcDbEntity
  8
0
100
AcDbLine
 10
63.0
 20
117.2779
 30
0.0
 11
63.0
 21
113.2279
 31
0.0
  0
LINE
  5
1B7
330
1E
100
AcDbEntity
  8
0
100
AcDbLine
 10
81.0
 20
115.5065
 30
0.0
 11
81.0
 21
112.2279
 31
0.0
  0
LINE
  5
1B8
330
1E
100
AcDbEntity
  8
0
100
AcDbLine
 10
81.0
 20
118.2992999999999
 30
0.0
 11
81.0
 21
115.5065
 31
0.0
  0
LINE
  5
1B9
330
1E
100
AcDbEntity
  8
0
100
AcDbLine
 10
87.0
 20
120.8279
 30
0.0
 11
87.0
 21
123.5279
 31
0.0
  0
LINE
  5
1BA
330
1E
100
AcDbEntity
  8
0
100
AcDbLine
 10
81.0
 20
120.3636
 30
0.0
 11
81.0
 21
118.2992999999999
 31
0.0
  0
LINE
  5
1BC
330
1E
100
AcDbEntity
  8
0
100
AcDbLine
 10
81.0
 20
121.8279
 30
0.0
 11
87.0
 21
121.8279
 31
0.0
  0
LINE
  5
1BD
330
1E
100
AcDbEntity
  8
0
100
AcDbLine
 10
81.0
 20
121.6992999999999
 30
0.0
 11
81.0
 21
120.3636
 31
0.0
  0
LINE
  5
1BF
330
1E
100
AcDbEntity
  8
0
100
AcDbLine
 10
69.0
 20
124.6136
 30
0.0
 11
71.0
 21
125.8278999999999
 31
0.0
  0
LINE
  5
1C5
330
1E
100
AcDbEntity
  8
0
100
AcDbLine
 10
79.0
 20
124.6136
 30
0.0
 11
81.0
 21
122.185
 31
0.0
  0
LINE
  5
1C6
330
1E
100
AcDbEntity
  8
0
100
AcDbLine
 10
81.0
 20
122.185
 30
0.0
 11
81.0
 21
121.6992999999999
 31
0.0
  0
LINE
  5
1C8
330
1E
100
AcDbEntity
  8
0
100
AcDbLine
 10
74.0
 20
125.8278999999999
 30
0.0
 11
77.0
 21
125.8278999999999
 31
0.0
  0
LINE
  5
1C9
330
1E
100
AcDbEntity
  8
0
100
AcDbLine
 10
77.0
 20
125.8278999999999
 30
0.0
 11
79.0
 21
124.6136
 31
0.0
  0
LINE
  5
1CA
330
1E
100
AcDbEntity
  8
0
100
AcDbLine
 10
71.0
 20
125.8278999999999
 30
0.0
 11
74.0
 21
125.8278999999999
 31
0.0
  0
LINE
  5
1CB
330
1E
100
AcDbEntity
  8
0
100
AcDbLine
 10
87.0
 20
125.2279
 30
0.0
 11
87.0
 21
123.5279
 31
0.0
  0
LINE
  5
1CC
330
1E
100
AcDbEntity
  8
0
100
AcDbLine
 10
87.0
 20
125.2279
 30
0.0
 11
87.0
 21
125.8278999999999
 31
0.0
  0
LINE
  5
1CD
330
1E
100
AcDbEntity
  8
0
100
AcDbLine
 10
87.0
 20
123.5279
 30
0.0
 11
87.0
 21
121.8279
 31
0.0
  0
LINE
  5
1CE
330
1E
100
AcDbEntity
  8
0
100
AcDbLine
 10
87.0
 20
123.5279
 30
0.0
 11
87.0
 21
125.2279
 31
0.0
  0
LINE
  5
1CF
330
1E
100
AcDbEntity
  8
0
100
AcDbLine
 10
87.0
 20
123.5279
 30
0.0
 11
87.0
 21
120.8279
 31
0.0
  0
LINE
  5
1D0
330
1E
100
AcDbEntity
  8
0
100
AcDbLine
 10
87.0
 20
121.8279
 30
0.0
 11
87.0
 21
123.5279
 31
0.0
  0
LINE
  5
1D1
330
1E
100
AcDbEntity
  8
0
100
AcDbLine
 10
87.0
 20
125.8278999999999
 30
0.0
 11
88.0
 21
127.8278999999999
 31
0.0
  0
LINE
  5
1D2
330
1E
100
AcDbEntity
  8
0
100
AcDbLine
 10
87.0
 20
125.8278999999999
 30
0.0
 11
87.0
 21
125.2279
 31
0.0
  0
LINE
  5
1D3
330
1E
100
AcDbEntity
  8
0
100
AcDbLine
 10
88.0
 20
127.8278999999999
 30
0.0
 11
97.5
 21
133.3279
 31
0.0
  0
LINE
  5
1D4
330
1E
100
AcDbEntity
  8
0
100
AcDbLine
 10
97.5
 20
133.3279
 30
0.0
 11
105.0
 21
139.3278999999999
 31
0.0
  0
LINE
  5
1D5
330
1E
100
AcDbEntity
  8
0
100
AcDbLine
 10
105.0
 20
139.3278999999999
 30
0.0
 11
109.4999999999999
 21
144.8279
 31
0.0
  0
LINE
  5
1D6
330
1E
100
AcDbEntity
  8
0
100
AcDbLine
 10
110.4999999999999
 20
118.4278999999999
 30
0.0
 11
110.4999999999999
 21
127.4278999999999
 31
0.0
  0
LINE
  5
1D7
330
1E
100
AcDbEntity
  8
0
100
AcDbLine
 10
110.4999999999999
 20
118.4278999999999
 30
0.0
 11
110.4999999999999
 21
108.8278999999999
 31
0.0
  0
LINE
  5
1D8
330
1E
100
AcDbEntity
  8
0
100
AcDbLine
 10
110.4999999999999
 20
141.3278999999999
 30
0.0
 11
110.4999999999999
 21
144.9278999999999
 31
0.0
  0
LINE
  5
1D9
330
1E
100
AcDbEntity
  8
0
100
AcDbLine
 10
110.4999999999999
 20
141.3278999999999
 30
0.0
 11
110.4999999999999
 21
135.2279
 31
0.0
  0
LINE
  5
1DA
330
1E
100
AcDbEntity
  8
0
100
AcDbLine
 10
110.4999999999999
 20
144.9278999999999
 30
0.0
 11
110.4999999999999
 21
146.3278999999999
 31
0.0
  0
LINE
  5
1DB
330
1E
100
AcDbEntity
  8
0
100
AcDbLine
 10
110.4999999999999
 20
144.9278999999999
 30
0.0
 11
110.4999999999999
 21
141.3278999999999
 31
0.0
  0
LINE
  5
1DC
330
1E
100
AcDbEntity
  8
0
100
AcDbLine
 10
112.0
 20
141.7279
 30
0.0
 11
112.0
 21
145.4278999999999
 31
0.0
  0
LINE
  5
1DD
330
1E
100
AcDbEntity
  8
0
100
AcDbLine
 10
112.0
 20
141.7279
 30
0.0
 11
112.0
 21
135.6279
 31
0.0
  0
LINE
  5
1DE
330
1E
100
AcDbEntity
  8
0
100
AcDbLine
 10
112.0
 20
145.4278999999999
 30
0.0
 11
112.0
 21
146.8279
 31
0.0
  0
LINE
  5
1DF
330
1E
100
AcDbEntity
  8
0
100
AcDbLine
 10
112.0
 20
145.4278999999999
 30
0.0
 11
112.0
 21
141.7279
 31
0.0
  0
LINE
  5
1E0
330
1E
100
AcDbEntity
  8
0
100
AcDbLine
 10
110.4999999999999
 20
135.2279
 30
0.0
 11
110.4999999999999
 21
127.4278999999999
 31
0.0
  0
LINE
  5
1E1
330
1E
100
AcDbEntity
  8
0
100
AcDbLine
 10
110.4999999999999
 20
135.2279
 30
0.0
 11
110.4999999999999
 21
141.3278999999999
 31
0.0
  0
LINE
  5
1E2
330
1E
100
AcDbEntity
  8
0
100
AcDbLine
 10
112.0
 20
135.6279
 30
0.0
 11
112.0
 21
127.7279
 31
0.0
  0
LINE
  5
1E3
330
1E
100
AcDbEntity
  8
0
100
AcDbLine
 10
112.0
 20
135.6279
 30
0.0
 11
112.0
 21
141.7279
 31
0.0
  0
LINE
  5
1E4
330
1E
100
AcDbEntity
  8
0
100
AcDbLine
 10
110.4999999999999
 20
127.4278999999999
 30
0.0
 11
110.4999999999999
 21
135.2279
 31
0.0
  0
LINE
  5
1E5
330
1E
100
AcDbEntity
  8
0
100
AcDbLine
 10
110.4999999999999
 20
127.4278999999999
 30
0.0
 11
110.4999999999999
 21
118.4278999999999
 31
0.0
  0
LINE
  5
1E6
330
1E
100
AcDbEntity
  8
0
100
AcDbLine
 10
112.0
 20
127.7279
 30
0.0
 11
112.0
 21
135.6279
 31
0.0
  0
LINE
  5
1E7
330
1E
100
AcDbEntity
  8
0
100
AcDbLine
 10
112.0
 20
127.7279
 30
0.0
 11
112.0
 21
118.6279
 31
0.0
  0
LINE
  5
1E8
330
1E
100
AcDbEntity
  8
0
100
AcDbLine
 10
112.0
 20
118.6279
 30
0.0
 11
112.0
 21
127.7279
 31
0.0
  0
LINE
  5
1E9
330
1E
100
AcDbEntity
  8
0
100
AcDbLine
 10
112.0
 20
118.6279
 30
0.0
 11
112.0
 21
108.8278999999999
 31
0.0
  0
LINE
  5
1EA
330
1E
100
AcDbEntity
  8
0
100
AcDbLine
 10
109.4999999999999
 20
144.8279
 30
0.0
 11
110.4999999999999
 21
146.3278999999999
 31
0.0
  0
LINE
  5
1EB
330
1E
100
AcDbEntity
  8
0
100
AcDbLine
 10
110.4999999999999
 20
146.3278999999999
 30
0.0
 11
112.0
 21
146.8279
 31
0.0
  0
LINE
  5
1EC
330
1E
100
AcDbEntity
  8
0
100
AcDbLine
 10
110.4999999999999
 20
146.3278999999999
 30
0.0
 11
110.4999999999999
 21
144.9278999999999
 31
0.0
  0
LINE
  5
1ED
330
1E
100
AcDbEntity
  8
0
100
AcDbLine
 10
112.0
 20
146.8279
 30
0.0
 11
113.0
 21
148.8279
 31
0.0
  0
LINE
  5
1EE
330
1E
100
AcDbEntity
  8
0
100
AcDbLine
 10
112.0
 20
146.8279
 30
0.0
 11
112.0
 21
145.4278999999999
 31
0.0
  0
LINE
  5
1EF
330
1E
100
AcDbEntity
  8
0
100
AcDbLine
 10
113.0
 20
148.8279
 30
0.0
 11
113.5
 21
151.3278999999999
 31
0.0
  0
LINE
  5
1F0
330
1E
100
AcDbEntity
  8
0
100
AcDbLine
 10
118.0
 20
147.8279
 30
0.0
 11
118.0
 21
152.2279
 31
0.0
  0
LINE
  5
1F1
330
1E
100
AcDbEntity
  8
0
100
AcDbLine
 10
118.0
 20
147.8279
 30
0.0
 11
118.0
 21
140.5278999999999
 31
0.0
  0
LINE
  5
1F2
330
1E
100
AcDbEntity
  8
0
100
AcDbLine
 10
118.0
 20
152.2279
 30
0.0
 11
118.0
 21
153.8278999999999
 31
0.0
  0
LINE
  5
1F3
330
1E
100
AcDbEntity
  8
0
100
AcDbLine
 10
118.0
 20
152.2279
 30
0.0
 11
118.0
 21
147.8279
 31
0.0
  0
LINE
  5
1F4
330
1E
100
AcDbEntity
  8
0
100
AcDbLine
 10
118.0
 20
140.5278999999999
 30
0.0
 11
118.0
 21
131.2278999999999
 31
0.0
  0
LINE
  5
1F5
330
1E
100
AcDbEntity
  8
0
100
AcDbLine
 10
118.0
 20
140.5278999999999
 30
0.0
 11
118.0
 21
147.8279
 31
0.0
  0
LINE
  5
1F6
330
1E
100
AcDbEntity
  8
0
100
AcDbLine
 10
118.0
 20
131.2278999999999
 30
0.0
 11
118.0
 21
140.5278999999999
 31
0.0
  0
LINE
  5
1F7
330
1E
100
AcDbEntity
  8
0
100
AcDbLine
 10
118.0
 20
131.2278999999999
 30
0.0
 11
118.0
 21
120.4278999999999
 31
0.0
  0
LINE
  5
1F8
330
1E
100
AcDbEntity
  8
0
100
AcDbLine
 10
118.0
 20
120.4278999999999
 30
0.0
 11
118.0
 21
131.2278999999999
 31
0.0
  0
LINE
  5
1F9
330
1E
100
AcDbEntity
  8
0
100
AcDbLine
 10
118.0
 20
120.4278999999999
 30
0.0
 11
118.0
 21
108.8278999999999
 31
0.0
  0
LINE
  5
1FA
330
1E
100
AcDbEntity
  8
0
100
AcDbLine
 10
113.5
 20
151.3278999999999
 30
0.0
 11
115.5
 21
153.3279
 31
0.0
  0
LINE
  5
1FB
330
1E
100
AcDbEntity
  8
0
100
AcDbLine
 10
118.0
 20
153.8278999999999
 30
0.0
 11
118.0
 21
152.2279
 31
0.0
  0
LINE
  5
1FC
330
1E
100
AcDbEntity
  8
0
100
AcDbLine
 10
115.5
 20
153.3279
 30
0.0
 11
118.0
 21
153.8278999999999
 31
0.0
  0
LINE
  5
1FD
330
1E
100
AcDbEntity
  8
0
100
AcDbLine
 10
67.0
 20
120.9708
 30
0.0
 11
69.0
 21
124.6136
 31
0.0
  0
LINE
  5
1FE
330
1E
100
AcDbEntity
  8
0
100
AcDbLine
 10
67.0
 20
120.9708
 30
0.0
 11
67.0
 21
120.5421999999999
 31
0.0
  0
LINE
  5
1FF
330
1E
100
AcDbEntity
  8
0
100
AcDbLine
 10
49.244
 20
114.2039
 30
0.0
 11
50.0
 21
108.8278999999999
 31
0.0
  0
LINE
  5
201
330
1E
100
AcDbEntity
  8
0
100
AcDbLine
 10
49.244
 20
103.4518999999999
 30
0.0
 11
50.0
 21
108.8278999999999
 31
0.0
  0
LINE
  5
202
330
1E
100
AcDbEntity
  8
0
100
AcDbLine
 10
47.228
 20
98.4119
 30
0.0
 11
49.244
 21
103.4518999999999
 31
0.0
  0
LINE
  5
203
330
1E
100
AcDbEntity
  8
0
100
AcDbLine
 10
43.868
 20
93.95990000000001
 30
0.0
 11
47.228
 21
98.4119
 31
0.0
  0
LINE
  5
204
330
1E
100
AcDbEntity
  8
0
100
AcDbLine
 10
39.41599999999999
 20
90.5999
 30
0.0
 11
43.868
 21
93.95990000000001
 31
0.0
  0
LINE
  5
205
330
1E
100
AcDbEntity
  8
0
100
AcDbLine
 10
34.37599999999999
 20
88.58389999999999
 30
0.0
 11
39.41599999999999
 21
90.5999
 31
0.0
  0
LINE
  5
206
330
1E
100
AcDbEntity
  8
0
100
AcDbLine
 10
29.0
 20
87.8279
 30
0.0
 11
34.37599999999999
 21
88.58389999999999
 31
0.0
  0
LINE
  5
20B
330
1E
100
AcDbEntity
  8
0
100
AcDbLine
 10
34.9
 20
131.0278999999999
 30
0.0
 11
32.96245827945006
 21
131.2880362069669
 31
0.0
  0
LINE
  5
20C
330
1E
100
AcDbEntity
  8
0
100
AcDbLine
 10
38.78599999999959
 20
127.3079
 30
0.0
 11
34.37599999999999
 21
129.0718999999999
 31
0.0
  0
LINE
  5
20D
330
1E
100
AcDbEntity
  8
0
100
AcDbLine
 10
40.48375609756099
 20
126.2500463414629
 30
0.0
 11
41.0431
 21
125.8278999999999
 31
0.0
  0
LINE
  5
20E
330
1E
100
AcDbEntity
  8
0
100
AcDbLine
 10
41.0431
 20
125.8278999999999
 30
0.0
 11
43.868
 21
123.6958999999999
 31
0.0
  0
ENDSEC
  0
SECTION
  2
OBJECTS
  0
DICTIONARY
  5
C
330
0
100
AcDbDictionary
  3
ACAD_GROUP
350
D
  3
ACAD_LAYOUT
350
19
  3
ACAD_MLINESTYLE
350
16
  3
ACAD_PLOTSETTINGS
350
18
  3
ACAD_PLOTSTYLENAME
350
E
  3
ACDBHEADERROUNDTRIPXREC
350
212
  3
ACDBVARIABLEDICTIONARY
350
20F
  0
DICTIONARY
  5
234
330
1E
100
AcDbDictionary
280
     1
  3
ACAD_LAYOUTSELFREF
360
235
  0
DICTIONARY
  5
232
330
1A
100
AcDbDictionary
280
     1
  3
ACAD_LAYOUTSELFREF
360
233
  0
DICTIONARY
  5
D
102
{ACAD_REACTORS
330
C
102
}
330
C
100
AcDbDictionary
  0
DICTIONARY
  5
19
102
{ACAD_REACTORS
330
C
102
}
330
C
100
AcDbDictionary
  0
DICTIONARY
  5
16
102
{ACAD_REACTORS
330
C
102
}
330
C
100
AcDbDictionary
  3
STANDARD
350
17
  0
DICTIONARY
  5
18
102
{ACAD_REACTORS
330
C
102
}
330
C
100
AcDbDictionary
  0
ACDBDICTIONARYWDFLT
  5
E
102
{ACAD_REACTORS
330
C
102
}
330
C
100
AcDbDictionary
281
     1
  3
Normal
350
F
100
AcDbDictionaryWithDefault
340
F
  0
DICTIONARY
  5
212
102
{ACAD_REACTORS
330
C
102
}
330
C
100
AcDbDictionary
  3
CEPSNTYPE
350
21C
  3
FINGERPRINTGUID
350
21D
  3
HYPERLINKBASE
350
215
  3
INSUNITS
350
21B
  3
LAYOUTDICT
350
217
  3
LWETCUNION
350
21A
  3
PLOTSETDICT
350
218
  3
PLOTSTYLNAMDICT
350
219
  3
PSVPSCALE
350
21F
  3
PUCSBASE
350
222
  3
PUCSORGBACK
350
228
  3
PUCSORGBOTTOM
350
224
  3
PUCSORGFRONT
350
227
  3
PUCSORGLEFT
350
225
  3
PUCSORGRIGHT
350
226
  3
PUCSORGTOP
350
223
  3
PUCSORTHOREF
350
220
  3
PUCSORTHOVIEW
350
221
  3
STYLESHEET
350
216
  3
TSTACKALIGN
350
213
  3
TSTACKSIZE
350
214
  3
UCSBASE
350
22B
  3
UCSORGBACK
350
231
  3
UCSORGBOTTOM
350
22D
  3
UCSORGFRONT
350
230
  3
UCSORGLEFT
350
22E
  3
UCSORGRIGHT
350
22F
  3
UCSORGTOP
350
22C
  3
UCSORTHOREF
350
229
  3
UCSORTHOVIEW
350
22A
  3
VERSIONGUID
350
21E
  0
DICTIONARY
  5
20F
102
{ACAD_REACTORS
330
C
102
}
330
C
100
AcDbDictionary
  3
DIMASSOC
350
210
  0
XRECORD
  5
235
102
{ACAD_REACTORS
330
234
102
}
330
234
100
AcDbXrecord
340
1E
  0
XRECORD
  5
233
102
{ACAD_REACTORS
330
232
102
}
330
232
100
AcDbXrecord
340
1A
  0
MLINESTYLE
  5
17
102
{ACAD_REACTORS
330
16
102
}
330
16
100
AcDbMlineStyle
  2
STANDARD
 70
     0
  3

 62
   256
 51
90.0
 52
90.0
 71
     2
 49
0.5
 62
   256
  6
BYLAYER
 49
-0.5
 62
   256
  6
BYLAYER
  0
ACDBPLACEHOLDER
  5
F
102
{ACAD_REACTORS
330
E
102
}
330
E
100
AcDbPlaceHolder
280
     0
  0
XRECORD
  5
21C
102
{ACAD_REACTORS
330
212
102
}
330
212
100
AcDbXrecord
 90
        0
  0
XRECORD
  5
21D
102
{ACAD_REACTORS
330
212
102
}
330
212
100
AcDbXrecord
  1
{8B9C43FB-CFC1-4908-AD88-8F0B9C404F68}
  0
XRECORD
  5
215
102
{ACAD_REACTORS
330
212
102
}
330
212
100
AcDbXrecord
  1

  0
XRECORD
  5
21B
102
{ACAD_REACTORS
330
212
102
}
330
212
100
AcDbXrecord
 90
        0
  0
XRECORD
  5
217
102
{ACAD_REACTORS
330
212
102
}
330
212
100
AcDbXrecord
340
19
  0
XRECORD
  5
21A
102
{ACAD_REACTORS
330
212
102
}
330
212
100
AcDbXrecord
 90
    10781
  0
XRECORD
  5
218
102
{ACAD_REACTORS
330
212
102
}
330
212
100
AcDbXrecord
340
18
  0
XRECORD
  5
219
102
{ACAD_REACTORS
330
212
102
}
330
212
100
AcDbXrecord
340
E
  0
XRECORD
  5
21F
102
{ACAD_REACTORS
330
212
102
}
330
212
100
AcDbXrecord
 40
0.0
  0
XRECORD
  5
222
102
{ACAD_REACTORS
330
212
102
}
330
212
100
AcDbXrecord
340
0
  0
XRECORD
  5
228
102
{ACAD_REACTORS
330
212
102
}
330
212
100
AcDbXrecord
 10
0.0
 20
0.0
 30
0.0
  0
XRECORD
  5
224
102
{ACAD_REACTORS
330
212
102
}
330
212
100
AcDbXrecord
 10
0.0
 20
0.0
 30
0.0
  0
XRECORD
  5
227
102
{ACAD_REACTORS
330
212
102
}
330
212
100
AcDbXrecord
 10
0.0
 20
0.0
 30
0.0
  0
XRECORD
  5
225
102
{ACAD_REACTORS
330
212
102
}
330
212
100
AcDbXrecord
 10
0.0
 20
0.0
 30
0.0
  0
XRECORD
  5
226
102
{ACAD_REACTORS
330
212
102
}
330
212
100
AcDbXrecord
 10
0.0
 20
0.0
 30
0.0
  0
XRECORD
  5
223
102
{ACAD_REACTORS
330
212
102
}
330
212
100
AcDbXrecord
 10
0.0
 20
0.0
 30
0.0
  0
XRECORD
  5
220
102
{ACAD_REACTORS
330
212
102
}
330
212
100
AcDbXrecord
340
0
  0
XRECORD
  5
221
102
{ACAD_REACTORS
330
212
102
}
330
212
100
AcDbXrecord
 70
     0
  0
XRECORD
  5
216
102
{ACAD_REACTORS
330
212
102
}
330
212
100
AcDbXrecord
  1

  0
XRECORD
  5
213
102
{ACAD_REACTORS
330
212
102
}
330
212
100
AcDbXrecord
 90
        1
  0
XRECORD
  5
214
102
{ACAD_REACTORS
330
212
102
}
330
212
100
AcDbXrecord
 90
       70
  0
XRECORD
  5
22B
102
{ACAD_REACTORS
330
212
102
}
330
212
100
AcDbXrecord
340
0
  0
XRECORD
  5
231
102
{ACAD_REACTORS
330
212
102
}
330
212
100
AcDbXrecord
 10
0.0
 20
0.0
 30
0.0
  0
XRECORD
  5
22D
102
{ACAD_REACTORS
330
212
102
}
330
212
100
AcDbXrecord
 10
0.0
 20
0.0
 30
0.0
  0
XRECORD
  5
230
102
{ACAD_REACTORS
330
212
102
}
330
212
100
AcDbXrecord
 10
0.0
 20
0.0
 30
0.0
  0
XRECORD
  5
22E
102
{ACAD_REACTORS
330
212
102
}
330
212
100
AcDbXrecord
 10
0.0
 20
0.0
 30
0.0
  0
XRECORD
  5
22F
102
{ACAD_REACTORS
330
212
102
}
330
212
100
AcDbXrecord
 10
0.0
 20
0.0
 30
0.0
  0
XRECORD
  5
22C
102
{ACAD_REACTORS
330
212
102
}
330
212
100
AcDbXrecord
 10
0.0
 20
0.0
 30
0.0
  0
XRECORD
  5
229
102
{ACAD_REACTORS
330
212
102
}
330
212
100
AcDbXrecord
340
0
  0
XRECORD
  5
22A
102
{ACAD_REACTORS
330
212
102
}
330
212
100
AcDbXrecord
 70
     1
  0
XRECORD
  5
21E
102
{ACAD_REACTORS
330
212
102
}
330
212
100
AcDbXrecord
  1
{3F7574B8-90C6-42C2-BBC5-EC68B1D4CC12}
  0
DICTIONARYVAR
  5
210
102
{ACAD_REACTORS
330
20F
102
}
330
20F
100
DictionaryVariables
280
     0
  1
1
  0
ENDSEC
  0
EOF
