  0
SECTION
  2
HEADER
  9
$ACADVER
  1
AC1015
  9
$ACADMAINTVER
 70
    13
  9
$DWGCODEPAGE
  3
ANSI_1252
  9
$INSBASE
 10
0.0
 20
0.0
 30
0.0
  9
$EXTMIN
 10
0.0
 20
0.145000000000014
 30
0.0
  9
$EXTMAX
 10
124.0
 20
324.855
 30
0.0
  9
$LIMMIN
 10
0.0
 20
0.0
  9
$LIMMAX
 10
12.0
 20
9.0
  9
$ORTHOMODE
 70
     0
  9
$REGENMODE
 70
     1
  9
$FILLMODE
 70
     1
  9
$QTEXTMODE
 70
     0
  9
$MIRRTEXT
 70
     1
  9
$LTSCALE
 40
1.0
  9
$ATTMODE
 70
     1
  9
$TEXTSIZE
 40
0.2
  9
$TRACEWID
 40
0.05
  9
$TEXTSTYLE
  7
Standard
  9
$CLAYER
  8
0
  9
$CELTYPE
  6
Continuous
  9
$CECOLOR
 62
   256
  9
$CELTSCALE
 40
1.0
  9
$DISPSILH
 70
     0
  9
$DIMSCALE
 40
1.0
  9
$DIMASZ
 40
0.18
  9
$DIMEXO
 40
0.0625
  9
$DIMDLI
 40
0.38
  9
$DIMRND
 40
0.0
  9
$DIMDLE
 40
0.0
  9
$DIMEXE
 40
0.18
  9
$DIMTP
 40
0.0
  9
$DIMTM
 40
0.0
  9
$DIMTXT
 40
0.18
  9
$DIMCEN
 40
0.09
  9
$DIMTSZ
 40
0.0
  9
$DIMTOL
 70
     0
  9
$DIMLIM
 70
     0
  9
$DIMTIH
 70
     1
  9
$DIMTOH
 70
     1
  9
$DIMSE1
 70
     0
  9
$DIMSE2
 70
     0
  9
$DIMTAD
 70
     0
  9
$DIMZIN
 70
     0
  9
$DIMBLK
  1

  9
$DIMASO
 70
     1
  9
$DIMSHO
 70
     1
  9
$DIMPOST
  1

  9
$DIMAPOST
  1

  9
$DIMALT
 70
     0
  9
$DIMALTD
 70
     2
  9
$DIMALTF
 40
25.4
  9
$DIMLFAC
 40
1.0
  9
$DIMTOFL
 70
     0
  9
$DIMTVP
 40
0.0
  9
$DIMTIX
 70
     0
  9
$DIMSOXD
 70
     0
  9
$DIMSAH
 70
     0
  9
$DIMBLK1
  1

  9
$DIMBLK2
  1

  9
$DIMSTYLE
  2
Standard
  9
$DIMCLRD
 70
     0
  9
$DIMCLRE
 70
     0
  9
$DIMCLRT
 70
     0
  9
$DIMTFAC
 40
1.0
  9
$DIMGAP
 40
0.09
  9
$DIMJUST
 70
     0
  9
$DIMSD1
 70
     0
  9
$DIMSD2
 70
     0
  9
$DIMTOLJ
 70
     1
  9
$DIMTZIN
 70
     0
  9
$DIMALTZ
 70
     0
  9
$DIMALTTZ
 70
     0
  9
$DIMUPT
 70
     0
  9
$DIMDEC
 70
     4
  9
$DIMTDEC
 70
     4
  9
$DIMALTU
 70
     2
  9
$DIMALTTD
 70
     2
  9
$DIMTXSTY
  7
Standard
  9
$DIMAUNIT
 70
     0
  9
$DIMADEC
 70
     0
  9
$DIMALTRND
 40
0.0
  9
$DIMAZIN
 70
     0
  9
$DIMDSEP
 70
    46
  9
$DIMATFIT
 70
     3
  9
$DIMFRAC
 70
     0
  9
$DIMLDRBLK
  1

  9
$DIMLUNIT
 70
     2
  9
$DIMLWD
 70
    -2
  9
$DIMLWE
 70
    -2
  9
$DIMTMOVE
 70
     0
  9
$LUNITS
 70
     2
  9
$LUPREC
 70
     4
  9
$SKETCHINC
 40
0.1
  9
$FILLETRAD
 40
0.0
  9
$AUNITS
 70
     0
  9
$AUPREC
 70
     0
  9
$MENU
  1
.
  9
$ELEVATION
 40
0.0
  9
$PELEVATION
 40
0.0
  9
$THICKNESS
 40
0.0
  9
$LIMCHECK
 70
     0
  9
$CHAMFERA
 40
0.0
  9
$CHAMFERB
 40
0.0
  9
$CHAMFERC
 40
0.0
  9
$CHAMFERD
 40
0.0
  9
$SKPOLY
 70
     0
  9
$TDCREATE
 40
2454874.750847071
  9
$TDUCREATE
 40
2454874.709180405
  9
$TDUPDATE
 40
2454874.751640081
  9
$TDUUPDATE
 40
2454874.709973414
  9
$TDINDWG
 40
0.0007931829
  9
$TDUSRTIMER
 40
0.0007931829
  9
$USRTIMER
 70
     1
  9
$ANGBASE
 50
0.0
  9
$ANGDIR
 70
     0
  9
$PDMODE
 70
     0
  9
$PDSIZE
 40
0.0
  9
$PLINEWID
 40
0.0
  9
$SPLFRAME
 70
     0
  9
$SPLINETYPE
 70
     6
  9
$SPLINESEGS
 70
     8
  9
$HANDSEED
  5
32E
  9
$SURFTAB1
 70
     6
  9
$SURFTAB2
 70
     6
  9
$SURFTYPE
 70
     6
  9
$SURFU
 70
     6
  9
$SURFV
 70
     6
  9
$UCSBASE
  2

  9
$UCSNAME
  2

  9
$UCSORG
 10
0.0
 20
0.0
 30
0.0
  9
$UCSXDIR
 10
1.0
 20
0.0
 30
0.0
  9
$UCSYDIR
 10
0.0
 20
1.0
 30
0.0
  9
$UCSORTHOREF
  2

  9
$UCSORTHOVIEW
 70
     1
  9
$UCSORGTOP
 10
0.0
 20
0.0
 30
0.0
  9
$UCSORGBOTTOM
 10
0.0
 20
0.0
 30
0.0
  9
$UCSORGLEFT
 10
0.0
 20
0.0
 30
0.0
  9
$UCSORGRIGHT
 10
0.0
 20
0.0
 30
0.0
  9
$UCSORGFRONT
 10
0.0
 20
0.0
 30
0.0
  9
$UCSORGBACK
 10
0.0
 20
0.0
 30
0.0
  9
$PUCSBASE
  2

  9
$PUCSNAME
  2

  9
$PUCSORG
 10
0.0
 20
0.0
 30
0.0
  9
$PUCSXDIR
 10
1.0
 20
0.0
 30
0.0
  9
$PUCSYDIR
 10
0.0
 20
1.0
 30
0.0
  9
$PUCSORTHOREF
  2

  9
$PUCSORTHOVIEW
 70
     0
  9
$PUCSORGTOP
 10
0.0
 20
0.0
 30
0.0
  9
$PUCSORGBOTTOM
 10
0.0
 20
0.0
 30
0.0
  9
$PUCSORGLEFT
 10
0.0
 20
0.0
 30
0.0
  9
$PUCSORGRIGHT
 10
0.0
 20
0.0
 30
0.0
  9
$PUCSORGFRONT
 10
0.0
 20
0.0
 30
0.0
  9
$PUCSORGBACK
 10
0.0
 20
0.0
 30
0.0
  9
$USERI1
 70
     0
  9
$USERI2
 70
     0
  9
$USERI3
 70
     0
  9
$USERI4
 70
     0
  9
$USERI5
 70
     0
  9
$USERR1
 40
0.0
  9
$USERR2
 40
0.0
  9
$USERR3
 40
0.0
  9
$USERR4
 40
0.0
  9
$USERR5
 40
0.0
  9
$WORLDVIEW
 70
     1
  9
$SHADEDGE
 70
     3
  9
$SHADEDIF
 70
    70
  9
$TILEMODE
 70
     1
  9
$MAXACTVP
 70
    64
  9
$PINSBASE
 10
0.0
 20
0.0
 30
0.0
  9
$PLIMCHECK
 70
     0
  9
$PEXTMIN
 10
1.000000000000000E+20
 20
1.000000000000000E+20
 30
1.000000000000000E+20
  9
$PEXTMAX
 10
-1.000000000000000E+20
 20
-1.000000000000000E+20
 30
-1.000000000000000E+20
  9
$PLIMMIN
 10
0.0
 20
0.0
  9
$PLIMMAX
 10
12.0
 20
9.0
  9
$UNITMODE
 70
     0
  9
$VISRETAIN
 70
     1
  9
$PLINEGEN
 70
     0
  9
$PSLTSCALE
 70
     1
  9
$TREEDEPTH
 70
  3020
  9
$CMLSTYLE
  2
Standard
  9
$CMLJUST
 70
     0
  9
$CMLSCALE
 40
1.0
  9
$PROXYGRAPHICS
 70
     1
  9
$MEASUREMENT
 70
     0
  9
$CELWEIGHT
370
    -1
  9
$ENDCAPS
280
     0
  9
$JOINSTYLE
280
     0
  9
$LWDISPLAY
290
     0
  9
$INSUNITS
 70
     0
  9
$HYPERLINKBASE
  1

  9
$STYLESHEET
  1

  9
$XEDIT
290
     1
  9
$CEPSNTYPE
380
     0
  9
$PSTYLEMODE
290
     1
  9
$FINGERPRINTGUID
  2
{55A98DEB-B6CC-4F50-AAC2-F73150EC41B8}
  9
$VERSIONGUID
  2
{5EB311ED-FC3B-41FF-9A36-9990E1E85E39}
  9
$EXTNAMES
290
     1
  9
$PSVPSCALE
 40
0.0
  9
$OLESTARTUP
290
     0
  0
ENDSEC
  0
SECTION
  2
CLASSES
  0
CLASS
  1
ACDBDICTIONARYWDFLT
  2
AcDbDictionaryWithDefault
  3
AutoCAD 2000
 90
        0
280
     0
281
     0
  0
CLASS
  1
ACDBPLACEHOLDER
  2
AcDbPlaceHolder
  3
AutoCAD 2000
 90
        0
280
     0
281
     0
  0
CLASS
  1
LAYOUT
  2
AcDbLayout
  3
AutoCAD 2000
 90
        0
280
     0
281
     0
  0
CLASS
  1
DICTIONARYVAR
  2
AcDbDictionaryVar
  3
AutoCAD 2000
 90
        0
280
     0
281
     0
  0
ENDSEC
  0
SECTION
  2
TABLES
  0
TABLE
  2
VPORT
  5
8
330
0
100
AcDbSymbolTable
 70
     2
  0
VPORT
  5
32D
330
8
100
AcDbSymbolTableRecord
100
AcDbViewportTableRecord
  2
*Active
 70
     0
 10
0.0
 20
0.0
 11
1.0
 21
1.0
 12
62.0
 22
162.5
 13
0.0
 23
0.0
 14
1.0
 24
1.0
 15
0.0
 25
0.0
 16
0.0
 26
0.0
 36
1.0
 17
0.0
 27
0.0
 37
0.0
 40
326.7607999999999
 41
1.968387776606954
 42
50.0
 43
0.0
 44
0.0
 50
0.0
 51
0.0
 71
     0
 72
   100
 73
     1
 74
     3
 75
     0
 76
     0
 77
     0
 78
     0
281
     0
 65
     1
110
0.0
120
0.0
130
0.0
111
1.0
121
0.0
131
0.0
112
0.0
122
1.0
132
0.0
 79
     1
146
0.0
  0
ENDTAB
  0
TABLE
  2
LTYPE
  5
5
330
0
100
AcDbSymbolTable
 70
     1
  0
LTYPE
  5
13
330
5
100
AcDbSymbolTableRecord
100
AcDbLinetypeTableRecord
  2
ByBlock
 70
     0
  3

 72
    65
 73
     0
 40
0.0
  0
LTYPE
  5
14
330
5
100
AcDbSymbolTableRecord
100
AcDbLinetypeTableRecord
  2
ByLayer
 70
     0
  3

 72
    65
 73
     0
 40
0.0
  0
LTYPE
  5
15
330
5
100
AcDbSymbolTableRecord
100
AcDbLinetypeTableRecord
  2
Continuous
 70
     0
  3
Solid line
 72
    65
 73
     0
 40
0.0
  0
ENDTAB
  0
TABLE
  2
LAYER
  5
2
330
0
100
AcDbSymbolTable
 70
     1
  0
LAYER
  5
10
330
2
100
AcDbSymbolTableRecord
100
AcDbLayerTableRecord
  2
0
 70
     0
 62
     7
  6
Continuous
370
    -3
390
F
  0
ENDTAB
  0
TABLE
  2
STYLE
  5
3
330
0
100
AcDbSymbolTable
 70
     1
  0
STYLE
  5
11
330
3
100
AcDbSymbolTableRecord
100
AcDbTextStyleTableRecord
  2
Standard
 70
     0
 40
0.0
 41
1.0
 50
0.0
 71
     0
 42
0.2
  3
txt
  4

  0
ENDTAB
  0
TABLE
  2
VIEW
  5
6
330
0
100
AcDbSymbolTable
 70
     0
  0
ENDTAB
  0
TABLE
  2
UCS
  5
7
330
0
100
AcDbSymbolTable
 70
     0
  0
ENDTAB
  0
TABLE
  2
APPID
  5
9
330
0
100
AcDbSymbolTable
 70
     1
  0
APPID
  5
12
330
9
100
AcDbSymbolTableRecord
100
AcDbRegAppTableRecord
  2
ACAD
 70
     0
  0
ENDTAB
  0
TABLE
  2
DIMSTYLE
  5
A
330
0
100
AcDbSymbolTable
 70
     1
100
AcDbDimStyleTable
 71
     0
  0
DIMSTYLE
105
327
330
A
100
AcDbSymbolTableRecord
100
AcDbDimStyleTableRecord
  2
Standard
 70
     0
340
11
  0
ENDTAB
  0
TABLE
  2
BLOCK_RECORD
  5
1
330
0
100
AcDbSymbolTable
 70
     0
  0
BLOCK_RECORD
  5
1E
330
1
100
AcDbSymbolTableRecord
100
AcDbBlockTableRecord
  2
*Model_Space
340
21
  0
BLOCK_RECORD
  5
1A
330
1
100
AcDbSymbolTableRecord
100
AcDbBlockTableRecord
  2
*Paper_Space
340
1D
  0
ENDTAB
  0
ENDSEC
  0
SECTION
  2
BLOCKS
  0
BLOCK
  5
1F
330
1E
100
AcDbEntity
  8
0
100
AcDbBlockBegin
  2
*Model_Space
 70
     0
 10
0.0
 20
0.0
 30
0.0
  3
*Model_Space
  1

  0
ENDBLK
  5
20
330
1E
100
AcDbEntity
  8
0
100
AcDbBlockEnd
  0
BLOCK
  5
1B
330
1A
100
AcDbEntity
 67
     1
  8
0
100
AcDbBlockBegin
  2
*Paper_Space
 70
     0
 10
0.0
 20
0.0
 30
0.0
  3
*Paper_Space
  1

  0
ENDBLK
  5
1C
330
1A
100
AcDbEntity
 67
     1
  8
0
100
AcDbBlockEnd
  0
ENDSEC
  0
SECTION
  2
ENTITIES
  0
LINE
  5
22
330
1E
100
AcDbEntity
  8
0
100
AcDbLine
 10
0.9999999999999989
 20
153.145
 30
0.0
 11
10.59324702725209
 21
153.145
 31
0.0
  0
LINE
  5
23
330
1E
100
AcDbEntity
  8
0
100
AcDbLine
 10
0.9999999999999989
 20
152.145
 30
0.0
 11
10.61948123814369
 21
152.145
 31
0.0
  0
LINE
  5
24
330
1E
100
AcDbEntity
  8
0
100
AcDbLine
 10
24.34
 20
54.5842
 30
0.0
 11
26.074
 21
52.7931
 31
0.0
  0
LINE
  5
25
330
1E
100
AcDbEntity
  8
0
100
AcDbLine
 10
26.074
 20
52.7931
 30
0.0
 11
28.565
 21
51.0018
 31
0.0
  0
LINE
  5
27
330
1E
100
AcDbEntity
  8
0
100
AcDbLine
 10
20.577
 20
61.8605
 30
0.0
 11
22.555
 21
57.17369999999999
 31
0.0
  0
LINE
  5
28
330
1E
100
AcDbEntity
  8
0
100
AcDbLine
 10
22.555
 20
57.17369999999999
 30
0.0
 11
24.34
 21
54.5842
 31
0.0
  0
LINE
  5
29
330
1E
100
AcDbEntity
  8
0
100
AcDbLine
 10
18.57199999999999
 20
68.9563
 30
0.0
 11
20.577
 21
61.8605
 31
0.0
  0
LINE
  5
2A
330
1E
100
AcDbEntity
  8
0
100
AcDbLine
 10
16.10999999999999
 20
82.59069999999999
 30
0.0
 11
18.07099999999999
 21
71.7146
 31
0.0
  0
LINE
  5
2B
330
1E
100
AcDbEntity
  8
0
100
AcDbLine
 10
18.07099999999999
 20
71.7146
 30
0.0
 11
18.57199999999999
 21
68.9563
 31
0.0
  0
LINE
  5
2C
330
1E
100
AcDbEntity
  8
0
100
AcDbLine
 10
14.366
 20
94.47920000000001
 30
0.0
 11
16.10999999999999
 21
82.59069999999999
 31
0.0
  0
LINE
  5
2D
330
1E
100
AcDbEntity
  8
0
100
AcDbLine
 10
12.972
 20
109.926
 30
0.0
 11
14.366
 21
94.47920000000001
 31
0.0
  0
LINE
  5
2E
330
1E
100
AcDbEntity
  8
0
100
AcDbLine
 10
11.54299999999999
 20
129.485
 30
0.0
 11
12.972
 21
109.926
 31
0.0
  0
LINE
  5
2F
330
1E
100
AcDbEntity
  8
0
100
AcDbLine
 10
10.715
 20
148.5039999999999
 30
0.0
 11
11.54299999999999
 21
129.485
 31
0.0
  0
LINE
  5
30
330
1E
100
AcDbEntity
  8
0
100
AcDbLine
 10
31.653
 20
50.4116
 30
0.0
 11
34.7411
 21
51.0206
 31
0.0
  0
LINE
  5
34
330
1E
100
AcDbEntity
  8
0
100
AcDbLine
 10
31.257
 20
76.54819999999999
 30
0.0
 11
33.0003
 21
87.04600000000001
 31
0.0
  0
LINE
  5
35
330
1E
100
AcDbEntity
  8
0
100
AcDbLine
 10
34.7411
 20
51.0206
 30
0.0
 11
36.4842
 21
51.5246
 31
0.0
  0
LINE
  5
36
330
1E
100
AcDbEntity
  8
0
100
AcDbLine
 10
40.7504
 20
55.842
 30
0.0
 11
41.0
 21
56.2341438665656
 31
0.0
  0
LINE
  5
37
330
1E
100
AcDbEntity
  8
0
100
AcDbLine
 10
38.966
 20
53.2346
 30
0.0
 11
40.7504
 21
55.842
 31
0.0
  0
LINE
  5
38
330
1E
100
AcDbEntity
  8
0
100
AcDbLine
 10
36.4842
 20
51.5246
 30
0.0
 11
38.966
 21
53.2346
 31
0.0
  0
LINE
  5
39
330
1E
100
AcDbEntity
  8
0
100
AcDbLine
 10
33.0003
 20
87.04600000000001
 30
0.0
 11
33.04917909665
 21
87.3136981768623
 31
0.0
  0
LINE
  5
3B
330
1E
100
AcDbEntity
  8
0
100
AcDbLine
 10
33.0003
 20
87.01109999999999
 30
0.0
 11
34.9264
 21
98.9351
 31
0.0
  0
LINE
  5
40
330
1E
100
AcDbEntity
  8
0
100
AcDbLine
 10
39.14979999999999
 20
117.4779999999999
 30
0.0
 11
41.0
 21
122.274876967031
 31
0.0
  0
LINE
  5
41
330
1E
100
AcDbEntity
  8
0
100
AcDbLine
 10
37.1191
 20
110.0929999999999
 30
0.0
 11
39.14979999999999
 21
117.4779999999999
 31
0.0
  0
LINE
  5
42
330
1E
100
AcDbEntity
  8
0
100
AcDbLine
 10
35.3673
 20
101.4979999999999
 30
0.0
 11
37.1191
 21
110.0929999999999
 31
0.0
  0
LINE
  5
43
330
1E
100
AcDbEntity
  8
0
100
AcDbLine
 10
34.9264
 20
98.9351
 30
0.0
 11
35.3673
 21
101.4979999999999
 31
0.0
  0
LINE
  5
44
330
1E
100
AcDbEntity
  8
0
100
AcDbLine
 10
30.30599999999999
 20
94.5278
 30
0.0
 11
31.98519956748389
 21
83.07446433847809
 31
0.0
  0
LINE
  5
46
330
1E
100
AcDbEntity
  8
0
100
AcDbLine
 10
28.91099999999999
 20
109.975
 30
0.0
 11
30.30599999999999
 21
94.5278
 31
0.0
  0
LINE
  5
47
330
1E
100
AcDbEntity
  8
0
100
AcDbLine
 10
27.482
 20
129.5339999999999
 30
0.0
 11
28.91099999999999
 21
109.975
 31
0.0
  0
LINE
  5
48
330
1E
100
AcDbEntity
  8
0
100
AcDbLine
 10
26.65399999999999
 20
148.5529999999999
 30
0.0
 11
27.482
 21
129.5339999999999
 31
0.0
  0
LINE
  5
49
330
1E
100
AcDbEntity
  8
0
100
AcDbLine
 10
28.565
 20
51.0018
 30
0.0
 11
31.653
 21
50.4116
 31
0.0
  0
LINE
  5
4A
330
1E
100
AcDbEntity
  8
0
100
AcDbLine
 10
26.5597623542476
 20
152.145
 30
0.0
 11
41.0
 21
152.145
 31
0.0
  0
LINE
  5
4B
330
1E
100
AcDbEntity
  8
0
100
AcDbLine
 10
26.53352692948359
 20
153.145
 30
0.0
 11
41.0
 21
153.145
 31
0.0
  0
LINE
  5
4C
330
1E
100
AcDbEntity
  8
0
100
AcDbLine
 10
26.5597623542477
 20
152.145
 30
0.0
 11
41.0
 21
152.145
 31
0.0
  0
LINE
  5
4D
330
1E
100
AcDbEntity
  8
0
100
AcDbLine
 10
1.0
 20
152.145
 30
0.0
 11
1.0
 21
153.145
 31
0.0
  0
LINE
  5
4E
330
1E
100
AcDbEntity
  8
0
100
AcDbLine
 10
1.0
 20
152.145
 30
0.0
 11
10.61948123814369
 21
152.145
 31
0.0
  0
LINE
  5
4F
330
1E
100
AcDbEntity
  8
0
100
AcDbLine
 10
26.53352692948359
 20
153.145
 30
0.0
 11
41.0
 21
153.145
 31
0.0
  0
LINE
  5
50
330
1E
100
AcDbEntity
  8
0
100
AcDbLine
 10
0.0
 20
153.145
 30
0.0
 11
1.0
 21
152.145
 31
0.0
  0
LINE
  5
51
330
1E
100
AcDbEntity
  8
0
100
AcDbLine
 10
0.0
 20
153.145
 30
0.0
 11
1.0
 21
153.145
 31
0.0
  0
LINE
  5
52
330
1E
100
AcDbEntity
  8
0
100
AcDbLine
 10
0.0
 20
153.145
 30
0.0
 11
0.0
 21
275.1449999999999
 31
0.0
  0
LINE
  5
53
330
1E
100
AcDbEntity
  8
0
100
AcDbLine
 10
26.087
 20
170.1649999999999
 30
0.0
 11
26.65399999999999
 21
148.5529999999999
 31
0.0
  0
LINE
  5
54
330
1E
100
AcDbEntity
  8
0
100
AcDbLine
 10
10.14799999999999
 20
170.117
 30
0.0
 11
10.715
 21
148.5039999999999
 31
0.0
  0
LINE
  5
55
330
1E
100
AcDbEntity
  8
0
100
AcDbLine
 10
1.0
 20
153.145
 30
0.0
 11
1.0
 21
152.145
 31
0.0
  0
LINE
  5
56
330
1E
100
AcDbEntity
  8
0
100
AcDbLine
 10
1.0
 20
153.145
 30
0.0
 11
10.59324702725209
 21
153.145
 31
0.0
  0
LINE
  5
57
330
1E
100
AcDbEntity
  8
0
100
AcDbLine
 10
1.0
 20
153.145
 30
0.0
 11
1.0
 21
275.1449999999999
 31
0.0
  0
LINE
  5
58
330
1E
100
AcDbEntity
  8
0
100
AcDbLine
 10
41.0
 20
0.6467920000000161
 30
0.0
 11
41.5
 21
0.6467920000000161
 31
0.0
  0
LINE
  5
59
330
1E
100
AcDbEntity
  8
0
100
AcDbLine
 10
41.0
 20
0.6467920000000161
 30
0.0
 11
41.5
 21
0.145000000000016
 31
0.0
  0
LINE
  5
5A
330
1E
100
AcDbEntity
  8
0
100
AcDbLine
 10
41.0
 20
0.6467920000000161
 30
0.0
 11
41.0
 21
234.643
 31
0.0
  0
LINE
  5
5B
330
1E
100
AcDbEntity
  8
0
100
AcDbLine
 10
41.0
 20
0.6467920000000161
 30
0.0
 11
41.5
 21
0.145000000000016
 31
0.0
  0
LINE
  5
5C
330
1E
100
AcDbEntity
  8
0
100
AcDbLine
 10
41.0
 20
0.646792000000014
 30
0.0
 11
41.0
 21
167.905
 31
0.0
  0
LINE
  5
5D
330
1E
100
AcDbEntity
  8
0
100
AcDbLine
 10
41.0
 20
0.646792000000014
 30
0.0
 11
41.5
 21
0.145000000000014
 31
0.0
  0
LINE
  5
5E
330
1E
100
AcDbEntity
  8
0
100
AcDbLine
 10
41.0
 20
167.905
 30
0.0
 11
41.0
 21
174.529
 31
0.0
  0
LINE
  5
5F
330
1E
100
AcDbEntity
  8
0
100
AcDbLine
 10
41.0
 20
167.905
 30
0.0
 11
41.0
 21
0.6467920000000041
 31
0.0
  0
LINE
  5
60
330
1E
100
AcDbEntity
  8
0
100
AcDbLine
 10
41.0
 20
174.529
 30
0.0
 11
41.0
 21
180.6499999999999
 31
0.0
  0
LINE
  5
61
330
1E
100
AcDbEntity
  8
0
100
AcDbLine
 10
41.0
 20
174.529
 30
0.0
 11
41.0
 21
167.905
 31
0.0
  0
LINE
  5
62
330
1E
100
AcDbEntity
  8
0
100
AcDbLine
 10
41.0
 20
180.6499999999999
 30
0.0
 11
41.0
 21
185.969
 31
0.0
  0
LINE
  5
63
330
1E
100
AcDbEntity
  8
0
100
AcDbLine
 10
41.0
 20
180.6499999999999
 30
0.0
 11
41.0
 21
174.529
 31
0.0
  0
LINE
  5
64
330
1E
100
AcDbEntity
  8
0
100
AcDbLine
 10
25.9458
 20
187.959
 30
0.0
 11
26.0063
 21
196.805
 31
0.0
  0
LINE
  5
65
330
1E
100
AcDbEntity
  8
0
100
AcDbLine
 10
25.9458
 20
187.959
 30
0.0
 11
26.087
 21
170.1649999999999
 31
0.0
  0
LINE
  5
66
330
1E
100
AcDbEntity
  8
0
100
AcDbLine
 10
10.0066
 20
187.935
 30
0.0
 11
10.06729999999999
 21
196.927
 31
0.0
  0
LINE
  5
67
330
1E
100
AcDbEntity
  8
0
100
AcDbLine
 10
10.0066
 20
187.935
 30
0.0
 11
10.14799999999999
 21
170.117
 31
0.0
  0
LINE
  5
68
330
1E
100
AcDbEntity
  8
0
100
AcDbLine
 10
41.0
 20
185.969
 30
0.0
 11
41.0
 21
190.084
 31
0.0
  0
LINE
  5
69
330
1E
100
AcDbEntity
  8
0
100
AcDbLine
 10
41.0
 20
185.969
 30
0.0
 11
41.0
 21
180.6499999999999
 31
0.0
  0
LINE
  5
6A
330
1E
100
AcDbEntity
  8
0
100
AcDbLine
 10
41.0
 20
190.084
 30
0.0
 11
41.0
 21
192.5929999999999
 31
0.0
  0
LINE
  5
6B
330
1E
100
AcDbEntity
  8
0
100
AcDbLine
 10
41.0
 20
190.084
 30
0.0
 11
41.0
 21
185.969
 31
0.0
  0
LINE
  5
6C
330
1E
100
AcDbEntity
  8
0
100
AcDbLine
 10
26.0063
 20
196.805
 30
0.0
 11
26.57329999999999
 21
218.6879999999999
 31
0.0
  0
LINE
  5
6D
330
1E
100
AcDbEntity
  8
0
100
AcDbLine
 10
10.06729999999999
 20
196.927
 30
0.0
 11
10.6343
 21
218.8099999999999
 31
0.0
  0
LINE
  5
6E
330
1E
100
AcDbEntity
  8
0
100
AcDbLine
 10
41.0
 20
192.5929999999999
 30
0.0
 11
41.0
 21
193.4959999999999
 31
0.0
  0
LINE
  5
6F
330
1E
100
AcDbEntity
  8
0
100
AcDbLine
 10
41.0
 20
192.5929999999999
 30
0.0
 11
41.0
 21
190.084
 31
0.0
  0
LINE
  5
70
330
1E
100
AcDbEntity
  8
0
100
AcDbLine
 10
41.5
 20
0.145000000000014
 30
0.0
 11
82.5
 21
0.145000000000014
 31
0.0
  0
LINE
  5
71
330
1E
100
AcDbEntity
  8
0
100
AcDbLine
 10
41.5
 20
0.145000000000016
 30
0.0
 11
41.5
 21
0.6467920000000161
 31
0.0
  0
LINE
  5
72
330
1E
100
AcDbEntity
  8
0
100
AcDbLine
 10
41.5
 20
0.145000000000016
 30
0.0
 11
82.5
 21
0.145000000000016
 31
0.0
  0
LINE
  5
73
330
1E
100
AcDbEntity
  8
0
100
AcDbLine
 10
42.7
 20
208.9509999999999
 30
0.0
 11
44.7
 21
204.134
 31
0.0
  0
LINE
  5
74
330
1E
100
AcDbEntity
  8
0
100
AcDbLine
 10
41.5
 20
0.6467920000000161
 30
0.0
 11
41.5
 21
234.643
 31
0.0
  0
LINE
  5
75
330
1E
100
AcDbEntity
  8
0
100
AcDbLine
 10
41.5
 20
0.6467920000000161
 30
0.0
 11
41.5
 21
0.145000000000016
 31
0.0
  0
LINE
  5
76
330
1E
100
AcDbEntity
  8
0
100
AcDbLine
 10
41.5
 20
0.6467920000000161
 30
0.0
 11
82.5
 21
0.6467920000000161
 31
0.0
  0
LINE
  5
77
330
1E
100
AcDbEntity
  8
0
100
AcDbLine
 10
41.0
 20
193.4959999999999
 30
0.0
 11
41.0
 21
192.5929999999999
 31
0.0
  0
LINE
  5
78
330
1E
100
AcDbEntity
  8
0
100
AcDbLine
 10
41.0
 20
193.4959999999999
 30
0.0
 11
41.0
 21
234.643
 31
0.0
  0
LINE
  5
79
330
1E
100
AcDbEntity
  8
0
100
AcDbLine
 10
26.57329999999999
 20
218.6879999999999
 30
0.0
 11
27.4013
 21
238.1419999999999
 31
0.0
  0
LINE
  5
7A
330
1E
100
AcDbEntity
  8
0
100
AcDbLine
 10
10.6343
 20
218.8099999999999
 30
0.0
 11
11.4623
 21
238.263
 31
0.0
  0
LINE
  5
7B
330
1E
100
AcDbEntity
  8
0
100
AcDbLine
 10
42.7
 20
219.1879999999999
 30
0.0
 11
44.7
 21
224.005
 31
0.0
  0
LINE
  5
7C
330
1E
100
AcDbEntity
  8
0
100
AcDbLine
 10
42.0
 20
214.0699999999999
 30
0.0
 11
42.7
 21
219.1879999999999
 31
0.0
  0
LINE
  5
7D
330
1E
100
AcDbEntity
  8
0
100
AcDbLine
 10
42.0
 20
214.0699999999999
 30
0.0
 11
42.7
 21
208.9509999999999
 31
0.0
  0
LINE
  5
7F
330
1E
100
AcDbEntity
  8
0
100
AcDbLine
 10
47.9
 20
199.919
 30
0.0
 11
52.1
 21
196.7079999999999
 31
0.0
  0
LINE
  5
80
330
1E
100
AcDbEntity
  8
0
100
AcDbLine
 10
44.7
 20
204.134
 30
0.0
 11
47.9
 21
199.919
 31
0.0
  0
LINE
  5
82
330
1E
100
AcDbEntity
  8
0
100
AcDbLine
 10
47.9
 20
228.22
 30
0.0
 11
52.1
 21
231.432
 31
0.0
  0
LINE
  5
83
330
1E
100
AcDbEntity
  8
0
100
AcDbLine
 10
44.7
 20
224.005
 30
0.0
 11
47.9
 21
228.22
 31
0.0
  0
LINE
  5
85
330
1E
100
AcDbEntity
  8
0
100
AcDbLine
 10
53.3
 20
123.35
 30
0.0
 11
54.2
 21
125.51
 31
0.0
  0
LINE
  5
86
330
1E
100
AcDbEntity
  8
0
100
AcDbLine
 10
53.0
 20
121.01
 30
0.0
 11
53.3
 21
118.67
 31
0.0
  0
LINE
  5
87
330
1E
100
AcDbEntity
  8
0
100
AcDbLine
 10
53.0
 20
121.01
 30
0.0
 11
53.3
 21
123.35
 31
0.0
  0
LINE
  5
88
330
1E
100
AcDbEntity
  8
0
100
AcDbLine
 10
53.3
 20
118.67
 30
0.0
 11
54.2
 21
116.51
 31
0.0
  0
LINE
  5
89
330
1E
100
AcDbEntity
  8
0
100
AcDbLine
 10
54.2
 20
125.51
 30
0.0
 11
55.64
 21
127.37
 31
0.0
  0
LINE
  5
8A
330
1E
100
AcDbEntity
  8
0
100
AcDbLine
 10
54.2
 20
116.51
 30
0.0
 11
55.64
 21
114.65
 31
0.0
  0
LINE
  5
8B
330
1E
100
AcDbEntity
  8
0
100
AcDbLine
 10
55.64
 20
114.65
 30
0.0
 11
57.5
 21
113.2099999999999
 31
0.0
  0
LINE
  5
8C
330
1E
100
AcDbEntity
  8
0
100
AcDbLine
 10
55.64
 20
127.37
 30
0.0
 11
57.5
 21
128.81
 31
0.0
  0
LINE
  5
8D
330
1E
100
AcDbEntity
  8
0
100
AcDbLine
 10
56.9
 20
194.7009999999999
 30
0.0
 11
58.0
 21
194.54937254902
 31
0.0
  0
LINE
  5
8E
330
1E
100
AcDbEntity
  8
0
100
AcDbLine
 10
52.1
 20
196.7079999999999
 30
0.0
 11
56.9
 21
194.7009999999999
 31
0.0
  0
LINE
  5
90
330
1E
100
AcDbEntity
  8
0
100
AcDbLine
 10
27.4013
 20
238.1419999999999
 30
0.0
 11
28.8303
 21
258.4929999999999
 31
0.0
  0
LINE
  5
91
330
1E
100
AcDbEntity
  8
0
100
AcDbLine
 10
30.2253
 20
274.726
 30
0.0
 11
31.9683
 21
287.62
 31
0.0
  0
LINE
  5
92
330
1E
100
AcDbEntity
  8
0
100
AcDbLine
 10
28.8303
 20
258.4929999999999
 30
0.0
 11
30.2253
 21
274.726
 31
0.0
  0
LINE
  5
93
330
1E
100
AcDbEntity
  8
0
100
AcDbLine
 10
14.2853
 20
274.8469999999999
 30
0.0
 11
16.02929999999999
 21
287.7409999999999
 31
0.0
  0
LINE
  5
94
330
1E
100
AcDbEntity
  8
0
100
AcDbLine
 10
12.8913
 20
258.6149999999999
 30
0.0
 11
14.2853
 21
274.8469999999999
 31
0.0
  0
LINE
  5
95
330
1E
100
AcDbEntity
  8
0
100
AcDbLine
 10
11.4623
 20
238.263
 30
0.0
 11
12.8913
 21
258.6149999999999
 31
0.0
  0
LINE
  5
96
330
1E
100
AcDbEntity
  8
0
100
AcDbLine
 10
39.06909999999999
 20
266.4479999999999
 30
0.0
 11
41.27419999999999
 21
262.0699999999999
 31
0.0
  0
LINE
  5
97
330
1E
100
AcDbEntity
  8
0
100
AcDbLine
 10
37.0384
 20
272.594
 30
0.0
 11
39.06909999999999
 21
266.4479999999999
 31
0.0
  0
LINE
  5
98
330
1E
100
AcDbEntity
  8
0
100
AcDbLine
 10
30.2819400651466
 20
275.1449999999999
 30
0.0
 11
36.4440600877776
 21
275.1449999999999
 31
0.0
  0
LINE
  5
99
330
1E
100
AcDbEntity
  8
0
100
AcDbLine
 10
30.2819400651466
 20
275.1449999999999
 30
0.0
 11
36.4440600877776
 21
275.1449999999999
 31
0.0
  0
LINE
  5
9A
330
1E
100
AcDbEntity
  8
0
100
AcDbLine
 10
0.9999999999999989
 20
275.1449999999999
 30
0.0
 11
14.3256064991469
 21
275.1449999999999
 31
0.0
  0
LINE
  5
9B
330
1E
100
AcDbEntity
  8
0
100
AcDbLine
 10
0.9999999999999989
 20
276.1449999999999
 30
0.0
 11
14.4608632076935
 21
276.1449999999999
 31
0.0
  0
LINE
  5
9C
330
1E
100
AcDbEntity
  8
0
100
AcDbLine
 10
31.9683
 20
287.62
 30
0.0
 11
32.90000712268629
 21
293.329711863244
 31
0.0
  0
LINE
  5
9D
330
1E
100
AcDbEntity
  8
0
100
AcDbLine
 10
31.63429999999999
 20
299.9979999999999
 30
0.0
 11
33.3517
 21
290.9499999999999
 31
0.0
  0
LINE
  5
9E
330
1E
100
AcDbEntity
  8
0
100
AcDbLine
 10
33.3517
 20
291.037
 30
0.0
 11
35.2866
 21
280.113
 31
0.0
  0
LINE
  5
A1
330
1E
100
AcDbEntity
  8
0
100
AcDbLine
 10
35.2866
 20
280.113
 30
0.0
 11
37.0384
 21
272.594
 31
0.0
  0
LINE
  5
A5
330
1E
100
AcDbEntity
  8
0
100
AcDbLine
 10
29.7263
 20
307.959
 30
0.0
 11
31.63429999999999
 21
299.9979999999999
 31
0.0
  0
LINE
  5
A7
330
1E
100
AcDbEntity
  8
0
100
AcDbLine
 10
24.2003
 20
319.489
 30
0.0
 11
25.9933
 21
321.966
 31
0.0
  0
LINE
  5
A8
330
1E
100
AcDbEntity
  8
0
100
AcDbLine
 10
22.4743
 20
316.575
 30
0.0
 11
24.2003
 21
319.489
 31
0.0
  0
LINE
  5
A9
330
1E
100
AcDbEntity
  8
0
100
AcDbLine
 10
27.6753
 20
311.289
 30
0.0
 11
28.60389964605619
 21
310.355492321988
 31
0.0
  0
LINE
  5
AA
330
1E
100
AcDbEntity
  8
0
100
AcDbLine
 10
28.4843
 20
323.74
 30
0.0
 11
30.2273
 21
324.2809999999999
 31
0.0
  0
LINE
  5
AB
330
1E
100
AcDbEntity
  8
0
100
AcDbLine
 10
36.4035
 20
324.234
 30
0.0
 11
38.8853
 21
322.513
 31
0.0
  0
LINE
  5
AC
330
1E
100
AcDbEntity
  8
0
100
AcDbLine
 10
38.8853
 20
322.513
 30
0.0
 11
40.8986
 21
320.534
 31
0.0
  0
LINE
  5
AD
330
1E
100
AcDbEntity
  8
0
100
AcDbLine
 10
33.3153
 20
324.855
 30
0.0
 11
36.4035
 21
324.234
 31
0.0
  0
LINE
  5
AE
330
1E
100
AcDbEntity
  8
0
100
AcDbLine
 10
40.8986
 20
320.534
 30
0.0
 11
42.6482
 21
317.986
 31
0.0
  0
LINE
  5
AF
330
1E
100
AcDbEntity
  8
0
100
AcDbLine
 10
30.2273
 20
324.2809999999999
 30
0.0
 11
33.3153
 21
324.855
 31
0.0
  0
LINE
  5
B0
330
1E
100
AcDbEntity
  8
0
100
AcDbLine
 10
27.8173
 20
312.035
 30
0.0
 11
29.7263
 21
307.959
 31
0.0
  0
LINE
  5
B1
330
1E
100
AcDbEntity
  8
0
100
AcDbLine
 10
25.9933
 20
321.966
 30
0.0
 11
28.4843
 21
323.74
 31
0.0
  0
LINE
  5
B2
330
1E
100
AcDbEntity
  8
0
100
AcDbLine
 10
20.4963
 20
310.719
 30
0.0
 11
22.4743
 21
316.575
 31
0.0
  0
LINE
  5
B3
330
1E
100
AcDbEntity
  8
0
100
AcDbLine
 10
18.49129999999999
 20
302.4459999999999
 30
0.0
 11
20.4963
 21
310.719
 31
0.0
  0
LINE
  5
B4
330
1E
100
AcDbEntity
  8
0
100
AcDbLine
 10
17.9903
 20
299.756
 30
0.0
 11
18.49129999999999
 21
302.4459999999999
 31
0.0
  0
LINE
  5
B5
330
1E
100
AcDbEntity
  8
0
100
AcDbLine
 10
16.02929999999999
 20
287.7409999999999
 30
0.0
 11
17.9903
 21
299.756
 31
0.0
  0
LINE
  5
B6
330
1E
100
AcDbEntity
  8
0
100
AcDbLine
 10
30.417119218241
 20
276.1449999999999
 30
0.0
 11
36.2110769783216
 21
276.1449999999999
 31
0.0
  0
LINE
  5
B7
330
1E
100
AcDbEntity
  8
0
100
AcDbLine
 10
30.417119218241
 20
276.1449999999999
 30
0.0
 11
36.2110769783216
 21
276.1449999999999
 31
0.0
  0
LINE
  5
B8
330
1E
100
AcDbEntity
  8
0
100
AcDbLine
 10
1.0
 20
276.1449999999999
 30
0.0
 11
1.0
 21
275.1449999999999
 31
0.0
  0
LINE
  5
B9
330
1E
100
AcDbEntity
  8
0
100
AcDbLine
 10
1.0
 20
276.1449999999999
 30
0.0
 11
14.4608632076935
 21
276.1449999999999
 31
0.0
  0
LINE
  5
BA
330
1E
100
AcDbEntity
  8
0
100
AcDbLine
 10
1.0
 20
275.1449999999999
 30
0.0
 11
1.0
 21
153.145
 31
0.0
  0
LINE
  5
BB
330
1E
100
AcDbEntity
  8
0
100
AcDbLine
 10
1.0
 20
275.1449999999999
 30
0.0
 11
1.0
 21
276.1449999999999
 31
0.0
  0
LINE
  5
BC
330
1E
100
AcDbEntity
  8
0
100
AcDbLine
 10
1.0
 20
275.1449999999999
 30
0.0
 11
14.3256064991469
 21
275.1449999999999
 31
0.0
  0
LINE
  5
BD
330
1E
100
AcDbEntity
  8
0
100
AcDbLine
 10
0.0
 20
275.1449999999999
 30
0.0
 11
1.0
 21
275.1449999999999
 31
0.0
  0
LINE
  5
BE
330
1E
100
AcDbEntity
  8
0
100
AcDbLine
 10
0.0
 20
275.1449999999999
 30
0.0
 11
1.0
 21
276.1449999999999
 31
0.0
  0
LINE
  5
BF
330
1E
100
AcDbEntity
  8
0
100
AcDbLine
 10
0.0
 20
275.1449999999999
 30
0.0
 11
0.0
 21
153.145
 31
0.0
  0
LINE
  5
C0
330
1E
100
AcDbEntity
  8
0
100
AcDbLine
 10
41.0
 20
234.643
 30
0.0
 11
41.0
 21
193.4959999999999
 31
0.0
  0
LINE
  5
C1
330
1E
100
AcDbEntity
  8
0
100
AcDbLine
 10
56.9
 20
233.439
 30
0.0
 11
62.0
 21
234.1409999999999
 31
0.0
  0
LINE
  5
C2
330
1E
100
AcDbEntity
  8
0
100
AcDbLine
 10
52.1
 20
231.432
 30
0.0
 11
56.9
 21
233.439
 31
0.0
  0
LINE
  5
C4
330
1E
100
AcDbEntity
  8
0
100
AcDbLine
 10
41.27419999999999
 20
262.0699999999999
 30
0.0
 11
42.9715
 21
259.669
 31
0.0
  0
LINE
  5
C5
330
1E
100
AcDbEntity
  8
0
100
AcDbLine
 10
47.606
 20
255.112
 30
0.0
 11
49.7239
 21
253.635
 31
0.0
  0
LINE
  5
C6
330
1E
100
AcDbEntity
  8
0
100
AcDbLine
 10
45.16779999999999
 20
256.7769999999999
 30
0.0
 11
47.606
 21
255.112
 31
0.0
  0
LINE
  5
C7
330
1E
100
AcDbEntity
  8
0
100
AcDbLine
 10
48.4297
 20
265.0139999999999
 30
0.0
 11
48.6828976917445
 21
265.489616157789
 31
0.0
  0
LINE
  5
C8
330
1E
100
AcDbEntity
  8
0
100
AcDbLine
 10
42.9715
 20
259.669
 30
0.0
 11
45.16779999999999
 21
256.7769999999999
 31
0.0
  0
LINE
  5
C9
330
1E
100
AcDbEntity
  8
0
100
AcDbLine
 10
49.7239
 20
253.635
 30
0.0
 11
51.14502134875539
 21
253.29858257404
 31
0.0
  0
LINE
  5
CA
330
1E
100
AcDbEntity
  8
0
100
AcDbLine
 10
49.1607
 20
262.1449999999999
 30
0.0
 11
50.4607
 21
258.9449999999999
 31
0.0
  0
LINE
  5
CB
330
1E
100
AcDbEntity
  8
0
100
AcDbLine
 10
51.1437796367836
 20
258.0756259168209
 30
0.0
 11
51.1497400668399
 21
235.145
 31
0.0
  0
LINE
  5
CC
330
1E
100
AcDbEntity
  8
0
100
AcDbLine
 10
52.6607
 20
256.1449999999999
 30
0.0
 11
55.4607
 21
253.9449999999999
 31
0.0
  0
LINE
  5
CD
330
1E
100
AcDbEntity
  8
0
100
AcDbLine
 10
50.89999999999999
 20
263.2449999999999
 30
0.0
 11
52.1
 21
260.345
 31
0.0
  0
LINE
  5
CE
330
1E
100
AcDbEntity
  8
0
100
AcDbLine
 10
51.0
 20
266.345
 30
0.0
 11
51.4
 21
263.345
 31
0.0
  0
LINE
  5
CF
330
1E
100
AcDbEntity
  8
0
100
AcDbLine
 10
51.0
 20
266.345
 30
0.0
 11
51.4
 21
269.345
 31
0.0
  0
LINE
  5
D0
330
1E
100
AcDbEntity
  8
0
100
AcDbLine
 10
50.89999999999999
 20
263.2449999999999
 30
0.0
 11
52.1
 21
260.345
 31
0.0
  0
LINE
  5
D1
330
1E
100
AcDbEntity
  8
0
100
AcDbLine
 10
50.5
 20
266.345
 30
0.0
 11
50.89999999999999
 21
263.2449999999999
 31
0.0
  0
LINE
  5
D2
330
1E
100
AcDbEntity
  8
0
100
AcDbLine
 10
50.5
 20
266.345
 30
0.0
 11
50.89999999999999
 21
263.2449999999999
 31
0.0
  0
LINE
  5
D3
330
1E
100
AcDbEntity
  8
0
100
AcDbLine
 10
50.5
 20
266.345
 30
0.0
 11
50.89999999999999
 21
269.4449999999999
 31
0.0
  0
LINE
  5
D4
330
1E
100
AcDbEntity
  8
0
100
AcDbLine
 10
50.5
 20
266.345
 30
0.0
 11
50.89999999999999
 21
269.4449999999999
 31
0.0
  0
LINE
  5
D5
330
1E
100
AcDbEntity
  8
0
100
AcDbLine
 10
52.1
 20
260.345
 30
0.0
 11
54.0
 21
257.845
 31
0.0
  0
LINE
  5
D6
330
1E
100
AcDbEntity
  8
0
100
AcDbLine
 10
52.1
 20
260.345
 30
0.0
 11
53.69985010134691
 21
258.239934077175
 31
0.0
  0
LINE
  5
D7
330
1E
100
AcDbEntity
  8
0
100
AcDbLine
 10
51.4039040845776
 20
261.802589974219
 30
0.0
 11
51.6248535521225
 21
261.493270582371
 31
0.0
  0
LINE
  5
D8
330
1E
100
AcDbEntity
  8
0
100
AcDbLine
 10
52.8996172612961
 20
261.0913939949999
 30
0.0
 11
60.4264
 21
265.437
 31
0.0
  0
LINE
  5
D9
330
1E
100
AcDbEntity
  8
0
100
AcDbLine
 10
52.8996172612961
 20
261.0913939949999
 30
0.0
 11
55.02955300494051
 21
262.321117487649
 31
0.0
  0
LINE
  5
DA
330
1E
100
AcDbEntity
  8
0
100
AcDbLine
 10
52.5
 20
260.6449999999999
 30
0.0
 11
54.4
 21
258.245
 31
0.0
  0
LINE
  5
DB
330
1E
100
AcDbEntity
  8
0
100
AcDbLine
 10
52.1607
 20
259.945
 30
0.0
 11
53.5959879176581
 21
258.1320047355899
 31
0.0
  0
LINE
  5
DC
330
1E
100
AcDbEntity
  8
0
100
AcDbLine
 10
51.9
 20
263.545
 30
0.0
 11
53.0
 21
260.845
 31
0.0
  0
LINE
  5
DD
330
1E
100
AcDbEntity
  8
0
100
AcDbLine
 10
51.5
 20
266.345
 30
0.0
 11
51.9
 21
263.545
 31
0.0
  0
LINE
  5
DE
330
1E
100
AcDbEntity
  8
0
100
AcDbLine
 10
51.5
 20
266.345
 30
0.0
 11
51.9
 21
269.1449999999999
 31
0.0
  0
LINE
  5
DF
330
1E
100
AcDbEntity
  8
0
100
AcDbLine
 10
51.9
 20
269.1449999999999
 30
0.0
 11
53.0
 21
271.845
 31
0.0
  0
LINE
  5
E0
330
1E
100
AcDbEntity
  8
0
100
AcDbLine
 10
51.53571428571429
 20
266.595
 30
0.0
 11
60.25
 21
266.595
 31
0.0
  0
LINE
  5
E1
330
1E
100
AcDbEntity
  8
0
100
AcDbLine
 10
51.53571428571429
 20
266.095
 30
0.0
 11
60.25
 21
266.095
 31
0.0
  0
LINE
  5
E2
330
1E
100
AcDbEntity
  8
0
100
AcDbLine
 10
51.53571428571429
 20
266.095
 30
0.0
 11
54.03409090909089
 21
266.095
 31
0.0
  0
LINE
  5
E3
330
1E
100
AcDbEntity
  8
0
100
AcDbLine
 10
51.4
 20
263.345
 30
0.0
 11
52.5
 21
260.6449999999999
 31
0.0
  0
LINE
  5
E4
330
1E
100
AcDbEntity
  8
0
100
AcDbLine
 10
51.06069999999999
 20
262.6449999999999
 30
0.0
 11
52.1607
 21
259.945
 31
0.0
  0
LINE
  5
E5
330
1E
100
AcDbEntity
  8
0
100
AcDbLine
 10
51.0190655737705
 20
262.9572581967209
 30
0.0
 11
51.06069999999999
 21
262.6449999999999
 31
0.0
  0
LINE
  5
E6
330
1E
100
AcDbEntity
  8
0
100
AcDbLine
 10
50.4607
 20
258.9449999999999
 30
0.0
 11
51.1437796367836
 21
258.0756259168209
 31
0.0
  0
LINE
  5
E7
330
1E
100
AcDbEntity
  8
0
100
AcDbLine
 10
50.4607
 20
258.9449999999999
 30
0.0
 11
52.6607
 21
256.1449999999999
 31
0.0
  0
LINE
  5
E8
330
1E
100
AcDbEntity
  8
0
100
AcDbLine
 10
50.38484462473821
 20
259.131720923722
 30
0.0
 11
50.4607
 21
258.9449999999999
 31
0.0
  0
LINE
  5
E9
330
1E
100
AcDbEntity
  8
0
100
AcDbLine
 10
51.4
 20
269.345
 30
0.0
 11
52.5
 21
272.045
 31
0.0
  0
LINE
  5
EA
330
1E
100
AcDbEntity
  8
0
100
AcDbLine
 10
50.89999999999999
 20
269.4449999999999
 30
0.0
 11
52.1
 21
272.345
 31
0.0
  0
LINE
  5
EB
330
1E
100
AcDbEntity
  8
0
100
AcDbLine
 10
52.8996172612961
 20
271.598606005
 30
0.0
 11
60.4264
 21
267.253
 31
0.0
  0
LINE
  5
EC
330
1E
100
AcDbEntity
  8
0
100
AcDbLine
 10
52.8996172612961
 20
271.598606005
 30
0.0
 11
55.02955300494051
 21
270.368882512351
 31
0.0
  0
LINE
  5
ED
330
1E
100
AcDbEntity
  8
0
100
AcDbLine
 10
52.5
 20
272.045
 30
0.0
 11
54.4
 21
274.445
 31
0.0
  0
LINE
  5
EE
330
1E
100
AcDbEntity
  8
0
100
AcDbLine
 10
52.1
 20
272.345
 30
0.0
 11
54.0
 21
274.845
 31
0.0
  0
LINE
  5
EF
330
1E
100
AcDbEntity
  8
0
100
AcDbLine
 10
52.6607
 20
275.1449999999999
 30
0.0
 11
53.55121136363639
 21
274.2544886363639
 31
0.0
  0
LINE
  5
F0
330
1E
100
AcDbEntity
  8
0
100
AcDbLine
 10
50.4607
 20
272.345
 30
0.0
 11
52.6607
 21
275.1449999999999
 31
0.0
  0
LINE
  5
F1
330
1E
100
AcDbEntity
  8
0
100
AcDbLine
 10
49.1607
 20
269.1449999999999
 30
0.0
 11
50.4607
 21
272.345
 31
0.0
  0
LINE
  5
F2
330
1E
100
AcDbEntity
  8
0
100
AcDbLine
 10
48.6607
 20
265.6449999999999
 30
0.0
 11
49.1607
 21
269.1449999999999
 31
0.0
  0
LINE
  5
F3
330
1E
100
AcDbEntity
  8
0
100
AcDbLine
 10
48.6607
 20
265.6449999999999
 30
0.0
 11
48.903716460396
 21
263.943884777228
 31
0.0
  0
LINE
  5
F4
330
1E
100
AcDbEntity
  8
0
100
AcDbLine
 10
48.6607
 20
265.6449999999999
 30
0.0
 11
49.1607
 21
262.1449999999999
 31
0.0
  0
LINE
  5
F5
330
1E
100
AcDbEntity
  8
0
100
AcDbLine
 10
52.6446874056683
 20
276.1449999999999
 30
0.0
 11
55.7105263157893
 21
276.1449999999999
 31
0.0
  0
LINE
  5
F6
330
1E
100
AcDbEntity
  8
0
100
AcDbLine
 10
52.98231947006541
 20
275.1449999999999
 30
0.0
 11
54.39473684210521
 21
275.1449999999999
 31
0.0
  0
LINE
  5
F7
330
1E
100
AcDbEntity
  8
0
100
AcDbLine
 10
56.8127
 20
255.108
 30
0.0
 11
57.2122
 21
254.9549999999999
 31
0.0
  0
LINE
  5
F8
330
1E
100
AcDbEntity
  8
0
100
AcDbLine
 10
56.8127
 20
255.108
 30
0.0
 11
57.0526292687153
 21
255.716325819842
 31
0.0
  0
LINE
  5
F9
330
1E
100
AcDbEntity
  8
0
100
AcDbLine
 10
55.4607
 20
253.9449999999999
 30
0.0
 11
58.6607
 21
252.645
 31
0.0
  0
LINE
  5
FA
330
1E
100
AcDbEntity
  8
0
100
AcDbLine
 10
53.6231
 20
257.546
 30
0.0
 11
54.2451
 21
256.9649999999999
 31
0.0
  0
LINE
  5
FB
330
1E
100
AcDbEntity
  8
0
100
AcDbLine
 10
53.6231
 20
257.546
 30
0.0
 11
53.9606282017278
 21
257.896804997727
 31
0.0
  0
LINE
  5
FC
330
1E
100
AcDbEntity
  8
0
100
AcDbLine
 10
53.3121
 20
257.837
 30
0.0
 11
53.6231
 21
257.546
 31
0.0
  0
LINE
  5
FD
330
1E
100
AcDbEntity
  8
0
100
AcDbLine
 10
53.3121
 20
257.837
 30
0.0
 11
53.69985010134691
 21
258.239934077175
 31
0.0
  0
LINE
  5
FE
330
1E
100
AcDbEntity
  8
0
100
AcDbLine
 10
53.6231
 20
257.546
 30
0.0
 11
54.2451
 21
256.9649999999999
 31
0.0
  0
LINE
  5
FF
330
1E
100
AcDbEntity
  8
0
100
AcDbLine
 10
54.556
 20
256.675
 30
0.0
 11
54.9714385051125
 21
257.1067067361149
 31
0.0
  0
LINE
  5
100
330
1E
100
AcDbEntity
  8
0
100
AcDbLine
 10
54.2451
 20
256.9649999999999
 30
0.0
 11
54.556
 21
256.675
 31
0.0
  0
LINE
  5
101
330
1E
100
AcDbEntity
  8
0
100
AcDbLine
 10
54.2451
 20
256.9649999999999
 30
0.0
 11
54.6306445807201
 21
257.365710118653
 31
0.0
  0
LINE
  5
102
330
1E
100
AcDbEntity
  8
0
100
AcDbLine
 10
53.0
 20
271.845
 30
0.0
 11
54.7
 21
274.1449999999999
 31
0.0
  0
LINE
  5
103
330
1E
100
AcDbEntity
  8
0
100
AcDbLine
 10
53.0
 20
260.845
 30
0.0
 11
54.7
 21
258.545
 31
0.0
  0
LINE
  5
104
330
1E
100
AcDbEntity
  8
0
100
AcDbLine
 10
54.29999999999999
 20
264.1449999999999
 30
0.0
 11
55.02955300494051
 21
262.321117487649
 31
0.0
  0
LINE
  5
105
330
1E
100
AcDbEntity
  8
0
100
AcDbLine
 10
54.29999999999999
 20
264.1449999999999
 30
0.0
 11
55.1
 21
262.1449999999999
 31
0.0
  0
LINE
  5
106
330
1E
100
AcDbEntity
  8
0
100
AcDbLine
 10
54.29999999999999
 20
268.545
 30
0.0
 11
55.02955300494051
 21
270.368882512351
 31
0.0
  0
LINE
  5
107
330
1E
100
AcDbEntity
  8
0
100
AcDbLine
 10
54.29999999999999
 20
268.545
 30
0.0
 11
55.1
 21
270.545
 31
0.0
  0
LINE
  5
108
330
1E
100
AcDbEntity
  8
0
100
AcDbLine
 10
54.03409090909089
 20
266.595
 30
0.0
 11
54.29999999999999
 21
268.545
 31
0.0
  0
LINE
  5
109
330
1E
100
AcDbEntity
  8
0
100
AcDbLine
 10
54.0
 20
266.345
 30
0.0
 11
54.29999999999999
 21
264.1449999999999
 31
0.0
  0
LINE
  5
10A
330
1E
100
AcDbEntity
  8
0
100
AcDbLine
 10
54.0
 20
266.345
 30
0.0
 11
54.29999999999999
 21
268.545
 31
0.0
  0
LINE
  5
10B
330
1E
100
AcDbEntity
  8
0
100
AcDbLine
 10
54.03409090909089
 20
266.095
 30
0.0
 11
54.29999999999999
 21
264.1449999999999
 31
0.0
  0
LINE
  5
10C
330
1E
100
AcDbEntity
  8
0
100
AcDbLine
 10
53.1419410462508
 20
272.037037886104
 30
0.0
 11
60.6764
 21
267.687
 31
0.0
  0
LINE
  5
10D
330
1E
100
AcDbEntity
  8
0
100
AcDbLine
 10
53.1419410462508
 20
260.6529621138959
 30
0.0
 11
60.6764
 21
265.003
 31
0.0
  0
LINE
  5
10E
330
1E
100
AcDbEntity
  8
0
100
AcDbLine
 10
54.4
 20
274.445
 30
0.0
 11
56.79999999999999
 21
276.345
 31
0.0
  0
LINE
  5
10F
330
1E
100
AcDbEntity
  8
0
100
AcDbLine
 10
54.0
 20
274.845
 30
0.0
 11
56.5
 21
276.745
 31
0.0
  0
LINE
  5
110
330
1E
100
AcDbEntity
  8
0
100
AcDbLine
 10
54.7
 20
258.545
 30
0.0
 11
57.0
 21
256.845
 31
0.0
  0
LINE
  5
111
330
1E
100
AcDbEntity
  8
0
100
AcDbLine
 10
54.8
 20
264.245
 30
0.0
 11
55.6
 21
262.345
 31
0.0
  0
LINE
  5
112
330
1E
100
AcDbEntity
  8
0
100
AcDbLine
 10
54.8
 20
268.445
 30
0.0
 11
55.6
 21
270.345
 31
0.0
  0
LINE
  5
113
330
1E
100
AcDbEntity
  8
0
100
AcDbLine
 10
54.7
 20
274.1449999999999
 30
0.0
 11
57.0
 21
275.845
 31
0.0
  0
LINE
  5
114
330
1E
100
AcDbEntity
  8
0
100
AcDbLine
 10
54.5
 20
266.345
 30
0.0
 11
54.8
 21
264.245
 31
0.0
  0
LINE
  5
115
330
1E
100
AcDbEntity
  8
0
100
AcDbLine
 10
54.5
 20
266.345
 30
0.0
 11
54.8
 21
268.445
 31
0.0
  0
LINE
  5
116
330
1E
100
AcDbEntity
  8
0
100
AcDbLine
 10
54.53571428571429
 20
266.095
 30
0.0
 11
57.03571428571429
 21
266.095
 31
0.0
  0
LINE
  5
117
330
1E
100
AcDbEntity
  8
0
100
AcDbLine
 10
54.53571428571429
 20
266.095
 30
0.0
 11
57.03571428571429
 21
266.095
 31
0.0
  0
LINE
  5
118
330
1E
100
AcDbEntity
  8
0
100
AcDbLine
 10
54.4
 20
258.245
 30
0.0
 11
56.79999999999999
 21
256.345
 31
0.0
  0
LINE
  5
119
330
1E
100
AcDbEntity
  8
0
100
AcDbLine
 10
54.0
 20
257.845
 30
0.0
 11
56.5
 21
255.945
 31
0.0
  0
LINE
  5
11A
330
1E
100
AcDbEntity
  8
0
100
AcDbLine
 10
55.1
 20
262.1449999999999
 30
0.0
 11
56.5
 21
260.345
 31
0.0
  0
LINE
  5
11B
330
1E
100
AcDbEntity
  8
0
100
AcDbLine
 10
56.5
 20
260.345
 30
0.0
 11
58.0509428900301
 21
259.138711085532
 31
0.0
  0
LINE
  5
11C
330
1E
100
AcDbEntity
  8
0
100
AcDbLine
 10
56.5
 20
260.345
 30
0.0
 11
58.3
 21
258.9449999999999
 31
0.0
  0
LINE
  5
11D
330
1E
100
AcDbEntity
  8
0
100
AcDbLine
 10
55.6
 20
262.345
 30
0.0
 11
56.9
 21
260.745
 31
0.0
  0
LINE
  5
11E
330
1E
100
AcDbEntity
  8
0
100
AcDbLine
 10
55.2940606171506
 20
261.895493492235
 30
0.0
 11
56.5
 21
260.345
 31
0.0
  0
LINE
  5
11F
330
1E
100
AcDbEntity
  8
0
100
AcDbLine
 10
55.1
 20
270.545
 30
0.0
 11
56.5
 21
272.345
 31
0.0
  0
LINE
  5
120
330
1E
100
AcDbEntity
  8
0
100
AcDbLine
 10
55.2940606171506
 20
270.7945065077649
 30
0.0
 11
56.5
 21
272.345
 31
0.0
  0
LINE
  5
121
330
1E
100
AcDbEntity
  8
0
100
AcDbLine
 10
55.6
 20
270.345
 30
0.0
 11
56.9
 21
271.945
 31
0.0
  0
LINE
  5
122
330
1E
100
AcDbEntity
  8
0
100
AcDbLine
 10
56.5
 20
272.345
 30
0.0
 11
58.0509428900301
 21
273.551288914468
 31
0.0
  0
LINE
  5
123
330
1E
100
AcDbEntity
  8
0
100
AcDbLine
 10
56.5
 20
272.345
 30
0.0
 11
58.3
 21
273.7449999999999
 31
0.0
  0
LINE
  5
124
330
1E
100
AcDbEntity
  8
0
100
AcDbLine
 10
55.49653456519589
 20
270.0992695923399
 30
0.0
 11
57.63141886184171
 21
268.8666890407879
 31
0.0
  0
LINE
  5
125
330
1E
100
AcDbEntity
  8
0
100
AcDbLine
 10
55.49653456519589
 20
262.59073040766
 30
0.0
 11
57.63141886184171
 21
263.8233109592119
 31
0.0
  0
LINE
  5
126
330
1E
100
AcDbEntity
  8
0
100
AcDbLine
 10
56.9
 20
271.945
 30
0.0
 11
58.5
 21
273.245
 31
0.0
  0
LINE
  5
127
330
1E
100
AcDbEntity
  8
0
100
AcDbLine
 10
56.9
 20
260.745
 30
0.0
 11
58.5
 21
259.445
 31
0.0
  0
LINE
  5
128
330
1E
100
AcDbEntity
  8
0
100
AcDbLine
 10
56.808396192554
 20
275.7033797944969
 30
0.0
 11
61.1585
 21
268.169
 31
0.0
  0
LINE
  5
129
330
1E
100
AcDbEntity
  8
0
100
AcDbLine
 10
56.808396192554
 20
275.7033797944969
 30
0.0
 11
58.0509428900301
 21
273.551288914468
 31
0.0
  0
LINE
  5
12A
330
1E
100
AcDbEntity
  8
0
100
AcDbLine
 10
56.808396192554
 20
256.986620205504
 30
0.0
 11
61.1585
 21
264.5209999999999
 31
0.0
  0
LINE
  5
12B
330
1E
100
AcDbEntity
  8
0
100
AcDbLine
 10
56.808396192554
 20
256.986620205504
 30
0.0
 11
58.0509428900301
 21
259.138711085532
 31
0.0
  0
LINE
  5
12C
330
1E
100
AcDbEntity
  8
0
100
AcDbLine
 10
56.79999999999999
 20
256.345
 30
0.0
 11
59.5
 21
255.2449999999999
 31
0.0
  0
LINE
  5
12D
330
1E
100
AcDbEntity
  8
0
100
AcDbLine
 10
56.5
 20
255.945
 30
0.0
 11
59.4
 21
254.7449999999999
 31
0.0
  0
LINE
  5
12E
330
1E
100
AcDbEntity
  8
0
100
AcDbLine
 10
54.9714385051125
 20
257.1067067361149
 30
0.0
 11
56.5
 21
255.945
 31
0.0
  0
LINE
  5
12F
330
1E
100
AcDbEntity
  8
0
100
AcDbLine
 10
56.5
 20
255.945
 30
0.0
 11
57.0526292687153
 21
255.716325819842
 31
0.0
  0
LINE
  5
130
330
1E
100
AcDbEntity
  8
0
100
AcDbLine
 10
54.8170229154208
 20
256.946244358625
 30
0.0
 11
56.4607
 21
255.645
 31
0.0
  0
LINE
  5
131
330
1E
100
AcDbEntity
  8
0
100
AcDbLine
 10
56.4607
 20
255.645
 30
0.0
 11
56.9464455825231
 21
255.4471036515649
 31
0.0
  0
LINE
  5
132
330
1E
100
AcDbEntity
  8
0
100
AcDbLine
 10
52.98231947006541
 20
275.1449999999999
 30
0.0
 11
54.39473684210521
 21
275.1449999999999
 31
0.0
  0
LINE
  5
134
330
1E
100
AcDbEntity
  8
0
100
AcDbLine
 10
42.6482
 20
317.986
 30
0.0
 11
44.65279999999999
 21
313.707
 31
0.0
  0
LINE
  5
135
330
1E
100
AcDbEntity
  8
0
100
AcDbLine
 10
44.65279999999999
 20
313.707
 30
0.0
 11
46.6486
 21
305.4349999999999
 31
0.0
  0
LINE
  5
136
330
1E
100
AcDbEntity
  8
0
100
AcDbLine
 10
56.79999999999999
 20
276.345
 30
0.0
 11
59.5
 21
277.4449999999999
 31
0.0
  0
LINE
  5
137
330
1E
100
AcDbEntity
  8
0
100
AcDbLine
 10
56.5
 20
276.745
 30
0.0
 11
59.4
 21
277.945
 31
0.0
  0
LINE
  5
138
330
1E
100
AcDbEntity
  8
0
100
AcDbLine
 10
52.0697
 20
277.848
 30
0.0
 11
53.14626014380841
 21
274.659439856192
 31
0.0
  0
LINE
  5
139
330
1E
100
AcDbEntity
  8
0
100
AcDbLine
 10
50.34399999999999
 20
285.294
 30
0.0
 11
52.0697
 21
277.848
 31
0.0
  0
LINE
  5
13A
330
1E
100
AcDbEntity
  8
0
100
AcDbLine
 10
48.4353
 20
295.945
 30
0.0
 11
50.34399999999999
 21
285.294
 31
0.0
  0
LINE
  5
13C
330
1E
100
AcDbEntity
  8
0
100
AcDbLine
 10
46.6486
 20
305.4349999999999
 30
0.0
 11
48.4142016247968
 21
295.971090691958
 31
0.0
  0
LINE
  5
13D
330
1E
100
AcDbEntity
  8
0
100
AcDbLine
 10
52.6446874056683
 20
276.1449999999999
 30
0.0
 11
55.7105263157893
 21
276.1449999999999
 31
0.0
  0
LINE
  5
13E
330
1E
100
AcDbEntity
  8
0
100
AcDbLine
 10
41.5
 20
235.145
 30
0.0
 11
41.5
 21
234.643
 31
0.0
  0
LINE
  5
13F
330
1E
100
AcDbEntity
  8
0
100
AcDbLine
 10
41.5
 20
235.145
 30
0.0
 11
82.5
 21
235.145
 31
0.0
  0
LINE
  5
140
330
1E
100
AcDbEntity
  8
0
100
AcDbLine
 10
41.5
 20
234.643
 30
0.0
 11
41.5
 21
235.145
 31
0.0
  0
LINE
  5
141
330
1E
100
AcDbEntity
  8
0
100
AcDbLine
 10
41.5
 20
234.643
 30
0.0
 11
62.0
 21
234.643
 31
0.0
  0
LINE
  5
142
330
1E
100
AcDbEntity
  8
0
100
AcDbLine
 10
41.5
 20
234.643
 30
0.0
 11
41.5
 21
0.6467920000000041
 31
0.0
  0
LINE
  5
143
330
1E
100
AcDbEntity
  8
0
100
AcDbLine
 10
41.0
 20
234.643
 30
0.0
 11
41.5
 21
235.145
 31
0.0
  0
LINE
  5
144
330
1E
100
AcDbEntity
  8
0
100
AcDbLine
 10
41.0
 20
234.643
 30
0.0
 11
41.5
 21
234.643
 31
0.0
  0
LINE
  5
145
330
1E
100
AcDbEntity
  8
0
100
AcDbLine
 10
41.0
 20
234.643
 30
0.0
 11
41.0
 21
0.6467920000000041
 31
0.0
  0
LINE
  5
146
330
1E
100
AcDbEntity
  8
0
100
AcDbLine
 10
41.0
 20
234.643
 30
0.0
 11
41.0
 21
193.4959999999999
 31
0.0
  0
LINE
  5
148
330
1E
100
AcDbEntity
  8
0
100
AcDbLine
 10
57.5
 20
128.81
 30
0.0
 11
59.66
 21
129.71
 31
0.0
  0
LINE
  5
149
330
1E
100
AcDbEntity
  8
0
100
AcDbLine
 10
57.5
 20
113.2099999999999
 30
0.0
 11
59.66
 21
112.3099999999999
 31
0.0
  0
LINE
  5
14A
330
1E
100
AcDbEntity
  8
0
100
AcDbLine
 10
58.0
 20
192.3249999999999
 30
0.0
 11
58.0
 21
206.377
 31
0.0
  0
LINE
  5
14B
330
1E
100
AcDbEntity
  8
0
100
AcDbLine
 10
58.0
 20
192.3249999999999
 30
0.0
 11
58.39999999999999
 21
191.865
 31
0.0
  0
LINE
  5
14C
330
1E
100
AcDbEntity
  8
0
100
AcDbLine
 10
58.0
 20
192.3249999999999
 30
0.0
 11
58.0
 21
205.193
 31
0.0
  0
LINE
  5
14D
330
1E
100
AcDbEntity
  8
0
100
AcDbLine
 10
58.0
 20
192.3249999999999
 30
0.0
 11
58.39999999999999
 21
192.2309999999999
 31
0.0
  0
LINE
  5
14E
330
1E
100
AcDbEntity
  8
0
100
AcDbLine
 10
58.0
 20
206.377
 30
0.0
 11
58.0
 21
219.245
 31
0.0
  0
LINE
  5
14F
330
1E
100
AcDbEntity
  8
0
100
AcDbLine
 10
58.0
 20
206.377
 30
0.0
 11
58.0
 21
192.3249999999999
 31
0.0
  0
LINE
  5
150
330
1E
100
AcDbEntity
  8
0
100
AcDbLine
 10
58.0
 20
205.193
 30
0.0
 11
58.0
 21
219.245
 31
0.0
  0
LINE
  5
151
330
1E
100
AcDbEntity
  8
0
100
AcDbLine
 10
58.0
 20
205.193
 30
0.0
 11
58.0
 21
192.3249999999999
 31
0.0
  0
LINE
  5
152
330
1E
100
AcDbEntity
  8
0
100
AcDbLine
 10
58.0
 20
205.193
 30
0.0
 11
58.39999999999999
 21
205.099
 31
0.0
  0
LINE
  5
153
330
1E
100
AcDbEntity
  8
0
100
AcDbLine
 10
58.39999999999999
 20
192.2309999999999
 30
0.0
 11
58.39999999999999
 21
191.865
 31
0.0
  0
LINE
  5
154
330
1E
100
AcDbEntity
  8
0
100
AcDbLine
 10
58.39999999999999
 20
192.2309999999999
 30
0.0
 11
62.0
 21
192.2309999999999
 31
0.0
  0
LINE
  5
155
330
1E
100
AcDbEntity
  8
0
100
AcDbLine
 10
58.39999999999999
 20
192.2309999999999
 30
0.0
 11
58.39999999999999
 21
205.099
 31
0.0
  0
LINE
  5
156
330
1E
100
AcDbEntity
  8
0
100
AcDbLine
 10
58.39999999999999
 20
205.099
 30
0.0
 11
58.39999999999999
 21
205.652
 31
0.0
  0
LINE
  5
157
330
1E
100
AcDbEntity
  8
0
100
AcDbLine
 10
58.39999999999999
 20
205.099
 30
0.0
 11
62.0
 21
205.099
 31
0.0
  0
LINE
  5
158
330
1E
100
AcDbEntity
  8
0
100
AcDbLine
 10
58.39999999999999
 20
205.099
 30
0.0
 11
58.39999999999999
 21
192.2309999999999
 31
0.0
  0
LINE
  5
159
330
1E
100
AcDbEntity
  8
0
100
AcDbLine
 10
62.0
 20
112.01
 30
0.0
 11
64.34000000000001
 21
112.3099999999999
 31
0.0
  0
LINE
  5
15A
330
1E
100
AcDbEntity
  8
0
100
AcDbLine
 10
62.0
 20
130.01
 30
0.0
 11
64.34000000000001
 21
129.71
 31
0.0
  0
LINE
  5
15B
330
1E
100
AcDbEntity
  8
0
100
AcDbLine
 10
59.66
 20
129.71
 30
0.0
 11
62.0
 21
130.01
 31
0.0
  0
LINE
  5
15C
330
1E
100
AcDbEntity
  8
0
100
AcDbLine
 10
59.66
 20
112.3099999999999
 30
0.0
 11
62.0
 21
112.01
 31
0.0
  0
LINE
  5
15D
330
1E
100
AcDbEntity
  8
0
100
AcDbLine
 10
64.34000000000001
 20
129.71
 30
0.0
 11
66.5
 21
128.81
 31
0.0
  0
LINE
  5
15E
330
1E
100
AcDbEntity
  8
0
100
AcDbLine
 10
64.34000000000001
 20
112.3099999999999
 30
0.0
 11
66.5
 21
113.2099999999999
 31
0.0
  0
LINE
  5
15F
330
1E
100
AcDbEntity
  8
0
100
AcDbLine
 10
62.0
 20
191.865
 30
0.0
 11
65.59999999999999
 21
191.865
 31
0.0
  0
LINE
  5
160
330
1E
100
AcDbEntity
  8
0
100
AcDbLine
 10
62.0
 20
192.2309999999999
 30
0.0
 11
65.59999999999999
 21
192.2309999999999
 31
0.0
  0
LINE
  5
161
330
1E
100
AcDbEntity
  8
0
100
AcDbLine
 10
65.59999999999999
 20
192.2309999999999
 30
0.0
 11
65.59999999999999
 21
205.099
 31
0.0
  0
LINE
  5
162
330
1E
100
AcDbEntity
  8
0
100
AcDbLine
 10
65.59999999999999
 20
192.2309999999999
 30
0.0
 11
66.0
 21
192.3249999999999
 31
0.0
  0
LINE
  5
163
330
1E
100
AcDbEntity
  8
0
100
AcDbLine
 10
65.59999999999999
 20
192.2309999999999
 30
0.0
 11
65.59999999999999
 21
191.865
 31
0.0
  0
LINE
  5
164
330
1E
100
AcDbEntity
  8
0
100
AcDbLine
 10
65.59999999999999
 20
205.099
 30
0.0
 11
66.0
 21
205.193
 31
0.0
  0
LINE
  5
165
330
1E
100
AcDbEntity
  8
0
100
AcDbLine
 10
65.59999999999999
 20
205.099
 30
0.0
 11
65.59999999999999
 21
205.652
 31
0.0
  0
LINE
  5
166
330
1E
100
AcDbEntity
  8
0
100
AcDbLine
 10
65.59999999999999
 20
205.099
 30
0.0
 11
65.59999999999999
 21
192.2309999999999
 31
0.0
  0
LINE
  5
167
330
1E
100
AcDbEntity
  8
0
100
AcDbLine
 10
62.0
 20
205.099
 30
0.0
 11
65.59999999999999
 21
205.099
 31
0.0
  0
LINE
  5
168
330
1E
100
AcDbEntity
  8
0
100
AcDbLine
 10
65.59999999999999
 20
191.865
 30
0.0
 11
66.0
 21
192.3249999999999
 31
0.0
  0
LINE
  5
169
330
1E
100
AcDbEntity
  8
0
100
AcDbLine
 10
65.59999999999999
 20
191.865
 30
0.0
 11
65.59999999999999
 21
192.2309999999999
 31
0.0
  0
LINE
  5
16A
330
1E
100
AcDbEntity
  8
0
100
AcDbLine
 10
82.5
 20
0.145000000000016
 30
0.0
 11
83.0
 21
0.6467920000000161
 31
0.0
  0
LINE
  5
16B
330
1E
100
AcDbEntity
  8
0
100
AcDbLine
 10
66.5
 20
128.81
 30
0.0
 11
68.36
 21
127.37
 31
0.0
  0
LINE
  5
16C
330
1E
100
AcDbEntity
  8
0
100
AcDbLine
 10
69.8
 20
125.51
 30
0.0
 11
70.7
 21
123.35
 31
0.0
  0
LINE
  5
16D
330
1E
100
AcDbEntity
  8
0
100
AcDbLine
 10
68.36
 20
127.37
 30
0.0
 11
69.8
 21
125.51
 31
0.0
  0
LINE
  5
16E
330
1E
100
AcDbEntity
  8
0
100
AcDbLine
 10
70.7
 20
123.35
 30
0.0
 11
71.0
 21
121.01
 31
0.0
  0
LINE
  5
16F
330
1E
100
AcDbEntity
  8
0
100
AcDbLine
 10
70.7
 20
118.67
 30
0.0
 11
71.0
 21
121.01
 31
0.0
  0
LINE
  5
170
330
1E
100
AcDbEntity
  8
0
100
AcDbLine
 10
69.8
 20
116.51
 30
0.0
 11
70.7
 21
118.67
 31
0.0
  0
LINE
  5
171
330
1E
100
AcDbEntity
  8
0
100
AcDbLine
 10
68.36
 20
114.65
 30
0.0
 11
69.8
 21
116.51
 31
0.0
  0
LINE
  5
172
330
1E
100
AcDbEntity
  8
0
100
AcDbLine
 10
66.5
 20
113.2099999999999
 30
0.0
 11
68.36
 21
114.65
 31
0.0
  0
LINE
  5
173
330
1E
100
AcDbEntity
  8
0
100
AcDbLine
 10
82.5
 20
0.145000000000016
 30
0.0
 11
83.0
 21
0.6467920000000161
 31
0.0
  0
LINE
  5
174
330
1E
100
AcDbEntity
  8
0
100
AcDbLine
 10
82.5
 20
0.145000000000016
 30
0.0
 11
82.5
 21
0.6467920000000161
 31
0.0
  0
LINE
  5
175
330
1E
100
AcDbEntity
  8
0
100
AcDbLine
 10
83.0
 20
152.145
 30
0.0
 11
123.0
 21
152.145
 31
0.0
  0
LINE
  5
176
330
1E
100
AcDbEntity
  8
0
100
AcDbLine
 10
83.0
 20
153.145
 30
0.0
 11
123.0
 21
153.145
 31
0.0
  0
LINE
  5
177
330
1E
100
AcDbEntity
  8
0
100
AcDbLine
 10
123.0
 20
152.145
 30
0.0
 11
124.0
 21
153.145
 31
0.0
  0
LINE
  5
178
330
1E
100
AcDbEntity
  8
0
100
AcDbLine
 10
123.0
 20
152.145
 30
0.0
 11
123.0
 21
153.145
 31
0.0
  0
LINE
  5
179
330
1E
100
AcDbEntity
  8
0
100
AcDbLine
 10
124.0
 20
153.145
 30
0.0
 11
124.0
 21
275.1449999999999
 31
0.0
  0
LINE
  5
17A
330
1E
100
AcDbEntity
  8
0
100
AcDbLine
 10
123.0
 20
153.145
 30
0.0
 11
123.0
 21
275.1449999999999
 31
0.0
  0
LINE
  5
17B
330
1E
100
AcDbEntity
  8
0
100
AcDbLine
 10
123.0
 20
153.145
 30
0.0
 11
124.0
 21
153.145
 31
0.0
  0
LINE
  5
17C
330
1E
100
AcDbEntity
  8
0
100
AcDbLine
 10
123.0
 20
153.145
 30
0.0
 11
123.0
 21
152.145
 31
0.0
  0
LINE
  5
17D
330
1E
100
AcDbEntity
  8
0
100
AcDbLine
 10
83.0
 20
0.6467920000000161
 30
0.0
 11
83.0
 21
234.643
 31
0.0
  0
LINE
  5
17E
330
1E
100
AcDbEntity
  8
0
100
AcDbLine
 10
82.5
 20
0.6467920000000161
 30
0.0
 11
83.0
 21
0.6467920000000161
 31
0.0
  0
LINE
  5
17F
330
1E
100
AcDbEntity
  8
0
100
AcDbLine
 10
82.5
 20
0.6467920000000161
 30
0.0
 11
82.5
 21
0.145000000000016
 31
0.0
  0
LINE
  5
180
330
1E
100
AcDbEntity
  8
0
100
AcDbLine
 10
82.5
 20
0.6467920000000161
 30
0.0
 11
82.5
 21
234.643
 31
0.0
  0
LINE
  5
181
330
1E
100
AcDbEntity
  8
0
100
AcDbLine
 10
66.0
 20
194.54937254902
 30
0.0
 11
67.09999999999999
 21
194.7009999999999
 31
0.0
  0
LINE
  5
182
330
1E
100
AcDbEntity
  8
0
100
AcDbLine
 10
67.09999999999999
 20
194.7009999999999
 30
0.0
 11
71.90000000000001
 21
196.7079999999999
 31
0.0
  0
LINE
  5
183
330
1E
100
AcDbEntity
  8
0
100
AcDbLine
 10
71.90000000000001
 20
196.7079999999999
 30
0.0
 11
76.09999999999999
 21
199.919
 31
0.0
  0
LINE
  5
184
330
1E
100
AcDbEntity
  8
0
100
AcDbLine
 10
76.09999999999999
 20
199.919
 30
0.0
 11
79.29999999999999
 21
204.134
 31
0.0
  0
LINE
  5
185
330
1E
100
AcDbEntity
  8
0
100
AcDbLine
 10
79.29999999999999
 20
204.134
 30
0.0
 11
81.3
 21
208.9509999999999
 31
0.0
  0
LINE
  5
186
330
1E
100
AcDbEntity
  8
0
100
AcDbLine
 10
66.0
 20
205.193
 30
0.0
 11
66.0
 21
219.245
 31
0.0
  0
LINE
  5
187
330
1E
100
AcDbEntity
  8
0
100
AcDbLine
 10
66.0
 20
205.193
 30
0.0
 11
66.0
 21
192.3249999999999
 31
0.0
  0
LINE
  5
188
330
1E
100
AcDbEntity
  8
0
100
AcDbLine
 10
66.0
 20
192.3249999999999
 30
0.0
 11
66.0
 21
205.193
 31
0.0
  0
LINE
  5
189
330
1E
100
AcDbEntity
  8
0
100
AcDbLine
 10
65.59999999999999
 20
205.652
 30
0.0
 11
65.59999999999999
 21
219.704
 31
0.0
  0
LINE
  5
18A
330
1E
100
AcDbEntity
  8
0
100
AcDbLine
 10
65.59999999999999
 20
205.652
 30
0.0
 11
65.59999999999999
 21
205.099
 31
0.0
  0
LINE
  5
18B
330
1E
100
AcDbEntity
  8
0
100
AcDbLine
 10
62.0
 20
205.652
 30
0.0
 11
65.59999999999999
 21
205.652
 31
0.0
  0
LINE
  5
18C
330
1E
100
AcDbEntity
  8
0
100
AcDbLine
 10
58.39999999999999
 20
191.865
 30
0.0
 11
62.0
 21
191.865
 31
0.0
  0
LINE
  5
18D
330
1E
100
AcDbEntity
  8
0
100
AcDbLine
 10
58.39999999999999
 20
191.865
 30
0.0
 11
58.39999999999999
 21
192.2309999999999
 31
0.0
  0
LINE
  5
18F
330
1E
100
AcDbEntity
  8
0
100
AcDbLine
 10
81.3
 20
219.1879999999999
 30
0.0
 11
82.0
 21
214.0699999999999
 31
0.0
  0
LINE
  5
190
330
1E
100
AcDbEntity
  8
0
100
AcDbLine
 10
81.3
 20
208.9509999999999
 30
0.0
 11
82.0
 21
214.0699999999999
 31
0.0
  0
LINE
  5
191
330
1E
100
AcDbEntity
  8
0
100
AcDbLine
 10
66.0
 20
219.245
 30
0.0
 11
66.0
 21
205.193
 31
0.0
  0
LINE
  5
192
330
1E
100
AcDbEntity
  8
0
100
AcDbLine
 10
65.59999999999999
 20
219.704
 30
0.0
 11
66.0
 21
219.245
 31
0.0
  0
LINE
  5
193
330
1E
100
AcDbEntity
  8
0
100
AcDbLine
 10
65.59999999999999
 20
219.704
 30
0.0
 11
65.59999999999999
 21
205.652
 31
0.0
  0
LINE
  5
194
330
1E
100
AcDbEntity
  8
0
100
AcDbLine
 10
62.0
 20
219.704
 30
0.0
 11
65.59999999999999
 21
219.704
 31
0.0
  0
LINE
  5
195
330
1E
100
AcDbEntity
  8
0
100
AcDbLine
 10
58.39999999999999
 20
205.652
 30
0.0
 11
58.39999999999999
 21
219.704
 31
0.0
  0
LINE
  5
196
330
1E
100
AcDbEntity
  8
0
100
AcDbLine
 10
58.39999999999999
 20
205.652
 30
0.0
 11
62.0
 21
205.652
 31
0.0
  0
LINE
  5
197
330
1E
100
AcDbEntity
  8
0
100
AcDbLine
 10
58.39999999999999
 20
205.652
 30
0.0
 11
58.39999999999999
 21
205.099
 31
0.0
  0
LINE
  5
198
330
1E
100
AcDbEntity
  8
0
100
AcDbLine
 10
58.0
 20
219.245
 30
0.0
 11
58.39999999999999
 21
219.704
 31
0.0
  0
LINE
  5
199
330
1E
100
AcDbEntity
  8
0
100
AcDbLine
 10
58.0
 20
219.245
 30
0.0
 11
58.0
 21
206.377
 31
0.0
  0
LINE
  5
19A
330
1E
100
AcDbEntity
  8
0
100
AcDbLine
 10
58.0
 20
219.245
 30
0.0
 11
58.0
 21
205.193
 31
0.0
  0
LINE
  5
1A0
330
1E
100
AcDbEntity
  8
0
100
AcDbLine
 10
62.0
 20
234.1409999999999
 30
0.0
 11
67.09999999999999
 21
233.439
 31
0.0
  0
LINE
  5
1A1
330
1E
100
AcDbEntity
  8
0
100
AcDbLine
 10
67.09999999999999
 20
233.439
 30
0.0
 11
71.90000000000001
 21
231.432
 31
0.0
  0
LINE
  5
1A2
330
1E
100
AcDbEntity
  8
0
100
AcDbLine
 10
71.90000000000001
 20
231.432
 30
0.0
 11
76.09999999999999
 21
228.22
 31
0.0
  0
LINE
  5
1A3
330
1E
100
AcDbEntity
  8
0
100
AcDbLine
 10
76.09999999999999
 20
228.22
 30
0.0
 11
79.29999999999999
 21
224.005
 31
0.0
  0
LINE
  5
1A4
330
1E
100
AcDbEntity
  8
0
100
AcDbLine
 10
79.29999999999999
 20
224.005
 30
0.0
 11
81.3
 21
219.1879999999999
 31
0.0
  0
LINE
  5
1A5
330
1E
100
AcDbEntity
  8
0
100
AcDbLine
 10
58.4107
 20
254.4959999999999
 30
0.0
 11
58.63368933806929
 21
255.0620940670059
 31
0.0
  0
LINE
  5
1A6
330
1E
100
AcDbEntity
  8
0
100
AcDbLine
 10
58.0112
 20
254.6489999999999
 30
0.0
 11
58.4107
 21
254.4959999999999
 31
0.0
  0
LINE
  5
1A7
330
1E
100
AcDbEntity
  8
0
100
AcDbLine
 10
58.0112
 20
254.6489999999999
 30
0.0
 11
58.23835886938979
 21
255.2256790885279
 31
0.0
  0
LINE
  5
1A8
330
1E
100
AcDbEntity
  8
0
100
AcDbLine
 10
59.0517122454129
 20
254.589402418535
 30
0.0
 11
59.3178668383908
 21
254.778986135838
 31
0.0
  0
LINE
  5
1A9
330
1E
100
AcDbEntity
  8
0
100
AcDbLine
 10
58.6607
 20
252.645
 30
0.0
 11
62.1607
 21
252.145
 31
0.0
  0
LINE
  5
1AA
330
1E
100
AcDbEntity
  8
0
100
AcDbLine
 10
57.0
 20
256.845
 30
0.0
 11
59.7
 21
255.745
 31
0.0
  0
LINE
  5
1AB
330
1E
100
AcDbEntity
  8
0
100
AcDbLine
 10
57.2
 20
264.9449999999999
 30
0.0
 11
57.63141886184171
 21
263.8233109592119
 31
0.0
  0
LINE
  5
1AC
330
1E
100
AcDbEntity
  8
0
100
AcDbLine
 10
57.2
 20
264.9449999999999
 30
0.0
 11
57.7
 21
263.6449999999999
 31
0.0
  0
LINE
  5
1AD
330
1E
100
AcDbEntity
  8
0
100
AcDbLine
 10
57.2
 20
267.7449999999999
 30
0.0
 11
57.63141886184171
 21
268.8666890407879
 31
0.0
  0
LINE
  5
1AE
330
1E
100
AcDbEntity
  8
0
100
AcDbLine
 10
57.2
 20
267.7449999999999
 30
0.0
 11
57.7
 21
269.045
 31
0.0
  0
LINE
  5
1AF
330
1E
100
AcDbEntity
  8
0
100
AcDbLine
 10
57.03571428571429
 20
266.595
 30
0.0
 11
57.2
 21
267.7449999999999
 31
0.0
  0
LINE
  5
1B0
330
1E
100
AcDbEntity
  8
0
100
AcDbLine
 10
57.5
 20
266.345
 30
0.0
 11
57.7
 21
265.045
 31
0.0
  0
LINE
  5
1B1
330
1E
100
AcDbEntity
  8
0
100
AcDbLine
 10
57.5
 20
266.345
 30
0.0
 11
57.7
 21
267.6449999999999
 31
0.0
  0
LINE
  5
1B2
330
1E
100
AcDbEntity
  8
0
100
AcDbLine
 10
57.0
 20
266.345
 30
0.0
 11
57.2
 21
264.9449999999999
 31
0.0
  0
LINE
  5
1B3
330
1E
100
AcDbEntity
  8
0
100
AcDbLine
 10
57.0
 20
266.345
 30
0.0
 11
57.2
 21
267.7449999999999
 31
0.0
  0
LINE
  5
1B4
330
1E
100
AcDbEntity
  8
0
100
AcDbLine
 10
57.03571428571429
 20
266.095
 30
0.0
 11
57.2
 21
264.9449999999999
 31
0.0
  0
LINE
  5
1B5
330
1E
100
AcDbEntity
  8
0
100
AcDbLine
 10
57.7
 20
263.6449999999999
 30
0.0
 11
58.6
 21
262.4449999999999
 31
0.0
  0
LINE
  5
1B6
330
1E
100
AcDbEntity
  8
0
100
AcDbLine
 10
58.3
 20
258.9449999999999
 30
0.0
 11
60.3
 21
258.1449999999999
 31
0.0
  0
LINE
  5
1B7
330
1E
100
AcDbEntity
  8
0
100
AcDbLine
 10
58.2
 20
263.845
 30
0.0
 11
59.0
 21
262.845
 31
0.0
  0
LINE
  5
1B8
330
1E
100
AcDbEntity
  8
0
100
AcDbLine
 10
57.8886399473552
 20
263.393480070193
 30
0.0
 11
58.6
 21
262.4449999999999
 31
0.0
  0
LINE
  5
1B9
330
1E
100
AcDbEntity
  8
0
100
AcDbLine
 10
57.7
 20
267.6449999999999
 30
0.0
 11
58.2
 21
268.845
 31
0.0
  0
LINE
  5
1BA
330
1E
100
AcDbEntity
  8
0
100
AcDbLine
 10
57.7
 20
269.045
 30
0.0
 11
58.6
 21
270.245
 31
0.0
  0
LINE
  5
1BB
330
1E
100
AcDbEntity
  8
0
100
AcDbLine
 10
57.8886399473552
 20
269.296519929807
 30
0.0
 11
58.6
 21
270.245
 31
0.0
  0
LINE
  5
1BC
330
1E
100
AcDbEntity
  8
0
100
AcDbLine
 10
57.7
 20
265.045
 30
0.0
 11
58.2
 21
263.845
 31
0.0
  0
LINE
  5
1BD
330
1E
100
AcDbEntity
  8
0
100
AcDbLine
 10
58.2
 20
268.845
 30
0.0
 11
59.0
 21
269.845
 31
0.0
  0
LINE
  5
1BE
330
1E
100
AcDbEntity
  8
0
100
AcDbLine
 10
58.3
 20
273.7449999999999
 30
0.0
 11
60.3
 21
274.545
 31
0.0
  0
LINE
  5
1BF
330
1E
100
AcDbEntity
  8
0
100
AcDbLine
 10
58.3147070151307
 20
273.0944494497939
 30
0.0
 11
59.5489613215149
 21
270.956720991136
 31
0.0
  0
LINE
  5
1C0
330
1E
100
AcDbEntity
  8
0
100
AcDbLine
 10
58.0970284339277
 20
268.597868241426
 30
0.0
 11
60.2387752074771
 21
267.3613256224309
 31
0.0
  0
LINE
  5
1C1
330
1E
100
AcDbEntity
  8
0
100
AcDbLine
 10
58.0970284339277
 20
264.092131758574
 30
0.0
 11
60.2387752074771
 21
265.328674377569
 31
0.0
  0
LINE
  5
1C2
330
1E
100
AcDbEntity
  8
0
100
AcDbLine
 10
57.53846153846151
 20
266.095
 30
0.0
 11
60.04166666666669
 21
266.095
 31
0.0
  0
LINE
  5
1C3
330
1E
100
AcDbEntity
  8
0
100
AcDbLine
 10
57.24608590125339
 20
256.7447427809709
 30
0.0
 11
58.4758339587242
 21
258.87466641651
 31
0.0
  0
LINE
  5
1C4
330
1E
100
AcDbEntity
  8
0
100
AcDbLine
 10
57.24608590125339
 20
256.7447427809709
 30
0.0
 11
61.5915
 21
264.2709999999999
 31
0.0
  0
LINE
  5
1C5
330
1E
100
AcDbEntity
  8
0
100
AcDbLine
 10
58.5
 20
273.245
 30
0.0
 11
60.4
 21
274.045
 31
0.0
  0
LINE
  5
1C6
330
1E
100
AcDbEntity
  8
0
100
AcDbLine
 10
58.4758339587242
 20
273.8153335834899
 30
0.0
 11
60.3
 21
274.545
 31
0.0
  0
LINE
  5
1C7
330
1E
100
AcDbEntity
  8
0
100
AcDbLine
 10
58.6
 20
270.245
 30
0.0
 11
59.5489613215149
 21
270.956720991136
 31
0.0
  0
LINE
  5
1C8
330
1E
100
AcDbEntity
  8
0
100
AcDbLine
 10
58.6
 20
270.245
 30
0.0
 11
59.8
 21
271.1449999999999
 31
0.0
  0
LINE
  5
1C9
330
1E
100
AcDbEntity
  8
0
100
AcDbLine
 10
58.6
 20
262.4449999999999
 30
0.0
 11
59.5489613215149
 21
261.7332790088639
 31
0.0
  0
LINE
  5
1CA
330
1E
100
AcDbEntity
  8
0
100
AcDbLine
 10
58.6
 20
262.4449999999999
 30
0.0
 11
59.8
 21
261.545
 31
0.0
  0
LINE
  5
1CB
330
1E
100
AcDbEntity
  8
0
100
AcDbLine
 10
58.5
 20
259.445
 30
0.0
 11
60.4
 21
258.6449999999999
 31
0.0
  0
LINE
  5
1CC
330
1E
100
AcDbEntity
  8
0
100
AcDbLine
 10
58.4758339587242
 20
258.87466641651
 30
0.0
 11
60.3
 21
258.1449999999999
 31
0.0
  0
LINE
  5
1CD
330
1E
100
AcDbEntity
  8
0
100
AcDbLine
 10
58.3147070151307
 20
259.5955505502059
 30
0.0
 11
59.5489613215149
 21
261.7332790088639
 31
0.0
  0
LINE
  5
1CE
330
1E
100
AcDbEntity
  8
0
100
AcDbLine
 10
57.2122
 20
254.9549999999999
 30
0.0
 11
58.0112
 21
254.6489999999999
 31
0.0
  0
LINE
  5
1CF
330
1E
100
AcDbEntity
  8
0
100
AcDbLine
 10
57.2122
 20
254.9549999999999
 30
0.0
 11
57.447955182727
 21
255.55274268301
 31
0.0
  0
LINE
  5
1D0
330
1E
100
AcDbEntity
  8
0
100
AcDbLine
 10
59.0
 20
269.845
 30
0.0
 11
60.0
 21
270.6449999999999
 31
0.0
  0
LINE
  5
1D1
330
1E
100
AcDbEntity
  8
0
100
AcDbLine
 10
59.0
 20
262.845
 30
0.0
 11
60.0
 21
262.045
 31
0.0
  0
LINE
  5
1D2
330
1E
100
AcDbEntity
  8
0
100
AcDbLine
 10
58.7454552165835
 20
273.348349564877
 30
0.0
 11
59.9780569123419
 21
271.2134834278239
 31
0.0
  0
LINE
  5
1D3
330
1E
100
AcDbEntity
  8
0
100
AcDbLine
 10
58.74545521658361
 20
259.3416504351229
 30
0.0
 11
59.9780569123419
 21
261.476516572176
 31
0.0
  0
LINE
  5
1D4
330
1E
100
AcDbEntity
  8
0
100
AcDbLine
 10
58.63368933806929
 20
255.0620940670059
 30
0.0
 11
59.4
 21
254.7449999999999
 31
0.0
  0
LINE
  5
1D5
330
1E
100
AcDbEntity
  8
0
100
AcDbLine
 10
58.5310487671321
 20
254.801524576354
 30
0.0
 11
59.1607
 21
254.5449999999999
 31
0.0
  0
LINE
  5
1D6
330
1E
100
AcDbEntity
  8
0
100
AcDbLine
 10
63.3571
 20
253.845
 30
0.0
 11
63.3571
 21
254.4555935483869
 31
0.0
  0
LINE
  5
1D7
330
1E
100
AcDbEntity
  8
0
100
AcDbLine
 10
62.92860000000001
 20
253.845
 30
0.0
 11
63.3571
 21
253.845
 31
0.0
  0
LINE
  5
1D8
330
1E
100
AcDbEntity
  8
0
100
AcDbLine
 10
62.92860000000001
 20
253.845
 30
0.0
 11
62.92860000000001
 21
254.400303225807
 31
0.0
  0
LINE
  5
1D9
330
1E
100
AcDbEntity
  8
0
100
AcDbLine
 10
62.07139999999999
 20
253.845
 30
0.0
 11
62.92860000000001
 21
253.845
 31
0.0
  0
LINE
  5
1DA
330
1E
100
AcDbEntity
  8
0
100
AcDbLine
 10
62.07139999999999
 20
253.845
 30
0.0
 11
62.07139999999999
 21
254.400303225807
 31
0.0
  0
LINE
  5
1DB
330
1E
100
AcDbEntity
  8
0
100
AcDbLine
 10
61.6429
 20
253.845
 30
0.0
 11
62.07139999999999
 21
253.845
 31
0.0
  0
LINE
  5
1DC
330
1E
100
AcDbEntity
  8
0
100
AcDbLine
 10
61.6429
 20
253.845
 30
0.0
 11
61.6429
 21
254.4555935483869
 31
0.0
  0
LINE
  5
1DD
330
1E
100
AcDbEntity
  8
0
100
AcDbLine
 10
62.07139999999999
 20
254.400303225807
 30
0.0
 11
62.07139999999999
 21
253.845
 31
0.0
  0
LINE
  5
1DE
330
1E
100
AcDbEntity
  8
0
100
AcDbLine
 10
62.92860000000001
 20
254.400303225807
 30
0.0
 11
62.92860000000001
 21
253.845
 31
0.0
  0
LINE
  5
1DF
330
1E
100
AcDbEntity
  8
0
100
AcDbLine
 10
63.3571
 20
254.4555935483869
 30
0.0
 11
63.3571
 21
253.845
 31
0.0
  0
LINE
  5
1E0
330
1E
100
AcDbEntity
  8
0
100
AcDbLine
 10
61.6429
 20
254.4555935483869
 30
0.0
 11
61.6429
 21
253.845
 31
0.0
  0
LINE
  5
1E1
330
1E
100
AcDbEntity
  8
0
100
AcDbLine
 10
62.5
 20
254.3449999999999
 30
0.0
 11
65.59999999999999
 21
254.7449999999999
 31
0.0
  0
LINE
  5
1E2
330
1E
100
AcDbEntity
  8
0
100
AcDbLine
 10
63.3571
 20
254.4555935483869
 30
0.0
 11
65.59999999999999
 21
254.7449999999999
 31
0.0
  0
LINE
  5
1E3
330
1E
100
AcDbEntity
  8
0
100
AcDbLine
 10
59.8
 20
261.545
 30
0.0
 11
61.1
 21
261.045
 31
0.0
  0
LINE
  5
1E4
330
1E
100
AcDbEntity
  8
0
100
AcDbLine
 10
59.7
 20
255.745
 30
0.0
 11
62.5
 21
255.345
 31
0.0
  0
LINE
  5
1E5
330
1E
100
AcDbEntity
  8
0
100
AcDbLine
 10
59.8
 20
271.1449999999999
 30
0.0
 11
61.1
 21
271.645
 31
0.0
  0
LINE
  5
1E6
330
1E
100
AcDbEntity
  8
0
100
AcDbLine
 10
59.8145821484992
 20
270.496665718799
 30
0.0
 11
61.04107365202889
 21
268.372382434686
 31
0.0
  0
LINE
  5
1E7
330
1E
100
AcDbEntity
  8
0
100
AcDbLine
 10
60.0
 20
262.045
 30
0.0
 11
61.2
 21
261.545
 31
0.0
  0
LINE
  5
1E8
330
1E
100
AcDbEntity
  8
0
100
AcDbLine
 10
59.9780569123419
 20
261.476516572176
 30
0.0
 11
61.1
 21
261.045
 31
0.0
  0
LINE
  5
1E9
330
1E
100
AcDbEntity
  8
0
100
AcDbLine
 10
62.5
 20
255.345
 30
0.0
 11
65.3
 21
255.745
 31
0.0
  0
LINE
  5
1EA
330
1E
100
AcDbEntity
  8
0
100
AcDbLine
 10
62.75
 20
255.3807142857139
 30
0.0
 11
62.75
 21
264.095
 31
0.0
  0
LINE
  5
1EB
330
1E
100
AcDbEntity
  8
0
100
AcDbLine
 10
62.75
 20
255.3807142857139
 30
0.0
 11
65.3
 21
255.745
 31
0.0
  0
LINE
  5
1EC
330
1E
100
AcDbEntity
  8
0
100
AcDbLine
 10
61.1
 20
261.045
 30
0.0
 11
62.25
 21
260.880714285714
 31
0.0
  0
LINE
  5
1ED
330
1E
100
AcDbEntity
  8
0
100
AcDbLine
 10
61.1
 20
261.045
 30
0.0
 11
62.5
 21
260.845
 31
0.0
  0
LINE
  5
1EE
330
1E
100
AcDbEntity
  8
0
100
AcDbLine
 10
60.4
 20
258.6449999999999
 30
0.0
 11
62.5
 21
258.345
 31
0.0
  0
LINE
  5
1EF
330
1E
100
AcDbEntity
  8
0
100
AcDbLine
 10
60.3
 20
258.1449999999999
 30
0.0
 11
62.25
 21
257.879090909091
 31
0.0
  0
LINE
  5
1F0
330
1E
100
AcDbEntity
  8
0
100
AcDbLine
 10
60.3
 20
258.1449999999999
 30
0.0
 11
62.5
 21
257.845
 31
0.0
  0
LINE
  5
1F1
330
1E
100
AcDbEntity
  8
0
100
AcDbLine
 10
61.4834464170433
 20
264.083851194319
 30
0.0
 11
61.9
 21
263.945
 31
0.0
  0
LINE
  5
1F2
330
1E
100
AcDbEntity
  8
0
100
AcDbLine
 10
61.9
 20
263.945
 30
0.0
 11
62.25
 21
263.886666666667
 31
0.0
  0
LINE
  5
1F3
330
1E
100
AcDbEntity
  8
0
100
AcDbLine
 10
61.9
 20
263.945
 30
0.0
 11
62.5
 21
263.845
 31
0.0
  0
LINE
  5
1F4
330
1E
100
AcDbEntity
  8
0
100
AcDbLine
 10
61.2
 20
261.545
 30
0.0
 11
62.5
 21
261.345
 31
0.0
  0
LINE
  5
1F5
330
1E
100
AcDbEntity
  8
0
100
AcDbLine
 10
62.25
 20
261.3834615384619
 30
0.0
 11
62.25
 21
263.886666666667
 31
0.0
  0
LINE
  5
1F6
330
1E
100
AcDbEntity
  8
0
100
AcDbLine
 10
62.25
 20
258.380714285714
 30
0.0
 11
62.25
 21
260.880714285714
 31
0.0
  0
LINE
  5
1F7
330
1E
100
AcDbEntity
  8
0
100
AcDbLine
 10
62.0
 20
264.4449999999999
 30
0.0
 11
62.5
 21
264.345
 31
0.0
  0
LINE
  5
1F8
330
1E
100
AcDbEntity
  8
0
100
AcDbLine
 10
61.29999999999999
 20
264.1449999999999
 30
0.0
 11
61.9
 21
263.945
 31
0.0
  0
LINE
  5
1F9
330
1E
100
AcDbEntity
  8
0
100
AcDbLine
 10
62.25
 20
264.095
 30
0.0
 11
62.75
 21
264.095
 31
0.0
  0
LINE
  5
1FA
330
1E
100
AcDbEntity
  8
0
100
AcDbLine
 10
62.25
 20
264.095
 30
0.0
 11
62.25
 21
255.3807142857139
 31
0.0
  0
LINE
  5
1FB
330
1E
100
AcDbEntity
  8
0
100
AcDbLine
 10
62.25
 20
260.880714285714
 30
0.0
 11
62.25
 21
258.380714285714
 31
0.0
  0
LINE
  5
1FC
330
1E
100
AcDbEntity
  8
0
100
AcDbLine
 10
62.25
 20
257.879090909091
 30
0.0
 11
62.25
 21
255.3807142857139
 31
0.0
  0
LINE
  5
1FD
330
1E
100
AcDbEntity
  8
0
100
AcDbLine
 10
62.5
 20
263.845
 30
0.0
 11
63.1
 21
263.945
 31
0.0
  0
LINE
  5
1FE
330
1E
100
AcDbEntity
  8
0
100
AcDbLine
 10
62.5
 20
261.345
 30
0.0
 11
63.79999999999999
 21
261.545
 31
0.0
  0
LINE
  5
1FF
330
1E
100
AcDbEntity
  8
0
100
AcDbLine
 10
62.5
 20
260.845
 30
0.0
 11
63.9
 21
261.045
 31
0.0
  0
LINE
  5
200
330
1E
100
AcDbEntity
  8
0
100
AcDbLine
 10
62.5
 20
258.345
 30
0.0
 11
64.59999999999999
 21
258.6449999999999
 31
0.0
  0
LINE
  5
201
330
1E
100
AcDbEntity
  8
0
100
AcDbLine
 10
63.1
 20
263.945
 30
0.0
 11
63.7
 21
264.1449999999999
 31
0.0
  0
LINE
  5
202
330
1E
100
AcDbEntity
  8
0
100
AcDbLine
 10
62.75
 20
261.3834615384619
 30
0.0
 11
63.79999999999999
 21
261.545
 31
0.0
  0
LINE
  5
203
330
1E
100
AcDbEntity
  8
0
100
AcDbLine
 10
62.75
 20
258.380714285714
 30
0.0
 11
64.59999999999999
 21
258.6449999999999
 31
0.0
  0
LINE
  5
204
330
1E
100
AcDbEntity
  8
0
100
AcDbLine
 10
62.5
 20
257.845
 30
0.0
 11
64.7
 21
258.1449999999999
 31
0.0
  0
LINE
  5
205
330
1E
100
AcDbEntity
  8
0
100
AcDbLine
 10
63.0
 20
264.4449999999999
 30
0.0
 11
63.5
 21
264.6449999999999
 31
0.0
  0
LINE
  5
206
330
1E
100
AcDbEntity
  8
0
100
AcDbLine
 10
62.5
 20
264.345
 30
0.0
 11
63.0
 21
264.4449999999999
 31
0.0
  0
LINE
  5
207
330
1E
100
AcDbEntity
  8
0
100
AcDbLine
 10
62.75
 20
264.095
 30
0.0
 11
62.75
 21
255.3807142857139
 31
0.0
  0
LINE
  5
208
330
1E
100
AcDbEntity
  8
0
100
AcDbLine
 10
62.25
 20
263.886666666667
 30
0.0
 11
62.25
 21
261.3834615384619
 31
0.0
  0
LINE
  5
209
330
1E
100
AcDbEntity
  8
0
100
AcDbLine
 10
62.25
 20
255.3807142857139
 30
0.0
 11
62.25
 21
264.095
 31
0.0
  0
LINE
  5
20A
330
1E
100
AcDbEntity
  8
0
100
AcDbLine
 10
62.25
 20
255.3807142857139
 30
0.0
 11
62.25
 21
257.879090909091
 31
0.0
  0
LINE
  5
20B
330
1E
100
AcDbEntity
  8
0
100
AcDbLine
 10
60.2468870617437
 20
261.9421303909399
 30
0.0
 11
61.4834464170433
 21
264.083851194319
 31
0.0
  0
LINE
  5
20C
330
1E
100
AcDbEntity
  8
0
100
AcDbLine
 10
60.04166666666669
 20
266.595
 30
0.0
 11
60.1
 21
266.9449999999999
 31
0.0
  0
LINE
  5
20D
330
1E
100
AcDbEntity
  8
0
100
AcDbLine
 10
60.0
 20
266.345
 30
0.0
 11
60.1
 21
265.745
 31
0.0
  0
LINE
  5
20E
330
1E
100
AcDbEntity
  8
0
100
AcDbLine
 10
60.0
 20
266.345
 30
0.0
 11
60.1
 21
266.9449999999999
 31
0.0
  0
LINE
  5
20F
330
1E
100
AcDbEntity
  8
0
100
AcDbLine
 10
60.1
 20
265.745
 30
0.0
 11
60.2387752074771
 21
265.328674377569
 31
0.0
  0
LINE
  5
210
330
1E
100
AcDbEntity
  8
0
100
AcDbLine
 10
60.1
 20
265.745
 30
0.0
 11
60.3
 21
265.145
 31
0.0
  0
LINE
  5
211
330
1E
100
AcDbEntity
  8
0
100
AcDbLine
 10
60.04166666666669
 20
266.095
 30
0.0
 11
60.1
 21
265.745
 31
0.0
  0
LINE
  5
212
330
1E
100
AcDbEntity
  8
0
100
AcDbLine
 10
60.1
 20
266.9449999999999
 30
0.0
 11
60.2387752074771
 21
267.3613256224309
 31
0.0
  0
LINE
  5
213
330
1E
100
AcDbEntity
  8
0
100
AcDbLine
 10
60.1
 20
266.9449999999999
 30
0.0
 11
60.3
 21
267.545
 31
0.0
  0
LINE
  5
214
330
1E
100
AcDbEntity
  8
0
100
AcDbLine
 10
60.0
 20
270.6449999999999
 30
0.0
 11
61.2
 21
271.1449999999999
 31
0.0
  0
LINE
  5
215
330
1E
100
AcDbEntity
  8
0
100
AcDbLine
 10
59.9780569123419
 20
271.2134834278239
 30
0.0
 11
61.1
 21
271.645
 31
0.0
  0
LINE
  5
216
330
1E
100
AcDbEntity
  8
0
100
AcDbLine
 10
60.2468870617437
 20
270.74786960906
 30
0.0
 11
61.4834464170433
 21
268.606148805681
 31
0.0
  0
LINE
  5
217
330
1E
100
AcDbEntity
  8
0
100
AcDbLine
 10
60.25
 20
266.595
 30
0.0
 11
60.25
 21
266.095
 31
0.0
  0
LINE
  5
218
330
1E
100
AcDbEntity
  8
0
100
AcDbLine
 10
60.3
 20
265.145
 30
0.0
 11
60.7
 21
264.545
 31
0.0
  0
LINE
  5
219
330
1E
100
AcDbEntity
  8
0
100
AcDbLine
 10
61.1
 20
264.9449999999999
 30
0.0
 11
61.5
 21
264.6449999999999
 31
0.0
  0
LINE
  5
21A
330
1E
100
AcDbEntity
  8
0
100
AcDbLine
 10
61.5
 20
264.6449999999999
 30
0.0
 11
62.0
 21
264.4449999999999
 31
0.0
  0
LINE
  5
21B
330
1E
100
AcDbEntity
  8
0
100
AcDbLine
 10
60.7
 20
264.545
 30
0.0
 11
61.04107365202889
 21
264.317617565314
 31
0.0
  0
LINE
  5
21C
330
1E
100
AcDbEntity
  8
0
100
AcDbLine
 10
60.7
 20
264.545
 30
0.0
 11
61.29999999999999
 21
264.1449999999999
 31
0.0
  0
LINE
  5
21D
330
1E
100
AcDbEntity
  8
0
100
AcDbLine
 10
60.8
 20
265.345
 30
0.0
 11
61.1
 21
264.9449999999999
 31
0.0
  0
LINE
  5
21E
330
1E
100
AcDbEntity
  8
0
100
AcDbLine
 10
60.4729679766294
 20
264.8855480350559
 30
0.0
 11
60.7
 21
264.545
 31
0.0
  0
LINE
  5
21F
330
1E
100
AcDbEntity
  8
0
100
AcDbLine
 10
60.3
 20
267.545
 30
0.0
 11
60.7
 21
268.1449999999999
 31
0.0
  0
LINE
  5
220
330
1E
100
AcDbEntity
  8
0
100
AcDbLine
 10
60.4
 20
274.045
 30
0.0
 11
62.5
 21
274.345
 31
0.0
  0
LINE
  5
221
330
1E
100
AcDbEntity
  8
0
100
AcDbLine
 10
60.3
 20
274.545
 30
0.0
 11
62.25
 21
274.8109090909089
 31
0.0
  0
LINE
  5
222
330
1E
100
AcDbEntity
  8
0
100
AcDbLine
 10
60.3
 20
274.545
 30
0.0
 11
62.5
 21
274.845
 31
0.0
  0
LINE
  5
223
330
1E
100
AcDbEntity
  8
0
100
AcDbLine
 10
60.4729679766294
 20
267.804451964944
 30
0.0
 11
60.7
 21
268.1449999999999
 31
0.0
  0
LINE
  5
224
330
1E
100
AcDbEntity
  8
0
100
AcDbLine
 10
60.6
 20
266.845
 30
0.0
 11
60.8
 21
267.345
 31
0.0
  0
LINE
  5
225
330
1E
100
AcDbEntity
  8
0
100
AcDbLine
 10
60.8
 20
267.345
 30
0.0
 11
61.1
 21
267.7449999999999
 31
0.0
  0
LINE
  5
226
330
1E
100
AcDbEntity
  8
0
100
AcDbLine
 10
61.1
 20
267.7449999999999
 30
0.0
 11
61.5
 21
268.0449999999999
 31
0.0
  0
LINE
  5
227
330
1E
100
AcDbEntity
  8
0
100
AcDbLine
 10
61.5
 20
268.0449999999999
 30
0.0
 11
62.0
 21
268.245
 31
0.0
  0
LINE
  5
228
330
1E
100
AcDbEntity
  8
0
100
AcDbLine
 10
60.7
 20
268.1449999999999
 30
0.0
 11
61.04107365202889
 21
268.372382434686
 31
0.0
  0
LINE
  5
229
330
1E
100
AcDbEntity
  8
0
100
AcDbLine
 10
60.7
 20
268.1449999999999
 30
0.0
 11
61.29999999999999
 21
268.545
 31
0.0
  0
LINE
  5
22A
330
1E
100
AcDbEntity
  8
0
100
AcDbLine
 10
60.6
 20
265.845
 30
0.0
 11
60.8
 21
265.345
 31
0.0
  0
LINE
  5
22B
330
1E
100
AcDbEntity
  8
0
100
AcDbLine
 10
60.5
 20
266.345
 30
0.0
 11
60.6
 21
265.845
 31
0.0
  0
LINE
  5
22C
330
1E
100
AcDbEntity
  8
0
100
AcDbLine
 10
60.5
 20
266.345
 30
0.0
 11
60.6
 21
266.845
 31
0.0
  0
LINE
  5
22D
330
1E
100
AcDbEntity
  8
0
100
AcDbLine
 10
62.0
 20
268.245
 30
0.0
 11
62.5
 21
268.345
 31
0.0
  0
LINE
  5
22E
330
1E
100
AcDbEntity
  8
0
100
AcDbLine
 10
61.29999999999999
 20
268.545
 30
0.0
 11
61.9
 21
268.745
 31
0.0
  0
LINE
  5
22F
330
1E
100
AcDbEntity
  8
0
100
AcDbLine
 10
61.4834464170433
 20
268.606148805681
 30
0.0
 11
61.9
 21
268.745
 31
0.0
  0
LINE
  5
230
330
1E
100
AcDbEntity
  8
0
100
AcDbLine
 10
61.9
 20
268.745
 30
0.0
 11
62.25
 21
268.803333333333
 31
0.0
  0
LINE
  5
231
330
1E
100
AcDbEntity
  8
0
100
AcDbLine
 10
61.9
 20
268.745
 30
0.0
 11
62.5
 21
268.845
 31
0.0
  0
LINE
  5
232
330
1E
100
AcDbEntity
  8
0
100
AcDbLine
 10
61.2
 20
271.1449999999999
 30
0.0
 11
62.5
 21
271.345
 31
0.0
  0
LINE
  5
233
330
1E
100
AcDbEntity
  8
0
100
AcDbLine
 10
61.1
 20
271.645
 30
0.0
 11
62.25
 21
271.8092857142859
 31
0.0
  0
LINE
  5
234
330
1E
100
AcDbEntity
  8
0
100
AcDbLine
 10
61.1
 20
271.645
 30
0.0
 11
62.5
 21
271.845
 31
0.0
  0
LINE
  5
235
330
1E
100
AcDbEntity
  8
0
100
AcDbLine
 10
62.25
 20
271.306538461539
 30
0.0
 11
62.25
 21
268.803333333333
 31
0.0
  0
LINE
  5
236
330
1E
100
AcDbEntity
  8
0
100
AcDbLine
 10
62.25
 20
274.3092857142859
 30
0.0
 11
62.25
 21
271.8092857142859
 31
0.0
  0
LINE
  5
237
330
1E
100
AcDbEntity
  8
0
100
AcDbLine
 10
62.25
 20
268.595
 30
0.0
 11
62.75
 21
268.595
 31
0.0
  0
LINE
  5
238
330
1E
100
AcDbEntity
  8
0
100
AcDbLine
 10
62.25
 20
268.595
 30
0.0
 11
62.25
 21
277.3092857142859
 31
0.0
  0
LINE
  5
239
330
1E
100
AcDbEntity
  8
0
100
AcDbLine
 10
62.25
 20
271.8092857142859
 30
0.0
 11
62.25
 21
274.3092857142859
 31
0.0
  0
LINE
  5
23A
330
1E
100
AcDbEntity
  8
0
100
AcDbLine
 10
62.25
 20
274.8109090909089
 30
0.0
 11
62.25
 21
277.3092857142859
 31
0.0
  0
LINE
  5
23B
330
1E
100
AcDbEntity
  8
0
100
AcDbLine
 10
63.0
 20
268.245
 30
0.0
 11
63.5
 21
268.0449999999999
 31
0.0
  0
LINE
  5
23C
330
1E
100
AcDbEntity
  8
0
100
AcDbLine
 10
62.5
 20
268.345
 30
0.0
 11
63.0
 21
268.245
 31
0.0
  0
LINE
  5
23D
330
1E
100
AcDbEntity
  8
0
100
AcDbLine
 10
62.5
 20
268.845
 30
0.0
 11
63.1
 21
268.745
 31
0.0
  0
LINE
  5
23E
330
1E
100
AcDbEntity
  8
0
100
AcDbLine
 10
62.5
 20
271.345
 30
0.0
 11
63.79999999999999
 21
271.1449999999999
 31
0.0
  0
LINE
  5
23F
330
1E
100
AcDbEntity
  8
0
100
AcDbLine
 10
62.5
 20
271.845
 30
0.0
 11
63.9
 21
271.645
 31
0.0
  0
LINE
  5
240
330
1E
100
AcDbEntity
  8
0
100
AcDbLine
 10
62.5
 20
274.345
 30
0.0
 11
64.59999999999999
 21
274.045
 31
0.0
  0
LINE
  5
241
330
1E
100
AcDbEntity
  8
0
100
AcDbLine
 10
63.1
 20
268.745
 30
0.0
 11
63.7
 21
268.545
 31
0.0
  0
LINE
  5
242
330
1E
100
AcDbEntity
  8
0
100
AcDbLine
 10
62.75
 20
271.306538461539
 30
0.0
 11
63.79999999999999
 21
271.1449999999999
 31
0.0
  0
LINE
  5
243
330
1E
100
AcDbEntity
  8
0
100
AcDbLine
 10
62.75
 20
274.3092857142859
 30
0.0
 11
64.59999999999999
 21
274.045
 31
0.0
  0
LINE
  5
244
330
1E
100
AcDbEntity
  8
0
100
AcDbLine
 10
62.5
 20
274.845
 30
0.0
 11
64.7
 21
274.545
 31
0.0
  0
LINE
  5
245
330
1E
100
AcDbEntity
  8
0
100
AcDbLine
 10
62.75
 20
268.595
 30
0.0
 11
62.75
 21
277.3092857142859
 31
0.0
  0
LINE
  5
246
330
1E
100
AcDbEntity
  8
0
100
AcDbLine
 10
62.25
 20
268.803333333333
 30
0.0
 11
62.25
 21
271.306538461539
 31
0.0
  0
LINE
  5
247
330
1E
100
AcDbEntity
  8
0
100
AcDbLine
 10
61.1585
 20
268.169
 30
0.0
 11
61.5915
 21
268.419
 31
0.0
  0
LINE
  5
248
330
1E
100
AcDbEntity
  8
0
100
AcDbLine
 10
60.4264
 20
267.253
 30
0.0
 11
60.6764
 21
267.687
 31
0.0
  0
LINE
  5
249
330
1E
100
AcDbEntity
  8
0
100
AcDbLine
 10
60.4264
 20
265.437
 30
0.0
 11
60.6764
 21
265.003
 31
0.0
  0
LINE
  5
24A
330
1E
100
AcDbEntity
  8
0
100
AcDbLine
 10
60.25
 20
266.095
 30
0.0
 11
60.25
 21
266.595
 31
0.0
  0
LINE
  5
24B
330
1E
100
AcDbEntity
  8
0
100
AcDbLine
 10
61.1585
 20
264.5209999999999
 30
0.0
 11
61.5915
 21
264.2709999999999
 31
0.0
  0
LINE
  5
24C
330
1E
100
AcDbEntity
  8
0
100
AcDbLine
 10
59.8145821484992
 20
262.1933342812009
 30
0.0
 11
61.04107365202889
 21
264.317617565314
 31
0.0
  0
LINE
  5
24D
330
1E
100
AcDbEntity
  8
0
100
AcDbLine
 10
62.5
 20
254.8449999999999
 30
0.0
 11
65.5
 21
255.2449999999999
 31
0.0
  0
LINE
  5
24E
330
1E
100
AcDbEntity
  8
0
100
AcDbLine
 10
59.5
 20
255.2449999999999
 30
0.0
 11
62.5
 21
254.8449999999999
 31
0.0
  0
LINE
  5
24F
330
1E
100
AcDbEntity
  8
0
100
AcDbLine
 10
59.4
 20
254.7449999999999
 30
0.0
 11
61.6429
 21
254.4555935483869
 31
0.0
  0
LINE
  5
250
330
1E
100
AcDbEntity
  8
0
100
AcDbLine
 10
59.4
 20
254.7449999999999
 30
0.0
 11
62.5
 21
254.3449999999999
 31
0.0
  0
LINE
  5
251
330
1E
100
AcDbEntity
  8
0
100
AcDbLine
 10
59.1607
 20
254.5449999999999
 30
0.0
 11
61.6429
 21
254.21404
 31
0.0
  0
LINE
  5
252
330
1E
100
AcDbEntity
  8
0
100
AcDbLine
 10
62.1607
 20
252.145
 30
0.0
 11
65.6607
 21
252.645
 31
0.0
  0
LINE
  5
253
330
1E
100
AcDbEntity
  8
0
100
AcDbLine
 10
66.58929999999999
 20
254.4959999999999
 30
0.0
 11
66.98879999999999
 21
254.6489999999999
 31
0.0
  0
LINE
  5
254
330
1E
100
AcDbEntity
  8
0
100
AcDbLine
 10
68.8606
 20
253.9449999999999
 30
0.0
 11
71.66070000000001
 21
256.1449999999999
 31
0.0
  0
LINE
  5
255
330
1E
100
AcDbEntity
  8
0
100
AcDbLine
 10
65.6607
 20
252.645
 30
0.0
 11
68.8606
 21
253.9449999999999
 31
0.0
  0
LINE
  5
256
330
1E
100
AcDbEntity
  8
0
100
AcDbLine
 10
66.98879999999999
 20
254.6489999999999
 30
0.0
 11
67.78780000000001
 21
254.9549999999999
 31
0.0
  0
LINE
  5
257
330
1E
100
AcDbEntity
  8
0
100
AcDbLine
 10
66.7616411306101
 20
255.2256790885279
 30
0.0
 11
66.98879999999999
 21
254.6489999999999
 31
0.0
  0
LINE
  5
258
330
1E
100
AcDbEntity
  8
0
100
AcDbLine
 10
67.78780000000001
 20
254.9549999999999
 30
0.0
 11
68.1872
 21
255.108
 31
0.0
  0
LINE
  5
259
330
1E
100
AcDbEntity
  8
0
100
AcDbLine
 10
66.36637243561761
 20
255.062119628531
 30
0.0
 11
66.58929999999999
 21
254.4959999999999
 31
0.0
  0
LINE
  5
25A
330
1E
100
AcDbEntity
  8
0
100
AcDbLine
 10
63.7
 20
264.1449999999999
 30
0.0
 11
64.29999999999999
 21
264.545
 31
0.0
  0
LINE
  5
25B
330
1E
100
AcDbEntity
  8
0
100
AcDbLine
 10
63.79999999999999
 20
261.545
 30
0.0
 11
65.0
 21
262.045
 31
0.0
  0
LINE
  5
25C
330
1E
100
AcDbEntity
  8
0
100
AcDbLine
 10
63.79999999999999
 20
261.545
 30
0.0
 11
64.7531129382563
 21
261.9421303909399
 31
0.0
  0
LINE
  5
25D
330
1E
100
AcDbEntity
  8
0
100
AcDbLine
 10
63.5165535829567
 20
264.083851194319
 30
0.0
 11
64.7531129382563
 21
261.9421303909399
 31
0.0
  0
LINE
  5
25E
330
1E
100
AcDbEntity
  8
0
100
AcDbLine
 10
63.5165535829567
 20
264.083851194319
 30
0.0
 11
64.7531129382563
 21
261.9421303909399
 31
0.0
  0
LINE
  5
25F
330
1E
100
AcDbEntity
  8
0
100
AcDbLine
 10
63.5
 20
268.0449999999999
 30
0.0
 11
63.9
 21
267.7449999999999
 31
0.0
  0
LINE
  5
260
330
1E
100
AcDbEntity
  8
0
100
AcDbLine
 10
63.5
 20
264.6449999999999
 30
0.0
 11
63.9
 21
264.9449999999999
 31
0.0
  0
LINE
  5
261
330
1E
100
AcDbEntity
  8
0
100
AcDbLine
 10
63.7
 20
268.545
 30
0.0
 11
64.29999999999999
 21
268.1449999999999
 31
0.0
  0
LINE
  5
262
330
1E
100
AcDbEntity
  8
0
100
AcDbLine
 10
63.79999999999999
 20
271.1449999999999
 30
0.0
 11
65.0
 21
270.6449999999999
 31
0.0
  0
LINE
  5
263
330
1E
100
AcDbEntity
  8
0
100
AcDbLine
 10
63.79999999999999
 20
271.1449999999999
 30
0.0
 11
64.7531129382563
 21
270.74786960906
 31
0.0
  0
LINE
  5
264
330
1E
100
AcDbEntity
  8
0
100
AcDbLine
 10
63.5165535829567
 20
268.606148805681
 30
0.0
 11
64.7531129382563
 21
270.74786960906
 31
0.0
  0
LINE
  5
265
330
1E
100
AcDbEntity
  8
0
100
AcDbLine
 10
63.40849999999999
 20
268.419
 30
0.0
 11
63.8415
 21
268.169
 31
0.0
  0
LINE
  5
266
330
1E
100
AcDbEntity
  8
0
100
AcDbLine
 10
63.40849999999999
 20
268.419
 30
0.0
 11
67.75391409874661
 21
275.945257219029
 31
0.0
  0
LINE
  5
267
330
1E
100
AcDbEntity
  8
0
100
AcDbLine
 10
63.8415
 20
268.169
 30
0.0
 11
68.191603807446
 21
275.7033797944969
 31
0.0
  0
LINE
  5
268
330
1E
100
AcDbEntity
  8
0
100
AcDbLine
 10
63.40849999999999
 20
264.2709999999999
 30
0.0
 11
63.8415
 21
264.5209999999999
 31
0.0
  0
LINE
  5
269
330
1E
100
AcDbEntity
  8
0
100
AcDbLine
 10
63.40849999999999
 20
264.2709999999999
 30
0.0
 11
67.75391409874661
 21
256.7447427809709
 31
0.0
  0
LINE
  5
26A
330
1E
100
AcDbEntity
  8
0
100
AcDbLine
 10
64.59999999999999
 20
258.6449999999999
 30
0.0
 11
66.5
 21
259.445
 31
0.0
  0
LINE
  5
26B
330
1E
100
AcDbEntity
  8
0
100
AcDbLine
 10
64.59999999999999
 20
258.6449999999999
 30
0.0
 11
66.25454478341639
 21
259.3416504351229
 31
0.0
  0
LINE
  5
26C
330
1E
100
AcDbEntity
  8
0
100
AcDbLine
 10
64.7
 20
258.1449999999999
 30
0.0
 11
66.7
 21
258.9449999999999
 31
0.0
  0
LINE
  5
26D
330
1E
100
AcDbEntity
  8
0
100
AcDbLine
 10
65.3
 20
255.745
 30
0.0
 11
68.0
 21
256.845
 31
0.0
  0
LINE
  5
26E
330
1E
100
AcDbEntity
  8
0
100
AcDbLine
 10
65.3
 20
255.745
 30
0.0
 11
67.75391409874661
 21
256.7447427809709
 31
0.0
  0
LINE
  5
26F
330
1E
100
AcDbEntity
  8
0
100
AcDbLine
 10
63.9
 20
264.9449999999999
 30
0.0
 11
64.2
 21
265.345
 31
0.0
  0
LINE
  5
270
330
1E
100
AcDbEntity
  8
0
100
AcDbLine
 10
64.2
 20
265.345
 30
0.0
 11
64.40000000000001
 21
265.845
 31
0.0
  0
LINE
  5
271
330
1E
100
AcDbEntity
  8
0
100
AcDbLine
 10
64.29999999999999
 20
264.545
 30
0.0
 11
64.7
 21
265.145
 31
0.0
  0
LINE
  5
272
330
1E
100
AcDbEntity
  8
0
100
AcDbLine
 10
63.9
 20
261.045
 30
0.0
 11
65.2
 21
261.545
 31
0.0
  0
LINE
  5
273
330
1E
100
AcDbEntity
  8
0
100
AcDbLine
 10
65.0
 20
262.045
 30
0.0
 11
66.0
 21
262.845
 31
0.0
  0
LINE
  5
274
330
1E
100
AcDbEntity
  8
0
100
AcDbLine
 10
64.7
 20
265.145
 30
0.0
 11
64.90000000000001
 21
265.745
 31
0.0
  0
LINE
  5
275
330
1E
100
AcDbEntity
  8
0
100
AcDbLine
 10
64.52703202337059
 20
264.8855480350559
 30
0.0
 11
66.65128459040571
 21
263.6591057380069
 31
0.0
  0
LINE
  5
276
330
1E
100
AcDbEntity
  8
0
100
AcDbLine
 10
64.3236
 20
265.003
 30
0.0
 11
64.5736
 21
265.437
 31
0.0
  0
LINE
  5
277
330
1E
100
AcDbEntity
  8
0
100
AcDbLine
 10
64.3236
 20
265.003
 30
0.0
 11
71.85805895374919
 21
260.6529621138959
 31
0.0
  0
LINE
  5
278
330
1E
100
AcDbEntity
  8
0
100
AcDbLine
 10
64.40000000000001
 20
265.845
 30
0.0
 11
64.5
 21
266.345
 31
0.0
  0
LINE
  5
279
330
1E
100
AcDbEntity
  8
0
100
AcDbLine
 10
64.2
 20
267.345
 30
0.0
 11
64.40000000000001
 21
266.845
 31
0.0
  0
LINE
  5
27A
330
1E
100
AcDbEntity
  8
0
100
AcDbLine
 10
64.40000000000001
 20
266.845
 30
0.0
 11
64.5
 21
266.345
 31
0.0
  0
LINE
  5
27B
330
1E
100
AcDbEntity
  8
0
100
AcDbLine
 10
63.9
 20
267.7449999999999
 30
0.0
 11
64.2
 21
267.345
 31
0.0
  0
LINE
  5
27C
330
1E
100
AcDbEntity
  8
0
100
AcDbLine
 10
64.29999999999999
 20
268.1449999999999
 30
0.0
 11
64.7
 21
267.545
 31
0.0
  0
LINE
  5
27D
330
1E
100
AcDbEntity
  8
0
100
AcDbLine
 10
63.9
 20
271.645
 30
0.0
 11
65.2
 21
271.1449999999999
 31
0.0
  0
LINE
  5
27E
330
1E
100
AcDbEntity
  8
0
100
AcDbLine
 10
64.52703202337059
 20
267.804451964944
 30
0.0
 11
66.65128459040559
 21
269.030894261993
 31
0.0
  0
LINE
  5
27F
330
1E
100
AcDbEntity
  8
0
100
AcDbLine
 10
64.3236
 20
267.687
 30
0.0
 11
64.5736
 21
267.253
 31
0.0
  0
LINE
  5
280
330
1E
100
AcDbEntity
  8
0
100
AcDbLine
 10
64.3236
 20
267.687
 30
0.0
 11
71.85805895374919
 21
272.037037886104
 31
0.0
  0
LINE
  5
281
330
1E
100
AcDbEntity
  8
0
100
AcDbLine
 10
64.7
 20
267.545
 30
0.0
 11
64.90000000000001
 21
266.9449999999999
 31
0.0
  0
LINE
  5
282
330
1E
100
AcDbEntity
  8
0
100
AcDbLine
 10
64.59999999999999
 20
274.045
 30
0.0
 11
66.5
 21
273.245
 31
0.0
  0
LINE
  5
283
330
1E
100
AcDbEntity
  8
0
100
AcDbLine
 10
64.59999999999999
 20
274.045
 30
0.0
 11
66.25454478341651
 21
273.348349564877
 31
0.0
  0
LINE
  5
284
330
1E
100
AcDbEntity
  8
0
100
AcDbLine
 10
64.7
 20
274.545
 30
0.0
 11
66.7
 21
273.7449999999999
 31
0.0
  0
LINE
  5
285
330
1E
100
AcDbEntity
  8
0
100
AcDbLine
 10
64.5736
 20
267.253
 30
0.0
 11
72.10038273870392
 21
271.598606005
 31
0.0
  0
LINE
  5
286
330
1E
100
AcDbEntity
  8
0
100
AcDbLine
 10
64.75
 20
266.595
 30
0.0
 11
73.46428571428571
 21
266.595
 31
0.0
  0
LINE
  5
287
330
1E
100
AcDbEntity
  8
0
100
AcDbLine
 10
64.75
 20
266.595
 30
0.0
 11
64.75
 21
266.095
 31
0.0
  0
LINE
  5
288
330
1E
100
AcDbEntity
  8
0
100
AcDbLine
 10
64.90000000000001
 20
265.745
 30
0.0
 11
65.0
 21
266.345
 31
0.0
  0
LINE
  5
289
330
1E
100
AcDbEntity
  8
0
100
AcDbLine
 10
64.90000000000001
 20
266.9449999999999
 30
0.0
 11
65.0
 21
266.345
 31
0.0
  0
LINE
  5
28A
330
1E
100
AcDbEntity
  8
0
100
AcDbLine
 10
65.0
 20
270.6449999999999
 30
0.0
 11
66.0
 21
269.845
 31
0.0
  0
LINE
  5
28B
330
1E
100
AcDbEntity
  8
0
100
AcDbLine
 10
65.0219430876581
 20
271.2134834278239
 30
0.0
 11
66.25454478341651
 21
273.348349564877
 31
0.0
  0
LINE
  5
28C
330
1E
100
AcDbEntity
  8
0
100
AcDbLine
 10
64.9583333333333
 20
266.095
 30
0.0
 11
67.46153846153849
 21
266.095
 31
0.0
  0
LINE
  5
28D
330
1E
100
AcDbEntity
  8
0
100
AcDbLine
 10
64.75
 20
266.095
 30
0.0
 11
73.46428571428571
 21
266.095
 31
0.0
  0
LINE
  5
28E
330
1E
100
AcDbEntity
  8
0
100
AcDbLine
 10
64.75
 20
266.095
 30
0.0
 11
64.75
 21
266.595
 31
0.0
  0
LINE
  5
28F
330
1E
100
AcDbEntity
  8
0
100
AcDbLine
 10
64.5736
 20
265.437
 30
0.0
 11
72.10038273870392
 21
261.0913939949999
 31
0.0
  0
LINE
  5
290
330
1E
100
AcDbEntity
  8
0
100
AcDbLine
 10
66.0
 20
262.845
 30
0.0
 11
66.79999999999999
 21
263.845
 31
0.0
  0
LINE
  5
291
330
1E
100
AcDbEntity
  8
0
100
AcDbLine
 10
66.0
 20
262.845
 30
0.0
 11
66.65128459040571
 21
263.6591057380069
 31
0.0
  0
LINE
  5
292
330
1E
100
AcDbEntity
  8
0
100
AcDbLine
 10
66.4
 20
262.4449999999999
 30
0.0
 11
67.3
 21
263.6449999999999
 31
0.0
  0
LINE
  5
293
330
1E
100
AcDbEntity
  8
0
100
AcDbLine
 10
65.1854178515008
 20
262.1933342812009
 30
0.0
 11
66.0
 21
262.845
 31
0.0
  0
LINE
  5
294
330
1E
100
AcDbEntity
  8
0
100
AcDbLine
 10
65.2
 20
261.545
 30
0.0
 11
66.4
 21
262.4449999999999
 31
0.0
  0
LINE
  5
295
330
1E
100
AcDbEntity
  8
0
100
AcDbLine
 10
66.68529298486929
 20
259.5955505502059
 30
0.0
 11
68.09999999999999
 21
260.745
 31
0.0
  0
LINE
  5
296
330
1E
100
AcDbEntity
  8
0
100
AcDbLine
 10
66.5
 20
259.445
 30
0.0
 11
68.09999999999999
 21
260.745
 31
0.0
  0
LINE
  5
297
330
1E
100
AcDbEntity
  8
0
100
AcDbLine
 10
66.7
 20
258.9449999999999
 30
0.0
 11
68.5
 21
260.345
 31
0.0
  0
LINE
  5
298
330
1E
100
AcDbEntity
  8
0
100
AcDbLine
 10
65.1854178515008
 20
270.496665718799
 30
0.0
 11
66.0
 21
269.845
 31
0.0
  0
LINE
  5
299
330
1E
100
AcDbEntity
  8
0
100
AcDbLine
 10
66.0
 20
269.845
 30
0.0
 11
66.79999999999999
 21
268.845
 31
0.0
  0
LINE
  5
29A
330
1E
100
AcDbEntity
  8
0
100
AcDbLine
 10
66.0
 20
269.845
 30
0.0
 11
66.65128459040559
 21
269.030894261993
 31
0.0
  0
LINE
  5
29B
330
1E
100
AcDbEntity
  8
0
100
AcDbLine
 10
66.4
 20
270.245
 30
0.0
 11
67.3
 21
269.045
 31
0.0
  0
LINE
  5
29C
330
1E
100
AcDbEntity
  8
0
100
AcDbLine
 10
65.2
 20
271.1449999999999
 30
0.0
 11
66.4
 21
270.245
 31
0.0
  0
LINE
  5
29D
330
1E
100
AcDbEntity
  8
0
100
AcDbLine
 10
66.5
 20
273.245
 30
0.0
 11
68.09999999999999
 21
271.945
 31
0.0
  0
LINE
  5
29E
330
1E
100
AcDbEntity
  8
0
100
AcDbLine
 10
66.90297156607229
 20
268.597868241426
 30
0.0
 11
67.3
 21
267.6449999999999
 31
0.0
  0
LINE
  5
29F
330
1E
100
AcDbEntity
  8
0
100
AcDbLine
 10
66.79999999999999
 20
268.845
 30
0.0
 11
67.3
 21
267.6449999999999
 31
0.0
  0
LINE
  5
2A0
330
1E
100
AcDbEntity
  8
0
100
AcDbLine
 10
67.3
 20
267.6449999999999
 30
0.0
 11
67.5
 21
266.345
 31
0.0
  0
LINE
  5
2A1
330
1E
100
AcDbEntity
  8
0
100
AcDbLine
 10
67.3
 20
267.6449999999999
 30
0.0
 11
67.46153846153849
 21
266.595
 31
0.0
  0
LINE
  5
2A2
330
1E
100
AcDbEntity
  8
0
100
AcDbLine
 10
67.3
 20
269.045
 30
0.0
 11
67.8
 21
267.7449999999999
 31
0.0
  0
LINE
  5
2A3
330
1E
100
AcDbEntity
  8
0
100
AcDbLine
 10
66.90297156607229
 20
264.092131758574
 30
0.0
 11
67.3
 21
265.045
 31
0.0
  0
LINE
  5
2A4
330
1E
100
AcDbEntity
  8
0
100
AcDbLine
 10
66.79999999999999
 20
263.845
 30
0.0
 11
67.3
 21
265.045
 31
0.0
  0
LINE
  5
2A5
330
1E
100
AcDbEntity
  8
0
100
AcDbLine
 10
67.8
 20
267.7449999999999
 30
0.0
 11
68.0
 21
266.345
 31
0.0
  0
LINE
  5
2A6
330
1E
100
AcDbEntity
  8
0
100
AcDbLine
 10
67.3
 20
265.045
 30
0.0
 11
67.5
 21
266.345
 31
0.0
  0
LINE
  5
2A7
330
1E
100
AcDbEntity
  8
0
100
AcDbLine
 10
67.3
 20
265.045
 30
0.0
 11
67.46153846153849
 21
266.095
 31
0.0
  0
LINE
  5
2A8
330
1E
100
AcDbEntity
  8
0
100
AcDbLine
 10
67.3
 20
263.6449999999999
 30
0.0
 11
67.8
 21
264.9449999999999
 31
0.0
  0
LINE
  5
2A9
330
1E
100
AcDbEntity
  8
0
100
AcDbLine
 10
67.8
 20
264.9449999999999
 30
0.0
 11
68.0
 21
266.345
 31
0.0
  0
LINE
  5
2AA
330
1E
100
AcDbEntity
  8
0
100
AcDbLine
 10
66.68529298486929
 20
273.0944494497939
 30
0.0
 11
68.09999999999999
 21
271.945
 31
0.0
  0
LINE
  5
2AB
330
1E
100
AcDbEntity
  8
0
100
AcDbLine
 10
66.7
 20
273.7449999999999
 30
0.0
 11
68.5
 21
272.345
 31
0.0
  0
LINE
  5
2AC
330
1E
100
AcDbEntity
  8
0
100
AcDbLine
 10
67.1113600526448
 20
269.296519929807
 30
0.0
 11
69.2490855534062
 21
270.530740857346
 31
0.0
  0
LINE
  5
2AD
330
1E
100
AcDbEntity
  8
0
100
AcDbLine
 10
66.52416604127579
 20
273.8153335834899
 30
0.0
 11
67.75391409874661
 21
275.945257219029
 31
0.0
  0
LINE
  5
2AE
330
1E
100
AcDbEntity
  8
0
100
AcDbLine
 10
67.1113600526448
 20
263.393480070193
 30
0.0
 11
69.2490855534062
 21
262.1592591426539
 31
0.0
  0
LINE
  5
2AF
330
1E
100
AcDbEntity
  8
0
100
AcDbLine
 10
65.0219430876581
 20
261.476516572176
 30
0.0
 11
66.25454478341639
 21
259.3416504351229
 31
0.0
  0
LINE
  5
2B0
330
1E
100
AcDbEntity
  8
0
100
AcDbLine
 10
66.52416604127579
 20
258.87466641651
 30
0.0
 11
67.75391409874661
 21
256.7447427809709
 31
0.0
  0
LINE
  5
2B1
330
1E
100
AcDbEntity
  8
0
100
AcDbLine
 10
63.8415
 20
264.5209999999999
 30
0.0
 11
68.191603807446
 21
256.986620205504
 31
0.0
  0
LINE
  5
2B2
330
1E
100
AcDbEntity
  8
0
100
AcDbLine
 10
67.552044817273
 20
255.55274268301
 30
0.0
 11
67.78780000000001
 21
254.9549999999999
 31
0.0
  0
LINE
  5
2B3
330
1E
100
AcDbEntity
  8
0
100
AcDbLine
 10
67.94735121258471
 20
255.716317743139
 30
0.0
 11
68.1872
 21
255.108
 31
0.0
  0
LINE
  5
2B4
330
1E
100
AcDbEntity
  8
0
100
AcDbLine
 10
65.5
 20
255.2449999999999
 30
0.0
 11
68.2
 21
256.345
 31
0.0
  0
LINE
  5
2B5
330
1E
100
AcDbEntity
  8
0
100
AcDbLine
 10
67.94735121258471
 20
255.716317743138
 30
0.0
 11
68.5
 21
255.945
 31
0.0
  0
LINE
  5
2B6
330
1E
100
AcDbEntity
  8
0
100
AcDbLine
 10
65.59999999999999
 20
254.7449999999999
 30
0.0
 11
66.36637243561761
 21
255.062119628531
 31
0.0
  0
LINE
  5
2B7
330
1E
100
AcDbEntity
  8
0
100
AcDbLine
 10
65.59999999999999
 20
254.7449999999999
 30
0.0
 11
68.5
 21
255.945
 31
0.0
  0
LINE
  5
2B8
330
1E
100
AcDbEntity
  8
0
100
AcDbLine
 10
68.09999999999999
 20
271.945
 30
0.0
 11
69.40000000000001
 21
270.345
 31
0.0
  0
LINE
  5
2B9
330
1E
100
AcDbEntity
  8
0
100
AcDbLine
 10
68.09999999999999
 20
271.945
 30
0.0
 11
69.2490855534062
 21
270.530740857346
 31
0.0
  0
LINE
  5
2BA
330
1E
100
AcDbEntity
  8
0
100
AcDbLine
 10
68.09999999999999
 20
260.745
 30
0.0
 11
69.40000000000001
 21
262.345
 31
0.0
  0
LINE
  5
2BB
330
1E
100
AcDbEntity
  8
0
100
AcDbLine
 10
68.09999999999999
 20
260.745
 30
0.0
 11
69.2490855534062
 21
262.1592591426539
 31
0.0
  0
LINE
  5
2BC
330
1E
100
AcDbEntity
  8
0
100
AcDbLine
 10
68.5
 20
272.345
 30
0.0
 11
69.90000000000001
 21
270.545
 31
0.0
  0
LINE
  5
2BD
330
1E
100
AcDbEntity
  8
0
100
AcDbLine
 10
68.5
 20
260.345
 30
0.0
 11
69.90000000000001
 21
262.1449999999999
 31
0.0
  0
LINE
  5
2BE
330
1E
100
AcDbEntity
  8
0
100
AcDbLine
 10
68.191603807446
 20
256.986620205504
 30
0.0
 11
70.3
 21
258.545
 31
0.0
  0
LINE
  5
2BF
330
1E
100
AcDbEntity
  8
0
100
AcDbLine
 10
68.0
 20
256.845
 30
0.0
 11
70.3
 21
258.545
 31
0.0
  0
LINE
  5
2C0
330
1E
100
AcDbEntity
  8
0
100
AcDbLine
 10
67.9642857142857
 20
266.095
 30
0.0
 11
70.4642857142857
 21
266.095
 31
0.0
  0
LINE
  5
2C1
330
1E
100
AcDbEntity
  8
0
100
AcDbLine
 10
67.9642857142857
 20
266.095
 30
0.0
 11
70.4642857142857
 21
266.095
 31
0.0
  0
LINE
  5
2C2
330
1E
100
AcDbEntity
  8
0
100
AcDbLine
 10
68.2
 20
256.345
 30
0.0
 11
70.59999999999999
 21
258.245
 31
0.0
  0
LINE
  5
2C3
330
1E
100
AcDbEntity
  8
0
100
AcDbLine
 10
70.36937542164309
 20
257.3657253204489
 30
0.0
 11
70.75499999999999
 21
256.9649999999999
 31
0.0
  0
LINE
  5
2C4
330
1E
100
AcDbEntity
  8
0
100
AcDbLine
 10
70.02856149488749
 20
257.1067067361149
 30
0.0
 11
70.444
 21
256.675
 31
0.0
  0
LINE
  5
2C5
330
1E
100
AcDbEntity
  8
0
100
AcDbLine
 10
70.444
 20
256.675
 30
0.0
 11
70.75499999999999
 21
256.9649999999999
 31
0.0
  0
LINE
  5
2C6
330
1E
100
AcDbEntity
  8
0
100
AcDbLine
 10
70.3
 20
258.545
 30
0.0
 11
72.0
 21
260.845
 31
0.0
  0
LINE
  5
2C7
330
1E
100
AcDbEntity
  8
0
100
AcDbLine
 10
70.3
 20
258.545
 30
0.0
 11
71.85805895374919
 21
260.6529621138959
 31
0.0
  0
LINE
  5
2C8
330
1E
100
AcDbEntity
  8
0
100
AcDbLine
 10
69.40000000000001
 20
270.345
 30
0.0
 11
70.2
 21
268.445
 31
0.0
  0
LINE
  5
2C9
330
1E
100
AcDbEntity
  8
0
100
AcDbLine
 10
69.5034654348041
 20
262.59073040766
 30
0.0
 11
70.2
 21
264.245
 31
0.0
  0
LINE
  5
2CA
330
1E
100
AcDbEntity
  8
0
100
AcDbLine
 10
69.40000000000001
 20
262.345
 30
0.0
 11
70.2
 21
264.245
 31
0.0
  0
LINE
  5
2CB
330
1E
100
AcDbEntity
  8
0
100
AcDbLine
 10
70.2
 20
268.445
 30
0.0
 11
70.5
 21
266.345
 31
0.0
  0
LINE
  5
2CC
330
1E
100
AcDbEntity
  8
0
100
AcDbLine
 10
70.2
 20
268.445
 30
0.0
 11
70.4642857142857
 21
266.595
 31
0.0
  0
LINE
  5
2CD
330
1E
100
AcDbEntity
  8
0
100
AcDbLine
 10
69.90000000000001
 20
270.545
 30
0.0
 11
70.7
 21
268.545
 31
0.0
  0
LINE
  5
2CE
330
1E
100
AcDbEntity
  8
0
100
AcDbLine
 10
70.3
 20
274.1449999999999
 30
0.0
 11
72.0
 21
271.845
 31
0.0
  0
LINE
  5
2CF
330
1E
100
AcDbEntity
  8
0
100
AcDbLine
 10
70.3
 20
274.1449999999999
 30
0.0
 11
71.85805895374919
 21
272.037037886104
 31
0.0
  0
LINE
  5
2D0
330
1E
100
AcDbEntity
  8
0
100
AcDbLine
 10
70.2
 20
264.245
 30
0.0
 11
70.5
 21
266.345
 31
0.0
  0
LINE
  5
2D1
330
1E
100
AcDbEntity
  8
0
100
AcDbLine
 10
70.2
 20
264.245
 30
0.0
 11
70.4642857142857
 21
266.095
 31
0.0
  0
LINE
  5
2D2
330
1E
100
AcDbEntity
  8
0
100
AcDbLine
 10
69.90000000000001
 20
262.1449999999999
 30
0.0
 11
70.7
 21
264.1449999999999
 31
0.0
  0
LINE
  5
2D3
330
1E
100
AcDbEntity
  8
0
100
AcDbLine
 10
69.70593938284939
 20
270.7945065077649
 30
0.0
 11
71.85805895374919
 21
272.037037886104
 31
0.0
  0
LINE
  5
2D4
330
1E
100
AcDbEntity
  8
0
100
AcDbLine
 10
69.70593938284939
 20
261.895493492235
 30
0.0
 11
71.85805895374919
 21
260.6529621138959
 31
0.0
  0
LINE
  5
2D5
330
1E
100
AcDbEntity
  8
0
100
AcDbLine
 10
70.59999999999999
 20
274.445
 30
0.0
 11
72.5
 21
272.045
 31
0.0
  0
LINE
  5
2D6
330
1E
100
AcDbEntity
  8
0
100
AcDbLine
 10
70.59999999999999
 20
258.245
 30
0.0
 11
72.5
 21
260.6449999999999
 31
0.0
  0
LINE
  5
2D7
330
1E
100
AcDbEntity
  8
0
100
AcDbLine
 10
68.5
 20
255.945
 30
0.0
 11
71.0
 21
257.845
 31
0.0
  0
LINE
  5
2D8
330
1E
100
AcDbEntity
  8
0
100
AcDbLine
 10
68.5
 20
255.945
 30
0.0
 11
70.02856149488749
 21
257.1067067361149
 31
0.0
  0
LINE
  5
2D9
330
1E
100
AcDbEntity
  8
0
100
AcDbLine
 10
68.5
 20
255.945
 30
0.0
 11
70.02856149488749
 21
257.1067067361149
 31
0.0
  0
LINE
  5
2DA
330
1E
100
AcDbEntity
  8
0
100
AcDbLine
 10
65.1607
 20
254.5449999999999
 30
0.0
 11
66.3751618585316
 21
255.039799083072
 31
0.0
  0
LINE
  5
2DB
330
1E
100
AcDbEntity
  8
0
100
AcDbLine
 10
63.3571
 20
254.30452
 30
0.0
 11
65.1607
 21
254.5449999999999
 31
0.0
  0
LINE
  5
2DC
330
1E
100
AcDbEntity
  8
0
100
AcDbLine
 10
57.0
 20
275.845
 30
0.0
 11
59.7
 21
276.9449999999999
 31
0.0
  0
LINE
  5
2DD
330
1E
100
AcDbEntity
  8
0
100
AcDbLine
 10
68.191603807446
 20
275.7033797944969
 30
0.0
 11
70.3
 21
274.1449999999999
 31
0.0
  0
LINE
  5
2DE
330
1E
100
AcDbEntity
  8
0
100
AcDbLine
 10
68.0
 20
275.845
 30
0.0
 11
70.3
 21
274.1449999999999
 31
0.0
  0
LINE
  5
2DF
330
1E
100
AcDbEntity
  8
0
100
AcDbLine
 10
57.24608590125339
 20
275.945257219029
 30
0.0
 11
58.4758339587242
 21
273.8153335834899
 31
0.0
  0
LINE
  5
2E0
330
1E
100
AcDbEntity
  8
0
100
AcDbLine
 10
57.24608590125339
 20
275.945257219029
 30
0.0
 11
61.5915
 21
268.419
 31
0.0
  0
LINE
  5
2E1
330
1E
100
AcDbEntity
  8
0
100
AcDbLine
 10
70.6052631578948
 20
275.1449999999999
 30
0.0
 11
123.0
 21
275.1449999999999
 31
0.0
  0
LINE
  5
2E2
330
1E
100
AcDbEntity
  8
0
100
AcDbLine
 10
70.75499999999999
 20
256.9649999999999
 30
0.0
 11
71.3769
 21
257.546
 31
0.0
  0
LINE
  5
2E3
330
1E
100
AcDbEntity
  8
0
100
AcDbLine
 10
71.03934654568191
 20
257.896771770634
 30
0.0
 11
71.3769
 21
257.546
 31
0.0
  0
LINE
  5
2E4
330
1E
100
AcDbEntity
  8
0
100
AcDbLine
 10
71.3769
 20
257.546
 30
0.0
 11
71.6879
 21
257.837
 31
0.0
  0
LINE
  5
2E5
330
1E
100
AcDbEntity
  8
0
100
AcDbLine
 10
71.0
 20
257.845
 30
0.0
 11
72.9
 21
260.345
 31
0.0
  0
LINE
  5
2E6
330
1E
100
AcDbEntity
  8
0
100
AcDbLine
 10
71.30017890648679
 20
258.239972245377
 30
0.0
 11
72.9
 21
260.345
 31
0.0
  0
LINE
  5
2E7
330
1E
100
AcDbEntity
  8
0
100
AcDbLine
 10
71.30017890648679
 20
258.239972245377
 30
0.0
 11
71.6879
 21
257.837
 31
0.0
  0
LINE
  5
2E8
330
1E
100
AcDbEntity
  8
0
100
AcDbLine
 10
73.160730288402
 20
235.145
 30
0.0
 11
73.17747618864
 21
258.075530173277
 31
0.0
  0
LINE
  5
2E9
330
1E
100
AcDbEntity
  8
0
100
AcDbLine
 10
71.66070000000001
 20
256.1449999999999
 30
0.0
 11
73.8606
 21
258.9449999999999
 31
0.0
  0
LINE
  5
2EA
330
1E
100
AcDbEntity
  8
0
100
AcDbLine
 10
70.7
 20
268.545
 30
0.0
 11
71.0
 21
266.345
 31
0.0
  0
LINE
  5
2EB
330
1E
100
AcDbEntity
  8
0
100
AcDbLine
 10
70.7
 20
264.1449999999999
 30
0.0
 11
71.0
 21
266.345
 31
0.0
  0
LINE
  5
2EC
330
1E
100
AcDbEntity
  8
0
100
AcDbLine
 10
72.10038273870392
 20
271.598606005
 30
0.0
 11
73.09999999999999
 21
269.1449999999999
 31
0.0
  0
LINE
  5
2ED
330
1E
100
AcDbEntity
  8
0
100
AcDbLine
 10
72.0
 20
271.845
 30
0.0
 11
73.09999999999999
 21
269.1449999999999
 31
0.0
  0
LINE
  5
2EE
330
1E
100
AcDbEntity
  8
0
100
AcDbLine
 10
72.10038273870392
 20
261.0913939949999
 30
0.0
 11
73.09999999999999
 21
263.545
 31
0.0
  0
LINE
  5
2EF
330
1E
100
AcDbEntity
  8
0
100
AcDbLine
 10
72.0
 20
260.845
 30
0.0
 11
73.09999999999999
 21
263.545
 31
0.0
  0
LINE
  5
2F0
330
1E
100
AcDbEntity
  8
0
100
AcDbLine
 10
70.9659090909091
 20
266.095
 30
0.0
 11
73.46428571428571
 21
266.095
 31
0.0
  0
LINE
  5
2F1
330
1E
100
AcDbEntity
  8
0
100
AcDbLine
 10
72.5
 20
272.045
 30
0.0
 11
73.59999999999999
 21
269.345
 31
0.0
  0
LINE
  5
2F2
330
1E
100
AcDbEntity
  8
0
100
AcDbLine
 10
72.9
 20
272.345
 30
0.0
 11
74.1
 21
269.4449999999999
 31
0.0
  0
LINE
  5
2F3
330
1E
100
AcDbEntity
  8
0
100
AcDbLine
 10
72.5
 20
260.6449999999999
 30
0.0
 11
73.59999999999999
 21
263.345
 31
0.0
  0
LINE
  5
2F4
330
1E
100
AcDbEntity
  8
0
100
AcDbLine
 10
72.9
 20
260.345
 30
0.0
 11
74.1
 21
263.2449999999999
 31
0.0
  0
LINE
  5
2F5
330
1E
100
AcDbEntity
  8
0
100
AcDbLine
 10
73.09999999999999
 20
269.1449999999999
 30
0.0
 11
73.5
 21
266.345
 31
0.0
  0
LINE
  5
2F6
330
1E
100
AcDbEntity
  8
0
100
AcDbLine
 10
73.09999999999999
 20
269.1449999999999
 30
0.0
 11
73.46428571428571
 21
266.595
 31
0.0
  0
LINE
  5
2F7
330
1E
100
AcDbEntity
  8
0
100
AcDbLine
 10
73.09999999999999
 20
263.545
 30
0.0
 11
73.5
 21
266.345
 31
0.0
  0
LINE
  5
2F8
330
1E
100
AcDbEntity
  8
0
100
AcDbLine
 10
73.09999999999999
 20
263.545
 30
0.0
 11
73.46428571428571
 21
266.095
 31
0.0
  0
LINE
  5
2F9
330
1E
100
AcDbEntity
  8
0
100
AcDbLine
 10
73.59999999999999
 20
269.345
 30
0.0
 11
74.0
 21
266.345
 31
0.0
  0
LINE
  5
2FA
330
1E
100
AcDbEntity
  8
0
100
AcDbLine
 10
74.1
 20
269.4449999999999
 30
0.0
 11
74.5
 21
266.345
 31
0.0
  0
LINE
  5
2FB
330
1E
100
AcDbEntity
  8
0
100
AcDbLine
 10
73.59999999999999
 20
263.345
 30
0.0
 11
74.0
 21
266.345
 31
0.0
  0
LINE
  5
2FC
330
1E
100
AcDbEntity
  8
0
100
AcDbLine
 10
74.1
 20
263.2449999999999
 30
0.0
 11
74.5
 21
266.345
 31
0.0
  0
LINE
  5
2FD
330
1E
100
AcDbEntity
  8
0
100
AcDbLine
 10
72.9
 20
260.345
 30
0.0
 11
74.1
 21
263.2449999999999
 31
0.0
  0
LINE
  5
2FE
330
1E
100
AcDbEntity
  8
0
100
AcDbLine
 10
73.8606
 20
258.9449999999999
 30
0.0
 11
75.1607
 21
262.1449999999999
 31
0.0
  0
LINE
  5
2FF
330
1E
100
AcDbEntity
  8
0
100
AcDbLine
 10
75.1607
 20
262.1449999999999
 30
0.0
 11
75.6607
 21
265.6449999999999
 31
0.0
  0
LINE
  5
300
330
1E
100
AcDbEntity
  8
0
100
AcDbLine
 10
73.8606
 20
272.345
 30
0.0
 11
75.1607
 21
269.1449999999999
 31
0.0
  0
LINE
  5
301
330
1E
100
AcDbEntity
  8
0
100
AcDbLine
 10
75.1607
 20
269.1449999999999
 30
0.0
 11
75.6607
 21
265.6449999999999
 31
0.0
  0
LINE
  5
302
330
1E
100
AcDbEntity
  8
0
100
AcDbLine
 10
71.0
 20
274.845
 30
0.0
 11
72.9
 21
272.345
 31
0.0
  0
LINE
  5
303
330
1E
100
AcDbEntity
  8
0
100
AcDbLine
 10
71.66070000000001
 20
275.1449999999999
 30
0.0
 11
73.8606
 21
272.345
 31
0.0
  0
LINE
  5
304
330
1E
100
AcDbEntity
  8
0
100
AcDbLine
 10
71.1557568181818
 20
274.640056818182
 30
0.0
 11
71.66070000000001
 21
275.1449999999999
 31
0.0
  0
LINE
  5
305
330
1E
100
AcDbEntity
  8
0
100
AcDbLine
 10
70.6052631578948
 20
275.1449999999999
 30
0.0
 11
123.0
 21
275.1449999999999
 31
0.0
  0
LINE
  5
306
330
1E
100
AcDbEntity
  8
0
100
AcDbLine
 10
59.7
 20
276.9449999999999
 30
0.0
 11
62.5
 21
277.345
 31
0.0
  0
LINE
  5
307
330
1E
100
AcDbEntity
  8
0
100
AcDbLine
 10
62.5
 20
277.345
 30
0.0
 11
65.3
 21
276.9449999999999
 31
0.0
  0
LINE
  5
308
330
1E
100
AcDbEntity
  8
0
100
AcDbLine
 10
62.25
 20
277.3092857142859
 30
0.0
 11
62.25
 21
268.595
 31
0.0
  0
LINE
  5
309
330
1E
100
AcDbEntity
  8
0
100
AcDbLine
 10
62.25
 20
277.3092857142859
 30
0.0
 11
62.25
 21
274.8109090909089
 31
0.0
  0
LINE
  5
30A
330
1E
100
AcDbEntity
  8
0
100
AcDbLine
 10
59.5
 20
277.4449999999999
 30
0.0
 11
62.5
 21
277.845
 31
0.0
  0
LINE
  5
30B
330
1E
100
AcDbEntity
  8
0
100
AcDbLine
 10
59.4
 20
277.945
 30
0.0
 11
62.5
 21
278.345
 31
0.0
  0
LINE
  5
30C
330
1E
100
AcDbEntity
  8
0
100
AcDbLine
 10
62.5
 20
277.845
 30
0.0
 11
65.5
 21
277.4449999999999
 31
0.0
  0
LINE
  5
30D
330
1E
100
AcDbEntity
  8
0
100
AcDbLine
 10
65.3
 20
276.9449999999999
 30
0.0
 11
68.0
 21
275.845
 31
0.0
  0
LINE
  5
30E
330
1E
100
AcDbEntity
  8
0
100
AcDbLine
 10
65.3
 20
276.9449999999999
 30
0.0
 11
67.75391409874661
 21
275.945257219029
 31
0.0
  0
LINE
  5
30F
330
1E
100
AcDbEntity
  8
0
100
AcDbLine
 10
62.75
 20
277.3092857142859
 30
0.0
 11
62.75
 21
268.595
 31
0.0
  0
LINE
  5
310
330
1E
100
AcDbEntity
  8
0
100
AcDbLine
 10
62.75
 20
277.3092857142859
 30
0.0
 11
65.3
 21
276.9449999999999
 31
0.0
  0
LINE
  5
311
330
1E
100
AcDbEntity
  8
0
100
AcDbLine
 10
68.2
 20
276.345
 30
0.0
 11
70.59999999999999
 21
274.445
 31
0.0
  0
LINE
  5
312
330
1E
100
AcDbEntity
  8
0
100
AcDbLine
 10
65.5
 20
277.4449999999999
 30
0.0
 11
68.2
 21
276.345
 31
0.0
  0
LINE
  5
313
330
1E
100
AcDbEntity
  8
0
100
AcDbLine
 10
68.5
 20
276.745
 30
0.0
 11
71.0
 21
274.845
 31
0.0
  0
LINE
  5
314
330
1E
100
AcDbEntity
  8
0
100
AcDbLine
 10
65.59999999999999
 20
277.945
 30
0.0
 11
68.5
 21
276.745
 31
0.0
  0
LINE
  5
315
330
1E
100
AcDbEntity
  8
0
100
AcDbLine
 10
62.5
 20
278.345
 30
0.0
 11
65.59999999999999
 21
277.945
 31
0.0
  0
LINE
  5
316
330
1E
100
AcDbEntity
  8
0
100
AcDbLine
 10
69.2894736842107
 20
276.1449999999999
 30
0.0
 11
123.0
 21
276.1449999999999
 31
0.0
  0
LINE
  5
317
330
1E
100
AcDbEntity
  8
0
100
AcDbLine
 10
82.5
 20
235.145
 30
0.0
 11
83.0
 21
234.643
 31
0.0
  0
LINE
  5
318
330
1E
100
AcDbEntity
  8
0
100
AcDbLine
 10
82.5
 20
235.145
 30
0.0
 11
82.5
 21
234.643
 31
0.0
  0
LINE
  5
319
330
1E
100
AcDbEntity
  8
0
100
AcDbLine
 10
62.0
 20
234.643
 30
0.0
 11
82.5
 21
234.643
 31
0.0
  0
LINE
  5
31A
330
1E
100
AcDbEntity
  8
0
100
AcDbLine
 10
123.0
 20
275.1449999999999
 30
0.0
 11
124.0
 21
275.1449999999999
 31
0.0
  0
LINE
  5
31B
330
1E
100
AcDbEntity
  8
0
100
AcDbLine
 10
123.0
 20
275.1449999999999
 30
0.0
 11
123.0
 21
276.1449999999999
 31
0.0
  0
LINE
  5
31C
330
1E
100
AcDbEntity
  8
0
100
AcDbLine
 10
123.0
 20
275.1449999999999
 30
0.0
 11
123.0
 21
153.145
 31
0.0
  0
LINE
  5
31D
330
1E
100
AcDbEntity
  8
0
100
AcDbLine
 10
124.0
 20
275.1449999999999
 30
0.0
 11
124.0
 21
153.145
 31
0.0
  0
LINE
  5
31E
330
1E
100
AcDbEntity
  8
0
100
AcDbLine
 10
123.0
 20
276.1449999999999
 30
0.0
 11
123.0
 21
275.1449999999999
 31
0.0
  0
LINE
  5
31F
330
1E
100
AcDbEntity
  8
0
100
AcDbLine
 10
123.0
 20
276.1449999999999
 30
0.0
 11
124.0
 21
275.1449999999999
 31
0.0
  0
LINE
  5
320
330
1E
100
AcDbEntity
  8
0
100
AcDbLine
 10
83.0
 20
234.643
 30
0.0
 11
83.0
 21
0.6467920000000041
 31
0.0
  0
LINE
  5
321
330
1E
100
AcDbEntity
  8
0
100
AcDbLine
 10
82.5
 20
234.643
 30
0.0
 11
82.5
 21
235.145
 31
0.0
  0
LINE
  5
322
330
1E
100
AcDbEntity
  8
0
100
AcDbLine
 10
82.5
 20
234.643
 30
0.0
 11
83.0
 21
234.643
 31
0.0
  0
LINE
  5
323
330
1E
100
AcDbEntity
  8
0
100
AcDbLine
 10
82.5
 20
234.643
 30
0.0
 11
82.5
 21
0.6467920000000041
 31
0.0
  0
LINE
  5
324
330
1E
100
AcDbEntity
  8
0
100
AcDbLine
 10
58.39999999999999
 20
219.704
 30
0.0
 11
62.0
 21
219.704
 31
0.0
  0
LINE
  5
325
330
1E
100
AcDbEntity
  8
0
100
AcDbLine
 10
58.39999999999999
 20
219.704
 30
0.0
 11
58.39999999999999
 21
205.652
 31
0.0
  0
ENDSEC
  0
SECTION
  2
OBJECTS
  0
DICTIONARY
  5
C
330
0
100
AcDbDictionary
281
     1
  3
ACAD_GROUP
350
D
  3
ACAD_LAYOUT
350
19
  3
ACAD_MLINESTYLE
350
16
  3
ACAD_PLOTSETTINGS
350
18
  3
ACAD_PLOTSTYLENAME
350
E
  3
AcDbVariableDictionary
350
32B
  0
DICTIONARY
  5
D
102
{ACAD_REACTORS
330
C
102
}
330
C
100
AcDbDictionary
281
     1
  0
DICTIONARY
  5
19
102
{ACAD_REACTORS
330
C
102
}
330
C
100
AcDbDictionary
281
     1
  3
Layout1
350
1D
  3
Model
350
21
  0
DICTIONARY
  5
16
102
{ACAD_REACTORS
330
C
102
}
330
C
100
AcDbDictionary
281
     1
  3
Standard
350
17
  0
DICTIONARY
  5
18
102
{ACAD_REACTORS
330
C
102
}
330
C
100
AcDbDictionary
281
     1
  0
ACDBDICTIONARYWDFLT
  5
E
102
{ACAD_REACTORS
330
C
102
}
330
C
100
AcDbDictionary
281
     1
  3
Normal
350
F
100
AcDbDictionaryWithDefault
340
F
  0
DICTIONARY
  5
32B
102
{ACAD_REACTORS
330
C
102
}
330
C
100
AcDbDictionary
281
     1
  3
DIMASSOC
350
32C
  0
LAYOUT
  5
1D
102
{ACAD_REACTORS
330
19
102
}
330
19
100
AcDbPlotSettings
  1

  2
hp deskjet 980c series
  4

  6

 40
0.0
 41
0.0
 42
0.0
 43
0.0
 44
0.0
 45
0.0
 46
0.0
 47
0.0
 48
0.0
 49
0.0
140
0.0
141
0.0
142
1.0
143
1.0
 70
   688
 72
     0
 73
     0
 74
     5
  7

 75
    16
147
1.0
148
0.0
149
0.0
100
AcDbLayout
  1
Layout1
 70
     1
 71
     1
 10
0.0
 20
0.0
 11
12.0
 21
9.0
 12
0.0
 22
0.0
 32
0.0
 14
1.000000000000000E+20
 24
1.000000000000000E+20
 34
1.000000000000000E+20
 15
-1.000000000000000E+20
 25
-1.000000000000000E+20
 35
-1.000000000000000E+20
146
0.0
 13
0.0
 23
0.0
 33
0.0
 16
1.0
 26
0.0
 36
0.0
 17
0.0
 27
1.0
 37
0.0
 76
     0
330
1A
  0
LAYOUT
  5
21
102
{ACAD_REACTORS
330
19
102
}
330
19
100
AcDbPlotSettings
  1

  2
hp deskjet 980c series
  4

  6

 40
0.0
 41
0.0
 42
0.0
 43
0.0
 44
0.0
 45
0.0
 46
0.0
 47
0.0
 48
0.0
 49
0.0
140
0.0
141
0.0
142
1.0
143
1.0
 70
  1712
 72
     0
 73
     0
 74
     0
  7

 75
     0
147
1.0
148
0.0
149
0.0
100
AcDbLayout
  1
Model
 70
     1
 71
     0
 10
0.0
 20
0.0
 11
12.0
 21
9.0
 12
0.0
 22
0.0
 32
0.0
 14
0.0
 24
0.0
 34
0.0
 15
0.0
 25
0.0
 35
0.0
146
0.0
 13
0.0
 23
0.0
 33
0.0
 16
1.0
 26
0.0
 36
0.0
 17
0.0
 27
1.0
 37
0.0
 76
     0
330
1E
  0
MLINESTYLE
  5
17
102
{ACAD_REACTORS
330
16
102
}
330
16
100
AcDbMlineStyle
  2
STANDARD
 70
     0
  3

 62
   256
 51
90.0
 52
90.0
 71
     2
 49
0.5
 62
   256
  6
BYLAYER
 49
-0.5
 62
   256
  6
BYLAYER
  0
ACDBPLACEHOLDER
  5
F
102
{ACAD_REACTORS
330
E
102
}
330
E
  0
DICTIONARYVAR
  5
32C
102
{ACAD_REACTORS
330
32B
102
}
330
32B
100
DictionaryVariables
280
     0
  1
1
  0
ENDSEC
  0
EOF
