  0
SECTION
  2
HEADER
  9
$ACADVER
  1
AC1015
  9
$ACADMAINTVER
 70
    13
  9
$DWGCODEPAGE
  3
ANSI_1252
  9
$INSBASE
 10
0.0
 20
0.0
 30
0.0
  9
$EXTMIN
 10
0.0
 20
0.0049999999999748
 30
0.0
  9
$EXTMAX
 10
124.0
 20
1088.994999999999
 30
0.0
  9
$LIMMIN
 10
0.0
 20
0.0
  9
$LIMMAX
 10
12.0
 20
9.0
  9
$ORTHOMODE
 70
     0
  9
$REGENMODE
 70
     1
  9
$FILLMODE
 70
     1
  9
$QTEXTMODE
 70
     0
  9
$MIRRTEXT
 70
     1
  9
$LTSCALE
 40
1.0
  9
$ATTMODE
 70
     1
  9
$TEXTSIZE
 40
0.2
  9
$TRACEWID
 40
0.05
  9
$TEXTSTYLE
  7
Standard
  9
$CLAYER
  8
0
  9
$CELTYPE
  6
Continuous
  9
$CECOLOR
 62
   256
  9
$CELTSCALE
 40
1.0
  9
$DISPSILH
 70
     0
  9
$DIMSCALE
 40
1.0
  9
$DIMASZ
 40
0.18
  9
$DIMEXO
 40
0.0625
  9
$DIMDLI
 40
0.38
  9
$DIMRND
 40
0.0
  9
$DIMDLE
 40
0.0
  9
$DIMEXE
 40
0.18
  9
$DIMTP
 40
0.0
  9
$DIMTM
 40
0.0
  9
$DIMTXT
 40
0.18
  9
$DIMCEN
 40
0.09
  9
$DIMTSZ
 40
0.0
  9
$DIMTOL
 70
     0
  9
$DIMLIM
 70
     0
  9
$DIMTIH
 70
     1
  9
$DIMTOH
 70
     1
  9
$DIMSE1
 70
     0
  9
$DIMSE2
 70
     0
  9
$DIMTAD
 70
     0
  9
$DIMZIN
 70
     0
  9
$DIMBLK
  1

  9
$DIMASO
 70
     1
  9
$DIMSHO
 70
     1
  9
$DIMPOST
  1

  9
$DIMAPOST
  1

  9
$DIMALT
 70
     0
  9
$DIMALTD
 70
     2
  9
$DIMALTF
 40
25.4
  9
$DIMLFAC
 40
1.0
  9
$DIMTOFL
 70
     0
  9
$DIMTVP
 40
0.0
  9
$DIMTIX
 70
     0
  9
$DIMSOXD
 70
     0
  9
$DIMSAH
 70
     0
  9
$DIMBLK1
  1

  9
$DIMBLK2
  1

  9
$DIMSTYLE
  2
Standard
  9
$DIMCLRD
 70
     0
  9
$DIMCLRE
 70
     0
  9
$DIMCLRT
 70
     0
  9
$DIMTFAC
 40
1.0
  9
$DIMGAP
 40
0.09
  9
$DIMJUST
 70
     0
  9
$DIMSD1
 70
     0
  9
$DIMSD2
 70
     0
  9
$DIMTOLJ
 70
     1
  9
$DIMTZIN
 70
     0
  9
$DIMALTZ
 70
     0
  9
$DIMALTTZ
 70
     0
  9
$DIMUPT
 70
     0
  9
$DIMDEC
 70
     4
  9
$DIMTDEC
 70
     4
  9
$DIMALTU
 70
     2
  9
$DIMALTTD
 70
     2
  9
$DIMTXSTY
  7
Standard
  9
$DIMAUNIT
 70
     0
  9
$DIMADEC
 70
     0
  9
$DIMALTRND
 40
0.0
  9
$DIMAZIN
 70
     0
  9
$DIMDSEP
 70
    46
  9
$DIMATFIT
 70
     3
  9
$DIMFRAC
 70
     0
  9
$DIMLDRBLK
  1

  9
$DIMLUNIT
 70
     2
  9
$DIMLWD
 70
    -2
  9
$DIMLWE
 70
    -2
  9
$DIMTMOVE
 70
     0
  9
$LUNITS
 70
     2
  9
$LUPREC
 70
     4
  9
$SKETCHINC
 40
0.1
  9
$FILLETRAD
 40
0.0
  9
$AUNITS
 70
     0
  9
$AUPREC
 70
     0
  9
$MENU
  1
.
  9
$ELEVATION
 40
0.0
  9
$PELEVATION
 40
0.0
  9
$THICKNESS
 40
0.0
  9
$LIMCHECK
 70
     0
  9
$CHAMFERA
 40
0.0
  9
$CHAMFERB
 40
0.0
  9
$CHAMFERC
 40
0.0
  9
$CHAMFERD
 40
0.0
  9
$SKPOLY
 70
     0
  9
$TDCREATE
 40
2454874.750839120
  9
$TDUCREATE
 40
2454874.709172453
  9
$TDUPDATE
 40
2454874.753117940
  9
$TDUUPDATE
 40
2454874.711451273
  9
$TDINDWG
 40
0.0022790046
  9
$TDUSRTIMER
 40
0.0022790046
  9
$USRTIMER
 70
     1
  9
$ANGBASE
 50
0.0
  9
$ANGDIR
 70
     0
  9
$PDMODE
 70
     0
  9
$PDSIZE
 40
0.0
  9
$PLINEWID
 40
0.0
  9
$SPLFRAME
 70
     0
  9
$SPLINETYPE
 70
     6
  9
$SPLINESEGS
 70
     8
  9
$HANDSEED
  5
18C
  9
$SURFTAB1
 70
     6
  9
$SURFTAB2
 70
     6
  9
$SURFTYPE
 70
     6
  9
$SURFU
 70
     6
  9
$SURFV
 70
     6
  9
$UCSBASE
  2

  9
$UCSNAME
  2

  9
$UCSORG
 10
0.0
 20
0.0
 30
0.0
  9
$UCSXDIR
 10
1.0
 20
0.0
 30
0.0
  9
$UCSYDIR
 10
0.0
 20
1.0
 30
0.0
  9
$UCSORTHOREF
  2

  9
$UCSORTHOVIEW
 70
     1
  9
$UCSORGTOP
 10
0.0
 20
0.0
 30
0.0
  9
$UCSORGBOTTOM
 10
0.0
 20
0.0
 30
0.0
  9
$UCSORGLEFT
 10
0.0
 20
0.0
 30
0.0
  9
$UCSORGRIGHT
 10
0.0
 20
0.0
 30
0.0
  9
$UCSORGFRONT
 10
0.0
 20
0.0
 30
0.0
  9
$UCSORGBACK
 10
0.0
 20
0.0
 30
0.0
  9
$PUCSBASE
  2

  9
$PUCSNAME
  2

  9
$PUCSORG
 10
0.0
 20
0.0
 30
0.0
  9
$PUCSXDIR
 10
1.0
 20
0.0
 30
0.0
  9
$PUCSYDIR
 10
0.0
 20
1.0
 30
0.0
  9
$PUCSORTHOREF
  2

  9
$PUCSORTHOVIEW
 70
     0
  9
$PUCSORGTOP
 10
0.0
 20
0.0
 30
0.0
  9
$PUCSORGBOTTOM
 10
0.0
 20
0.0
 30
0.0
  9
$PUCSORGLEFT
 10
0.0
 20
0.0
 30
0.0
  9
$PUCSORGRIGHT
 10
0.0
 20
0.0
 30
0.0
  9
$PUCSORGFRONT
 10
0.0
 20
0.0
 30
0.0
  9
$PUCSORGBACK
 10
0.0
 20
0.0
 30
0.0
  9
$USERI1
 70
     0
  9
$USERI2
 70
     0
  9
$USERI3
 70
     0
  9
$USERI4
 70
     0
  9
$USERI5
 70
     0
  9
$USERR1
 40
0.0
  9
$USERR2
 40
0.0
  9
$USERR3
 40
0.0
  9
$USERR4
 40
0.0
  9
$USERR5
 40
0.0
  9
$WORLDVIEW
 70
     1
  9
$SHADEDGE
 70
     3
  9
$SHADEDIF
 70
    70
  9
$TILEMODE
 70
     1
  9
$MAXACTVP
 70
    64
  9
$PINSBASE
 10
0.0
 20
0.0
 30
0.0
  9
$PLIMCHECK
 70
     0
  9
$PEXTMIN
 10
1.000000000000000E+20
 20
1.000000000000000E+20
 30
1.000000000000000E+20
  9
$PEXTMAX
 10
-1.000000000000000E+20
 20
-1.000000000000000E+20
 30
-1.000000000000000E+20
  9
$PLIMMIN
 10
0.0
 20
0.0
  9
$PLIMMAX
 10
12.0
 20
9.0
  9
$UNITMODE
 70
     0
  9
$VISRETAIN
 70
     1
  9
$PLINEGEN
 70
     0
  9
$PSLTSCALE
 70
     1
  9
$TREEDEPTH
 70
  3020
  9
$CMLSTYLE
  2
Standard
  9
$CMLJUST
 70
     0
  9
$CMLSCALE
 40
1.0
  9
$PROXYGRAPHICS
 70
     1
  9
$MEASUREMENT
 70
     0
  9
$CELWEIGHT
370
    -1
  9
$ENDCAPS
280
     0
  9
$JOINSTYLE
280
     0
  9
$LWDISPLAY
290
     0
  9
$INSUNITS
 70
     0
  9
$HYPERLINKBASE
  1

  9
$STYLESHEET
  1

  9
$XEDIT
290
     1
  9
$CEPSNTYPE
380
     0
  9
$PSTYLEMODE
290
     1
  9
$FINGERPRINTGUID
  2
{502E7F0A-529C-4050-B29F-B63A94AC5D78}
  9
$VERSIONGUID
  2
{F967102A-77D1-48CF-B3A6-56825FD433AE}
  9
$EXTNAMES
290
     1
  9
$PSVPSCALE
 40
0.0
  9
$OLESTARTUP
290
     0
  0
ENDSEC
  0
SECTION
  2
CLASSES
  0
CLASS
  1
ACDBDICTIONARYWDFLT
  2
AcDbDictionaryWithDefault
  3
AutoCAD 2000
 90
        0
280
     0
281
     0
  0
CLASS
  1
ACDBPLACEHOLDER
  2
AcDbPlaceHolder
  3
AutoCAD 2000
 90
        0
280
     0
281
     0
  0
CLASS
  1
LAYOUT
  2
AcDbLayout
  3
AutoCAD 2000
 90
        0
280
     0
281
     0
  0
CLASS
  1
DICTIONARYVAR
  2
AcDbDictionaryVar
  3
AutoCAD 2000
 90
        0
280
     0
281
     0
  0
ENDSEC
  0
SECTION
  2
TABLES
  0
TABLE
  2
VPORT
  5
8
330
0
100
AcDbSymbolTable
 70
     2
  0
VPORT
  5
18B
330
8
100
AcDbSymbolTableRecord
100
AcDbViewportTableRecord
  2
*Active
 70
     0
 10
0.0
 20
0.0
 11
1.0
 21
1.0
 12
62.0
 22
544.5
 13
0.0
 23
0.0
 14
1.0
 24
1.0
 15
0.0
 25
0.0
 16
0.0
 26
0.0
 36
1.0
 17
0.0
 27
0.0
 37
0.0
 40
1095.867831578947
 41
1.968387776606954
 42
50.0
 43
0.0
 44
0.0
 50
0.0
 51
0.0
 71
     0
 72
   100
 73
     1
 74
     3
 75
     0
 76
     0
 77
     0
 78
     0
281
     0
 65
     1
110
0.0
120
0.0
130
0.0
111
1.0
121
0.0
131
0.0
112
0.0
122
1.0
132
0.0
 79
     1
146
0.0
  0
ENDTAB
  0
TABLE
  2
LTYPE
  5
5
330
0
100
AcDbSymbolTable
 70
     1
  0
LTYPE
  5
13
330
5
100
AcDbSymbolTableRecord
100
AcDbLinetypeTableRecord
  2
ByBlock
 70
     0
  3

 72
    65
 73
     0
 40
0.0
  0
LTYPE
  5
14
330
5
100
AcDbSymbolTableRecord
100
AcDbLinetypeTableRecord
  2
ByLayer
 70
     0
  3

 72
    65
 73
     0
 40
0.0
  0
LTYPE
  5
15
330
5
100
AcDbSymbolTableRecord
100
AcDbLinetypeTableRecord
  2
Continuous
 70
     0
  3
Solid line
 72
    65
 73
     0
 40
0.0
  0
ENDTAB
  0
TABLE
  2
LAYER
  5
2
330
0
100
AcDbSymbolTable
 70
     1
  0
LAYER
  5
10
330
2
100
AcDbSymbolTableRecord
100
AcDbLayerTableRecord
  2
0
 70
     0
 62
     7
  6
Continuous
370
    -3
390
F
  0
ENDTAB
  0
TABLE
  2
STYLE
  5
3
330
0
100
AcDbSymbolTable
 70
     1
  0
STYLE
  5
11
330
3
100
AcDbSymbolTableRecord
100
AcDbTextStyleTableRecord
  2
Standard
 70
     0
 40
0.0
 41
1.0
 50
0.0
 71
     0
 42
0.2
  3
txt
  4

  0
ENDTAB
  0
TABLE
  2
VIEW
  5
6
330
0
100
AcDbSymbolTable
 70
     0
  0
ENDTAB
  0
TABLE
  2
UCS
  5
7
330
0
100
AcDbSymbolTable
 70
     0
  0
ENDTAB
  0
TABLE
  2
APPID
  5
9
330
0
100
AcDbSymbolTable
 70
     1
  0
APPID
  5
12
330
9
100
AcDbSymbolTableRecord
100
AcDbRegAppTableRecord
  2
ACAD
 70
     0
  0
ENDTAB
  0
TABLE
  2
DIMSTYLE
  5
A
330
0
100
AcDbSymbolTable
 70
     1
100
AcDbDimStyleTable
 71
     0
  0
DIMSTYLE
105
185
330
A
100
AcDbSymbolTableRecord
100
AcDbDimStyleTableRecord
  2
Standard
 70
     0
340
11
  0
ENDTAB
  0
TABLE
  2
BLOCK_RECORD
  5
1
330
0
100
AcDbSymbolTable
 70
     0
  0
BLOCK_RECORD
  5
1E
330
1
100
AcDbSymbolTableRecord
100
AcDbBlockTableRecord
  2
*Model_Space
340
21
  0
BLOCK_RECORD
  5
1A
330
1
100
AcDbSymbolTableRecord
100
AcDbBlockTableRecord
  2
*Paper_Space
340
1D
  0
ENDTAB
  0
ENDSEC
  0
SECTION
  2
BLOCKS
  0
BLOCK
  5
1F
330
1E
100
AcDbEntity
  8
0
100
AcDbBlockBegin
  2
*Model_Space
 70
     0
 10
0.0
 20
0.0
 30
0.0
  3
*Model_Space
  1

  0
ENDBLK
  5
20
330
1E
100
AcDbEntity
  8
0
100
AcDbBlockEnd
  0
BLOCK
  5
1B
330
1A
100
AcDbEntity
 67
     1
  8
0
100
AcDbBlockBegin
  2
*Paper_Space
 70
     0
 10
0.0
 20
0.0
 30
0.0
  3
*Paper_Space
  1

  0
ENDBLK
  5
1C
330
1A
100
AcDbEntity
 67
     1
  8
0
100
AcDbBlockEnd
  0
ENDSEC
  0
SECTION
  2
ENTITIES
  0
LINE
  5
22
330
1E
100
AcDbEntity
  8
0
100
AcDbLine
 10
0.0
 20
0.0049999999999824
 30
0.0
 11
0.0
 21
14.005
 31
0.0
  0
LINE
  5
23
330
1E
100
AcDbEntity
  8
0
100
AcDbLine
 10
0.0
 20
0.0049999999999824
 30
0.0
 11
1.0
 21
0.0049999999999825
 31
0.0
  0
LINE
  5
24
330
1E
100
AcDbEntity
  8
0
100
AcDbLine
 10
0.0
 20
14.005
 30
0.0
 11
0.0
 21
0.0049999999999748
 31
0.0
  0
LINE
  5
25
330
1E
100
AcDbEntity
  8
0
100
AcDbLine
 10
0.0
 20
0.004999999999975
 30
0.0
 11
1.0
 21
0.0049999999999749
 31
0.0
  0
LINE
  5
26
330
1E
100
AcDbEntity
  8
0
100
AcDbLine
 10
0.0
 20
0.004999999999975
 30
0.0
 11
0.0
 21
14.005
 31
0.0
  0
LINE
  5
27
330
1E
100
AcDbEntity
  8
0
100
AcDbLine
 10
0.9999999999999989
 20
0.0049999999999825
 30
0.0
 11
123.0
 21
0.0049999999999825
 31
0.0
  0
LINE
  5
28
330
1E
100
AcDbEntity
  8
0
100
AcDbLine
 10
1.0
 20
0.0049999999999825
 30
0.0
 11
1.0
 21
13.9984
 31
0.0
  0
LINE
  5
29
330
1E
100
AcDbEntity
  8
0
100
AcDbLine
 10
1.0
 20
0.0049999999999749
 30
0.0
 11
123.0
 21
0.0049999999999749
 31
0.0
  0
LINE
  5
2A
330
1E
100
AcDbEntity
  8
0
100
AcDbLine
 10
0.9999999999999989
 20
13.9984
 30
0.0
 11
123.0
 21
14.005
 31
0.0
  0
LINE
  5
2B
330
1E
100
AcDbEntity
  8
0
100
AcDbLine
 10
1.0
 20
13.9984
 30
0.0
 11
1.0
 21
15.005
 31
0.0
  0
LINE
  5
2C
330
1E
100
AcDbEntity
  8
0
100
AcDbLine
 10
1.0
 20
13.9984
 30
0.0
 11
1.0
 21
0.0049999999999823
 31
0.0
  0
LINE
  5
2D
330
1E
100
AcDbEntity
  8
0
100
AcDbLine
 10
1.0
 20
13.9984
 30
0.0
 11
123.0
 21
14.005
 31
0.0
  0
LINE
  5
2E
330
1E
100
AcDbEntity
  8
0
100
AcDbLine
 10
0.0
 20
14.005
 30
0.0
 11
1.0
 21
15.005
 31
0.0
  0
LINE
  5
2F
330
1E
100
AcDbEntity
  8
0
100
AcDbLine
 10
0.0
 20
14.005
 30
0.0
 11
1.0
 21
13.9984
 31
0.0
  0
LINE
  5
30
330
1E
100
AcDbEntity
  8
0
100
AcDbLine
 10
0.0
 20
14.005
 30
0.0
 11
0.0
 21
0.0049999999999823
 31
0.0
  0
LINE
  5
31
330
1E
100
AcDbEntity
  8
0
100
AcDbLine
 10
0.9999999999999989
 20
15.005
 30
0.0
 11
123.0
 21
15.005
 31
0.0
  0
LINE
  5
32
330
1E
100
AcDbEntity
  8
0
100
AcDbLine
 10
20.48929999999999
 20
313.987
 30
0.0
 11
23.1273
 21
315.483
 31
0.0
  0
LINE
  5
33
330
1E
100
AcDbEntity
  8
0
100
AcDbLine
 10
17.34829999999999
 20
313.6519999999999
 30
0.0
 11
20.48929999999999
 21
313.987
 31
0.0
  0
LINE
  5
34
330
1E
100
AcDbEntity
  8
0
100
AcDbLine
 10
11.54299999999999
 20
337.874
 30
0.0
 11
12.972
 21
353.539
 31
0.0
  0
LINE
  5
35
330
1E
100
AcDbEntity
  8
0
100
AcDbLine
 10
10.715
 20
329.07
 30
0.0
 11
11.54299999999999
 21
337.874
 31
0.0
  0
LINE
  5
36
330
1E
100
AcDbEntity
  8
0
100
AcDbLine
 10
10.14799999999999
 20
323.345
 30
0.0
 11
10.715
 21
329.07
 31
0.0
  0
LINE
  5
37
330
1E
100
AcDbEntity
  8
0
100
AcDbLine
 10
10.0066
 20
322.348
 30
0.0
 11
10.3343
 21
319.2149999999999
 31
0.0
  0
LINE
  5
38
330
1E
100
AcDbEntity
  8
0
100
AcDbLine
 10
10.0066
 20
322.348
 30
0.0
 11
10.14799999999999
 21
323.345
 31
0.0
  0
LINE
  5
39
330
1E
100
AcDbEntity
  8
0
100
AcDbLine
 10
10.3343
 20
319.2149999999999
 30
0.0
 11
11.91
 21
316.5649999999999
 31
0.0
  0
LINE
  5
3A
330
1E
100
AcDbEntity
  8
0
100
AcDbLine
 10
21.975
 20
454.7749999999999
 30
0.0
 11
23.683
 21
474.246
 31
0.0
  0
LINE
  5
3B
330
1E
100
AcDbEntity
  8
0
100
AcDbLine
 10
20.02299999999999
 20
432.606
 30
0.0
 11
21.975
 21
454.7749999999999
 31
0.0
  0
LINE
  5
3C
330
1E
100
AcDbEntity
  8
0
100
AcDbLine
 10
18.07099999999999
 20
410.518
 30
0.0
 11
20.02299999999999
 21
432.606
 31
0.0
  0
LINE
  5
3D
330
1E
100
AcDbEntity
  8
0
100
AcDbLine
 10
16.10999999999999
 20
388.47
 30
0.0
 11
18.07099999999999
 21
410.518
 31
0.0
  0
LINE
  5
3E
330
1E
100
AcDbEntity
  8
0
100
AcDbLine
 10
14.366
 20
368.949
 30
0.0
 11
16.10999999999999
 21
388.47
 31
0.0
  0
LINE
  5
3F
330
1E
100
AcDbEntity
  8
0
100
AcDbLine
 10
12.972
 20
353.539
 30
0.0
 11
14.366
 21
368.949
 31
0.0
  0
LINE
  5
4A
330
1E
100
AcDbEntity
  8
0
100
AcDbLine
 10
37.8335
 20
446.419
 30
0.0
 11
39.5418
 21
465.7659999999999
 31
0.0
  0
LINE
  5
4B
330
1E
100
AcDbEntity
  8
0
100
AcDbLine
 10
35.88119999999999
 20
424.5209999999999
 30
0.0
 11
37.8335
 21
446.419
 31
0.0
  0
LINE
  5
4C
330
1E
100
AcDbEntity
  8
0
100
AcDbLine
 10
33.92889999999999
 20
402.823
 30
0.0
 11
35.88119999999999
 21
424.5209999999999
 31
0.0
  0
LINE
  5
4D
330
1E
100
AcDbEntity
  8
0
100
AcDbLine
 10
31.9683
 20
381.374
 30
0.0
 11
33.92889999999999
 21
402.823
 31
0.0
  0
LINE
  5
4E
330
1E
100
AcDbEntity
  8
0
100
AcDbLine
 10
30.2253
 20
362.5019999999999
 30
0.0
 11
31.9683
 21
381.374
 31
0.0
  0
LINE
  5
4F
330
1E
100
AcDbEntity
  8
0
100
AcDbLine
 10
28.8303
 20
347.9219999999999
 30
0.0
 11
30.2253
 21
362.5019999999999
 31
0.0
  0
LINE
  5
50
330
1E
100
AcDbEntity
  8
0
100
AcDbLine
 10
27.4013
 20
333.3019999999999
 30
0.0
 11
28.8303
 21
347.9219999999999
 31
0.0
  0
LINE
  5
51
330
1E
100
AcDbEntity
  8
0
100
AcDbLine
 10
26.57329999999999
 20
325.504
 30
0.0
 11
27.4013
 21
333.3019999999999
 31
0.0
  0
LINE
  5
52
330
1E
100
AcDbEntity
  8
0
100
AcDbLine
 10
26.0063
 20
320.919
 30
0.0
 11
26.57329999999999
 21
325.504
 31
0.0
  0
LINE
  5
53
330
1E
100
AcDbEntity
  8
0
100
AcDbLine
 10
25.1473
 20
317.9499999999999
 30
0.0
 11
26.0063
 21
320.919
 31
0.0
  0
LINE
  5
54
330
1E
100
AcDbEntity
  8
0
100
AcDbLine
 10
23.1273
 20
315.483
 30
0.0
 11
25.1473
 21
317.9499999999999
 31
0.0
  0
LINE
  5
56
330
1E
100
AcDbEntity
  8
0
100
AcDbLine
 10
23.683
 20
474.246
 30
0.0
 11
25.392
 21
493.8019999999999
 31
0.0
  0
LINE
  5
57
330
1E
100
AcDbEntity
  8
0
100
AcDbLine
 10
39.5418
 20
465.7659999999999
 30
0.0
 11
41.0
 21
482.4590693127269
 31
0.0
  0
LINE
  5
58
330
1E
100
AcDbEntity
  8
0
100
AcDbLine
 10
11.9703
 20
316.4549999999999
 30
0.0
 11
14.3123
 21
314.5249999999999
 31
0.0
  0
LINE
  5
59
330
1E
100
AcDbEntity
  8
0
100
AcDbLine
 10
11.9703
 20
316.4549999999999
 30
0.0
 11
14.3123
 21
314.5249999999999
 31
0.0
  0
LINE
  5
5A
330
1E
100
AcDbEntity
  8
0
100
AcDbLine
 10
11.91
 20
316.5649999999999
 30
0.0
 11
11.9703
 21
316.4549999999999
 31
0.0
  0
LINE
  5
5B
330
1E
100
AcDbEntity
  8
0
100
AcDbLine
 10
14.3123
 20
314.5249999999999
 30
0.0
 11
17.34829999999999
 21
313.6519999999999
 31
0.0
  0
LINE
  5
5C
330
1E
100
AcDbEntity
  8
0
100
AcDbLine
 10
1.0
 20
15.005
 30
0.0
 11
1.0
 21
13.9984
 31
0.0
  0
LINE
  5
5D
330
1E
100
AcDbEntity
  8
0
100
AcDbLine
 10
1.0
 20
15.005
 30
0.0
 11
123.0
 21
15.005
 31
0.0
  0
LINE
  5
5E
330
1E
100
AcDbEntity
  8
0
100
AcDbLine
 10
41.0
 20
15.005
 30
0.0
 11
41.0
 21
488.6222380868749
 31
0.0
  0
LINE
  5
5F
330
1E
100
AcDbEntity
  8
0
100
AcDbLine
 10
41.0
 20
15.005
 30
0.0
 11
41.0
 21
488.6222380868749
 31
0.0
  0
LINE
  5
60
330
1E
100
AcDbEntity
  8
0
100
AcDbLine
 10
25.392
 20
493.8019999999999
 30
0.0
 11
27.344
 21
516.2359999999999
 31
0.0
  0
LINE
  5
61
330
1E
100
AcDbEntity
  8
0
100
AcDbLine
 10
27.344
 20
516.2359999999999
 30
0.0
 11
29.296
 21
538.749
 31
0.0
  0
LINE
  5
62
330
1E
100
AcDbEntity
  8
0
100
AcDbLine
 10
29.296
 20
538.749
 30
0.0
 11
31.257
 21
561.503
 31
0.0
  0
LINE
  5
63
330
1E
100
AcDbEntity
  8
0
100
AcDbLine
 10
31.257
 20
561.503
 30
0.0
 11
33.0003
 21
582.8049999999999
 31
0.0
  0
LINE
  5
67
330
1E
100
AcDbEntity
  8
0
100
AcDbLine
 10
33.0003
 20
582.8049999999999
 30
0.0
 11
34.9264
 21
605.25
 31
0.0
  0
LINE
  5
6D
330
1E
100
AcDbEntity
  8
0
100
AcDbLine
 10
40.8705
 20
673.98
 30
0.0
 11
43.03189999999999
 21
698.8419999999999
 31
0.0
  0
LINE
  5
6E
330
1E
100
AcDbEntity
  8
0
100
AcDbLine
 10
38.6829
 20
648.7669999999999
 30
0.0
 11
40.8705
 21
673.98
 31
0.0
  0
LINE
  5
6F
330
1E
100
AcDbEntity
  8
0
100
AcDbLine
 10
36.6696
 20
625.4830000000001
 30
0.0
 11
38.6829
 21
648.7669999999999
 31
0.0
  0
LINE
  5
70
330
1E
100
AcDbEntity
  8
0
100
AcDbLine
 10
34.9264
 20
605.25
 30
0.0
 11
36.6696
 21
625.4830000000001
 31
0.0
  0
LINE
  5
72
330
1E
100
AcDbEntity
  8
0
100
AcDbLine
 10
41.0
 20
675.469603497733
 30
0.0
 11
41.0
 21
724.005
 31
0.0
  0
LINE
  5
73
330
1E
100
AcDbEntity
  8
0
100
AcDbLine
 10
41.0
 20
488.6222380868749
 30
0.0
 11
41.0
 21
15.005
 31
0.0
  0
LINE
  5
74
330
1E
100
AcDbEntity
  8
0
100
AcDbLine
 10
41.0
 20
724.005
 30
0.0
 11
42.0
 21
724.5049999999999
 31
0.0
  0
LINE
  5
75
330
1E
100
AcDbEntity
  8
0
100
AcDbLine
 10
41.0
 20
724.005
 30
0.0
 11
41.5
 21
724.005
 31
0.0
  0
LINE
  5
76
330
1E
100
AcDbEntity
  8
0
100
AcDbLine
 10
41.0
 20
724.005
 30
0.0
 11
41.0
 21
675.469603497733
 31
0.0
  0
LINE
  5
77
330
1E
100
AcDbEntity
  8
0
100
AcDbLine
 10
41.0
 20
965.005
 30
0.0
 11
41.0
 21
959.7050000000001
 31
0.0
  0
LINE
  5
78
330
1E
100
AcDbEntity
  8
0
100
AcDbLine
 10
41.0
 20
965.005
 30
0.0
 11
41.0
 21
969.105
 31
0.0
  0
LINE
  5
79
330
1E
100
AcDbEntity
  8
0
100
AcDbLine
 10
41.0
 20
959.7050000000001
 30
0.0
 11
41.0
 21
953.6050000000001
 31
0.0
  0
LINE
  5
7A
330
1E
100
AcDbEntity
  8
0
100
AcDbLine
 10
41.0
 20
959.7050000000001
 30
0.0
 11
41.0
 21
965.005
 31
0.0
  0
LINE
  5
7B
330
1E
100
AcDbEntity
  8
0
100
AcDbLine
 10
41.0
 20
953.6050000000001
 30
0.0
 11
41.0
 21
947.005
 31
0.0
  0
LINE
  5
7C
330
1E
100
AcDbEntity
  8
0
100
AcDbLine
 10
41.0
 20
953.6050000000001
 30
0.0
 11
41.0
 21
959.7050000000001
 31
0.0
  0
LINE
  5
7D
330
1E
100
AcDbEntity
  8
0
100
AcDbLine
 10
41.0
 20
947.005
 30
0.0
 11
41.0
 21
725.0049999999999
 31
0.0
  0
LINE
  5
7E
330
1E
100
AcDbEntity
  8
0
100
AcDbLine
 10
41.0
 20
947.005
 30
0.0
 11
41.0
 21
953.6050000000001
 31
0.0
  0
LINE
  5
7F
330
1E
100
AcDbEntity
  8
0
100
AcDbLine
 10
41.0
 20
488.6222380868749
 30
0.0
 11
43.283
 21
514.8419999999999
 31
0.0
  0
LINE
  5
82
330
1E
100
AcDbEntity
  8
0
100
AcDbLine
 10
41.5
 20
494.35343676689
 30
0.0
 11
41.5
 21
15.005
 31
0.0
  0
LINE
  5
84
330
1E
100
AcDbEntity
  8
0
100
AcDbLine
 10
43.283
 20
514.8419999999999
 30
0.0
 11
45.2353
 21
537.356
 31
0.0
  0
LINE
  5
85
330
1E
100
AcDbEntity
  8
0
100
AcDbLine
 10
45.2353
 20
537.356
 30
0.0
 11
47.1963
 21
560.109
 31
0.0
  0
LINE
  5
87
330
1E
100
AcDbEntity
  8
0
100
AcDbLine
 10
48.9394
 20
581.4109999999999
 30
0.0
 11
50.8656
 21
603.8569999999999
 31
0.0
  0
LINE
  5
8A
330
1E
100
AcDbEntity
  8
0
100
AcDbLine
 10
47.1963
 20
560.109
 30
0.0
 11
48.9394
 21
581.4109999999999
 31
0.0
  0
LINE
  5
8B
330
1E
100
AcDbEntity
  8
0
100
AcDbLine
 10
58.971
 20
697.4479999999999
 30
0.0
 11
60.9756
 21
720.462
 31
0.0
  0
LINE
  5
8C
330
1E
100
AcDbEntity
  8
0
100
AcDbLine
 10
56.8096
 20
672.5859999999999
 30
0.0
 11
58.971
 21
697.4479999999999
 31
0.0
  0
LINE
  5
8D
330
1E
100
AcDbEntity
  8
0
100
AcDbLine
 10
54.622
 20
647.374
 30
0.0
 11
56.8096
 21
672.5859999999999
 31
0.0
  0
LINE
  5
8E
330
1E
100
AcDbEntity
  8
0
100
AcDbLine
 10
52.6087
 20
624.09
 30
0.0
 11
54.622
 21
647.374
 31
0.0
  0
LINE
  5
8F
330
1E
100
AcDbEntity
  8
0
100
AcDbLine
 10
50.8656
 20
603.8569999999999
 30
0.0
 11
52.6087
 21
624.09
 31
0.0
  0
LINE
  5
93
330
1E
100
AcDbEntity
  8
0
100
AcDbLine
 10
60.9756
 20
720.462
 30
0.0
 11
63.8518
 21
753.383
 31
0.0
  0
LINE
  5
94
330
1E
100
AcDbEntity
  8
0
100
AcDbLine
 10
45.03649999999999
 20
721.856
 30
0.0
 11
47.91269999999999
 21
754.7760000000001
 31
0.0
  0
LINE
  5
95
330
1E
100
AcDbEntity
  8
0
100
AcDbLine
 10
43.03189999999999
 20
698.8419999999999
 30
0.0
 11
45.03649999999999
 21
721.856
 31
0.0
  0
LINE
  5
96
330
1E
100
AcDbEntity
  8
0
100
AcDbLine
 10
41.5
 20
681.220968353845
 30
0.0
 11
41.5
 21
724.005
 31
0.0
  0
LINE
  5
97
330
1E
100
AcDbEntity
  8
0
100
AcDbLine
 10
41.5
 20
15.005
 30
0.0
 11
41.5
 21
494.35343676689
 31
0.0
  0
LINE
  5
98
330
1E
100
AcDbEntity
  8
0
100
AcDbLine
 10
61.2851403116552
 20
724.005
 30
0.0
 11
82.5
 21
724.005
 31
0.0
  0
LINE
  5
99
330
1E
100
AcDbEntity
  8
0
100
AcDbLine
 10
41.5
 20
724.005
 30
0.0
 11
45.2242567982989
 21
724.005
 31
0.0
  0
LINE
  5
9A
330
1E
100
AcDbEntity
  8
0
100
AcDbLine
 10
41.5
 20
724.005
 30
0.0
 11
41.5
 21
681.220968353845
 31
0.0
  0
LINE
  5
9B
330
1E
100
AcDbEntity
  8
0
100
AcDbLine
 10
41.5
 20
724.005
 30
0.0
 11
45.2242567982989
 21
724.005
 31
0.0
  0
LINE
  5
9C
330
1E
100
AcDbEntity
  8
0
100
AcDbLine
 10
61.328823674858
 20
724.5049999999999
 30
0.0
 11
82.0
 21
724.5049999999999
 31
0.0
  0
LINE
  5
9D
330
1E
100
AcDbEntity
  8
0
100
AcDbLine
 10
42.0
 20
724.5049999999999
 30
0.0
 11
45.2679414884569
 21
724.5049999999999
 31
0.0
  0
LINE
  5
9E
330
1E
100
AcDbEntity
  8
0
100
AcDbLine
 10
61.37250703806079
 20
725.0049999999999
 30
0.0
 11
82.5
 21
725.0049999999999
 31
0.0
  0
LINE
  5
9F
330
1E
100
AcDbEntity
  8
0
100
AcDbLine
 10
41.5
 20
964.705
 30
0.0
 11
41.5
 21
968.7050000000001
 31
0.0
  0
LINE
  5
A0
330
1E
100
AcDbEntity
  8
0
100
AcDbLine
 10
41.5
 20
964.705
 30
0.0
 11
41.5
 21
959.505
 31
0.0
  0
LINE
  5
A1
330
1E
100
AcDbEntity
  8
0
100
AcDbLine
 10
41.5
 20
959.505
 30
0.0
 11
41.5
 21
964.705
 31
0.0
  0
LINE
  5
A2
330
1E
100
AcDbEntity
  8
0
100
AcDbLine
 10
41.5
 20
959.505
 30
0.0
 11
41.5
 21
953.505
 31
0.0
  0
LINE
  5
A3
330
1E
100
AcDbEntity
  8
0
100
AcDbLine
 10
41.5
 20
953.505
 30
0.0
 11
41.5
 21
959.505
 31
0.0
  0
LINE
  5
A4
330
1E
100
AcDbEntity
  8
0
100
AcDbLine
 10
41.5
 20
953.505
 30
0.0
 11
41.5
 21
947.005
 31
0.0
  0
LINE
  5
A5
330
1E
100
AcDbEntity
  8
0
100
AcDbLine
 10
47.91269999999999
 20
754.7760000000001
 30
0.0
 11
54.2985713134514
 21
942.3530000000001
 31
0.0
  0
LINE
  5
A6
330
1E
100
AcDbEntity
  8
0
100
AcDbLine
 10
56.1355
 20
942.3530000000001
 30
0.0
 11
58.0355
 21
942.3530000000001
 31
0.0
  0
LINE
  5
A7
330
1E
100
AcDbEntity
  8
0
100
AcDbLine
 10
58.0355
 20
942.3530000000001
 30
0.0
 11
60.2355
 21
942.3530000000001
 31
0.0
  0
LINE
  5
A8
330
1E
100
AcDbEntity
  8
0
100
AcDbLine
 10
63.8518
 20
753.383
 30
0.0
 11
70.25152016695911
 21
942.3530000000001
 31
0.0
  0
LINE
  5
A9
330
1E
100
AcDbEntity
  8
0
100
AcDbLine
 10
62.5355
 20
942.3530000000001
 30
0.0
 11
64.8355
 21
942.3530000000001
 31
0.0
  0
LINE
  5
AA
330
1E
100
AcDbEntity
  8
0
100
AcDbLine
 10
60.2355
 20
942.3530000000001
 30
0.0
 11
62.5355
 21
942.3530000000001
 31
0.0
  0
LINE
  5
AB
330
1E
100
AcDbEntity
  8
0
100
AcDbLine
 10
54.7355
 20
942.3530000000001
 30
0.0
 11
56.1355
 21
942.3530000000001
 31
0.0
  0
LINE
  5
AC
330
1E
100
AcDbEntity
  8
0
100
AcDbLine
 10
53.8355
 20
942.3530000000001
 30
0.0
 11
54.7355
 21
942.3530000000001
 31
0.0
  0
LINE
  5
AD
330
1E
100
AcDbEntity
  8
0
100
AcDbLine
 10
53.8355
 20
942.3530000000001
 30
0.0
 11
54.2985713134514
 21
942.3530000000001
 31
0.0
  0
LINE
  5
AE
330
1E
100
AcDbEntity
  8
0
100
AcDbLine
 10
53.5355
 20
942.3530000000001
 30
0.0
 11
53.8355
 21
942.3530000000001
 31
0.0
  0
LINE
  5
AF
330
1E
100
AcDbEntity
  8
0
100
AcDbLine
 10
41.5
 20
947.005
 30
0.0
 11
41.5
 21
953.505
 31
0.0
  0
LINE
  5
B0
330
1E
100
AcDbEntity
  8
0
100
AcDbLine
 10
41.5
 20
947.005
 30
0.0
 11
41.5
 21
725.0049999999999
 31
0.0
  0
LINE
  5
B1
330
1E
100
AcDbEntity
  8
0
100
AcDbLine
 10
41.5
 20
725.0049999999999
 30
0.0
 11
41.5
 21
947.005
 31
0.0
  0
LINE
  5
B2
330
1E
100
AcDbEntity
  8
0
100
AcDbLine
 10
41.5
 20
725.0049999999999
 30
0.0
 11
45.31162617861479
 21
725.0049999999999
 31
0.0
  0
LINE
  5
B3
330
1E
100
AcDbEntity
  8
0
100
AcDbLine
 10
41.0
 20
725.0049999999999
 30
0.0
 11
41.5
 21
725.0049999999999
 31
0.0
  0
LINE
  5
B4
330
1E
100
AcDbEntity
  8
0
100
AcDbLine
 10
41.0
 20
725.0049999999999
 30
0.0
 11
41.0
 21
999.505
 31
0.0
  0
LINE
  5
B5
330
1E
100
AcDbEntity
  8
0
100
AcDbLine
 10
41.0
 20
725.0049999999999
 30
0.0
 11
41.0
 21
947.005
 31
0.0
  0
LINE
  5
B6
330
1E
100
AcDbEntity
  8
0
100
AcDbLine
 10
59.2133
 20
967.1969999999999
 30
0.0
 11
62.0
 21
967.1619999999998
 31
0.0
  0
LINE
  5
B7
330
1E
100
AcDbEntity
  8
0
100
AcDbLine
 10
56.61
 20
967.29
 30
0.0
 11
59.2133
 21
967.1969999999999
 31
0.0
  0
LINE
  5
B8
330
1E
100
AcDbEntity
  8
0
100
AcDbLine
 10
62.0
 20
967.1619999999998
 30
0.0
 11
64.7867
 21
967.1969999999999
 31
0.0
  0
LINE
  5
B9
330
1E
100
AcDbEntity
  8
0
100
AcDbLine
 10
68.93550000000001
 20
942.3530000000001
 30
0.0
 11
70.33549999999999
 21
942.3530000000001
 31
0.0
  0
LINE
  5
BA
330
1E
100
AcDbEntity
  8
0
100
AcDbLine
 10
67.03549999999999
 20
942.3530000000001
 30
0.0
 11
68.93550000000001
 21
942.3530000000001
 31
0.0
  0
LINE
  5
BB
330
1E
100
AcDbEntity
  8
0
100
AcDbLine
 10
64.8355
 20
942.3530000000001
 30
0.0
 11
67.03549999999999
 21
942.3530000000001
 31
0.0
  0
LINE
  5
BC
330
1E
100
AcDbEntity
  8
0
100
AcDbLine
 10
64.7867
 20
967.1969999999999
 30
0.0
 11
67.39
 21
967.29
 31
0.0
  0
LINE
  5
BD
330
1E
100
AcDbEntity
  8
0
100
AcDbLine
 10
54.3733
 20
967.44
 30
0.0
 11
56.61
 21
967.29
 31
0.0
  0
LINE
  5
BE
330
1E
100
AcDbEntity
  8
0
100
AcDbLine
 10
52.65
 20
967.6349999999999
 30
0.0
 11
54.3733
 21
967.44
 31
0.0
  0
LINE
  5
BF
330
1E
100
AcDbEntity
  8
0
100
AcDbLine
 10
67.39
 20
967.29
 30
0.0
 11
69.6267
 21
967.44
 31
0.0
  0
LINE
  5
C0
330
1E
100
AcDbEntity
  8
0
100
AcDbLine
 10
70.25152016695911
 20
942.3530000000001
 30
0.0
 11
70.33549999999999
 21
942.3530000000001
 31
0.0
  0
LINE
  5
C1
330
1E
100
AcDbEntity
  8
0
100
AcDbLine
 10
70.33549999999999
 20
942.3530000000001
 30
0.0
 11
71.2355
 21
942.3530000000001
 31
0.0
  0
LINE
  5
C2
330
1E
100
AcDbEntity
  8
0
100
AcDbLine
 10
71.5355
 20
942.3530000000001
 30
0.0
 11
73.5355
 21
970.353
 31
0.0
  0
LINE
  5
C3
330
1E
100
AcDbEntity
  8
0
100
AcDbLine
 10
71.2355
 20
942.3530000000001
 30
0.0
 11
71.5355
 21
942.3530000000001
 31
0.0
  0
LINE
  5
C4
330
1E
100
AcDbEntity
  8
0
100
AcDbLine
 10
69.6267
 20
967.44
 30
0.0
 11
71.34999999999999
 21
967.6349999999999
 31
0.0
  0
LINE
  5
C5
330
1E
100
AcDbEntity
  8
0
100
AcDbLine
 10
51.7153909831369
 20
967.834526236084
 30
0.0
 11
53.5355
 21
942.3530000000001
 31
0.0
  0
LINE
  5
C6
330
1E
100
AcDbEntity
  8
0
100
AcDbLine
 10
51.5867
 20
967.862
 30
0.0
 11
52.65
 21
967.6349999999999
 31
0.0
  0
LINE
  5
C7
330
1E
100
AcDbEntity
  8
0
100
AcDbLine
 10
51.1833
 20
968.105
 30
0.0
 11
51.5867
 21
968.3469999999999
 31
0.0
  0
LINE
  5
C8
330
1E
100
AcDbEntity
  8
0
100
AcDbLine
 10
51.1833
 20
968.105
 30
0.0
 11
51.5867
 21
967.862
 31
0.0
  0
LINE
  5
C9
330
1E
100
AcDbEntity
  8
0
100
AcDbLine
 10
71.34999999999999
 20
967.6349999999999
 30
0.0
 11
72.41330000000001
 21
967.862
 31
0.0
  0
LINE
  5
CA
330
1E
100
AcDbEntity
  8
0
100
AcDbLine
 10
72.41330000000001
 20
967.862
 30
0.0
 11
72.8167
 21
968.105
 31
0.0
  0
LINE
  5
CB
330
1E
100
AcDbEntity
  8
0
100
AcDbLine
 10
52.65
 20
968.5739999999999
 30
0.0
 11
54.3733
 21
968.7689999999999
 31
0.0
  0
LINE
  5
CC
330
1E
100
AcDbEntity
  8
0
100
AcDbLine
 10
51.5867
 20
968.3469999999999
 30
0.0
 11
52.65
 21
968.5739999999999
 31
0.0
  0
LINE
  5
CD
330
1E
100
AcDbEntity
  8
0
100
AcDbLine
 10
51.0
 20
968.3539999999998
 30
0.0
 11
51.0
 21
972.005
 31
0.0
  0
LINE
  5
CE
330
1E
100
AcDbEntity
  8
0
100
AcDbLine
 10
51.0
 20
968.3539999999998
 30
0.0
 11
51.4033
 21
968.5999999999999
 31
0.0
  0
LINE
  5
CF
330
1E
100
AcDbEntity
  8
0
100
AcDbLine
 10
51.0
 20
968.3539999999998
 30
0.0
 11
51.1833
 21
968.105
 31
0.0
  0
LINE
  5
D0
330
1E
100
AcDbEntity
  8
0
100
AcDbLine
 10
41.5
 20
968.7050000000001
 30
0.0
 11
41.5
 21
971.105
 31
0.0
  0
LINE
  5
D1
330
1E
100
AcDbEntity
  8
0
100
AcDbLine
 10
41.5
 20
968.7050000000001
 30
0.0
 11
41.5
 21
964.705
 31
0.0
  0
LINE
  5
D2
330
1E
100
AcDbEntity
  8
0
100
AcDbLine
 10
54.3733
 20
968.7689999999999
 30
0.0
 11
56.61
 21
968.9199999999999
 31
0.0
  0
LINE
  5
D3
330
1E
100
AcDbEntity
  8
0
100
AcDbLine
 10
52.4667
 20
968.8299999999999
 30
0.0
 11
54.2267
 21
969.031
 31
0.0
  0
LINE
  5
D4
330
1E
100
AcDbEntity
  8
0
100
AcDbLine
 10
51.4033
 20
968.5999999999999
 30
0.0
 11
52.4667
 21
968.8299999999999
 31
0.0
  0
LINE
  5
D5
330
1E
100
AcDbEntity
  8
0
100
AcDbLine
 10
69.6267
 20
968.7689999999999
 30
0.0
 11
71.34999999999999
 21
968.5739999999999
 31
0.0
  0
LINE
  5
D6
330
1E
100
AcDbEntity
  8
0
100
AcDbLine
 10
71.34999999999999
 20
968.5739999999999
 30
0.0
 11
72.41330000000001
 21
968.3469999999999
 31
0.0
  0
LINE
  5
D7
330
1E
100
AcDbEntity
  8
0
100
AcDbLine
 10
72.41330000000001
 20
968.3469999999999
 30
0.0
 11
72.8167
 21
968.105
 31
0.0
  0
LINE
  5
D8
330
1E
100
AcDbEntity
  8
0
100
AcDbLine
 10
59.2133
 20
969.012
 30
0.0
 11
62.0
 21
969.0470000000001
 31
0.0
  0
LINE
  5
D9
330
1E
100
AcDbEntity
  8
0
100
AcDbLine
 10
56.61
 20
968.9199999999999
 30
0.0
 11
59.2133
 21
969.012
 31
0.0
  0
LINE
  5
DA
330
1E
100
AcDbEntity
  8
0
100
AcDbLine
 10
41.0
 20
969.105
 30
0.0
 11
41.0
 21
965.005
 31
0.0
  0
LINE
  5
DB
330
1E
100
AcDbEntity
  8
0
100
AcDbLine
 10
41.0
 20
969.105
 30
0.0
 11
41.0
 21
971.605
 31
0.0
  0
LINE
  5
DC
330
1E
100
AcDbEntity
  8
0
100
AcDbLine
 10
56.5367
 20
969.185
 30
0.0
 11
59.1767
 21
969.2769999999999
 31
0.0
  0
LINE
  5
DD
330
1E
100
AcDbEntity
  8
0
100
AcDbLine
 10
54.2267
 20
969.031
 30
0.0
 11
56.5367
 21
969.185
 31
0.0
  0
LINE
  5
DE
330
1E
100
AcDbEntity
  8
0
100
AcDbLine
 10
62.0
 20
969.0470000000001
 30
0.0
 11
64.7867
 21
969.012
 31
0.0
  0
LINE
  5
DF
330
1E
100
AcDbEntity
  8
0
100
AcDbLine
 10
64.7867
 20
969.012
 30
0.0
 11
67.39
 21
968.9199999999999
 31
0.0
  0
LINE
  5
E0
330
1E
100
AcDbEntity
  8
0
100
AcDbLine
 10
67.39
 20
968.9199999999999
 30
0.0
 11
69.6267
 21
968.7689999999999
 31
0.0
  0
LINE
  5
E1
330
1E
100
AcDbEntity
  8
0
100
AcDbLine
 10
59.1767
 20
969.2769999999999
 30
0.0
 11
62.0
 21
969.312
 31
0.0
  0
LINE
  5
E2
330
1E
100
AcDbEntity
  8
0
100
AcDbLine
 10
41.5
 20
971.105
 30
0.0
 11
41.5
 21
972.005
 31
0.0
  0
LINE
  5
E3
330
1E
100
AcDbEntity
  8
0
100
AcDbLine
 10
41.5
 20
971.105
 30
0.0
 11
41.5
 21
968.7050000000001
 31
0.0
  0
LINE
  5
E4
330
1E
100
AcDbEntity
  8
0
100
AcDbLine
 10
41.0
 20
999.505
 30
0.0
 11
41.5
 21
1000.005
 31
0.0
  0
LINE
  5
E5
330
1E
100
AcDbEntity
  8
0
100
AcDbLine
 10
41.0
 20
999.505
 30
0.0
 11
41.5
 21
999.505
 31
0.0
  0
LINE
  5
E6
330
1E
100
AcDbEntity
  8
0
100
AcDbLine
 10
41.0
 20
999.505
 30
0.0
 11
41.0
 21
725.0049999999999
 31
0.0
  0
LINE
  5
E7
330
1E
100
AcDbEntity
  8
0
100
AcDbLine
 10
41.0
 20
999.505
 30
0.0
 11
41.0
 21
972.5049999999999
 31
0.0
  0
LINE
  5
E8
330
1E
100
AcDbEntity
  8
0
100
AcDbLine
 10
41.5
 20
972.5049999999999
 30
0.0
 11
41.5
 21
999.505
 31
0.0
  0
LINE
  5
E9
330
1E
100
AcDbEntity
  8
0
100
AcDbLine
 10
41.5
 20
972.5049999999999
 30
0.0
 11
82.5
 21
972.5049999999999
 31
0.0
  0
LINE
  5
EA
330
1E
100
AcDbEntity
  8
0
100
AcDbLine
 10
41.5
 20
972.5049999999999
 30
0.0
 11
41.5
 21
972.005
 31
0.0
  0
LINE
  5
EB
330
1E
100
AcDbEntity
  8
0
100
AcDbLine
 10
41.5
 20
999.505
 30
0.0
 11
41.5
 21
1000.005
 31
0.0
  0
LINE
  5
EC
330
1E
100
AcDbEntity
  8
0
100
AcDbLine
 10
41.5
 20
999.505
 30
0.0
 11
82.5
 21
999.505
 31
0.0
  0
LINE
  5
ED
330
1E
100
AcDbEntity
  8
0
100
AcDbLine
 10
41.5
 20
999.505
 30
0.0
 11
41.5
 21
972.5049999999999
 31
0.0
  0
LINE
  5
EE
330
1E
100
AcDbEntity
  8
0
100
AcDbLine
 10
41.5
 20
1000.005
 30
0.0
 11
41.5
 21
999.505
 31
0.0
  0
LINE
  5
EF
330
1E
100
AcDbEntity
  8
0
100
AcDbLine
 10
41.5
 20
1000.005
 30
0.0
 11
82.5
 21
1000.005
 31
0.0
  0
LINE
  5
F0
330
1E
100
AcDbEntity
  8
0
100
AcDbLine
 10
41.5
 20
972.005
 30
0.0
 11
41.5
 21
972.5049999999999
 31
0.0
  0
LINE
  5
F1
330
1E
100
AcDbEntity
  8
0
100
AcDbLine
 10
41.5
 20
972.005
 30
0.0
 11
82.5
 21
972.005
 31
0.0
  0
LINE
  5
F2
330
1E
100
AcDbEntity
  8
0
100
AcDbLine
 10
41.5
 20
972.005
 30
0.0
 11
41.5
 21
971.105
 31
0.0
  0
LINE
  5
F3
330
1E
100
AcDbEntity
  8
0
100
AcDbLine
 10
41.0
 20
972.5049999999999
 30
0.0
 11
41.0
 21
971.605
 31
0.0
  0
LINE
  5
F4
330
1E
100
AcDbEntity
  8
0
100
AcDbLine
 10
41.0
 20
972.5049999999999
 30
0.0
 11
41.5
 21
972.005
 31
0.0
  0
LINE
  5
F5
330
1E
100
AcDbEntity
  8
0
100
AcDbLine
 10
41.0
 20
972.5049999999999
 30
0.0
 11
41.5
 21
972.5049999999999
 31
0.0
  0
LINE
  5
F6
330
1E
100
AcDbEntity
  8
0
100
AcDbLine
 10
41.0
 20
972.5049999999999
 30
0.0
 11
41.0
 21
999.505
 31
0.0
  0
LINE
  5
F7
330
1E
100
AcDbEntity
  8
0
100
AcDbLine
 10
41.0
 20
971.605
 30
0.0
 11
41.0
 21
969.105
 31
0.0
  0
LINE
  5
F8
330
1E
100
AcDbEntity
  8
0
100
AcDbLine
 10
41.0
 20
971.605
 30
0.0
 11
41.0
 21
972.5049999999999
 31
0.0
  0
LINE
  5
F9
330
1E
100
AcDbEntity
  8
0
100
AcDbLine
 10
55.0
 20
1000.005
 30
0.0
 11
55.0
 21
1005.155
 31
0.0
  0
LINE
  5
FA
330
1E
100
AcDbEntity
  8
0
100
AcDbLine
 10
53.0
 20
1005.155
 30
0.0
 11
53.0
 21
1022.175
 31
0.0
  0
LINE
  5
FB
330
1E
100
AcDbEntity
  8
0
100
AcDbLine
 10
53.0
 20
1005.155
 30
0.0
 11
53.3
 21
1005.155
 31
0.0
  0
LINE
  5
FC
330
1E
100
AcDbEntity
  8
0
100
AcDbLine
 10
53.3
 20
1005.155
 30
0.0
 11
54.2
 21
1005.155
 31
0.0
  0
LINE
  5
FD
330
1E
100
AcDbEntity
  8
0
100
AcDbLine
 10
54.2
 20
1005.155
 30
0.0
 11
55.64
 21
1005.155
 31
0.0
  0
LINE
  5
FE
330
1E
100
AcDbEntity
  8
0
100
AcDbLine
 10
54.2
 20
1005.155
 30
0.0
 11
55.0
 21
1005.155
 31
0.0
  0
LINE
  5
FF
330
1E
100
AcDbEntity
  8
0
100
AcDbLine
 10
53.0
 20
1022.175
 30
0.0
 11
53.3
 21
1022.175
 31
0.0
  0
LINE
  5
100
330
1E
100
AcDbEntity
  8
0
100
AcDbLine
 10
53.0
 20
1022.175
 30
0.0
 11
54.2
 21
1022.904999999999
 31
0.0
  0
LINE
  5
101
330
1E
100
AcDbEntity
  8
0
100
AcDbLine
 10
53.0
 20
1022.175
 30
0.0
 11
53.0
 21
1005.155
 31
0.0
  0
LINE
  5
102
330
1E
100
AcDbEntity
  8
0
100
AcDbLine
 10
53.3
 20
1022.175
 30
0.0
 11
54.2
 21
1022.175
 31
0.0
  0
LINE
  5
103
330
1E
100
AcDbEntity
  8
0
100
AcDbLine
 10
55.0
 20
1005.155
 30
0.0
 11
55.0
 21
1000.005
 31
0.0
  0
LINE
  5
104
330
1E
100
AcDbEntity
  8
0
100
AcDbLine
 10
55.64
 20
1005.155
 30
0.0
 11
57.5
 21
1005.155
 31
0.0
  0
LINE
  5
105
330
1E
100
AcDbEntity
  8
0
100
AcDbLine
 10
57.5
 20
1005.155
 30
0.0
 11
59.66
 21
1005.155
 31
0.0
  0
LINE
  5
106
330
1E
100
AcDbEntity
  8
0
100
AcDbLine
 10
54.2
 20
1022.175
 30
0.0
 11
55.64
 21
1022.175
 31
0.0
  0
LINE
  5
107
330
1E
100
AcDbEntity
  8
0
100
AcDbLine
 10
55.64
 20
1022.175
 30
0.0
 11
57.5
 21
1022.175
 31
0.0
  0
LINE
  5
108
330
1E
100
AcDbEntity
  8
0
100
AcDbLine
 10
57.5
 20
1022.175
 30
0.0
 11
59.66
 21
1022.175
 31
0.0
  0
LINE
  5
109
330
1E
100
AcDbEntity
  8
0
100
AcDbLine
 10
54.2
 20
1022.904999999999
 30
0.0
 11
62.0
 21
1023.155
 31
0.0
  0
LINE
  5
10A
330
1E
100
AcDbEntity
  8
0
100
AcDbLine
 10
58.0
 20
1023.02679487179
 30
0.0
 11
58.0
 21
1088.465
 31
0.0
  0
LINE
  5
10B
330
1E
100
AcDbEntity
  8
0
100
AcDbLine
 10
58.0
 20
1023.02679487179
 30
0.0
 11
58.0
 21
1086.195
 31
0.0
  0
LINE
  5
10C
330
1E
100
AcDbEntity
  8
0
100
AcDbLine
 10
58.0
 20
1086.195
 30
0.0
 11
58.0
 21
1023.02679487179
 31
0.0
  0
LINE
  5
10D
330
1E
100
AcDbEntity
  8
0
100
AcDbLine
 10
58.0
 20
1086.195
 30
0.0
 11
58.39999999999999
 21
1086.724999999999
 31
0.0
  0
LINE
  5
10E
330
1E
100
AcDbEntity
  8
0
100
AcDbLine
 10
58.0
 20
1086.195
 30
0.0
 11
58.0
 21
1088.465
 31
0.0
  0
LINE
  5
10F
330
1E
100
AcDbEntity
  8
0
100
AcDbLine
 10
59.66
 20
1005.155
 30
0.0
 11
62.0
 21
1005.155
 31
0.0
  0
LINE
  5
110
330
1E
100
AcDbEntity
  8
0
100
AcDbLine
 10
62.0
 20
1005.155
 30
0.0
 11
64.34000000000001
 21
1005.155
 31
0.0
  0
LINE
  5
111
330
1E
100
AcDbEntity
  8
0
100
AcDbLine
 10
64.34000000000001
 20
1005.155
 30
0.0
 11
66.5
 21
1005.155
 31
0.0
  0
LINE
  5
112
330
1E
100
AcDbEntity
  8
0
100
AcDbLine
 10
64.34000000000001
 20
1022.175
 30
0.0
 11
66.5
 21
1022.175
 31
0.0
  0
LINE
  5
113
330
1E
100
AcDbEntity
  8
0
100
AcDbLine
 10
62.0
 20
1022.175
 30
0.0
 11
64.34000000000001
 21
1022.175
 31
0.0
  0
LINE
  5
114
330
1E
100
AcDbEntity
  8
0
100
AcDbLine
 10
62.0
 20
1023.155
 30
0.0
 11
69.8
 21
1022.904999999999
 31
0.0
  0
LINE
  5
115
330
1E
100
AcDbEntity
  8
0
100
AcDbLine
 10
59.66
 20
1022.175
 30
0.0
 11
62.0
 21
1022.175
 31
0.0
  0
LINE
  5
116
330
1E
100
AcDbEntity
  8
0
100
AcDbLine
 10
62.0
 20
1086.115
 30
0.0
 11
65.59999999999999
 21
1086.115
 31
0.0
  0
LINE
  5
117
330
1E
100
AcDbEntity
  8
0
100
AcDbLine
 10
58.39999999999999
 20
1023.039615384619
 30
0.0
 11
58.39999999999999
 21
1086.115
 31
0.0
  0
LINE
  5
118
330
1E
100
AcDbEntity
  8
0
100
AcDbLine
 10
58.39999999999999
 20
1086.724999999999
 30
0.0
 11
58.39999999999999
 21
1086.115
 31
0.0
  0
LINE
  5
119
330
1E
100
AcDbEntity
  8
0
100
AcDbLine
 10
58.39999999999999
 20
1086.724999999999
 30
0.0
 11
62.0
 21
1086.724999999999
 31
0.0
  0
LINE
  5
11A
330
1E
100
AcDbEntity
  8
0
100
AcDbLine
 10
58.39999999999999
 20
1086.724999999999
 30
0.0
 11
58.39999999999999
 21
1088.994999999999
 31
0.0
  0
LINE
  5
11B
330
1E
100
AcDbEntity
  8
0
100
AcDbLine
 10
62.0
 20
1086.724999999999
 30
0.0
 11
65.59999999999999
 21
1086.724999999999
 31
0.0
  0
LINE
  5
11C
330
1E
100
AcDbEntity
  8
0
100
AcDbLine
 10
62.0
 20
1088.994999999999
 30
0.0
 11
65.59999999999999
 21
1088.994999999999
 31
0.0
  0
LINE
  5
11D
330
1E
100
AcDbEntity
  8
0
100
AcDbLine
 10
58.39999999999999
 20
1088.994999999999
 30
0.0
 11
62.0
 21
1088.994999999999
 31
0.0
  0
LINE
  5
11E
330
1E
100
AcDbEntity
  8
0
100
AcDbLine
 10
58.39999999999999
 20
1088.994999999999
 30
0.0
 11
58.39999999999999
 21
1086.724999999999
 31
0.0
  0
LINE
  5
11F
330
1E
100
AcDbEntity
  8
0
100
AcDbLine
 10
58.39999999999999
 20
1086.115
 30
0.0
 11
58.39999999999999
 21
1023.039615384619
 31
0.0
  0
LINE
  5
120
330
1E
100
AcDbEntity
  8
0
100
AcDbLine
 10
58.39999999999999
 20
1086.115
 30
0.0
 11
62.0
 21
1086.115
 31
0.0
  0
LINE
  5
121
330
1E
100
AcDbEntity
  8
0
100
AcDbLine
 10
58.39999999999999
 20
1086.115
 30
0.0
 11
58.39999999999999
 21
1086.724999999999
 31
0.0
  0
LINE
  5
122
330
1E
100
AcDbEntity
  8
0
100
AcDbLine
 10
58.0
 20
1088.465
 30
0.0
 11
58.0
 21
1023.02679487179
 31
0.0
  0
LINE
  5
123
330
1E
100
AcDbEntity
  8
0
100
AcDbLine
 10
58.0
 20
1088.465
 30
0.0
 11
58.0
 21
1086.195
 31
0.0
  0
LINE
  5
124
330
1E
100
AcDbEntity
  8
0
100
AcDbLine
 10
58.0
 20
1088.465
 30
0.0
 11
58.39999999999999
 21
1088.994999999999
 31
0.0
  0
LINE
  5
125
330
1E
100
AcDbEntity
  8
0
100
AcDbLine
 10
54.675
 20
1000.005
 30
0.0
 11
55.0
 21
1000.19071428571
 31
0.0
  0
LINE
  5
126
330
1E
100
AcDbEntity
  8
0
100
AcDbLine
 10
51.0
 20
972.005
 30
0.0
 11
51.0
 21
968.3539999999998
 31
0.0
  0
LINE
  5
127
330
1E
100
AcDbEntity
  8
0
100
AcDbLine
 10
62.0
 20
969.312
 30
0.0
 11
64.82330000000001
 21
969.2769999999999
 31
0.0
  0
LINE
  5
128
330
1E
100
AcDbEntity
  8
0
100
AcDbLine
 10
69.0
 20
1000.005
 30
0.0
 11
69.0
 21
1005.155
 31
0.0
  0
LINE
  5
129
330
1E
100
AcDbEntity
  8
0
100
AcDbLine
 10
65.59999999999999
 20
1086.115
 30
0.0
 11
65.59999999999999
 21
1023.039615384619
 31
0.0
  0
LINE
  5
12A
330
1E
100
AcDbEntity
  8
0
100
AcDbLine
 10
65.59999999999999
 20
1086.115
 30
0.0
 11
65.59999999999999
 21
1086.724999999999
 31
0.0
  0
LINE
  5
12B
330
1E
100
AcDbEntity
  8
0
100
AcDbLine
 10
65.59999999999999
 20
1023.039615384619
 30
0.0
 11
65.59999999999999
 21
1086.115
 31
0.0
  0
LINE
  5
12C
330
1E
100
AcDbEntity
  8
0
100
AcDbLine
 10
65.59999999999999
 20
1086.724999999999
 30
0.0
 11
65.59999999999999
 21
1088.994999999999
 31
0.0
  0
LINE
  5
12D
330
1E
100
AcDbEntity
  8
0
100
AcDbLine
 10
65.59999999999999
 20
1086.724999999999
 30
0.0
 11
66.0
 21
1086.195
 31
0.0
  0
LINE
  5
12E
330
1E
100
AcDbEntity
  8
0
100
AcDbLine
 10
65.59999999999999
 20
1086.724999999999
 30
0.0
 11
65.59999999999999
 21
1086.115
 31
0.0
  0
LINE
  5
12F
330
1E
100
AcDbEntity
  8
0
100
AcDbLine
 10
66.0
 20
1088.465
 30
0.0
 11
66.0
 21
1086.195
 31
0.0
  0
LINE
  5
130
330
1E
100
AcDbEntity
  8
0
100
AcDbLine
 10
65.59999999999999
 20
1088.994999999999
 30
0.0
 11
66.0
 21
1088.465
 31
0.0
  0
LINE
  5
131
330
1E
100
AcDbEntity
  8
0
100
AcDbLine
 10
65.59999999999999
 20
1088.994999999999
 30
0.0
 11
65.59999999999999
 21
1086.724999999999
 31
0.0
  0
LINE
  5
132
330
1E
100
AcDbEntity
  8
0
100
AcDbLine
 10
66.0
 20
1086.195
 30
0.0
 11
66.0
 21
1088.465
 31
0.0
  0
LINE
  5
133
330
1E
100
AcDbEntity
  8
0
100
AcDbLine
 10
66.0
 20
1086.195
 30
0.0
 11
66.0
 21
1023.02679487179
 31
0.0
  0
LINE
  5
134
330
1E
100
AcDbEntity
  8
0
100
AcDbLine
 10
68.36
 20
1005.155
 30
0.0
 11
69.8
 21
1005.155
 31
0.0
  0
LINE
  5
135
330
1E
100
AcDbEntity
  8
0
100
AcDbLine
 10
66.5
 20
1005.155
 30
0.0
 11
68.36
 21
1005.155
 31
0.0
  0
LINE
  5
136
330
1E
100
AcDbEntity
  8
0
100
AcDbLine
 10
69.0
 20
1005.155
 30
0.0
 11
69.8
 21
1005.155
 31
0.0
  0
LINE
  5
137
330
1E
100
AcDbEntity
  8
0
100
AcDbLine
 10
69.0
 20
1005.155
 30
0.0
 11
69.0
 21
1000.005
 31
0.0
  0
LINE
  5
138
330
1E
100
AcDbEntity
  8
0
100
AcDbLine
 10
68.36
 20
1022.175
 30
0.0
 11
69.8
 21
1022.175
 31
0.0
  0
LINE
  5
139
330
1E
100
AcDbEntity
  8
0
100
AcDbLine
 10
66.5
 20
1022.175
 30
0.0
 11
68.36
 21
1022.175
 31
0.0
  0
LINE
  5
13A
330
1E
100
AcDbEntity
  8
0
100
AcDbLine
 10
66.0
 20
1023.02679487179
 30
0.0
 11
66.0
 21
1086.195
 31
0.0
  0
LINE
  5
13B
330
1E
100
AcDbEntity
  8
0
100
AcDbLine
 10
69.0
 20
1000.19071428571
 30
0.0
 11
69.325
 21
1000.005
 31
0.0
  0
LINE
  5
13C
330
1E
100
AcDbEntity
  8
0
100
AcDbLine
 10
64.82330000000001
 20
969.2769999999999
 30
0.0
 11
67.4633
 21
969.185
 31
0.0
  0
LINE
  5
13D
330
1E
100
AcDbEntity
  8
0
100
AcDbLine
 10
67.4633
 20
969.185
 30
0.0
 11
69.77330000000001
 21
969.031
 31
0.0
  0
LINE
  5
13E
330
1E
100
AcDbEntity
  8
0
100
AcDbLine
 10
70.7
 20
1005.155
 30
0.0
 11
71.0
 21
1005.155
 31
0.0
  0
LINE
  5
13F
330
1E
100
AcDbEntity
  8
0
100
AcDbLine
 10
69.8
 20
1005.155
 30
0.0
 11
70.7
 21
1005.155
 31
0.0
  0
LINE
  5
140
330
1E
100
AcDbEntity
  8
0
100
AcDbLine
 10
71.0
 20
1005.155
 30
0.0
 11
71.0
 21
1022.175
 31
0.0
  0
LINE
  5
141
330
1E
100
AcDbEntity
  8
0
100
AcDbLine
 10
71.0
 20
1022.175
 30
0.0
 11
71.0
 21
1005.155
 31
0.0
  0
LINE
  5
142
330
1E
100
AcDbEntity
  8
0
100
AcDbLine
 10
70.7
 20
1022.175
 30
0.0
 11
71.0
 21
1022.175
 31
0.0
  0
LINE
  5
143
330
1E
100
AcDbEntity
  8
0
100
AcDbLine
 10
69.8
 20
1022.904999999999
 30
0.0
 11
71.0
 21
1022.175
 31
0.0
  0
LINE
  5
144
330
1E
100
AcDbEntity
  8
0
100
AcDbLine
 10
69.8
 20
1022.175
 30
0.0
 11
70.7
 21
1022.175
 31
0.0
  0
LINE
  5
145
330
1E
100
AcDbEntity
  8
0
100
AcDbLine
 10
69.77330000000001
 20
969.031
 30
0.0
 11
71.5333
 21
968.8299999999999
 31
0.0
  0
LINE
  5
146
330
1E
100
AcDbEntity
  8
0
100
AcDbLine
 10
71.5333
 20
968.8299999999999
 30
0.0
 11
72.59669999999999
 21
968.5999999999999
 31
0.0
  0
LINE
  5
147
330
1E
100
AcDbEntity
  8
0
100
AcDbLine
 10
73.0
 20
971.424
 30
0.0
 11
73.5355
 21
970.353
 31
0.0
  0
LINE
  5
148
330
1E
100
AcDbEntity
  8
0
100
AcDbLine
 10
73.0
 20
972.005
 30
0.0
 11
73.0
 21
968.3539999999998
 31
0.0
  0
LINE
  5
149
330
1E
100
AcDbEntity
  8
0
100
AcDbLine
 10
72.59669999999999
 20
968.5999999999999
 30
0.0
 11
73.0
 21
968.3539999999998
 31
0.0
  0
LINE
  5
14A
330
1E
100
AcDbEntity
  8
0
100
AcDbLine
 10
72.8167
 20
968.105
 30
0.0
 11
73.0
 21
968.3539999999998
 31
0.0
  0
LINE
  5
14B
330
1E
100
AcDbEntity
  8
0
100
AcDbLine
 10
82.5
 20
15.005
 30
0.0
 11
82.5
 21
724.005
 31
0.0
  0
LINE
  5
14C
330
1E
100
AcDbEntity
  8
0
100
AcDbLine
 10
82.5
 20
724.005
 30
0.0
 11
83.0
 21
724.005
 31
0.0
  0
LINE
  5
14D
330
1E
100
AcDbEntity
  8
0
100
AcDbLine
 10
82.5
 20
724.005
 30
0.0
 11
82.5
 21
15.005
 31
0.0
  0
LINE
  5
14E
330
1E
100
AcDbEntity
  8
0
100
AcDbLine
 10
82.0
 20
724.5049999999999
 30
0.0
 11
83.0
 21
724.005
 31
0.0
  0
LINE
  5
14F
330
1E
100
AcDbEntity
  8
0
100
AcDbLine
 10
82.5
 20
972.005
 30
0.0
 11
82.5
 21
971.105
 31
0.0
  0
LINE
  5
150
330
1E
100
AcDbEntity
  8
0
100
AcDbLine
 10
82.5
 20
972.005
 30
0.0
 11
83.0
 21
972.5049999999999
 31
0.0
  0
LINE
  5
151
330
1E
100
AcDbEntity
  8
0
100
AcDbLine
 10
82.5
 20
972.005
 30
0.0
 11
82.5
 21
972.5049999999999
 31
0.0
  0
LINE
  5
152
330
1E
100
AcDbEntity
  8
0
100
AcDbLine
 10
82.5
 20
971.105
 30
0.0
 11
82.5
 21
968.7050000000001
 31
0.0
  0
LINE
  5
153
330
1E
100
AcDbEntity
  8
0
100
AcDbLine
 10
82.5
 20
971.105
 30
0.0
 11
82.5
 21
972.005
 31
0.0
  0
LINE
  5
154
330
1E
100
AcDbEntity
  8
0
100
AcDbLine
 10
82.5
 20
968.7050000000001
 30
0.0
 11
82.5
 21
964.705
 31
0.0
  0
LINE
  5
155
330
1E
100
AcDbEntity
  8
0
100
AcDbLine
 10
82.5
 20
968.7050000000001
 30
0.0
 11
82.5
 21
971.105
 31
0.0
  0
LINE
  5
156
330
1E
100
AcDbEntity
  8
0
100
AcDbLine
 10
82.5
 20
964.705
 30
0.0
 11
82.5
 21
959.505
 31
0.0
  0
LINE
  5
157
330
1E
100
AcDbEntity
  8
0
100
AcDbLine
 10
82.5
 20
964.705
 30
0.0
 11
82.5
 21
968.7050000000001
 31
0.0
  0
LINE
  5
158
330
1E
100
AcDbEntity
  8
0
100
AcDbLine
 10
82.5
 20
959.505
 30
0.0
 11
82.5
 21
953.505
 31
0.0
  0
LINE
  5
159
330
1E
100
AcDbEntity
  8
0
100
AcDbLine
 10
82.5
 20
959.505
 30
0.0
 11
82.5
 21
964.705
 31
0.0
  0
LINE
  5
15A
330
1E
100
AcDbEntity
  8
0
100
AcDbLine
 10
82.5
 20
953.505
 30
0.0
 11
82.5
 21
947.005
 31
0.0
  0
LINE
  5
15B
330
1E
100
AcDbEntity
  8
0
100
AcDbLine
 10
82.5
 20
953.505
 30
0.0
 11
82.5
 21
959.505
 31
0.0
  0
LINE
  5
15C
330
1E
100
AcDbEntity
  8
0
100
AcDbLine
 10
82.5
 20
947.005
 30
0.0
 11
82.5
 21
725.0049999999999
 31
0.0
  0
LINE
  5
15D
330
1E
100
AcDbEntity
  8
0
100
AcDbLine
 10
82.5
 20
947.005
 30
0.0
 11
82.5
 21
953.505
 31
0.0
  0
LINE
  5
15E
330
1E
100
AcDbEntity
  8
0
100
AcDbLine
 10
82.5
 20
725.0049999999999
 30
0.0
 11
83.0
 21
725.0049999999999
 31
0.0
  0
LINE
  5
15F
330
1E
100
AcDbEntity
  8
0
100
AcDbLine
 10
82.5
 20
725.0049999999999
 30
0.0
 11
82.5
 21
947.005
 31
0.0
  0
LINE
  5
160
330
1E
100
AcDbEntity
  8
0
100
AcDbLine
 10
82.5
 20
972.5049999999999
 30
0.0
 11
83.0
 21
972.5049999999999
 31
0.0
  0
LINE
  5
161
330
1E
100
AcDbEntity
  8
0
100
AcDbLine
 10
82.5
 20
972.5049999999999
 30
0.0
 11
82.5
 21
999.505
 31
0.0
  0
LINE
  5
162
330
1E
100
AcDbEntity
  8
0
100
AcDbLine
 10
82.5
 20
972.5049999999999
 30
0.0
 11
82.5
 21
972.005
 31
0.0
  0
LINE
  5
163
330
1E
100
AcDbEntity
  8
0
100
AcDbLine
 10
83.0
 20
724.005
 30
0.0
 11
83.0
 21
15.005
 31
0.0
  0
LINE
  5
164
330
1E
100
AcDbEntity
  8
0
100
AcDbLine
 10
83.0
 20
15.005
 30
0.0
 11
83.0
 21
724.005
 31
0.0
  0
LINE
  5
165
330
1E
100
AcDbEntity
  8
0
100
AcDbLine
 10
123.0
 20
0.0049999999999825
 30
0.0
 11
123.0
 21
14.005
 31
0.0
  0
LINE
  5
166
330
1E
100
AcDbEntity
  8
0
100
AcDbLine
 10
123.0
 20
0.0049999999999825
 30
0.0
 11
124.0
 21
0.0049999999999824
 31
0.0
  0
LINE
  5
167
330
1E
100
AcDbEntity
  8
0
100
AcDbLine
 10
123.0
 20
0.0049999999999749
 30
0.0
 11
124.0
 21
0.004999999999975
 31
0.0
  0
LINE
  5
168
330
1E
100
AcDbEntity
  8
0
100
AcDbLine
 10
124.0
 20
0.0049999999999824
 30
0.0
 11
124.0
 21
14.005
 31
0.0
  0
LINE
  5
169
330
1E
100
AcDbEntity
  8
0
100
AcDbLine
 10
124.0
 20
14.005
 30
0.0
 11
124.0
 21
0.0049999999999823
 31
0.0
  0
LINE
  5
16A
330
1E
100
AcDbEntity
  8
0
100
AcDbLine
 10
123.0
 20
14.005
 30
0.0
 11
124.0
 21
14.005
 31
0.0
  0
LINE
  5
16B
330
1E
100
AcDbEntity
  8
0
100
AcDbLine
 10
123.0
 20
14.005
 30
0.0
 11
123.0
 21
15.005
 31
0.0
  0
LINE
  5
16C
330
1E
100
AcDbEntity
  8
0
100
AcDbLine
 10
123.0
 20
14.005
 30
0.0
 11
123.0
 21
0.0049999999999823
 31
0.0
  0
LINE
  5
16D
330
1E
100
AcDbEntity
  8
0
100
AcDbLine
 10
123.0
 20
15.005
 30
0.0
 11
124.0
 21
14.005
 31
0.0
  0
LINE
  5
16E
330
1E
100
AcDbEntity
  8
0
100
AcDbLine
 10
123.0
 20
15.005
 30
0.0
 11
123.0
 21
14.005
 31
0.0
  0
LINE
  5
16F
330
1E
100
AcDbEntity
  8
0
100
AcDbLine
 10
83.0
 20
725.0049999999999
 30
0.0
 11
83.0
 21
947.005
 31
0.0
  0
LINE
  5
170
330
1E
100
AcDbEntity
  8
0
100
AcDbLine
 10
83.0
 20
999.505
 30
0.0
 11
83.0
 21
972.5049999999999
 31
0.0
  0
LINE
  5
171
330
1E
100
AcDbEntity
  8
0
100
AcDbLine
 10
83.0
 20
972.5049999999999
 30
0.0
 11
83.0
 21
971.605
 31
0.0
  0
LINE
  5
172
330
1E
100
AcDbEntity
  8
0
100
AcDbLine
 10
83.0
 20
972.5049999999999
 30
0.0
 11
83.0
 21
999.505
 31
0.0
  0
LINE
  5
173
330
1E
100
AcDbEntity
  8
0
100
AcDbLine
 10
83.0
 20
971.605
 30
0.0
 11
83.0
 21
969.105
 31
0.0
  0
LINE
  5
174
330
1E
100
AcDbEntity
  8
0
100
AcDbLine
 10
83.0
 20
971.605
 30
0.0
 11
83.0
 21
972.5049999999999
 31
0.0
  0
LINE
  5
175
330
1E
100
AcDbEntity
  8
0
100
AcDbLine
 10
83.0
 20
969.105
 30
0.0
 11
83.0
 21
965.005
 31
0.0
  0
LINE
  5
176
330
1E
100
AcDbEntity
  8
0
100
AcDbLine
 10
83.0
 20
969.105
 30
0.0
 11
83.0
 21
971.605
 31
0.0
  0
LINE
  5
177
330
1E
100
AcDbEntity
  8
0
100
AcDbLine
 10
83.0
 20
965.005
 30
0.0
 11
83.0
 21
959.7050000000001
 31
0.0
  0
LINE
  5
178
330
1E
100
AcDbEntity
  8
0
100
AcDbLine
 10
83.0
 20
965.005
 30
0.0
 11
83.0
 21
969.105
 31
0.0
  0
LINE
  5
179
330
1E
100
AcDbEntity
  8
0
100
AcDbLine
 10
83.0
 20
959.7050000000001
 30
0.0
 11
83.0
 21
953.6050000000001
 31
0.0
  0
LINE
  5
17A
330
1E
100
AcDbEntity
  8
0
100
AcDbLine
 10
83.0
 20
959.7050000000001
 30
0.0
 11
83.0
 21
965.005
 31
0.0
  0
LINE
  5
17B
330
1E
100
AcDbEntity
  8
0
100
AcDbLine
 10
83.0
 20
953.6050000000001
 30
0.0
 11
83.0
 21
947.005
 31
0.0
  0
LINE
  5
17C
330
1E
100
AcDbEntity
  8
0
100
AcDbLine
 10
83.0
 20
953.6050000000001
 30
0.0
 11
83.0
 21
959.7050000000001
 31
0.0
  0
LINE
  5
17D
330
1E
100
AcDbEntity
  8
0
100
AcDbLine
 10
83.0
 20
947.005
 30
0.0
 11
83.0
 21
725.0049999999999
 31
0.0
  0
LINE
  5
17E
330
1E
100
AcDbEntity
  8
0
100
AcDbLine
 10
83.0
 20
947.005
 30
0.0
 11
83.0
 21
953.6050000000001
 31
0.0
  0
LINE
  5
17F
330
1E
100
AcDbEntity
  8
0
100
AcDbLine
 10
82.5
 20
999.505
 30
0.0
 11
83.0
 21
999.505
 31
0.0
  0
LINE
  5
180
330
1E
100
AcDbEntity
  8
0
100
AcDbLine
 10
82.5
 20
999.505
 30
0.0
 11
82.5
 21
1000.005
 31
0.0
  0
LINE
  5
181
330
1E
100
AcDbEntity
  8
0
100
AcDbLine
 10
82.5
 20
999.505
 30
0.0
 11
82.5
 21
972.5049999999999
 31
0.0
  0
LINE
  5
182
330
1E
100
AcDbEntity
  8
0
100
AcDbLine
 10
82.5
 20
1000.005
 30
0.0
 11
83.0
 21
999.505
 31
0.0
  0
LINE
  5
183
330
1E
100
AcDbEntity
  8
0
100
AcDbLine
 10
82.5
 20
1000.005
 30
0.0
 11
82.5
 21
999.505
 31
0.0
  0
LINE
  5
184
330
1E
100
AcDbEntity
  8
0
100
AcDbLine
 10
73.0
 20
968.3539999999998
 30
0.0
 11
73.0
 21
972.005
 31
0.0
  0
ENDSEC
  0
SECTION
  2
OBJECTS
  0
DICTIONARY
  5
C
330
0
100
AcDbDictionary
281
     1
  3
ACAD_GROUP
350
D
  3
ACAD_LAYOUT
350
19
  3
ACAD_MLINESTYLE
350
16
  3
ACAD_PLOTSETTINGS
350
18
  3
ACAD_PLOTSTYLENAME
350
E
  3
AcDbVariableDictionary
350
189
  0
DICTIONARY
  5
D
102
{ACAD_REACTORS
330
C
102
}
330
C
100
AcDbDictionary
281
     1
  0
DICTIONARY
  5
19
102
{ACAD_REACTORS
330
C
102
}
330
C
100
AcDbDictionary
281
     1
  3
Layout1
350
1D
  3
Model
350
21
  0
DICTIONARY
  5
16
102
{ACAD_REACTORS
330
C
102
}
330
C
100
AcDbDictionary
281
     1
  3
Standard
350
17
  0
DICTIONARY
  5
18
102
{ACAD_REACTORS
330
C
102
}
330
C
100
AcDbDictionary
281
     1
  0
ACDBDICTIONARYWDFLT
  5
E
102
{ACAD_REACTORS
330
C
102
}
330
C
100
AcDbDictionary
281
     1
  3
Normal
350
F
100
AcDbDictionaryWithDefault
340
F
  0
DICTIONARY
  5
189
102
{ACAD_REACTORS
330
C
102
}
330
C
100
AcDbDictionary
281
     1
  3
DIMASSOC
350
18A
  0
LAYOUT
  5
1D
102
{ACAD_REACTORS
330
19
102
}
330
19
100
AcDbPlotSettings
  1

  2
hp deskjet 980c series
  4

  6

 40
0.0
 41
0.0
 42
0.0
 43
0.0
 44
0.0
 45
0.0
 46
0.0
 47
0.0
 48
0.0
 49
0.0
140
0.0
141
0.0
142
1.0
143
1.0
 70
   688
 72
     0
 73
     0
 74
     5
  7

 75
    16
147
1.0
148
0.0
149
0.0
100
AcDbLayout
  1
Layout1
 70
     1
 71
     1
 10
0.0
 20
0.0
 11
12.0
 21
9.0
 12
0.0
 22
0.0
 32
0.0
 14
1.000000000000000E+20
 24
1.000000000000000E+20
 34
1.000000000000000E+20
 15
-1.000000000000000E+20
 25
-1.000000000000000E+20
 35
-1.000000000000000E+20
146
0.0
 13
0.0
 23
0.0
 33
0.0
 16
1.0
 26
0.0
 36
0.0
 17
0.0
 27
1.0
 37
0.0
 76
     0
330
1A
  0
LAYOUT
  5
21
102
{ACAD_REACTORS
330
19
102
}
330
19
100
AcDbPlotSettings
  1

  2
hp deskjet 980c series
  4

  6

 40
0.0
 41
0.0
 42
0.0
 43
0.0
 44
0.0
 45
0.0
 46
0.0
 47
0.0
 48
0.0
 49
0.0
140
0.0
141
0.0
142
1.0
143
1.0
 70
  1712
 72
     0
 73
     0
 74
     0
  7

 75
     0
147
1.0
148
0.0
149
0.0
100
AcDbLayout
  1
Model
 70
     1
 71
     0
 10
0.0
 20
0.0
 11
12.0
 21
9.0
 12
0.0
 22
0.0
 32
0.0
 14
0.0
 24
0.0
 34
0.0
 15
0.0
 25
0.0
 35
0.0
146
0.0
 13
0.0
 23
0.0
 33
0.0
 16
1.0
 26
0.0
 36
0.0
 17
0.0
 27
1.0
 37
0.0
 76
     0
330
1E
  0
MLINESTYLE
  5
17
102
{ACAD_REACTORS
330
16
102
}
330
16
100
AcDbMlineStyle
  2
STANDARD
 70
     0
  3

 62
   256
 51
90.0
 52
90.0
 71
     2
 49
0.5
 62
   256
  6
BYLAYER
 49
-0.5
 62
   256
  6
BYLAYER
  0
ACDBPLACEHOLDER
  5
F
102
{ACAD_REACTORS
330
E
102
}
330
E
  0
DICTIONARYVAR
  5
18A
102
{ACAD_REACTORS
330
189
102
}
330
189
100
DictionaryVariables
280
     0
  1
1
  0
ENDSEC
  0
EOF
