  0
SECTION
  2
HEADER
  9
$ACADVER
  1
AC1015
  9
$ACADMAINTVER
 70
    13
  9
$DWGCODEPAGE
  3
ANSI_1252
  9
$INSBASE
 10
0.0
 20
0.0
 30
0.0
  9
$EXTMIN
 10
-0.171700000000016
 20
0.220000000000034
 30
0.0
  9
$EXTMAX
 10
512.1717
 20
902.7799999999999
 30
0.0
  9
$LIMMIN
 10
0.0
 20
0.0
  9
$LIMMAX
 10
12.0
 20
9.0
  9
$ORTHOMODE
 70
     0
  9
$REGENMODE
 70
     1
  9
$FILLMODE
 70
     1
  9
$QTEXTMODE
 70
     0
  9
$MIRRTEXT
 70
     1
  9
$LTSCALE
 40
1.0
  9
$ATTMODE
 70
     1
  9
$TEXTSIZE
 40
0.2
  9
$TRACEWID
 40
0.05
  9
$TEXTSTYLE
  7
Standard
  9
$CLAYER
  8
0
  9
$CELTYPE
  6
Continuous
  9
$CECOLOR
 62
   256
  9
$CELTSCALE
 40
1.0
  9
$DISPSILH
 70
     0
  9
$DIMSCALE
 40
1.0
  9
$DIMASZ
 40
0.18
  9
$DIMEXO
 40
0.0625
  9
$DIMDLI
 40
0.38
  9
$DIMRND
 40
0.0
  9
$DIMDLE
 40
0.0
  9
$DIMEXE
 40
0.18
  9
$DIMTP
 40
0.0
  9
$DIMTM
 40
0.0
  9
$DIMTXT
 40
0.18
  9
$DIMCEN
 40
0.09
  9
$DIMTSZ
 40
0.0
  9
$DIMTOL
 70
     0
  9
$DIMLIM
 70
     0
  9
$DIMTIH
 70
     1
  9
$DIMTOH
 70
     1
  9
$DIMSE1
 70
     0
  9
$DIMSE2
 70
     0
  9
$DIMTAD
 70
     0
  9
$DIMZIN
 70
     0
  9
$DIMBLK
  1

  9
$DIMASO
 70
     1
  9
$DIMSHO
 70
     1
  9
$DIMPOST
  1

  9
$DIMAPOST
  1

  9
$DIMALT
 70
     0
  9
$DIMALTD
 70
     2
  9
$DIMALTF
 40
25.4
  9
$DIMLFAC
 40
1.0
  9
$DIMTOFL
 70
     0
  9
$DIMTVP
 40
0.0
  9
$DIMTIX
 70
     0
  9
$DIMSOXD
 70
     0
  9
$DIMSAH
 70
     0
  9
$DIMBLK1
  1

  9
$DIMBLK2
  1

  9
$DIMSTYLE
  2
Standard
  9
$DIMCLRD
 70
     0
  9
$DIMCLRE
 70
     0
  9
$DIMCLRT
 70
     0
  9
$DIMTFAC
 40
1.0
  9
$DIMGAP
 40
0.09
  9
$DIMJUST
 70
     0
  9
$DIMSD1
 70
     0
  9
$DIMSD2
 70
     0
  9
$DIMTOLJ
 70
     1
  9
$DIMTZIN
 70
     0
  9
$DIMALTZ
 70
     0
  9
$DIMALTTZ
 70
     0
  9
$DIMUPT
 70
     0
  9
$DIMDEC
 70
     4
  9
$DIMTDEC
 70
     4
  9
$DIMALTU
 70
     2
  9
$DIMALTTD
 70
     2
  9
$DIMTXSTY
  7
Standard
  9
$DIMAUNIT
 70
     0
  9
$DIMADEC
 70
     0
  9
$DIMALTRND
 40
0.0
  9
$DIMAZIN
 70
     0
  9
$DIMDSEP
 70
    46
  9
$DIMATFIT
 70
     3
  9
$DIMFRAC
 70
     0
  9
$DIMLDRBLK
  1

  9
$DIMLUNIT
 70
     2
  9
$DIMLWD
 70
    -2
  9
$DIMLWE
 70
    -2
  9
$DIMTMOVE
 70
     0
  9
$LUNITS
 70
     2
  9
$LUPREC
 70
     4
  9
$SKETCHINC
 40
0.1
  9
$FILLETRAD
 40
0.0
  9
$AUNITS
 70
     0
  9
$AUPREC
 70
     0
  9
$MENU
  1
.
  9
$ELEVATION
 40
0.0
  9
$PELEVATION
 40
0.0
  9
$THICKNESS
 40
0.0
  9
$LIMCHECK
 70
     0
  9
$CHAMFERA
 40
0.0
  9
$CHAMFERB
 40
0.0
  9
$CHAMFERC
 40
0.0
  9
$CHAMFERD
 40
0.0
  9
$SKPOLY
 70
     0
  9
$TDCREATE
 40
2454745.656340231
  9
$TDUCREATE
 40
2454745.573006898
  9
$TDUPDATE
 40
2454745.662292743
  9
$TDUUPDATE
 40
2454745.578959409
  9
$TDINDWG
 40
0.0059525116
  9
$TDUSRTIMER
 40
0.0059525116
  9
$USRTIMER
 70
     1
  9
$ANGBASE
 50
0.0
  9
$ANGDIR
 70
     0
  9
$PDMODE
 70
     0
  9
$PDSIZE
 40
0.0
  9
$PLINEWID
 40
0.0
  9
$SPLFRAME
 70
     0
  9
$SPLINETYPE
 70
     6
  9
$SPLINESEGS
 70
     8
  9
$HANDSEED
  5
867
  9
$SURFTAB1
 70
     6
  9
$SURFTAB2
 70
     6
  9
$SURFTYPE
 70
     6
  9
$SURFU
 70
     6
  9
$SURFV
 70
     6
  9
$UCSBASE
  2

  9
$UCSNAME
  2

  9
$UCSORG
 10
0.0
 20
0.0
 30
0.0
  9
$UCSXDIR
 10
1.0
 20
0.0
 30
0.0
  9
$UCSYDIR
 10
0.0
 20
1.0
 30
0.0
  9
$UCSORTHOREF
  2

  9
$UCSORTHOVIEW
 70
     1
  9
$UCSORGTOP
 10
0.0
 20
0.0
 30
0.0
  9
$UCSORGBOTTOM
 10
0.0
 20
0.0
 30
0.0
  9
$UCSORGLEFT
 10
0.0
 20
0.0
 30
0.0
  9
$UCSORGRIGHT
 10
0.0
 20
0.0
 30
0.0
  9
$UCSORGFRONT
 10
0.0
 20
0.0
 30
0.0
  9
$UCSORGBACK
 10
0.0
 20
0.0
 30
0.0
  9
$PUCSBASE
  2

  9
$PUCSNAME
  2

  9
$PUCSORG
 10
0.0
 20
0.0
 30
0.0
  9
$PUCSXDIR
 10
1.0
 20
0.0
 30
0.0
  9
$PUCSYDIR
 10
0.0
 20
1.0
 30
0.0
  9
$PUCSORTHOREF
  2

  9
$PUCSORTHOVIEW
 70
     0
  9
$PUCSORGTOP
 10
0.0
 20
0.0
 30
0.0
  9
$PUCSORGBOTTOM
 10
0.0
 20
0.0
 30
0.0
  9
$PUCSORGLEFT
 10
0.0
 20
0.0
 30
0.0
  9
$PUCSORGRIGHT
 10
0.0
 20
0.0
 30
0.0
  9
$PUCSORGFRONT
 10
0.0
 20
0.0
 30
0.0
  9
$PUCSORGBACK
 10
0.0
 20
0.0
 30
0.0
  9
$USERI1
 70
     0
  9
$USERI2
 70
     0
  9
$USERI3
 70
     0
  9
$USERI4
 70
     0
  9
$USERI5
 70
     0
  9
$USERR1
 40
0.0
  9
$USERR2
 40
0.0
  9
$USERR3
 40
0.0
  9
$USERR4
 40
0.0
  9
$USERR5
 40
0.0
  9
$WORLDVIEW
 70
     1
  9
$SHADEDGE
 70
     3
  9
$SHADEDIF
 70
    70
  9
$TILEMODE
 70
     1
  9
$MAXACTVP
 70
    64
  9
$PINSBASE
 10
0.0
 20
0.0
 30
0.0
  9
$PLIMCHECK
 70
     0
  9
$PEXTMIN
 10
1.000000000000000E+20
 20
1.000000000000000E+20
 30
1.000000000000000E+20
  9
$PEXTMAX
 10
-1.000000000000000E+20
 20
-1.000000000000000E+20
 30
-1.000000000000000E+20
  9
$PLIMMIN
 10
0.0
 20
0.0
  9
$PLIMMAX
 10
12.0
 20
9.0
  9
$UNITMODE
 70
     0
  9
$VISRETAIN
 70
     1
  9
$PLINEGEN
 70
     0
  9
$PSLTSCALE
 70
     1
  9
$TREEDEPTH
 70
  3020
  9
$CMLSTYLE
  2
Standard
  9
$CMLJUST
 70
     0
  9
$CMLSCALE
 40
1.0
  9
$PROXYGRAPHICS
 70
     1
  9
$MEASUREMENT
 70
     0
  9
$CELWEIGHT
370
    -1
  9
$ENDCAPS
280
     0
  9
$JOINSTYLE
280
     0
  9
$LWDISPLAY
290
     0
  9
$INSUNITS
 70
     0
  9
$HYPERLINKBASE
  1

  9
$STYLESHEET
  1

  9
$XEDIT
290
     1
  9
$CEPSNTYPE
380
     0
  9
$PSTYLEMODE
290
     1
  9
$FINGERPRINTGUID
  2
{B038495D-F2F7-4DDA-B2A9-33451F04432B}
  9
$VERSIONGUID
  2
{54C011CD-70B3-4CC6-A801-5433056DE1F7}
  9
$EXTNAMES
290
     1
  9
$PSVPSCALE
 40
0.0
  9
$OLESTARTUP
290
     0
  0
ENDSEC
  0
SECTION
  2
CLASSES
  0
CLASS
  1
ACDBDICTIONARYWDFLT
  2
AcDbDictionaryWithDefault
  3
AutoCAD 2000
 90
        0
280
     0
281
     0
  0
CLASS
  1
ACDBPLACEHOLDER
  2
AcDbPlaceHolder
  3
AutoCAD 2000
 90
        0
280
     0
281
     0
  0
CLASS
  1
LAYOUT
  2
AcDbLayout
  3
AutoCAD 2000
 90
        0
280
     0
281
     0
  0
CLASS
  1
DICTIONARYVAR
  2
AcDbDictionaryVar
  3
AutoCAD 2000
 90
        0
280
     0
281
     0
  0
ENDSEC
  0
SECTION
  2
TABLES
  0
TABLE
  2
VPORT
  5
8
330
0
100
AcDbSymbolTable
 70
     2
  0
VPORT
  5
866
330
8
100
AcDbSymbolTableRecord
100
AcDbViewportTableRecord
  2
*Active
 70
     0
 10
0.0
 20
0.0
 11
1.0
 21
1.0
 12
255.9999999999999
 22
451.4999999999999
 13
0.0
 23
0.0
 14
1.0
 24
1.0
 15
0.0
 25
0.0
 16
0.0
 26
0.0
 36
1.0
 17
0.0
 27
0.0
 37
0.0
 40
909.4850127877236
 41
2.078104993597951
 42
50.0
 43
0.0
 44
0.0
 50
0.0
 51
0.0
 71
     0
 72
   100
 73
     1
 74
     3
 75
     0
 76
     0
 77
     0
 78
     0
281
     0
 65
     1
110
0.0
120
0.0
130
0.0
111
1.0
121
0.0
131
0.0
112
0.0
122
1.0
132
0.0
 79
     1
146
0.0
  0
ENDTAB
  0
TABLE
  2
LTYPE
  5
5
330
0
100
AcDbSymbolTable
 70
     1
  0
LTYPE
  5
13
330
5
100
AcDbSymbolTableRecord
100
AcDbLinetypeTableRecord
  2
ByBlock
 70
     0
  3

 72
    65
 73
     0
 40
0.0
  0
LTYPE
  5
14
330
5
100
AcDbSymbolTableRecord
100
AcDbLinetypeTableRecord
  2
ByLayer
 70
     0
  3

 72
    65
 73
     0
 40
0.0
  0
LTYPE
  5
15
330
5
100
AcDbSymbolTableRecord
100
AcDbLinetypeTableRecord
  2
Continuous
 70
     0
  3
Solid line
 72
    65
 73
     0
 40
0.0
  0
ENDTAB
  0
TABLE
  2
LAYER
  5
2
330
0
100
AcDbSymbolTable
 70
     1
  0
LAYER
  5
10
330
2
100
AcDbSymbolTableRecord
100
AcDbLayerTableRecord
  2
0
 70
     0
 62
     7
  6
Continuous
370
    -3
390
F
  0
ENDTAB
  0
TABLE
  2
STYLE
  5
3
330
0
100
AcDbSymbolTable
 70
     1
  0
STYLE
  5
11
330
3
100
AcDbSymbolTableRecord
100
AcDbTextStyleTableRecord
  2
Standard
 70
     0
 40
0.0
 41
1.0
 50
0.0
 71
     0
 42
0.2
  3
txt
  4

  0
ENDTAB
  0
TABLE
  2
VIEW
  5
6
330
0
100
AcDbSymbolTable
 70
     0
  0
ENDTAB
  0
TABLE
  2
UCS
  5
7
330
0
100
AcDbSymbolTable
 70
     0
  0
ENDTAB
  0
TABLE
  2
APPID
  5
9
330
0
100
AcDbSymbolTable
 70
     1
  0
APPID
  5
12
330
9
100
AcDbSymbolTableRecord
100
AcDbRegAppTableRecord
  2
ACAD
 70
     0
  0
ENDTAB
  0
TABLE
  2
DIMSTYLE
  5
A
330
0
100
AcDbSymbolTable
 70
     1
100
AcDbDimStyleTable
 71
     0
  0
DIMSTYLE
105
5CA
330
A
100
AcDbSymbolTableRecord
100
AcDbDimStyleTableRecord
  2
Standard
 70
     0
340
11
  0
ENDTAB
  0
TABLE
  2
BLOCK_RECORD
  5
1
330
0
100
AcDbSymbolTable
 70
     0
  0
BLOCK_RECORD
  5
1E
330
1
100
AcDbSymbolTableRecord
100
AcDbBlockTableRecord
  2
*Model_Space
340
21
  0
BLOCK_RECORD
  5
1A
330
1
100
AcDbSymbolTableRecord
100
AcDbBlockTableRecord
  2
*Paper_Space
340
1D
  0
ENDTAB
  0
ENDSEC
  0
SECTION
  2
BLOCKS
  0
BLOCK
  5
1F
330
1E
100
AcDbEntity
  8
0
100
AcDbBlockBegin
  2
*Model_Space
 70
     0
 10
0.0
 20
0.0
 30
0.0
  3
*Model_Space
  1

  0
ENDBLK
  5
20
330
1E
100
AcDbEntity
  8
0
100
AcDbBlockEnd
  0
BLOCK
  5
1B
330
1A
100
AcDbEntity
 67
     1
  8
0
100
AcDbBlockBegin
  2
*Paper_Space
 70
     0
 10
0.0
 20
0.0
 30
0.0
  3
*Paper_Space
  1

  0
ENDBLK
  5
1C
330
1A
100
AcDbEntity
 67
     1
  8
0
100
AcDbBlockEnd
  0
ENDSEC
  0
SECTION
  2
ENTITIES
  0
LINE
  5
22
330
1E
100
AcDbEntity
  8
0
100
AcDbLine
 10
97.17170000000001
 20
1.22000000000004
 30
0.0
 11
97.17170000000001
 21
11.22
 31
0.0
  0
LINE
  5
23
330
1E
100
AcDbEntity
  8
0
100
AcDbLine
 10
97.4717
 20
0.5200000000000341
 30
0.0
 11
98.1717
 21
0.220000000000034
 31
0.0
  0
LINE
  5
24
330
1E
100
AcDbEntity
  8
0
100
AcDbLine
 10
97.4717
 20
0.5200000000000341
 30
0.0
 11
98.1717
 21
0.220000000000034
 31
0.0
  0
LINE
  5
25
330
1E
100
AcDbEntity
  8
0
100
AcDbLine
 10
97.4717
 20
11.91999999999999
 30
0.0
 11
97.97170000000001
 21
11.91999999999999
 31
0.0
  0
LINE
  5
26
330
1E
100
AcDbEntity
  8
0
100
AcDbLine
 10
97.4717
 20
11.91999999999999
 30
0.0
 11
98.1717
 21
12.22
 31
0.0
  0
LINE
  5
27
330
1E
100
AcDbEntity
  8
0
100
AcDbLine
 10
97.17170000000001
 20
11.22
 30
0.0
 11
97.17170000000001
 21
1.22000000000004
 31
0.0
  0
LINE
  5
28
330
1E
100
AcDbEntity
  8
0
100
AcDbLine
 10
97.17170000000001
 20
11.22
 30
0.0
 11
97.4717
 21
11.91999999999999
 31
0.0
  0
LINE
  5
29
330
1E
100
AcDbEntity
  8
0
100
AcDbLine
 10
99.1717
 20
0.220000000000034
 30
0.0
 11
219.1717
 21
0.220000000000034
 31
0.0
  0
LINE
  5
2A
330
1E
100
AcDbEntity
  8
0
100
AcDbLine
 10
99.1717
 20
0.5200000000000421
 30
0.0
 11
219.1717
 21
0.5200000000000421
 31
0.0
  0
LINE
  5
2B
330
1E
100
AcDbEntity
  8
0
100
AcDbLine
 10
98.4717
 20
0.220000000000034
 30
0.0
 11
99.1717
 21
0.220000000000034
 31
0.0
  0
LINE
  5
2C
330
1E
100
AcDbEntity
  8
0
100
AcDbLine
 10
98.1717
 20
0.220000000000034
 30
0.0
 11
98.4717
 21
0.220000000000034
 31
0.0
  0
LINE
  5
2F
330
1E
100
AcDbEntity
  8
0
100
AcDbLine
 10
99.1717
 20
11.91999999999999
 30
0.0
 11
219.1717
 21
11.91999999999999
 31
0.0
  0
LINE
  5
30
330
1E
100
AcDbEntity
  8
0
100
AcDbLine
 10
97.97170000000001
 20
11.91999999999999
 30
0.0
 11
99.1717
 21
11.91999999999999
 31
0.0
  0
LINE
  5
33
330
1E
100
AcDbEntity
  8
0
100
AcDbLine
 10
97.97170000000001
 20
0.5200000000000421
 30
0.0
 11
99.1717
 21
0.5200000000000421
 31
0.0
  0
LINE
  5
34
330
1E
100
AcDbEntity
  8
0
100
AcDbLine
 10
97.4717
 20
0.5200000000000421
 30
0.0
 11
97.97170000000001
 21
0.5200000000000421
 31
0.0
  0
LINE
  5
35
330
1E
100
AcDbEntity
  8
0
100
AcDbLine
 10
99.1717
 20
12.22
 30
0.0
 11
219.1717
 21
12.22
 31
0.0
  0
LINE
  5
36
330
1E
100
AcDbEntity
  8
0
100
AcDbLine
 10
98.4717
 20
12.22
 30
0.0
 11
99.1717
 21
12.22
 31
0.0
  0
LINE
  5
37
330
1E
100
AcDbEntity
  8
0
100
AcDbLine
 10
98.1717
 20
12.22
 30
0.0
 11
98.4717
 21
12.22
 31
0.0
  0
LINE
  5
38
330
1E
100
AcDbEntity
  8
0
100
AcDbLine
 10
135.1716999999999
 20
12.22
 30
0.0
 11
135.1716999999999
 21
156.269250913514
 31
0.0
  0
LINE
  5
39
330
1E
100
AcDbEntity
  8
0
100
AcDbLine
 10
135.1716999999999
 20
12.22
 30
0.0
 11
135.1716999999999
 21
156.269250913514
 31
0.0
  0
LINE
  5
3A
330
1E
100
AcDbEntity
  8
0
100
AcDbLine
 10
90.12829999999999
 20
164.2249999999999
 30
0.0
 11
112.8282999999999
 21
157.352
 31
0.0
  0
LINE
  5
3B
330
1E
100
AcDbEntity
  8
0
100
AcDbLine
 10
112.8282999999999
 20
157.352
 30
0.0
 11
149.8283
 21
155.559
 31
0.0
  0
LINE
  5
3C
330
1E
100
AcDbEntity
  8
0
100
AcDbLine
 10
15.8283
 20
319.931
 30
0.0
 11
17.0283
 21
300.804
 31
0.0
  0
LINE
  5
3D
330
1E
100
AcDbEntity
  8
0
100
AcDbLine
 10
15.8283
 20
319.931
 30
0.0
 11
17.0283
 21
339.058
 31
0.0
  0
LINE
  5
3E
330
1E
100
AcDbEntity
  8
0
100
AcDbLine
 10
1.028299999999989
 20
339.855
 30
0.0
 11
4.92829999999998
 21
363.166
 31
0.0
  0
LINE
  5
3F
330
1E
100
AcDbEntity
  8
0
100
AcDbLine
 10
4.92829999999998
 20
363.166
 30
0.0
 11
11.4283
 21
386.875
 31
0.0
  0
LINE
  5
40
330
1E
100
AcDbEntity
  8
0
100
AcDbLine
 10
17.0283
 20
339.058
 30
0.0
 11
20.7283
 21
360.3769999999999
 31
0.0
  0
LINE
  5
41
330
1E
100
AcDbEntity
  8
0
100
AcDbLine
 10
11.4283
 20
386.875
 30
0.0
 11
22.12829999999999
 21
410.4849999999999
 31
0.0
  0
LINE
  5
42
330
1E
100
AcDbEntity
  8
0
100
AcDbLine
 10
-0.171700000000016
 20
319.931
 30
0.0
 11
1.028299999999989
 21
300.007
 31
0.0
  0
LINE
  5
43
330
1E
100
AcDbEntity
  8
0
100
AcDbLine
 10
-0.171700000000016
 20
319.931
 30
0.0
 11
1.028299999999989
 21
339.855
 31
0.0
  0
LINE
  5
44
330
1E
100
AcDbEntity
  8
0
100
AcDbLine
 10
20.7283
 20
360.3769999999999
 30
0.0
 11
26.4283
 21
381.3959999999999
 31
0.0
  0
LINE
  5
45
330
1E
100
AcDbEntity
  8
0
100
AcDbLine
 10
17.0283
 20
300.804
 30
0.0
 11
20.7283
 21
279.4859999999999
 31
0.0
  0
LINE
  5
46
330
1E
100
AcDbEntity
  8
0
100
AcDbLine
 10
1.028299999999989
 20
300.007
 30
0.0
 11
4.92829999999998
 21
276.6959999999999
 31
0.0
  0
LINE
  5
47
330
1E
100
AcDbEntity
  8
0
100
AcDbLine
 10
26.4283
 20
381.3959999999999
 30
0.0
 11
36.0283
 21
402.5159999999999
 31
0.0
  0
LINE
  5
48
330
1E
100
AcDbEntity
  8
0
100
AcDbLine
 10
22.12829999999999
 20
410.4849999999999
 30
0.0
 11
34.1283
 21
432.605
 31
0.0
  0
LINE
  5
49
330
1E
100
AcDbEntity
  8
0
100
AcDbLine
 10
20.7283
 20
279.4859999999999
 30
0.0
 11
26.4283
 21
258.4659999999999
 31
0.0
  0
LINE
  5
4A
330
1E
100
AcDbEntity
  8
0
100
AcDbLine
 10
4.92829999999998
 20
276.6959999999999
 30
0.0
 11
11.4283
 21
252.9869999999999
 31
0.0
  0
LINE
  5
4F
330
1E
100
AcDbEntity
  8
0
100
AcDbLine
 10
36.0283
 20
402.5159999999999
 30
0.0
 11
46.3283
 21
422.344
 31
0.0
  0
LINE
  5
54
330
1E
100
AcDbEntity
  8
0
100
AcDbLine
 10
34.1283
 20
432.605
 30
0.0
 11
46.4283
 21
454.122
 31
0.0
  0
LINE
  5
56
330
1E
100
AcDbEntity
  8
0
100
AcDbLine
 10
26.4283
 20
258.4659999999999
 30
0.0
 11
36.0283
 21
237.347
 31
0.0
  0
LINE
  5
57
330
1E
100
AcDbEntity
  8
0
100
AcDbLine
 10
11.4283
 20
252.9869999999999
 30
0.0
 11
22.12829999999999
 21
229.377
 31
0.0
  0
LINE
  5
61
330
1E
100
AcDbEntity
  8
0
100
AcDbLine
 10
46.3283
 20
422.344
 30
0.0
 11
59.4283
 21
444.758
 31
0.0
  0
LINE
  5
66
330
1E
100
AcDbEntity
  8
0
100
AcDbLine
 10
36.0283
 20
237.347
 30
0.0
 11
46.3283
 21
218.5189999999999
 31
0.0
  0
LINE
  5
67
330
1E
100
AcDbEntity
  8
0
100
AcDbLine
 10
22.12829999999999
 20
229.377
 30
0.0
 11
34.1283
 21
208.2579999999999
 31
0.0
  0
LINE
  5
68
330
1E
100
AcDbEntity
  8
0
100
AcDbLine
 10
46.4283
 20
454.122
 30
0.0
 11
55.4283
 21
473.648
 31
0.0
  0
LINE
  5
69
330
1E
100
AcDbEntity
  8
0
100
AcDbLine
 10
46.3283
 20
218.5189999999999
 30
0.0
 11
60.3283
 21
203.5759999999999
 31
0.0
  0
LINE
  5
6A
330
1E
100
AcDbEntity
  8
0
100
AcDbLine
 10
34.1283
 20
208.2579999999999
 30
0.0
 11
50.0283
 21
191.6209999999999
 31
0.0
  0
LINE
  5
6B
330
1E
100
AcDbEntity
  8
0
100
AcDbLine
 10
55.4283
 20
473.648
 30
0.0
 11
63.32833
 21
496.361
 31
0.0
  0
LINE
  5
6C
330
1E
100
AcDbEntity
  8
0
100
AcDbLine
 10
75.42833
 20
727.0589999999999
 30
0.0
 11
75.42833
 21
687.0589999999999
 31
0.0
  0
LINE
  5
6D
330
1E
100
AcDbEntity
  8
0
100
AcDbLine
 10
75.42833
 20
727.0589999999999
 30
0.0
 11
76.92833
 21
727.0589999999999
 31
0.0
  0
LINE
  5
6E
330
1E
100
AcDbEntity
  8
0
100
AcDbLine
 10
75.42833
 20
687.0589999999999
 30
0.0
 11
76.92833
 21
687.0589999999999
 31
0.0
  0
LINE
  5
6F
330
1E
100
AcDbEntity
  8
0
100
AcDbLine
 10
75.42833
 20
687.0589999999999
 30
0.0
 11
78.82833000000001
 21
687.0589999999999
 31
0.0
  0
LINE
  5
70
330
1E
100
AcDbEntity
  8
0
100
AcDbLine
 10
75.42833
 20
687.0589999999999
 30
0.0
 11
75.42833
 21
727.0589999999999
 31
0.0
  0
LINE
  5
71
330
1E
100
AcDbEntity
  8
0
100
AcDbLine
 10
75.42833
 20
687.0589999999999
 30
0.0
 11
79.32833000000001
 21
687.0589999999999
 31
0.0
  0
LINE
  5
72
330
1E
100
AcDbEntity
  8
0
100
AcDbLine
 10
74.128334
 20
544.7759999999999
 30
0.0
 11
77.02833000000001
 21
566.394
 31
0.0
  0
LINE
  5
73
330
1E
100
AcDbEntity
  8
0
100
AcDbLine
 10
69.52833000000001
 20
520.668
 30
0.0
 11
74.128334
 21
544.7759999999999
 31
0.0
  0
LINE
  5
74
330
1E
100
AcDbEntity
  8
0
100
AcDbLine
 10
63.32833
 20
496.361
 30
0.0
 11
69.52833000000001
 21
520.668
 31
0.0
  0
LINE
  5
75
330
1E
100
AcDbEntity
  8
0
100
AcDbLine
 10
68.82833000000001
 20
464.981
 30
0.0
 11
77.22833
 21
488.3909999999999
 31
0.0
  0
LINE
  5
76
330
1E
100
AcDbEntity
  8
0
100
AcDbLine
 10
59.4283
 20
444.758
 30
0.0
 11
68.82833000000001
 21
464.981
 31
0.0
  0
LINE
  5
77
330
1E
100
AcDbEntity
  8
0
100
AcDbLine
 10
60.3283
 20
203.5759999999999
 30
0.0
 11
78.12833000000001
 21
188.0349999999999
 31
0.0
  0
LINE
  5
78
330
1E
100
AcDbEntity
  8
0
100
AcDbLine
 10
50.0283
 20
191.6209999999999
 30
0.0
 11
70.12833
 21
174.1879999999999
 31
0.0
  0
LINE
  5
79
330
1E
100
AcDbEntity
  8
0
100
AcDbLine
 10
70.12833
 20
174.1879999999999
 30
0.0
 11
90.12829999999999
 21
164.2249999999999
 31
0.0
  0
LINE
  5
7A
330
1E
100
AcDbEntity
  8
0
100
AcDbLine
 10
76.92833
 20
727.0589999999999
 30
0.0
 11
79.72833
 21
727.0589999999999
 31
0.0
  0
LINE
  5
7B
330
1E
100
AcDbEntity
  8
0
100
AcDbLine
 10
76.92833
 20
687.0589999999999
 30
0.0
 11
78.82833000000001
 21
687.0589999999999
 31
0.0
  0
LINE
  5
7C
330
1E
100
AcDbEntity
  8
0
100
AcDbLine
 10
76.92833
 20
687.0589999999999
 30
0.0
 11
79.72833
 21
687.0589999999999
 31
0.0
  0
LINE
  5
7D
330
1E
100
AcDbEntity
  8
0
100
AcDbLine
 10
77.02833000000001
 20
566.394
 30
0.0
 11
78.82833000000001
 21
597.873
 31
0.0
  0
LINE
  5
7E
330
1E
100
AcDbEntity
  8
0
100
AcDbLine
 10
76.76796
 20
727.0589999999999
 30
0.0
 11
76.76796
 21
727.78
 31
0.0
  0
LINE
  5
7F
330
1E
100
AcDbEntity
  8
0
100
AcDbLine
 10
76.16795
 20
727.78
 30
0.0
 11
77.26795
 21
727.78
 31
0.0
  0
LINE
  5
80
330
1E
100
AcDbEntity
  8
0
100
AcDbLine
 10
76.16795
 20
727.78
 30
0.0
 11
76.76796
 21
727.78
 31
0.0
  0
LINE
  5
81
330
1E
100
AcDbEntity
  8
0
100
AcDbLine
 10
75.76796
 20
727.78
 30
0.0
 11
76.16795
 21
727.78
 31
0.0
  0
LINE
  5
82
330
1E
100
AcDbEntity
  8
0
100
AcDbLine
 10
77.22833
 20
488.3909999999999
 30
0.0
 11
84.02829999999999
 21
513.994
 31
0.0
  0
LINE
  5
83
330
1E
100
AcDbEntity
  8
0
100
AcDbLine
 10
79.72833
 20
687.0589999999999
 30
0.0
 11
83.22830000000001
 21
687.0589999999999
 31
0.0
  0
LINE
  5
84
330
1E
100
AcDbEntity
  8
0
100
AcDbLine
 10
79.32833000000001
 20
687.0589999999999
 30
0.0
 11
81.32833000000001
 21
687.0589999999999
 31
0.0
  0
LINE
  5
85
330
1E
100
AcDbEntity
  8
0
100
AcDbLine
 10
78.82833000000001
 20
597.873
 30
0.0
 11
78.82833000000001
 21
687.0589999999999
 31
0.0
  0
LINE
  5
86
330
1E
100
AcDbEntity
  8
0
100
AcDbLine
 10
79.72833
 20
727.0589999999999
 30
0.0
 11
83.22830000000001
 21
727.0589999999999
 31
0.0
  0
LINE
  5
87
330
1E
100
AcDbEntity
  8
0
100
AcDbLine
 10
78.82833000000001
 20
687.0589999999999
 30
0.0
 11
78.82833000000001
 21
597.873
 31
0.0
  0
LINE
  5
88
330
1E
100
AcDbEntity
  8
0
100
AcDbLine
 10
78.12833000000001
 20
188.0349999999999
 30
0.0
 11
95.62829999999999
 21
179.169
 31
0.0
  0
LINE
  5
89
330
1E
100
AcDbEntity
  8
0
100
AcDbLine
 10
78.96795999999999
 20
727.78
 30
0.0
 11
81.26796
 21
727.78
 31
0.0
  0
LINE
  5
8A
330
1E
100
AcDbEntity
  8
0
100
AcDbLine
 10
81.32833000000001
 20
687.0589999999999
 30
0.0
 11
83.9283
 21
687.0589999999999
 31
0.0
  0
LINE
  5
8B
330
1E
100
AcDbEntity
  8
0
100
AcDbLine
 10
81.26796
 20
727.78
 30
0.0
 11
83.96799999999998
 21
727.78
 31
0.0
  0
LINE
  5
8C
330
1E
100
AcDbEntity
  8
0
100
AcDbLine
 10
79.66795000000001
 20
727.78
 30
0.0
 11
81.76796000000001
 21
727.78
 31
0.0
  0
LINE
  5
8D
330
1E
100
AcDbEntity
  8
0
100
AcDbLine
 10
83.22830000000001
 20
727.0589999999999
 30
0.0
 11
86.8283
 21
727.0589999999999
 31
0.0
  0
LINE
  5
8E
330
1E
100
AcDbEntity
  8
0
100
AcDbLine
 10
83.9283
 20
687.0589999999999
 30
0.0
 11
86.68229999999999
 21
687.0589999999999
 31
0.0
  0
LINE
  5
8F
330
1E
100
AcDbEntity
  8
0
100
AcDbLine
 10
83.22830000000001
 20
687.0589999999999
 30
0.0
 11
86.8283
 21
687.0589999999999
 31
0.0
  0
LINE
  5
90
330
1E
100
AcDbEntity
  8
0
100
AcDbLine
 10
84.02829999999999
 20
513.994
 30
0.0
 11
89.12829999999999
 21
539.297
 31
0.0
  0
LINE
  5
91
330
1E
100
AcDbEntity
  8
0
100
AcDbLine
 10
87.80124658286899
 20
687.0589999999999
 30
0.0
 11
89.7283
 21
687.0589999999999
 31
0.0
  0
LINE
  5
92
330
1E
100
AcDbEntity
  8
0
100
AcDbLine
 10
86.8283
 20
727.0589999999999
 30
0.0
 11
90.4283
 21
727.0589999999999
 31
0.0
  0
LINE
  5
93
330
1E
100
AcDbEntity
  8
0
100
AcDbLine
 10
86.8283
 20
687.0589999999999
 30
0.0
 11
90.4283
 21
687.0589999999999
 31
0.0
  0
LINE
  5
94
330
1E
100
AcDbEntity
  8
0
100
AcDbLine
 10
89.7283
 20
687.0589999999999
 30
0.0
 11
92.42829999999999
 21
687.0589999999999
 31
0.0
  0
LINE
  5
95
330
1E
100
AcDbEntity
  8
0
100
AcDbLine
 10
90.4283
 20
727.0589999999999
 30
0.0
 11
93.8283
 21
727.0589999999999
 31
0.0
  0
LINE
  5
96
330
1E
100
AcDbEntity
  8
0
100
AcDbLine
 10
90.4283
 20
687.0589999999999
 30
0.0
 11
93.8283
 21
687.0589999999999
 31
0.0
  0
LINE
  5
97
330
1E
100
AcDbEntity
  8
0
100
AcDbLine
 10
89.12829999999999
 20
539.297
 30
0.0
 11
92.8283
 21
563.604
 31
0.0
  0
LINE
  5
98
330
1E
100
AcDbEntity
  8
0
100
AcDbLine
 10
89.56799999999999
 20
727.78
 30
0.0
 11
92.26799999999999
 21
727.78
 31
0.0
  0
LINE
  5
99
330
1E
100
AcDbEntity
  8
0
100
AcDbLine
 10
93.8283
 20
727.0589999999999
 30
0.0
 11
96.8283
 21
727.0589999999999
 31
0.0
  0
LINE
  5
9A
330
1E
100
AcDbEntity
  8
0
100
AcDbLine
 10
92.42829999999999
 20
687.0589999999999
 30
0.0
 11
94.6283
 21
687.0589999999999
 31
0.0
  0
LINE
  5
9B
330
1E
100
AcDbEntity
  8
0
100
AcDbLine
 10
93.8283
 20
687.0589999999999
 30
0.0
 11
96.8283
 21
687.0589999999999
 31
0.0
  0
LINE
  5
9C
330
1E
100
AcDbEntity
  8
0
100
AcDbLine
 10
92.8283
 20
563.604
 30
0.0
 11
94.82829999999999
 21
597.873
 31
0.0
  0
LINE
  5
9D
330
1E
100
AcDbEntity
  8
0
100
AcDbLine
 10
94.6283
 20
687.0589999999999
 30
0.0
 11
96.2283
 21
687.0589999999999
 31
0.0
  0
LINE
  5
9E
330
1E
100
AcDbEntity
  8
0
100
AcDbLine
 10
94.82829999999999
 20
687.0589999999999
 30
0.0
 11
94.82829999999999
 21
597.873
 31
0.0
  0
LINE
  5
9F
330
1E
100
AcDbEntity
  8
0
100
AcDbLine
 10
94.82829999999999
 20
687.0589999999999
 30
0.0
 11
96.8283
 21
687.0589999999999
 31
0.0
  0
LINE
  5
A0
330
1E
100
AcDbEntity
  8
0
100
AcDbLine
 10
94.82829999999999
 20
687.0589999999999
 30
0.0
 11
96.2283
 21
687.0589999999999
 31
0.0
  0
LINE
  5
A1
330
1E
100
AcDbEntity
  8
0
100
AcDbLine
 10
94.82829999999999
 20
597.873
 30
0.0
 11
94.82829999999999
 21
687.0589999999999
 31
0.0
  0
LINE
  5
A2
330
1E
100
AcDbEntity
  8
0
100
AcDbLine
 10
94.56799999999999
 20
727.78
 30
0.0
 11
96.26799999999999
 21
727.78
 31
0.0
  0
LINE
  5
A3
330
1E
100
AcDbEntity
  8
0
100
AcDbLine
 10
93.86799999999999
 20
727.78
 30
0.0
 11
95.46799999999999
 21
727.78
 31
0.0
  0
LINE
  5
A4
330
1E
100
AcDbEntity
  8
0
100
AcDbLine
 10
96.2283
 20
687.0589999999999
 30
0.0
 11
97.42829999999999
 21
687.0589999999999
 31
0.0
  0
LINE
  5
A5
330
1E
100
AcDbEntity
  8
0
100
AcDbLine
 10
95.62829999999999
 20
179.169
 30
0.0
 11
115.6282999999999
 21
173.092
 31
0.0
  0
LINE
  5
A6
330
1E
100
AcDbEntity
  8
0
100
AcDbLine
 10
96.768
 20
727.78
 30
0.0
 11
96.768
 21
727.0589999999999
 31
0.0
  0
LINE
  5
A7
330
1E
100
AcDbEntity
  8
0
100
AcDbLine
 10
96.768
 20
727.78
 30
0.0
 11
97.368
 21
727.78
 31
0.0
  0
LINE
  5
A8
330
1E
100
AcDbEntity
  8
0
100
AcDbLine
 10
96.26799999999999
 20
727.78
 30
0.0
 11
97.368
 21
727.78
 31
0.0
  0
LINE
  5
A9
330
1E
100
AcDbEntity
  8
0
100
AcDbLine
 10
95.46799999999999
 20
727.78
 30
0.0
 11
96.368
 21
727.78
 31
0.0
  0
LINE
  5
AA
330
1E
100
AcDbEntity
  8
0
100
AcDbLine
 10
96.368
 20
727.78
 30
0.0
 11
96.768
 21
727.78
 31
0.0
  0
LINE
  5
AB
330
1E
100
AcDbEntity
  8
0
100
AcDbLine
 10
97.42829999999999
 20
687.0589999999999
 30
0.0
 11
97.8283
 21
687.0589999999999
 31
0.0
  0
LINE
  5
AC
330
1E
100
AcDbEntity
  8
0
100
AcDbLine
 10
97.52830000000001
 20
687.0589999999999
 30
0.0
 11
99.6893
 21
687.0589999999999
 31
0.0
  0
LINE
  5
AD
330
1E
100
AcDbEntity
  8
0
100
AcDbLine
 10
97.52830000000001
 20
727.0589999999999
 30
0.0
 11
99.7713
 21
727.0589999999999
 31
0.0
  0
LINE
  5
AE
330
1E
100
AcDbEntity
  8
0
100
AcDbLine
 10
96.8283
 20
727.0589999999999
 30
0.0
 11
97.52830000000001
 21
727.0589999999999
 31
0.0
  0
LINE
  5
AF
330
1E
100
AcDbEntity
  8
0
100
AcDbLine
 10
96.8283
 20
687.0589999999999
 30
0.0
 11
97.52830000000001
 21
687.0589999999999
 31
0.0
  0
LINE
  5
B0
330
1E
100
AcDbEntity
  8
0
100
AcDbLine
 10
100.2623
 20
687.0589999999999
 30
0.0
 11
100.2623
 21
695.3181484799999
 31
0.0
  0
LINE
  5
B1
330
1E
100
AcDbEntity
  8
0
100
AcDbLine
 10
100.2623
 20
695.3181484799999
 30
0.0
 11
100.2623
 21
687.0589999999999
 31
0.0
  0
LINE
  5
B2
330
1E
100
AcDbEntity
  8
0
100
AcDbLine
 10
100.2623
 20
700.13
 30
0.0
 11
100.2623
 21
727.0589999999999
 31
0.0
  0
LINE
  5
B3
330
1E
100
AcDbEntity
  8
0
100
AcDbLine
 10
99.6893
 20
687.0589999999999
 30
0.0
 11
100.2623
 21
687.0589999999999
 31
0.0
  0
LINE
  5
B4
330
1E
100
AcDbEntity
  8
0
100
AcDbLine
 10
115.6282999999999
 20
173.092
 30
0.0
 11
149.8283
 21
171.4979999999999
 31
0.0
  0
LINE
  5
B5
330
1E
100
AcDbEntity
  8
0
100
AcDbLine
 10
100.2623
 20
695.22
 30
0.0
 11
135.1716999999999
 21
695.22
 31
0.0
  0
LINE
  5
B6
330
1E
100
AcDbEntity
  8
0
100
AcDbLine
 10
100.2623
 20
727.0589999999999
 30
0.0
 11
100.2623
 21
700.13
 31
0.0
  0
LINE
  5
B7
330
1E
100
AcDbEntity
  8
0
100
AcDbLine
 10
99.7713
 20
727.0589999999999
 30
0.0
 11
100.2623
 21
727.0589999999999
 31
0.0
  0
LINE
  5
B8
330
1E
100
AcDbEntity
  8
0
100
AcDbLine
 10
100.2623
 20
700.22
 30
0.0
 11
135.1716999999999
 21
700.22
 31
0.0
  0
LINE
  5
B9
330
1E
100
AcDbEntity
  8
0
100
AcDbLine
 10
97.76799999999999
 20
727.78
 30
0.0
 11
98.76799999999999
 21
728.7799999999999
 31
0.0
  0
LINE
  5
BA
330
1E
100
AcDbEntity
  8
0
100
AcDbLine
 10
97.368
 20
727.78
 30
0.0
 11
97.76799999999999
 21
727.78
 31
0.0
  0
LINE
  5
BB
330
1E
100
AcDbEntity
  8
0
100
AcDbLine
 10
96.768
 20
727.0589999999999
 30
0.0
 11
96.768
 21
727.78
 31
0.0
  0
LINE
  5
BC
330
1E
100
AcDbEntity
  8
0
100
AcDbLine
 10
92.26799999999999
 20
727.78
 30
0.0
 11
94.56799999999999
 21
727.78
 31
0.0
  0
LINE
  5
BD
330
1E
100
AcDbEntity
  8
0
100
AcDbLine
 10
91.76799999999998
 20
727.78
 30
0.0
 11
93.86799999999999
 21
727.78
 31
0.0
  0
LINE
  5
BE
330
1E
100
AcDbEntity
  8
0
100
AcDbLine
 10
89.36799999999999
 20
727.78
 30
0.0
 11
91.76799999999998
 21
727.78
 31
0.0
  0
LINE
  5
BF
330
1E
100
AcDbEntity
  8
0
100
AcDbLine
 10
86.76799999999998
 20
727.78
 30
0.0
 11
89.36799999999999
 21
727.78
 31
0.0
  0
LINE
  5
C0
330
1E
100
AcDbEntity
  8
0
100
AcDbLine
 10
86.76799999999998
 20
727.78
 30
0.0
 11
89.56799999999999
 21
727.78
 31
0.0
  0
LINE
  5
C1
330
1E
100
AcDbEntity
  8
0
100
AcDbLine
 10
83.96799999999998
 20
727.78
 30
0.0
 11
86.76799999999998
 21
727.78
 31
0.0
  0
LINE
  5
C2
330
1E
100
AcDbEntity
  8
0
100
AcDbLine
 10
81.76796000000001
 20
727.78
 30
0.0
 11
84.168
 21
727.78
 31
0.0
  0
LINE
  5
C3
330
1E
100
AcDbEntity
  8
0
100
AcDbLine
 10
84.168
 20
727.78
 30
0.0
 11
86.76799999999998
 21
727.78
 31
0.0
  0
LINE
  5
C4
330
1E
100
AcDbEntity
  8
0
100
AcDbLine
 10
77.26795
 20
727.78
 30
0.0
 11
78.96795999999999
 21
727.78
 31
0.0
  0
LINE
  5
C5
330
1E
100
AcDbEntity
  8
0
100
AcDbLine
 10
78.06796
 20
727.78
 30
0.0
 11
79.66795000000001
 21
727.78
 31
0.0
  0
LINE
  5
C6
330
1E
100
AcDbEntity
  8
0
100
AcDbLine
 10
77.16795000000001
 20
727.78
 30
0.0
 11
78.06796
 21
727.78
 31
0.0
  0
LINE
  5
C7
330
1E
100
AcDbEntity
  8
0
100
AcDbLine
 10
78.26795
 20
728.7799999999999
 30
0.0
 11
80.76795
 21
728.7799999999999
 31
0.0
  0
LINE
  5
C8
330
1E
100
AcDbEntity
  8
0
100
AcDbLine
 10
95.26799999999999
 20
728.7799999999999
 30
0.0
 11
97.16799999999999
 21
728.7799999999999
 31
0.0
  0
LINE
  5
C9
330
1E
100
AcDbEntity
  8
0
100
AcDbLine
 10
97.16799999999999
 20
728.7799999999999
 30
0.0
 11
98.368
 21
728.7799999999999
 31
0.0
  0
LINE
  5
CA
330
1E
100
AcDbEntity
  8
0
100
AcDbLine
 10
98.76799999999999
 20
728.7799999999999
 30
0.0
 11
98.76799999999999
 21
882.2799999999999
 31
0.0
  0
LINE
  5
CB
330
1E
100
AcDbEntity
  8
0
100
AcDbLine
 10
98.368
 20
728.7799999999999
 30
0.0
 11
98.76799999999999
 21
728.7799999999999
 31
0.0
  0
LINE
  5
CC
330
1E
100
AcDbEntity
  8
0
100
AcDbLine
 10
92.76799999999999
 20
728.7799999999999
 30
0.0
 11
95.26799999999999
 21
728.7799999999999
 31
0.0
  0
LINE
  5
CD
330
1E
100
AcDbEntity
  8
0
100
AcDbLine
 10
89.868
 20
728.7799999999999
 30
0.0
 11
92.76799999999999
 21
728.7799999999999
 31
0.0
  0
LINE
  5
CE
330
1E
100
AcDbEntity
  8
0
100
AcDbLine
 10
86.76799999999998
 20
728.7799999999999
 30
0.0
 11
89.868
 21
728.7799999999999
 31
0.0
  0
LINE
  5
CF
330
1E
100
AcDbEntity
  8
0
100
AcDbLine
 10
80.76795
 20
728.7799999999999
 30
0.0
 11
83.66799999999999
 21
728.7799999999999
 31
0.0
  0
LINE
  5
D0
330
1E
100
AcDbEntity
  8
0
100
AcDbLine
 10
83.66799999999999
 20
728.7799999999999
 30
0.0
 11
86.76799999999998
 21
728.7799999999999
 31
0.0
  0
LINE
  5
D1
330
1E
100
AcDbEntity
  8
0
100
AcDbLine
 10
76.36794999999999
 20
728.7799999999999
 30
0.0
 11
78.26795
 21
728.7799999999999
 31
0.0
  0
LINE
  5
D2
330
1E
100
AcDbEntity
  8
0
100
AcDbLine
 10
75.16795999999999
 20
728.7799999999999
 30
0.0
 11
76.36794999999999
 21
728.7799999999999
 31
0.0
  0
LINE
  5
D3
330
1E
100
AcDbEntity
  8
0
100
AcDbLine
 10
74.76795
 20
728.7799999999999
 30
0.0
 11
75.16795999999999
 21
728.7799999999999
 31
0.0
  0
LINE
  5
D4
330
1E
100
AcDbEntity
  8
0
100
AcDbLine
 10
74.76795
 20
728.7799999999999
 30
0.0
 11
75.76796
 21
727.78
 31
0.0
  0
LINE
  5
D5
330
1E
100
AcDbEntity
  8
0
100
AcDbLine
 10
74.76795
 20
728.7799999999999
 30
0.0
 11
74.76795
 21
882.2799999999999
 31
0.0
  0
LINE
  5
D6
330
1E
100
AcDbEntity
  8
0
100
AcDbLine
 10
76.76796
 20
727.78
 30
0.0
 11
76.76796
 21
727.0589999999999
 31
0.0
  0
LINE
  5
D7
330
1E
100
AcDbEntity
  8
0
100
AcDbLine
 10
76.76796
 20
727.78
 30
0.0
 11
77.16795000000001
 21
727.78
 31
0.0
  0
LINE
  5
D8
330
1E
100
AcDbEntity
  8
0
100
AcDbLine
 10
135.1716999999999
 20
695.22
 30
0.0
 11
135.1716999999999
 21
172.181117555556
 31
0.0
  0
LINE
  5
D9
330
1E
100
AcDbEntity
  8
0
100
AcDbLine
 10
135.1716999999999
 20
172.181117555556
 30
0.0
 11
135.1716999999999
 21
695.22
 31
0.0
  0
LINE
  5
DA
330
1E
100
AcDbEntity
  8
0
100
AcDbLine
 10
135.1716999999999
 20
172.181117555556
 30
0.0
 11
135.1716999999999
 21
714.743
 31
0.0
  0
LINE
  5
DB
330
1E
100
AcDbEntity
  8
0
100
AcDbLine
 10
135.1716999999999
 20
700.22
 30
0.0
 11
135.1716999999999
 21
714.743
 31
0.0
  0
LINE
  5
FA
330
1E
100
AcDbEntity
  8
0
100
AcDbLine
 10
85.91089999999999
 20
812.2799999999999
 30
0.0
 11
86.3394
 21
812.78
 31
0.0
  0
LINE
  5
FB
330
1E
100
AcDbEntity
  8
0
100
AcDbLine
 10
85.91089999999999
 20
812.2799999999999
 30
0.0
 11
85.91089999999999
 21
811.28
 31
0.0
  0
LINE
  5
104
330
1E
100
AcDbEntity
  8
0
100
AcDbLine
 10
87.19660000000001
 20
810.7799999999999
 30
0.0
 11
87.6251
 21
811.28
 31
0.0
  0
LINE
  5
105
330
1E
100
AcDbEntity
  8
0
100
AcDbLine
 10
87.6251
 20
811.28
 30
0.0
 11
87.6251
 21
812.2799999999999
 31
0.0
  0
LINE
  5
106
330
1E
100
AcDbEntity
  8
0
100
AcDbLine
 10
86.3394
 20
812.78
 30
0.0
 11
87.19660000000001
 21
812.78
 31
0.0
  0
LINE
  5
107
330
1E
100
AcDbEntity
  8
0
100
AcDbLine
 10
87.19660000000001
 20
812.78
 30
0.0
 11
87.6251
 21
812.2799999999999
 31
0.0
  0
LINE
  5
11E
330
1E
100
AcDbEntity
  8
0
100
AcDbLine
 10
87.6251
 20
812.2799999999999
 30
0.0
 11
87.6251
 21
811.28
 31
0.0
  0
LINE
  5
11F
330
1E
100
AcDbEntity
  8
0
100
AcDbLine
 10
86.3394
 20
810.7799999999999
 30
0.0
 11
87.19660000000001
 21
810.7799999999999
 31
0.0
  0
LINE
  5
120
330
1E
100
AcDbEntity
  8
0
100
AcDbLine
 10
85.91089999999999
 20
811.28
 30
0.0
 11
86.3394
 21
810.7799999999999
 31
0.0
  0
LINE
  5
121
330
1E
100
AcDbEntity
  8
0
100
AcDbLine
 10
85.91089999999999
 20
811.28
 30
0.0
 11
85.91089999999999
 21
812.2799999999999
 31
0.0
  0
LINE
  5
139
330
1E
100
AcDbEntity
  8
0
100
AcDbLine
 10
86.3394
 20
817.58
 30
0.0
 11
87.19660000000001
 21
817.58
 31
0.0
  0
LINE
  5
13A
330
1E
100
AcDbEntity
  8
0
100
AcDbLine
 10
87.19660000000001
 20
817.58
 30
0.0
 11
87.6251
 21
818.0800000000001
 31
0.0
  0
LINE
  5
14D
330
1E
100
AcDbEntity
  8
0
100
AcDbLine
 10
87.6251
 20
818.0800000000001
 30
0.0
 11
87.6251
 21
819.0800000000001
 31
0.0
  0
LINE
  5
14E
330
1E
100
AcDbEntity
  8
0
100
AcDbLine
 10
87.6251
 20
819.0800000000001
 30
0.0
 11
87.6251
 21
818.0800000000001
 31
0.0
  0
LINE
  5
14F
330
1E
100
AcDbEntity
  8
0
100
AcDbLine
 10
85.91089999999999
 20
818.0800000000001
 30
0.0
 11
86.3394
 21
817.58
 31
0.0
  0
LINE
  5
150
330
1E
100
AcDbEntity
  8
0
100
AcDbLine
 10
85.91089999999999
 20
818.0800000000001
 30
0.0
 11
85.91089999999999
 21
819.0800000000001
 31
0.0
  0
LINE
  5
151
330
1E
100
AcDbEntity
  8
0
100
AcDbLine
 10
85.91089999999999
 20
819.0800000000001
 30
0.0
 11
86.3394
 21
819.58
 31
0.0
  0
LINE
  5
152
330
1E
100
AcDbEntity
  8
0
100
AcDbLine
 10
85.91089999999999
 20
819.0800000000001
 30
0.0
 11
85.91089999999999
 21
818.0800000000001
 31
0.0
  0
LINE
  5
168
330
1E
100
AcDbEntity
  8
0
100
AcDbLine
 10
87.19660000000001
 20
819.58
 30
0.0
 11
87.6251
 21
819.0800000000001
 31
0.0
  0
LINE
  5
169
330
1E
100
AcDbEntity
  8
0
100
AcDbLine
 10
86.3394
 20
824.38
 30
0.0
 11
87.19660000000001
 21
824.38
 31
0.0
  0
LINE
  5
172
330
1E
100
AcDbEntity
  8
0
100
AcDbLine
 10
87.19660000000001
 20
824.38
 30
0.0
 11
87.6251
 21
824.8799999999999
 31
0.0
  0
LINE
  5
173
330
1E
100
AcDbEntity
  8
0
100
AcDbLine
 10
86.3394
 20
819.58
 30
0.0
 11
87.19660000000001
 21
819.58
 31
0.0
  0
LINE
  5
17A
330
1E
100
AcDbEntity
  8
0
100
AcDbLine
 10
135.1716999999999
 20
815.6599999999999
 30
0.0
 11
135.1716999999999
 21
824.468
 31
0.0
  0
LINE
  5
17B
330
1E
100
AcDbEntity
  8
0
100
AcDbLine
 10
135.1716999999999
 20
815.6599999999999
 30
0.0
 11
135.1716999999999
 21
808.1369999999999
 31
0.0
  0
LINE
  5
17C
330
1E
100
AcDbEntity
  8
0
100
AcDbLine
 10
135.1716999999999
 20
808.1369999999999
 30
0.0
 11
135.1716999999999
 21
815.6599999999999
 31
0.0
  0
LINE
  5
17D
330
1E
100
AcDbEntity
  8
0
100
AcDbLine
 10
135.1716999999999
 20
808.1369999999999
 30
0.0
 11
135.1716999999999
 21
769.789
 31
0.0
  0
LINE
  5
198
330
1E
100
AcDbEntity
  8
0
100
AcDbLine
 10
87.6251
 20
824.8799999999999
 30
0.0
 11
87.6251
 21
825.88
 31
0.0
  0
LINE
  5
199
330
1E
100
AcDbEntity
  8
0
100
AcDbLine
 10
85.91089999999999
 20
824.8799999999999
 30
0.0
 11
86.3394
 21
824.38
 31
0.0
  0
LINE
  5
19A
330
1E
100
AcDbEntity
  8
0
100
AcDbLine
 10
85.91089999999999
 20
824.8799999999999
 30
0.0
 11
85.91089999999999
 21
825.88
 31
0.0
  0
LINE
  5
1A3
330
1E
100
AcDbEntity
  8
0
100
AcDbLine
 10
87.6251
 20
825.88
 30
0.0
 11
87.6251
 21
824.8799999999999
 31
0.0
  0
LINE
  5
1A4
330
1E
100
AcDbEntity
  8
0
100
AcDbLine
 10
85.91089999999999
 20
825.88
 30
0.0
 11
86.3394
 21
826.3799999999999
 31
0.0
  0
LINE
  5
1A5
330
1E
100
AcDbEntity
  8
0
100
AcDbLine
 10
85.91089999999999
 20
825.88
 30
0.0
 11
85.91089999999999
 21
824.8799999999999
 31
0.0
  0
LINE
  5
1C4
330
1E
100
AcDbEntity
  8
0
100
AcDbLine
 10
87.19660000000001
 20
826.3799999999999
 30
0.0
 11
87.6251
 21
825.88
 31
0.0
  0
LINE
  5
1CF
330
1E
100
AcDbEntity
  8
0
100
AcDbLine
 10
87.19660000000001
 20
831.1799999999999
 30
0.0
 11
87.6251
 21
831.6799999999998
 31
0.0
  0
LINE
  5
1D8
330
1E
100
AcDbEntity
  8
0
100
AcDbLine
 10
86.3394
 20
831.1799999999999
 30
0.0
 11
87.19660000000001
 21
831.1799999999999
 31
0.0
  0
LINE
  5
1D9
330
1E
100
AcDbEntity
  8
0
100
AcDbLine
 10
85.91089999999999
 20
831.6799999999998
 30
0.0
 11
85.91089999999999
 21
832.68
 31
0.0
  0
LINE
  5
1DA
330
1E
100
AcDbEntity
  8
0
100
AcDbLine
 10
85.91089999999999
 20
831.6799999999998
 30
0.0
 11
86.3394
 21
831.1799999999999
 31
0.0
  0
LINE
  5
1DB
330
1E
100
AcDbEntity
  8
0
100
AcDbLine
 10
85.91089999999999
 20
832.68
 30
0.0
 11
86.3394
 21
833.1799999999999
 31
0.0
  0
LINE
  5
1DC
330
1E
100
AcDbEntity
  8
0
100
AcDbLine
 10
85.91089999999999
 20
832.68
 30
0.0
 11
85.91089999999999
 21
831.6799999999998
 31
0.0
  0
LINE
  5
1DD
330
1E
100
AcDbEntity
  8
0
100
AcDbLine
 10
86.3394
 20
833.1799999999999
 30
0.0
 11
87.19660000000001
 21
833.1799999999999
 31
0.0
  0
LINE
  5
1EC
330
1E
100
AcDbEntity
  8
0
100
AcDbLine
 10
87.6251
 20
832.68
 30
0.0
 11
87.6251
 21
831.6799999999998
 31
0.0
  0
LINE
  5
1ED
330
1E
100
AcDbEntity
  8
0
100
AcDbLine
 10
87.19660000000001
 20
833.1799999999999
 30
0.0
 11
87.6251
 21
832.68
 31
0.0
  0
LINE
  5
1EE
330
1E
100
AcDbEntity
  8
0
100
AcDbLine
 10
87.6251
 20
831.6799999999998
 30
0.0
 11
87.6251
 21
832.68
 31
0.0
  0
LINE
  5
1F1
330
1E
100
AcDbEntity
  8
0
100
AcDbLine
 10
86.3394
 20
826.3799999999999
 30
0.0
 11
87.19660000000001
 21
826.3799999999999
 31
0.0
  0
LINE
  5
20E
330
1E
100
AcDbEntity
  8
0
100
AcDbLine
 10
85.91089999999999
 20
838.48
 30
0.0
 11
86.3394
 21
837.9799999999999
 31
0.0
  0
LINE
  5
20F
330
1E
100
AcDbEntity
  8
0
100
AcDbLine
 10
85.91089999999999
 20
838.48
 30
0.0
 11
85.91089999999999
 21
839.48
 31
0.0
  0
LINE
  5
210
330
1E
100
AcDbEntity
  8
0
100
AcDbLine
 10
86.3394
 20
837.9799999999999
 30
0.0
 11
87.19660000000001
 21
837.9799999999999
 31
0.0
  0
LINE
  5
229
330
1E
100
AcDbEntity
  8
0
100
AcDbLine
 10
87.6251
 20
838.48
 30
0.0
 11
87.6251
 21
839.48
 31
0.0
  0
LINE
  5
230
330
1E
100
AcDbEntity
  8
0
100
AcDbLine
 10
87.6251
 20
839.48
 30
0.0
 11
87.6251
 21
838.48
 31
0.0
  0
LINE
  5
231
330
1E
100
AcDbEntity
  8
0
100
AcDbLine
 10
87.19660000000001
 20
837.9799999999999
 30
0.0
 11
87.6251
 21
838.48
 31
0.0
  0
LINE
  5
232
330
1E
100
AcDbEntity
  8
0
100
AcDbLine
 10
87.19660000000001
 20
839.98
 30
0.0
 11
87.6251
 21
839.48
 31
0.0
  0
LINE
  5
233
330
1E
100
AcDbEntity
  8
0
100
AcDbLine
 10
85.91089999999999
 20
839.48
 30
0.0
 11
86.3394
 21
839.98
 31
0.0
  0
LINE
  5
234
330
1E
100
AcDbEntity
  8
0
100
AcDbLine
 10
85.91089999999999
 20
839.48
 30
0.0
 11
85.91089999999999
 21
838.48
 31
0.0
  0
LINE
  5
235
330
1E
100
AcDbEntity
  8
0
100
AcDbLine
 10
86.3394
 20
839.98
 30
0.0
 11
87.19660000000001
 21
839.98
 31
0.0
  0
LINE
  5
23E
330
1E
100
AcDbEntity
  8
0
100
AcDbLine
 10
135.1716999999999
 20
843.3669999999999
 30
0.0
 11
135.1716999999999
 21
851.965
 31
0.0
  0
LINE
  5
23F
330
1E
100
AcDbEntity
  8
0
100
AcDbLine
 10
135.1716999999999
 20
843.3669999999999
 30
0.0
 11
135.1716999999999
 21
834.009
 31
0.0
  0
LINE
  5
240
330
1E
100
AcDbEntity
  8
0
100
AcDbLine
 10
135.1716999999999
 20
834.009
 30
0.0
 11
135.1716999999999
 21
843.3669999999999
 31
0.0
  0
LINE
  5
241
330
1E
100
AcDbEntity
  8
0
100
AcDbLine
 10
135.1716999999999
 20
834.009
 30
0.0
 11
135.1716999999999
 21
824.468
 31
0.0
  0
LINE
  5
242
330
1E
100
AcDbEntity
  8
0
100
AcDbLine
 10
135.1716999999999
 20
824.468
 30
0.0
 11
135.1716999999999
 21
834.009
 31
0.0
  0
LINE
  5
243
330
1E
100
AcDbEntity
  8
0
100
AcDbLine
 10
135.1716999999999
 20
824.468
 30
0.0
 11
135.1716999999999
 21
815.6599999999999
 31
0.0
  0
LINE
  5
253
330
1E
100
AcDbEntity
  8
0
100
AcDbLine
 10
87.19660000000001
 20
844.7799999999999
 30
0.0
 11
87.6251
 21
845.2799999999999
 31
0.0
  0
LINE
  5
254
330
1E
100
AcDbEntity
  8
0
100
AcDbLine
 10
86.3394
 20
844.7799999999999
 30
0.0
 11
87.19660000000001
 21
844.7799999999999
 31
0.0
  0
LINE
  5
263
330
1E
100
AcDbEntity
  8
0
100
AcDbLine
 10
85.91089999999999
 20
845.2799999999999
 30
0.0
 11
85.91089999999999
 21
846.2799999999999
 31
0.0
  0
LINE
  5
264
330
1E
100
AcDbEntity
  8
0
100
AcDbLine
 10
85.91089999999999
 20
845.2799999999999
 30
0.0
 11
86.3394
 21
844.7799999999999
 31
0.0
  0
LINE
  5
265
330
1E
100
AcDbEntity
  8
0
100
AcDbLine
 10
87.6251
 20
845.2799999999999
 30
0.0
 11
87.6251
 21
846.2799999999999
 31
0.0
  0
LINE
  5
270
330
1E
100
AcDbEntity
  8
0
100
AcDbLine
 10
87.6251
 20
846.2799999999999
 30
0.0
 11
87.6251
 21
845.2799999999999
 31
0.0
  0
LINE
  5
271
330
1E
100
AcDbEntity
  8
0
100
AcDbLine
 10
85.91089999999999
 20
846.2799999999999
 30
0.0
 11
86.3394
 21
846.78
 31
0.0
  0
LINE
  5
272
330
1E
100
AcDbEntity
  8
0
100
AcDbLine
 10
85.91089999999999
 20
846.2799999999999
 30
0.0
 11
85.91089999999999
 21
845.2799999999999
 31
0.0
  0
LINE
  5
273
330
1E
100
AcDbEntity
  8
0
100
AcDbLine
 10
86.3394
 20
846.78
 30
0.0
 11
87.19660000000001
 21
846.78
 31
0.0
  0
LINE
  5
27A
330
1E
100
AcDbEntity
  8
0
100
AcDbLine
 10
87.19660000000001
 20
846.78
 30
0.0
 11
87.6251
 21
846.2799999999999
 31
0.0
  0
LINE
  5
28A
330
1E
100
AcDbEntity
  8
0
100
AcDbLine
 10
124.1988
 20
850.253
 30
0.0
 11
124.3788
 21
849.965
 31
0.0
  0
LINE
  5
28B
330
1E
100
AcDbEntity
  8
0
100
AcDbLine
 10
124.1988
 20
850.253
 30
0.0
 11
124.1988
 21
850.685
 31
0.0
  0
LINE
  5
28C
330
1E
100
AcDbEntity
  8
0
100
AcDbLine
 10
124.3788
 20
849.965
 30
0.0
 11
127.1988
 21
849.965
 31
0.0
  0
LINE
  5
28D
330
1E
100
AcDbEntity
  8
0
100
AcDbLine
 10
124.3788
 20
849.965
 30
0.0
 11
124.3788
 21
850.3969999999998
 31
0.0
  0
LINE
  5
28E
330
1E
100
AcDbEntity
  8
0
100
AcDbLine
 10
127.1988
 20
849.965
 30
0.0
 11
127.1988
 21
850.3969999999998
 31
0.0
  0
LINE
  5
28F
330
1E
100
AcDbEntity
  8
0
100
AcDbLine
 10
124.3788
 20
850.3969999999998
 30
0.0
 11
124.3788
 21
849.965
 31
0.0
  0
LINE
  5
290
330
1E
100
AcDbEntity
  8
0
100
AcDbLine
 10
124.3788
 20
850.3969999999998
 30
0.0
 11
124.3788
 21
851.5489999999999
 31
0.0
  0
LINE
  5
29B
330
1E
100
AcDbEntity
  8
0
100
AcDbLine
 10
87.19660000000001
 20
851.58
 30
0.0
 11
87.6251
 21
852.0800000000001
 31
0.0
  0
LINE
  5
29C
330
1E
100
AcDbEntity
  8
0
100
AcDbLine
 10
86.3394
 20
851.58
 30
0.0
 11
87.19660000000001
 21
851.58
 31
0.0
  0
LINE
  5
2A5
330
1E
100
AcDbEntity
  8
0
100
AcDbLine
 10
85.91089999999999
 20
852.0800000000001
 30
0.0
 11
85.91089999999999
 21
853.0800000000001
 31
0.0
  0
LINE
  5
2A6
330
1E
100
AcDbEntity
  8
0
100
AcDbLine
 10
85.91089999999999
 20
852.0800000000001
 30
0.0
 11
86.3394
 21
851.58
 31
0.0
  0
LINE
  5
2AF
330
1E
100
AcDbEntity
  8
0
100
AcDbLine
 10
87.6251
 20
852.0800000000001
 30
0.0
 11
87.6251
 21
853.0800000000001
 31
0.0
  0
LINE
  5
2BC
330
1E
100
AcDbEntity
  8
0
100
AcDbLine
 10
87.6251
 20
853.0800000000001
 30
0.0
 11
87.6251
 21
852.0800000000001
 31
0.0
  0
LINE
  5
2BD
330
1E
100
AcDbEntity
  8
0
100
AcDbLine
 10
85.91089999999999
 20
853.0800000000001
 30
0.0
 11
86.3394
 21
853.58
 31
0.0
  0
LINE
  5
2BE
330
1E
100
AcDbEntity
  8
0
100
AcDbLine
 10
85.91089999999999
 20
853.0800000000001
 30
0.0
 11
85.91089999999999
 21
852.0800000000001
 31
0.0
  0
LINE
  5
2C9
330
1E
100
AcDbEntity
  8
0
100
AcDbLine
 10
124.1988
 20
851.837
 30
0.0
 11
124.1988
 21
850.685
 31
0.0
  0
LINE
  5
2CA
330
1E
100
AcDbEntity
  8
0
100
AcDbLine
 10
124.1988
 20
851.837
 30
0.0
 11
124.1988
 21
853.7089999999999
 31
0.0
  0
LINE
  5
2CB
330
1E
100
AcDbEntity
  8
0
100
AcDbLine
 10
124.1988
 20
850.685
 30
0.0
 11
124.1988
 21
850.253
 31
0.0
  0
LINE
  5
2CC
330
1E
100
AcDbEntity
  8
0
100
AcDbLine
 10
124.1988
 20
850.685
 30
0.0
 11
124.1988
 21
851.837
 31
0.0
  0
LINE
  5
2CD
330
1E
100
AcDbEntity
  8
0
100
AcDbLine
 10
124.3788
 20
853.4689999999999
 30
0.0
 11
124.3788
 21
851.5489999999999
 31
0.0
  0
LINE
  5
2CE
330
1E
100
AcDbEntity
  8
0
100
AcDbLine
 10
124.3788
 20
853.4689999999999
 30
0.0
 11
124.3788
 21
856.013
 31
0.0
  0
LINE
  5
2CF
330
1E
100
AcDbEntity
  8
0
100
AcDbLine
 10
127.1988
 20
851.965
 30
0.0
 11
135.1716999999999
 21
851.965
 31
0.0
  0
LINE
  5
2D0
330
1E
100
AcDbEntity
  8
0
100
AcDbLine
 10
124.3788
 20
851.5489999999999
 30
0.0
 11
124.3788
 21
850.3969999999998
 31
0.0
  0
LINE
  5
2D1
330
1E
100
AcDbEntity
  8
0
100
AcDbLine
 10
124.3788
 20
851.5489999999999
 30
0.0
 11
124.3788
 21
853.4689999999999
 31
0.0
  0
LINE
  5
2D8
330
1E
100
AcDbEntity
  8
0
100
AcDbLine
 10
86.3394
 20
853.58
 30
0.0
 11
87.19660000000001
 21
853.58
 31
0.0
  0
LINE
  5
2D9
330
1E
100
AcDbEntity
  8
0
100
AcDbLine
 10
87.19660000000001
 20
853.58
 30
0.0
 11
87.6251
 21
853.0800000000001
 31
0.0
  0
LINE
  5
2E0
330
1E
100
AcDbEntity
  8
0
100
AcDbLine
 10
124.1988
 20
853.7089999999999
 30
0.0
 11
124.1988
 21
851.837
 31
0.0
  0
LINE
  5
2E1
330
1E
100
AcDbEntity
  8
0
100
AcDbLine
 10
124.1988
 20
853.7089999999999
 30
0.0
 11
124.1988
 21
856.1569999999999
 31
0.0
  0
LINE
  5
2E2
330
1E
100
AcDbEntity
  8
0
100
AcDbLine
 10
124.1988
 20
856.1569999999999
 30
0.0
 11
124.1988
 21
853.7089999999999
 31
0.0
  0
LINE
  5
2E3
330
1E
100
AcDbEntity
  8
0
100
AcDbLine
 10
124.1988
 20
856.1569999999999
 30
0.0
 11
124.1988
 21
858.941
 31
0.0
  0
LINE
  5
2E4
330
1E
100
AcDbEntity
  8
0
100
AcDbLine
 10
124.3788
 20
856.013
 30
0.0
 11
124.3788
 21
853.4689999999999
 31
0.0
  0
LINE
  5
2E5
330
1E
100
AcDbEntity
  8
0
100
AcDbLine
 10
124.3788
 20
856.013
 30
0.0
 11
124.3788
 21
858.8930000000001
 31
0.0
  0
LINE
  5
2E6
330
1E
100
AcDbEntity
  8
0
100
AcDbLine
 10
127.1988
 20
856.013
 30
0.0
 11
127.1988
 21
853.4689999999999
 31
0.0
  0
LINE
  5
2E7
330
1E
100
AcDbEntity
  8
0
100
AcDbLine
 10
127.1988
 20
856.013
 30
0.0
 11
127.1988
 21
858.8930000000001
 31
0.0
  0
LINE
  5
2E8
330
1E
100
AcDbEntity
  8
0
100
AcDbLine
 10
127.1988
 20
853.4689999999999
 30
0.0
 11
127.1988
 21
851.5489999999999
 31
0.0
  0
LINE
  5
2E9
330
1E
100
AcDbEntity
  8
0
100
AcDbLine
 10
127.1988
 20
853.4689999999999
 30
0.0
 11
127.1988
 21
856.013
 31
0.0
  0
LINE
  5
2EA
330
1E
100
AcDbEntity
  8
0
100
AcDbLine
 10
127.1988
 20
851.5489999999999
 30
0.0
 11
127.1988
 21
850.3969999999998
 31
0.0
  0
LINE
  5
2EB
330
1E
100
AcDbEntity
  8
0
100
AcDbLine
 10
127.1988
 20
851.5489999999999
 30
0.0
 11
127.1988
 21
853.4689999999999
 31
0.0
  0
LINE
  5
2EC
330
1E
100
AcDbEntity
  8
0
100
AcDbLine
 10
127.1988
 20
850.3969999999998
 30
0.0
 11
127.1988
 21
849.965
 31
0.0
  0
LINE
  5
2ED
330
1E
100
AcDbEntity
  8
0
100
AcDbLine
 10
127.1988
 20
850.3969999999998
 30
0.0
 11
127.1988
 21
851.5489999999999
 31
0.0
  0
LINE
  5
2EE
330
1E
100
AcDbEntity
  8
0
100
AcDbLine
 10
135.1716999999999
 20
851.965
 30
0.0
 11
135.1716999999999
 21
843.3669999999999
 31
0.0
  0
LINE
  5
2F7
330
1E
100
AcDbEntity
  8
0
100
AcDbLine
 10
86.3394
 20
858.38
 30
0.0
 11
87.19660000000001
 21
858.38
 31
0.0
  0
LINE
  5
2F8
330
1E
100
AcDbEntity
  8
0
100
AcDbLine
 10
87.19660000000001
 20
858.38
 30
0.0
 11
87.6251
 21
858.88
 31
0.0
  0
LINE
  5
309
330
1E
100
AcDbEntity
  8
0
100
AcDbLine
 10
87.6251
 20
858.88
 30
0.0
 11
87.6251
 21
859.88
 31
0.0
  0
LINE
  5
30A
330
1E
100
AcDbEntity
  8
0
100
AcDbLine
 10
85.91089999999999
 20
858.88
 30
0.0
 11
86.3394
 21
858.38
 31
0.0
  0
LINE
  5
30B
330
1E
100
AcDbEntity
  8
0
100
AcDbLine
 10
85.91089999999999
 20
858.88
 30
0.0
 11
85.91089999999999
 21
859.88
 31
0.0
  0
LINE
  5
314
330
1E
100
AcDbEntity
  8
0
100
AcDbLine
 10
124.3788
 20
858.8930000000001
 30
0.0
 11
124.3788
 21
856.013
 31
0.0
  0
LINE
  5
315
330
1E
100
AcDbEntity
  8
0
100
AcDbLine
 10
124.3788
 20
858.8930000000001
 30
0.0
 11
124.3788
 21
861.965
 31
0.0
  0
LINE
  5
323
330
1E
100
AcDbEntity
  8
0
100
AcDbLine
 10
87.6251
 20
859.88
 30
0.0
 11
87.6251
 21
858.88
 31
0.0
  0
LINE
  5
324
330
1E
100
AcDbEntity
  8
0
100
AcDbLine
 10
85.91089999999999
 20
859.88
 30
0.0
 11
86.3394
 21
860.3799999999999
 31
0.0
  0
LINE
  5
325
330
1E
100
AcDbEntity
  8
0
100
AcDbLine
 10
85.91089999999999
 20
859.88
 30
0.0
 11
85.91089999999999
 21
858.88
 31
0.0
  0
LINE
  5
32F
330
1E
100
AcDbEntity
  8
0
100
AcDbLine
 10
87.19660000000001
 20
860.3799999999999
 30
0.0
 11
87.6251
 21
859.88
 31
0.0
  0
LINE
  5
330
330
1E
100
AcDbEntity
  8
0
100
AcDbLine
 10
86.3394
 20
860.3799999999999
 30
0.0
 11
87.19660000000001
 21
860.3799999999999
 31
0.0
  0
LINE
  5
337
330
1E
100
AcDbEntity
  8
0
100
AcDbLine
 10
124.1988
 20
861.965
 30
0.0
 11
124.1988
 21
858.941
 31
0.0
  0
LINE
  5
338
330
1E
100
AcDbEntity
  8
0
100
AcDbLine
 10
124.1988
 20
861.965
 30
0.0
 11
124.1988
 21
864.9889999999999
 31
0.0
  0
LINE
  5
339
330
1E
100
AcDbEntity
  8
0
100
AcDbLine
 10
124.1988
 20
858.941
 30
0.0
 11
124.1988
 21
856.1569999999999
 31
0.0
  0
LINE
  5
33A
330
1E
100
AcDbEntity
  8
0
100
AcDbLine
 10
124.1988
 20
858.941
 30
0.0
 11
124.1988
 21
861.965
 31
0.0
  0
LINE
  5
35B
330
1E
100
AcDbEntity
  8
0
100
AcDbLine
 10
87.6251
 20
865.68
 30
0.0
 11
87.6251
 21
866.68
 31
0.0
  0
LINE
  5
35C
330
1E
100
AcDbEntity
  8
0
100
AcDbLine
 10
87.19660000000001
 20
865.1799999999999
 30
0.0
 11
87.6251
 21
865.68
 31
0.0
  0
LINE
  5
35D
330
1E
100
AcDbEntity
  8
0
100
AcDbLine
 10
86.3394
 20
865.1799999999999
 30
0.0
 11
87.19660000000001
 21
865.1799999999999
 31
0.0
  0
LINE
  5
35E
330
1E
100
AcDbEntity
  8
0
100
AcDbLine
 10
85.91089999999999
 20
866.68
 30
0.0
 11
86.3394
 21
867.1799999999999
 31
0.0
  0
LINE
  5
35F
330
1E
100
AcDbEntity
  8
0
100
AcDbLine
 10
85.91089999999999
 20
866.68
 30
0.0
 11
85.91089999999999
 21
865.68
 31
0.0
  0
LINE
  5
368
330
1E
100
AcDbEntity
  8
0
100
AcDbLine
 10
87.6251
 20
866.68
 30
0.0
 11
87.6251
 21
865.68
 31
0.0
  0
LINE
  5
36D
330
1E
100
AcDbEntity
  8
0
100
AcDbLine
 10
86.3394
 20
867.1799999999999
 30
0.0
 11
87.19660000000001
 21
867.1799999999999
 31
0.0
  0
LINE
  5
374
330
1E
100
AcDbEntity
  8
0
100
AcDbLine
 10
87.19660000000001
 20
867.1799999999999
 30
0.0
 11
87.6251
 21
866.68
 31
0.0
  0
LINE
  5
37F
330
1E
100
AcDbEntity
  8
0
100
AcDbLine
 10
85.91089999999999
 20
865.68
 30
0.0
 11
86.3394
 21
865.1799999999999
 31
0.0
  0
LINE
  5
380
330
1E
100
AcDbEntity
  8
0
100
AcDbLine
 10
85.91089999999999
 20
865.68
 30
0.0
 11
85.91089999999999
 21
866.68
 31
0.0
  0
LINE
  5
381
330
1E
100
AcDbEntity
  8
0
100
AcDbLine
 10
124.1988
 20
864.9889999999999
 30
0.0
 11
124.1988
 21
861.965
 31
0.0
  0
LINE
  5
382
330
1E
100
AcDbEntity
  8
0
100
AcDbLine
 10
124.1988
 20
864.9889999999999
 30
0.0
 11
124.1988
 21
867.773
 31
0.0
  0
LINE
  5
383
330
1E
100
AcDbEntity
  8
0
100
AcDbLine
 10
124.1988
 20
867.773
 30
0.0
 11
124.1988
 21
864.9889999999999
 31
0.0
  0
LINE
  5
384
330
1E
100
AcDbEntity
  8
0
100
AcDbLine
 10
124.1988
 20
867.773
 30
0.0
 11
124.1988
 21
870.221
 31
0.0
  0
LINE
  5
385
330
1E
100
AcDbEntity
  8
0
100
AcDbLine
 10
124.3788
 20
865.0369999999998
 30
0.0
 11
124.3788
 21
861.965
 31
0.0
  0
LINE
  5
386
330
1E
100
AcDbEntity
  8
0
100
AcDbLine
 10
124.3788
 20
865.0369999999998
 30
0.0
 11
124.3788
 21
867.9169999999999
 31
0.0
  0
LINE
  5
387
330
1E
100
AcDbEntity
  8
0
100
AcDbLine
 10
124.3788
 20
867.9169999999999
 30
0.0
 11
124.3788
 21
865.0369999999998
 31
0.0
  0
LINE
  5
388
330
1E
100
AcDbEntity
  8
0
100
AcDbLine
 10
124.3788
 20
867.9169999999999
 30
0.0
 11
124.3788
 21
870.461
 31
0.0
  0
LINE
  5
389
330
1E
100
AcDbEntity
  8
0
100
AcDbLine
 10
127.1988
 20
865.0369999999998
 30
0.0
 11
127.1988
 21
861.965
 31
0.0
  0
LINE
  5
38A
330
1E
100
AcDbEntity
  8
0
100
AcDbLine
 10
127.1988
 20
865.0369999999998
 30
0.0
 11
127.1988
 21
867.9169999999999
 31
0.0
  0
LINE
  5
38B
330
1E
100
AcDbEntity
  8
0
100
AcDbLine
 10
124.1988
 20
870.221
 30
0.0
 11
124.1988
 21
867.773
 31
0.0
  0
LINE
  5
38C
330
1E
100
AcDbEntity
  8
0
100
AcDbLine
 10
124.1988
 20
870.221
 30
0.0
 11
124.1988
 21
872.093
 31
0.0
  0
LINE
  5
38D
330
1E
100
AcDbEntity
  8
0
100
AcDbLine
 10
127.1988
 20
871.9649999999999
 30
0.0
 11
135.1716999999999
 21
871.9649999999999
 31
0.0
  0
LINE
  5
38E
330
1E
100
AcDbEntity
  8
0
100
AcDbLine
 10
124.3788
 20
870.461
 30
0.0
 11
124.3788
 21
867.9169999999999
 31
0.0
  0
LINE
  5
38F
330
1E
100
AcDbEntity
  8
0
100
AcDbLine
 10
124.3788
 20
870.461
 30
0.0
 11
124.3788
 21
872.381
 31
0.0
  0
LINE
  5
390
330
1E
100
AcDbEntity
  8
0
100
AcDbLine
 10
127.1988
 20
867.9169999999999
 30
0.0
 11
127.1988
 21
865.0369999999998
 31
0.0
  0
LINE
  5
391
330
1E
100
AcDbEntity
  8
0
100
AcDbLine
 10
127.1988
 20
867.9169999999999
 30
0.0
 11
127.1988
 21
870.461
 31
0.0
  0
LINE
  5
392
330
1E
100
AcDbEntity
  8
0
100
AcDbLine
 10
127.1988
 20
870.461
 30
0.0
 11
127.1988
 21
867.9169999999999
 31
0.0
  0
LINE
  5
393
330
1E
100
AcDbEntity
  8
0
100
AcDbLine
 10
127.1988
 20
870.461
 30
0.0
 11
127.1988
 21
872.381
 31
0.0
  0
LINE
  5
394
330
1E
100
AcDbEntity
  8
0
100
AcDbLine
 10
124.3788
 20
861.965
 30
0.0
 11
124.3788
 21
858.8930000000001
 31
0.0
  0
LINE
  5
395
330
1E
100
AcDbEntity
  8
0
100
AcDbLine
 10
124.3788
 20
861.965
 30
0.0
 11
124.3788
 21
865.0369999999998
 31
0.0
  0
LINE
  5
396
330
1E
100
AcDbEntity
  8
0
100
AcDbLine
 10
127.1988
 20
861.965
 30
0.0
 11
127.1988
 21
858.8930000000001
 31
0.0
  0
LINE
  5
397
330
1E
100
AcDbEntity
  8
0
100
AcDbLine
 10
127.1988
 20
861.965
 30
0.0
 11
127.1988
 21
865.0369999999998
 31
0.0
  0
LINE
  5
398
330
1E
100
AcDbEntity
  8
0
100
AcDbLine
 10
127.1988
 20
858.8930000000001
 30
0.0
 11
127.1988
 21
856.013
 31
0.0
  0
LINE
  5
399
330
1E
100
AcDbEntity
  8
0
100
AcDbLine
 10
127.1988
 20
858.8930000000001
 30
0.0
 11
127.1988
 21
861.965
 31
0.0
  0
LINE
  5
39A
330
1E
100
AcDbEntity
  8
0
100
AcDbLine
 10
135.1716999999999
 20
866.9249999999999
 30
0.0
 11
135.1716999999999
 21
869.4219999999999
 31
0.0
  0
LINE
  5
3AB
330
1E
100
AcDbEntity
  8
0
100
AcDbLine
 10
86.3394
 20
871.9800000000001
 30
0.0
 11
87.19660000000001
 21
871.9800000000001
 31
0.0
  0
LINE
  5
3BC
330
1E
100
AcDbEntity
  8
0
100
AcDbLine
 10
87.6251
 20
872.48
 30
0.0
 11
87.6251
 21
873.4799999999999
 31
0.0
  0
LINE
  5
3BD
330
1E
100
AcDbEntity
  8
0
100
AcDbLine
 10
85.91089999999999
 20
872.48
 30
0.0
 11
86.3394
 21
871.9800000000001
 31
0.0
  0
LINE
  5
3BE
330
1E
100
AcDbEntity
  8
0
100
AcDbLine
 10
85.91089999999999
 20
872.48
 30
0.0
 11
85.91089999999999
 21
873.4799999999999
 31
0.0
  0
LINE
  5
3BF
330
1E
100
AcDbEntity
  8
0
100
AcDbLine
 10
87.19660000000001
 20
871.9800000000001
 30
0.0
 11
87.6251
 21
872.48
 31
0.0
  0
LINE
  5
3C0
330
1E
100
AcDbEntity
  8
0
100
AcDbLine
 10
124.1988
 20
872.093
 30
0.0
 11
124.1988
 21
870.221
 31
0.0
  0
LINE
  5
3C1
330
1E
100
AcDbEntity
  8
0
100
AcDbLine
 10
124.1988
 20
872.093
 30
0.0
 11
124.1988
 21
873.245
 31
0.0
  0
LINE
  5
3D2
330
1E
100
AcDbEntity
  8
0
100
AcDbLine
 10
87.6251
 20
873.4799999999999
 30
0.0
 11
87.6251
 21
872.48
 31
0.0
  0
LINE
  5
3D3
330
1E
100
AcDbEntity
  8
0
100
AcDbLine
 10
85.91089999999999
 20
873.4799999999999
 30
0.0
 11
85.91089999999999
 21
872.48
 31
0.0
  0
LINE
  5
3D4
330
1E
100
AcDbEntity
  8
0
100
AcDbLine
 10
85.91089999999999
 20
873.4799999999999
 30
0.0
 11
86.3394
 21
873.98
 31
0.0
  0
LINE
  5
3D5
330
1E
100
AcDbEntity
  8
0
100
AcDbLine
 10
124.1988
 20
873.245
 30
0.0
 11
124.1988
 21
872.093
 31
0.0
  0
LINE
  5
3D6
330
1E
100
AcDbEntity
  8
0
100
AcDbLine
 10
124.1988
 20
873.245
 30
0.0
 11
124.1988
 21
873.6769999999999
 31
0.0
  0
LINE
  5
3D7
330
1E
100
AcDbEntity
  8
0
100
AcDbLine
 10
124.3788
 20
872.381
 30
0.0
 11
124.3788
 21
870.461
 31
0.0
  0
LINE
  5
3D8
330
1E
100
AcDbEntity
  8
0
100
AcDbLine
 10
124.3788
 20
872.381
 30
0.0
 11
124.3788
 21
873.5330000000001
 31
0.0
  0
LINE
  5
3D9
330
1E
100
AcDbEntity
  8
0
100
AcDbLine
 10
124.3788
 20
873.5330000000001
 30
0.0
 11
124.3788
 21
872.381
 31
0.0
  0
LINE
  5
3DA
330
1E
100
AcDbEntity
  8
0
100
AcDbLine
 10
124.3788
 20
873.5330000000001
 30
0.0
 11
124.3788
 21
873.9650000000001
 31
0.0
  0
LINE
  5
3DB
330
1E
100
AcDbEntity
  8
0
100
AcDbLine
 10
127.1988
 20
872.381
 30
0.0
 11
127.1988
 21
870.461
 31
0.0
  0
LINE
  5
3DC
330
1E
100
AcDbEntity
  8
0
100
AcDbLine
 10
127.1988
 20
872.381
 30
0.0
 11
127.1988
 21
873.5330000000001
 31
0.0
  0
LINE
  5
3DD
330
1E
100
AcDbEntity
  8
0
100
AcDbLine
 10
74.76795
 20
883.28
 30
0.0
 11
75.16795999999999
 21
883.28
 31
0.0
  0
LINE
  5
3DE
330
1E
100
AcDbEntity
  8
0
100
AcDbLine
 10
74.76795
 20
883.28
 30
0.0
 11
75.76796
 21
882.7799999999999
 31
0.0
  0
LINE
  5
3DF
330
1E
100
AcDbEntity
  8
0
100
AcDbLine
 10
74.76795
 20
883.28
 30
0.0
 11
74.76795
 21
902.28
 31
0.0
  0
LINE
  5
3E0
330
1E
100
AcDbEntity
  8
0
100
AcDbLine
 10
76.36794999999999
 20
882.2799999999999
 30
0.0
 11
78.26795
 21
882.2799999999999
 31
0.0
  0
LINE
  5
3E1
330
1E
100
AcDbEntity
  8
0
100
AcDbLine
 10
75.16795999999999
 20
883.28
 30
0.0
 11
76.36794999999999
 21
883.28
 31
0.0
  0
LINE
  5
3E2
330
1E
100
AcDbEntity
  8
0
100
AcDbLine
 10
77.26795
 20
882.7799999999999
 30
0.0
 11
78.96795999999999
 21
882.7799999999999
 31
0.0
  0
LINE
  5
3E3
330
1E
100
AcDbEntity
  8
0
100
AcDbLine
 10
76.36794999999999
 20
883.28
 30
0.0
 11
78.26795
 21
883.28
 31
0.0
  0
LINE
  5
3E4
330
1E
100
AcDbEntity
  8
0
100
AcDbLine
 10
76.16795
 20
882.7799999999999
 30
0.0
 11
77.26795
 21
882.7799999999999
 31
0.0
  0
LINE
  5
3E5
330
1E
100
AcDbEntity
  8
0
100
AcDbLine
 10
75.76796
 20
882.7799999999999
 30
0.0
 11
76.16795
 21
882.7799999999999
 31
0.0
  0
LINE
  5
3E6
330
1E
100
AcDbEntity
  8
0
100
AcDbLine
 10
75.16795999999999
 20
882.2799999999999
 30
0.0
 11
76.36794999999999
 21
882.2799999999999
 31
0.0
  0
LINE
  5
3E7
330
1E
100
AcDbEntity
  8
0
100
AcDbLine
 10
74.76795
 20
882.2799999999999
 30
0.0
 11
74.76795
 21
728.7799999999999
 31
0.0
  0
LINE
  5
3E8
330
1E
100
AcDbEntity
  8
0
100
AcDbLine
 10
74.76795
 20
882.2799999999999
 30
0.0
 11
75.16795999999999
 21
882.2799999999999
 31
0.0
  0
LINE
  5
3E9
330
1E
100
AcDbEntity
  8
0
100
AcDbLine
 10
74.76795
 20
882.2799999999999
 30
0.0
 11
75.76796
 21
882.7799999999999
 31
0.0
  0
LINE
  5
3F1
330
1E
100
AcDbEntity
  8
0
100
AcDbLine
 10
78.26795
 20
883.28
 30
0.0
 11
80.76795
 21
883.28
 31
0.0
  0
LINE
  5
3F2
330
1E
100
AcDbEntity
  8
0
100
AcDbLine
 10
78.26795
 20
882.2799999999999
 30
0.0
 11
80.76795
 21
882.2799999999999
 31
0.0
  0
LINE
  5
3FE
330
1E
100
AcDbEntity
  8
0
100
AcDbLine
 10
87.19660000000001
 20
873.98
 30
0.0
 11
87.6251
 21
873.4799999999999
 31
0.0
  0
LINE
  5
3FF
330
1E
100
AcDbEntity
  8
0
100
AcDbLine
 10
86.3394
 20
873.98
 30
0.0
 11
87.19660000000001
 21
873.98
 31
0.0
  0
LINE
  5
411
330
1E
100
AcDbEntity
  8
0
100
AcDbLine
 10
86.3394
 20
878.78
 30
0.0
 11
87.19660000000001
 21
878.78
 31
0.0
  0
LINE
  5
412
330
1E
100
AcDbEntity
  8
0
100
AcDbLine
 10
85.91089999999999
 20
879.2799999999999
 30
0.0
 11
85.91089999999999
 21
880.2799999999999
 31
0.0
  0
LINE
  5
413
330
1E
100
AcDbEntity
  8
0
100
AcDbLine
 10
85.91089999999999
 20
879.2799999999999
 30
0.0
 11
86.3394
 21
878.78
 31
0.0
  0
LINE
  5
417
330
1E
100
AcDbEntity
  8
0
100
AcDbLine
 10
85.91089999999999
 20
880.2799999999999
 30
0.0
 11
86.3394
 21
880.78
 31
0.0
  0
LINE
  5
418
330
1E
100
AcDbEntity
  8
0
100
AcDbLine
 10
85.91089999999999
 20
880.2799999999999
 30
0.0
 11
85.91089999999999
 21
879.2799999999999
 31
0.0
  0
LINE
  5
419
330
1E
100
AcDbEntity
  8
0
100
AcDbLine
 10
87.19660000000001
 20
878.78
 30
0.0
 11
87.6251
 21
879.2799999999999
 31
0.0
  0
LINE
  5
41A
330
1E
100
AcDbEntity
  8
0
100
AcDbLine
 10
87.6251
 20
880.2799999999999
 30
0.0
 11
87.6251
 21
879.2799999999999
 31
0.0
  0
LINE
  5
41B
330
1E
100
AcDbEntity
  8
0
100
AcDbLine
 10
86.3394
 20
880.78
 30
0.0
 11
87.19660000000001
 21
880.78
 31
0.0
  0
LINE
  5
41C
330
1E
100
AcDbEntity
  8
0
100
AcDbLine
 10
80.76795
 20
883.28
 30
0.0
 11
83.66799999999999
 21
883.28
 31
0.0
  0
LINE
  5
41D
330
1E
100
AcDbEntity
  8
0
100
AcDbLine
 10
78.96795999999999
 20
882.7799999999999
 30
0.0
 11
81.26796
 21
882.7799999999999
 31
0.0
  0
LINE
  5
41E
330
1E
100
AcDbEntity
  8
0
100
AcDbLine
 10
83.66799999999999
 20
883.28
 30
0.0
 11
86.76799999999998
 21
883.28
 31
0.0
  0
LINE
  5
41F
330
1E
100
AcDbEntity
  8
0
100
AcDbLine
 10
81.26796
 20
882.7799999999999
 30
0.0
 11
83.96799999999998
 21
882.7799999999999
 31
0.0
  0
LINE
  5
420
330
1E
100
AcDbEntity
  8
0
100
AcDbLine
 10
80.76795
 20
882.2799999999999
 30
0.0
 11
83.66799999999999
 21
882.2799999999999
 31
0.0
  0
LINE
  5
421
330
1E
100
AcDbEntity
  8
0
100
AcDbLine
 10
86.76799999999998
 20
882.7799999999999
 30
0.0
 11
89.56799999999999
 21
882.7799999999999
 31
0.0
  0
LINE
  5
422
330
1E
100
AcDbEntity
  8
0
100
AcDbLine
 10
86.76799999999998
 20
882.2799999999999
 30
0.0
 11
89.868
 21
882.2799999999999
 31
0.0
  0
LINE
  5
423
330
1E
100
AcDbEntity
  8
0
100
AcDbLine
 10
86.76799999999998
 20
883.28
 30
0.0
 11
89.868
 21
883.28
 31
0.0
  0
LINE
  5
424
330
1E
100
AcDbEntity
  8
0
100
AcDbLine
 10
83.96799999999998
 20
882.7799999999999
 30
0.0
 11
86.76799999999998
 21
882.7799999999999
 31
0.0
  0
LINE
  5
425
330
1E
100
AcDbEntity
  8
0
100
AcDbLine
 10
83.66799999999999
 20
882.2799999999999
 30
0.0
 11
86.76799999999998
 21
882.2799999999999
 31
0.0
  0
LINE
  5
426
330
1E
100
AcDbEntity
  8
0
100
AcDbLine
 10
87.19660000000001
 20
880.78
 30
0.0
 11
87.6251
 21
880.2799999999999
 31
0.0
  0
LINE
  5
43F
330
1E
100
AcDbEntity
  8
0
100
AcDbLine
 10
89.868
 20
883.28
 30
0.0
 11
92.76799999999999
 21
883.28
 31
0.0
  0
LINE
  5
440
330
1E
100
AcDbEntity
  8
0
100
AcDbLine
 10
89.56799999999999
 20
882.7799999999999
 30
0.0
 11
92.26799999999999
 21
882.7799999999999
 31
0.0
  0
LINE
  5
441
330
1E
100
AcDbEntity
  8
0
100
AcDbLine
 10
89.868
 20
882.2799999999999
 30
0.0
 11
92.76799999999999
 21
882.2799999999999
 31
0.0
  0
LINE
  5
445
330
1E
100
AcDbEntity
  8
0
100
AcDbLine
 10
92.76799999999999
 20
883.28
 30
0.0
 11
95.26799999999999
 21
883.28
 31
0.0
  0
LINE
  5
446
330
1E
100
AcDbEntity
  8
0
100
AcDbLine
 10
92.26799999999999
 20
882.7799999999999
 30
0.0
 11
94.56799999999999
 21
882.7799999999999
 31
0.0
  0
LINE
  5
447
330
1E
100
AcDbEntity
  8
0
100
AcDbLine
 10
95.26799999999999
 20
882.2799999999999
 30
0.0
 11
97.16799999999999
 21
882.2799999999999
 31
0.0
  0
LINE
  5
448
330
1E
100
AcDbEntity
  8
0
100
AcDbLine
 10
98.76799999999999
 20
882.2799999999999
 30
0.0
 11
98.76799999999999
 21
728.7799999999999
 31
0.0
  0
LINE
  5
449
330
1E
100
AcDbEntity
  8
0
100
AcDbLine
 10
97.16799999999999
 20
882.2799999999999
 30
0.0
 11
98.368
 21
882.2799999999999
 31
0.0
  0
LINE
  5
44A
330
1E
100
AcDbEntity
  8
0
100
AcDbLine
 10
94.56799999999999
 20
882.7799999999999
 30
0.0
 11
96.26799999999999
 21
882.7799999999999
 31
0.0
  0
LINE
  5
44B
330
1E
100
AcDbEntity
  8
0
100
AcDbLine
 10
95.26799999999999
 20
883.28
 30
0.0
 11
97.16799999999999
 21
883.28
 31
0.0
  0
LINE
  5
44C
330
1E
100
AcDbEntity
  8
0
100
AcDbLine
 10
97.16799999999999
 20
883.28
 30
0.0
 11
98.368
 21
883.28
 31
0.0
  0
LINE
  5
44D
330
1E
100
AcDbEntity
  8
0
100
AcDbLine
 10
96.26799999999999
 20
882.7799999999999
 30
0.0
 11
97.368
 21
882.7799999999999
 31
0.0
  0
LINE
  5
44E
330
1E
100
AcDbEntity
  8
0
100
AcDbLine
 10
98.76799999999999
 20
883.28
 30
0.0
 11
98.76799999999999
 21
902.28
 31
0.0
  0
LINE
  5
44F
330
1E
100
AcDbEntity
  8
0
100
AcDbLine
 10
98.368
 20
883.28
 30
0.0
 11
98.76799999999999
 21
883.28
 31
0.0
  0
LINE
  5
450
330
1E
100
AcDbEntity
  8
0
100
AcDbLine
 10
97.76799999999999
 20
882.7799999999999
 30
0.0
 11
98.76799999999999
 21
882.2799999999999
 31
0.0
  0
LINE
  5
451
330
1E
100
AcDbEntity
  8
0
100
AcDbLine
 10
97.76799999999999
 20
882.7799999999999
 30
0.0
 11
98.76799999999999
 21
883.28
 31
0.0
  0
LINE
  5
452
330
1E
100
AcDbEntity
  8
0
100
AcDbLine
 10
97.368
 20
882.7799999999999
 30
0.0
 11
97.76799999999999
 21
882.7799999999999
 31
0.0
  0
LINE
  5
453
330
1E
100
AcDbEntity
  8
0
100
AcDbLine
 10
98.368
 20
882.2799999999999
 30
0.0
 11
98.76799999999999
 21
882.2799999999999
 31
0.0
  0
LINE
  5
454
330
1E
100
AcDbEntity
  8
0
100
AcDbLine
 10
92.76799999999999
 20
882.2799999999999
 30
0.0
 11
95.26799999999999
 21
882.2799999999999
 31
0.0
  0
LINE
  5
458
330
1E
100
AcDbEntity
  8
0
100
AcDbLine
 10
87.6251
 20
879.2799999999999
 30
0.0
 11
87.6251
 21
880.2799999999999
 31
0.0
  0
LINE
  5
45D
330
1E
100
AcDbEntity
  8
0
100
AcDbLine
 10
124.1988
 20
873.6769999999999
 30
0.0
 11
124.1988
 21
873.245
 31
0.0
  0
LINE
  5
45E
330
1E
100
AcDbEntity
  8
0
100
AcDbLine
 10
124.1988
 20
873.6769999999999
 30
0.0
 11
124.3788
 21
873.9650000000001
 31
0.0
  0
LINE
  5
45F
330
1E
100
AcDbEntity
  8
0
100
AcDbLine
 10
124.3788
 20
873.9650000000001
 30
0.0
 11
124.3788
 21
873.5330000000001
 31
0.0
  0
LINE
  5
460
330
1E
100
AcDbEntity
  8
0
100
AcDbLine
 10
124.3788
 20
873.9650000000001
 30
0.0
 11
127.1988
 21
873.9650000000001
 31
0.0
  0
LINE
  5
461
330
1E
100
AcDbEntity
  8
0
100
AcDbLine
 10
127.1988
 20
873.5330000000001
 30
0.0
 11
127.1988
 21
872.381
 31
0.0
  0
LINE
  5
462
330
1E
100
AcDbEntity
  8
0
100
AcDbLine
 10
127.1988
 20
873.5330000000001
 30
0.0
 11
127.1988
 21
873.9650000000001
 31
0.0
  0
LINE
  5
463
330
1E
100
AcDbEntity
  8
0
100
AcDbLine
 10
127.1988
 20
873.9650000000001
 30
0.0
 11
127.1988
 21
873.5330000000001
 31
0.0
  0
LINE
  5
464
330
1E
100
AcDbEntity
  8
0
100
AcDbLine
 10
135.1716999999999
 20
871.9649999999999
 30
0.0
 11
135.1716999999999
 21
887.2200000000001
 31
0.0
  0
LINE
  5
465
330
1E
100
AcDbEntity
  8
0
100
AcDbLine
 10
135.1716999999999
 20
869.4219999999999
 30
0.0
 11
135.1716999999999
 21
866.9249999999999
 31
0.0
  0
LINE
  5
466
330
1E
100
AcDbEntity
  8
0
100
AcDbLine
 10
135.1716999999999
 20
869.4219999999999
 30
0.0
 11
135.1716999999999
 21
887.2200000000001
 31
0.0
  0
LINE
  5
467
330
1E
100
AcDbEntity
  8
0
100
AcDbLine
 10
135.1716999999999
 20
866.9249999999999
 30
0.0
 11
135.1716999999999
 21
851.998
 31
0.0
  0
LINE
  5
468
330
1E
100
AcDbEntity
  8
0
100
AcDbLine
 10
135.1716999999999
 20
851.998
 30
0.0
 11
135.1716999999999
 21
843.4779999999999
 31
0.0
  0
LINE
  5
469
330
1E
100
AcDbEntity
  8
0
100
AcDbLine
 10
135.1716999999999
 20
851.998
 30
0.0
 11
135.1716999999999
 21
866.9249999999999
 31
0.0
  0
LINE
  5
46A
330
1E
100
AcDbEntity
  8
0
100
AcDbLine
 10
135.1716999999999
 20
843.4779999999999
 30
0.0
 11
135.1716999999999
 21
834.045
 31
0.0
  0
LINE
  5
46B
330
1E
100
AcDbEntity
  8
0
100
AcDbLine
 10
135.1716999999999
 20
843.4779999999999
 30
0.0
 11
135.1716999999999
 21
851.998
 31
0.0
  0
LINE
  5
46C
330
1E
100
AcDbEntity
  8
0
100
AcDbLine
 10
135.1716999999999
 20
834.045
 30
0.0
 11
135.1716999999999
 21
824.4089999999999
 31
0.0
  0
LINE
  5
46D
330
1E
100
AcDbEntity
  8
0
100
AcDbLine
 10
135.1716999999999
 20
834.045
 30
0.0
 11
135.1716999999999
 21
843.4779999999999
 31
0.0
  0
LINE
  5
46E
330
1E
100
AcDbEntity
  8
0
100
AcDbLine
 10
135.1716999999999
 20
824.4089999999999
 30
0.0
 11
135.1716999999999
 21
815.7869999999999
 31
0.0
  0
LINE
  5
46F
330
1E
100
AcDbEntity
  8
0
100
AcDbLine
 10
135.1716999999999
 20
824.4089999999999
 30
0.0
 11
135.1716999999999
 21
834.045
 31
0.0
  0
LINE
  5
470
330
1E
100
AcDbEntity
  8
0
100
AcDbLine
 10
135.1716999999999
 20
815.7869999999999
 30
0.0
 11
135.1716999999999
 21
808.281
 31
0.0
  0
LINE
  5
471
330
1E
100
AcDbEntity
  8
0
100
AcDbLine
 10
135.1716999999999
 20
815.7869999999999
 30
0.0
 11
135.1716999999999
 21
824.4089999999999
 31
0.0
  0
LINE
  5
472
330
1E
100
AcDbEntity
  8
0
100
AcDbLine
 10
135.1716999999999
 20
769.789
 30
0.0
 11
135.1716999999999
 21
808.1369999999999
 31
0.0
  0
LINE
  5
473
330
1E
100
AcDbEntity
  8
0
100
AcDbLine
 10
135.1716999999999
 20
769.789
 30
0.0
 11
135.1716999999999
 21
742.266
 31
0.0
  0
LINE
  5
474
330
1E
100
AcDbEntity
  8
0
100
AcDbLine
 10
135.1716999999999
 20
808.281
 30
0.0
 11
135.1716999999999
 21
769.6349999999999
 31
0.0
  0
LINE
  5
475
330
1E
100
AcDbEntity
  8
0
100
AcDbLine
 10
135.1716999999999
 20
808.281
 30
0.0
 11
135.1716999999999
 21
815.7869999999999
 31
0.0
  0
LINE
  5
476
330
1E
100
AcDbEntity
  8
0
100
AcDbLine
 10
135.1716999999999
 20
769.6349999999999
 30
0.0
 11
135.1716999999999
 21
742.266
 31
0.0
  0
LINE
  5
477
330
1E
100
AcDbEntity
  8
0
100
AcDbLine
 10
135.1716999999999
 20
769.6349999999999
 30
0.0
 11
135.1716999999999
 21
808.281
 31
0.0
  0
LINE
  5
478
330
1E
100
AcDbEntity
  8
0
100
AcDbLine
 10
135.1716999999999
 20
742.266
 30
0.0
 11
135.1716999999999
 21
714.743
 31
0.0
  0
LINE
  5
479
330
1E
100
AcDbEntity
  8
0
100
AcDbLine
 10
135.1716999999999
 20
742.266
 30
0.0
 11
135.1716999999999
 21
769.789
 31
0.0
  0
LINE
  5
47A
330
1E
100
AcDbEntity
  8
0
100
AcDbLine
 10
135.1716999999999
 20
742.266
 30
0.0
 11
135.1716999999999
 21
769.6349999999999
 31
0.0
  0
LINE
  5
47B
330
1E
100
AcDbEntity
  8
0
100
AcDbLine
 10
135.1716999999999
 20
156.269250913514
 30
0.0
 11
135.1716999999999
 21
12.2200000000001
 31
0.0
  0
LINE
  5
47C
330
1E
100
AcDbEntity
  8
0
100
AcDbLine
 10
149.8283
 20
171.4979999999999
 30
0.0
 11
182.0287
 21
173.092
 31
0.0
  0
LINE
  5
47D
330
1E
100
AcDbEntity
  8
0
100
AcDbLine
 10
149.8283
 20
155.559
 30
0.0
 11
184.8287
 21
157.352
 31
0.0
  0
LINE
  5
47E
330
1E
100
AcDbEntity
  8
0
100
AcDbLine
 10
159.1716999999999
 20
726.6319999999999
 30
0.0
 11
159.9396999999999
 21
726.6319999999999
 31
0.0
  0
LINE
  5
47F
330
1E
100
AcDbEntity
  8
0
100
AcDbLine
 10
159.9396999999999
 20
726.6319999999999
 30
0.0
 11
160.6596999999999
 21
726.6319999999999
 31
0.0
  0
LINE
  5
480
330
1E
100
AcDbEntity
  8
0
100
AcDbLine
 10
160.6596999999999
 20
726.6319999999999
 30
0.0
 11
161.2957
 21
726.6319999999999
 31
0.0
  0
LINE
  5
481
330
1E
100
AcDbEntity
  8
0
100
AcDbLine
 10
161.2957
 20
726.6319999999999
 30
0.0
 11
161.7757
 21
726.6319999999999
 31
0.0
  0
LINE
  5
482
330
1E
100
AcDbEntity
  8
0
100
AcDbLine
 10
182.0287
 20
173.092
 30
0.0
 11
202.0286999999999
 21
179.169
 31
0.0
  0
LINE
  5
483
330
1E
100
AcDbEntity
  8
0
100
AcDbLine
 10
162.1716999999999
 20
726.6319999999999
 30
0.0
 11
162.1716999999999
 21
799.0538749999999
 31
0.0
  0
LINE
  5
484
330
1E
100
AcDbEntity
  8
0
100
AcDbLine
 10
161.7757
 20
726.6319999999999
 30
0.0
 11
162.0637
 21
726.6319999999999
 31
0.0
  0
LINE
  5
485
330
1E
100
AcDbEntity
  8
0
100
AcDbLine
 10
162.0637
 20
726.6319999999999
 30
0.0
 11
162.1716999999999
 21
726.6319999999999
 31
0.0
  0
LINE
  5
486
330
1E
100
AcDbEntity
  8
0
100
AcDbLine
 10
158.4036999999999
 20
726.6319999999999
 30
0.0
 11
159.1716999999999
 21
726.6319999999999
 31
0.0
  0
LINE
  5
487
330
1E
100
AcDbEntity
  8
0
100
AcDbLine
 10
157.6836999999999
 20
726.6319999999999
 30
0.0
 11
158.4036999999999
 21
726.6319999999999
 31
0.0
  0
LINE
  5
488
330
1E
100
AcDbEntity
  8
0
100
AcDbLine
 10
157.0476999999999
 20
726.6319999999999
 30
0.0
 11
157.6836999999999
 21
726.6319999999999
 31
0.0
  0
LINE
  5
489
330
1E
100
AcDbEntity
  8
0
100
AcDbLine
 10
156.5676999999999
 20
726.6319999999999
 30
0.0
 11
157.0476999999999
 21
726.6319999999999
 31
0.0
  0
LINE
  5
48A
330
1E
100
AcDbEntity
  8
0
100
AcDbLine
 10
156.2796999999999
 20
726.6319999999999
 30
0.0
 11
156.5676999999999
 21
726.6319999999999
 31
0.0
  0
LINE
  5
48B
330
1E
100
AcDbEntity
  8
0
100
AcDbLine
 10
156.1716999999999
 20
726.6319999999999
 30
0.0
 11
156.2796999999999
 21
726.6319999999999
 31
0.0
  0
LINE
  5
48C
330
1E
100
AcDbEntity
  8
0
100
AcDbLine
 10
156.1716999999999
 20
726.6319999999999
 30
0.0
 11
156.1716999999999
 21
799.0538749999999
 31
0.0
  0
LINE
  5
48D
330
1E
100
AcDbEntity
  8
0
100
AcDbLine
 10
219.1717
 20
0.220000000000034
 30
0.0
 11
219.8717
 21
0.220000000000034
 31
0.0
  0
LINE
  5
48E
330
1E
100
AcDbEntity
  8
0
100
AcDbLine
 10
219.8717
 20
0.220000000000034
 30
0.0
 11
220.1716999999999
 21
0.220000000000034
 31
0.0
  0
LINE
  5
48F
330
1E
100
AcDbEntity
  8
0
100
AcDbLine
 10
219.1717
 20
0.5200000000000421
 30
0.0
 11
220.3717
 21
0.5200000000000421
 31
0.0
  0
LINE
  5
490
330
1E
100
AcDbEntity
  8
0
100
AcDbLine
 10
207.5286999999999
 20
164.2249999999999
 30
0.0
 11
227.5287
 21
174.1879999999999
 31
0.0
  0
LINE
  5
491
330
1E
100
AcDbEntity
  8
0
100
AcDbLine
 10
184.8287
 20
157.352
 30
0.0
 11
207.5286999999999
 21
164.2249999999999
 31
0.0
  0
LINE
  5
492
330
1E
100
AcDbEntity
  8
0
100
AcDbLine
 10
219.1717
 20
12.22
 30
0.0
 11
219.8717
 21
12.22
 31
0.0
  0
LINE
  5
493
330
1E
100
AcDbEntity
  8
0
100
AcDbLine
 10
219.8717
 20
12.22
 30
0.0
 11
220.1716999999999
 21
12.22
 31
0.0
  0
LINE
  5
494
330
1E
100
AcDbEntity
  8
0
100
AcDbLine
 10
219.1717
 20
11.91999999999999
 30
0.0
 11
220.3717
 21
11.91999999999999
 31
0.0
  0
LINE
  5
495
330
1E
100
AcDbEntity
  8
0
100
AcDbLine
 10
220.1716999999999
 20
12.22
 30
0.0
 11
220.8717
 21
11.91999999999999
 31
0.0
  0
LINE
  5
498
330
1E
100
AcDbEntity
  8
0
100
AcDbLine
 10
220.3717
 20
11.91999999999999
 30
0.0
 11
220.8717
 21
11.91999999999999
 31
0.0
  0
LINE
  5
49A
330
1E
100
AcDbEntity
  8
0
100
AcDbLine
 10
220.8717
 20
11.91999999999999
 30
0.0
 11
221.1716999999999
 21
11.22
 31
0.0
  0
LINE
  5
49B
330
1E
100
AcDbEntity
  8
0
100
AcDbLine
 10
220.3717
 20
0.5200000000000421
 30
0.0
 11
220.8717
 21
0.5200000000000421
 31
0.0
  0
LINE
  5
49D
330
1E
100
AcDbEntity
  8
0
100
AcDbLine
 10
220.1716999999999
 20
0.220000000000034
 30
0.0
 11
220.8717
 21
0.5200000000000341
 31
0.0
  0
LINE
  5
49E
330
1E
100
AcDbEntity
  8
0
100
AcDbLine
 10
220.1716999999999
 20
0.220000000000034
 30
0.0
 11
220.8717
 21
0.5200000000000341
 31
0.0
  0
LINE
  5
49F
330
1E
100
AcDbEntity
  8
0
100
AcDbLine
 10
221.1716999999999
 20
11.22
 30
0.0
 11
221.1716999999999
 21
1.22000000000004
 31
0.0
  0
LINE
  5
4A0
330
1E
100
AcDbEntity
  8
0
100
AcDbLine
 10
221.1716999999999
 20
1.22000000000004
 30
0.0
 11
221.1716999999999
 21
11.22
 31
0.0
  0
LINE
  5
4A1
330
1E
100
AcDbEntity
  8
0
100
AcDbLine
 10
220.8717
 20
0.5200000000000341
 30
0.0
 11
221.1716999999999
 21
1.22000000000003
 31
0.0
  0
LINE
  5
4A2
330
1E
100
AcDbEntity
  8
0
100
AcDbLine
 10
202.8287
 20
597.873
 30
0.0
 11
204.8287
 21
563.604
 31
0.0
  0
LINE
  5
4A3
330
1E
100
AcDbEntity
  8
0
100
AcDbLine
 10
202.8287
 20
597.873
 30
0.0
 11
202.8287
 21
807.559
 31
0.0
  0
LINE
  5
4A4
330
1E
100
AcDbEntity
  8
0
100
AcDbLine
 10
204.8287
 20
563.604
 30
0.0
 11
208.5287
 21
539.297
 31
0.0
  0
LINE
  5
4A5
330
1E
100
AcDbEntity
  8
0
100
AcDbLine
 10
218.8286999999999
 20
597.873
 30
0.0
 11
220.6287
 21
566.394
 31
0.0
  0
LINE
  5
4A6
330
1E
100
AcDbEntity
  8
0
100
AcDbLine
 10
218.8286999999999
 20
597.873
 30
0.0
 11
218.8286999999999
 21
807.559
 31
0.0
  0
LINE
  5
4A7
330
1E
100
AcDbEntity
  8
0
100
AcDbLine
 10
208.5287
 20
539.297
 30
0.0
 11
213.6287
 21
513.994
 31
0.0
  0
LINE
  5
4A8
330
1E
100
AcDbEntity
  8
0
100
AcDbLine
 10
213.6287
 20
513.994
 30
0.0
 11
220.4286999999999
 21
488.3909999999999
 31
0.0
  0
LINE
  5
4A9
330
1E
100
AcDbEntity
  8
0
100
AcDbLine
 10
220.6287
 20
566.394
 30
0.0
 11
223.5287
 21
544.7759999999999
 31
0.0
  0
LINE
  5
4AA
330
1E
100
AcDbEntity
  8
0
100
AcDbLine
 10
223.5287
 20
544.7759999999999
 30
0.0
 11
228.1287
 21
520.668
 31
0.0
  0
LINE
  5
4AB
330
1E
100
AcDbEntity
  8
0
100
AcDbLine
 10
228.1287
 20
520.668
 30
0.0
 11
234.3287
 21
496.361
 31
0.0
  0
LINE
  5
4AC
330
1E
100
AcDbEntity
  8
0
100
AcDbLine
 10
220.4286999999999
 20
488.3909999999999
 30
0.0
 11
228.8286999999999
 21
464.981
 31
0.0
  0
LINE
  5
4AD
330
1E
100
AcDbEntity
  8
0
100
AcDbLine
 10
234.3287
 20
496.361
 30
0.0
 11
242.2287
 21
473.648
 31
0.0
  0
LINE
  5
4AE
330
1E
100
AcDbEntity
  8
0
100
AcDbLine
 10
228.8286999999999
 20
464.981
 30
0.0
 11
238.2287
 21
444.758
 31
0.0
  0
LINE
  5
4AF
330
1E
100
AcDbEntity
  8
0
100
AcDbLine
 10
251.3287
 20
422.344
 30
0.0
 11
261.6286999999999
 21
402.5159999999999
 31
0.0
  0
LINE
  5
4B3
330
1E
100
AcDbEntity
  8
0
100
AcDbLine
 10
238.2287
 20
444.758
 30
0.0
 11
251.3287
 21
422.344
 31
0.0
  0
LINE
  5
4B4
330
1E
100
AcDbEntity
  8
0
100
AcDbLine
 10
242.2287
 20
473.648
 30
0.0
 11
251.2287
 21
454.122
 31
0.0
  0
LINE
  5
4B5
330
1E
100
AcDbEntity
  8
0
100
AcDbLine
 10
251.2287
 20
454.122
 30
0.0
 11
263.5287
 21
432.605
 31
0.0
  0
LINE
  5
4BF
330
1E
100
AcDbEntity
  8
0
100
AcDbLine
 10
261.6286999999999
 20
402.5159999999999
 30
0.0
 11
271.2286999999999
 21
381.3959999999999
 31
0.0
  0
LINE
  5
4C6
330
1E
100
AcDbEntity
  8
0
100
AcDbLine
 10
271.2286999999999
 20
381.3959999999999
 30
0.0
 11
276.9286999999999
 21
360.3769999999999
 31
0.0
  0
LINE
  5
4C8
330
1E
100
AcDbEntity
  8
0
100
AcDbLine
 10
263.5287
 20
432.605
 30
0.0
 11
275.5287
 21
410.4849999999999
 31
0.0
  0
LINE
  5
4CC
330
1E
100
AcDbEntity
  8
0
100
AcDbLine
 10
276.9286999999999
 20
360.3769999999999
 30
0.0
 11
280.6286999999999
 21
339.058
 31
0.0
  0
LINE
  5
4CD
330
1E
100
AcDbEntity
  8
0
100
AcDbLine
 10
275.5287
 20
410.4849999999999
 30
0.0
 11
286.2287
 21
386.875
 31
0.0
  0
LINE
  5
4CE
330
1E
100
AcDbEntity
  8
0
100
AcDbLine
 10
280.6286999999999
 20
339.058
 30
0.0
 11
281.8287
 21
319.931
 31
0.0
  0
LINE
  5
4CF
330
1E
100
AcDbEntity
  8
0
100
AcDbLine
 10
296.6286999999999
 20
339.855
 30
0.0
 11
297.8287
 21
319.931
 31
0.0
  0
LINE
  5
4D0
330
1E
100
AcDbEntity
  8
0
100
AcDbLine
 10
292.7287
 20
363.166
 30
0.0
 11
296.6286999999999
 21
339.855
 31
0.0
  0
LINE
  5
4D1
330
1E
100
AcDbEntity
  8
0
100
AcDbLine
 10
286.2287
 20
386.875
 30
0.0
 11
292.7287
 21
363.166
 31
0.0
  0
LINE
  5
4D2
330
1E
100
AcDbEntity
  8
0
100
AcDbLine
 10
280.6286999999999
 20
300.804
 30
0.0
 11
281.8287
 21
319.931
 31
0.0
  0
LINE
  5
4D3
330
1E
100
AcDbEntity
  8
0
100
AcDbLine
 10
296.6286999999999
 20
300.007
 30
0.0
 11
297.8287
 21
319.931
 31
0.0
  0
LINE
  5
4D4
330
1E
100
AcDbEntity
  8
0
100
AcDbLine
 10
276.9286999999999
 20
279.4859999999999
 30
0.0
 11
280.6286999999999
 21
300.804
 31
0.0
  0
LINE
  5
4D5
330
1E
100
AcDbEntity
  8
0
100
AcDbLine
 10
292.7287
 20
276.6959999999999
 30
0.0
 11
296.6286999999999
 21
300.007
 31
0.0
  0
LINE
  5
4D6
330
1E
100
AcDbEntity
  8
0
100
AcDbLine
 10
271.2286999999999
 20
258.4659999999999
 30
0.0
 11
276.9286999999999
 21
279.4859999999999
 31
0.0
  0
LINE
  5
4D7
330
1E
100
AcDbEntity
  8
0
100
AcDbLine
 10
286.2287
 20
252.9869999999999
 30
0.0
 11
292.7287
 21
276.6959999999999
 31
0.0
  0
LINE
  5
4D8
330
1E
100
AcDbEntity
  8
0
100
AcDbLine
 10
261.6286999999999
 20
237.347
 30
0.0
 11
271.2286999999999
 21
258.4659999999999
 31
0.0
  0
LINE
  5
4D9
330
1E
100
AcDbEntity
  8
0
100
AcDbLine
 10
275.5287
 20
229.377
 30
0.0
 11
286.2287
 21
252.9869999999999
 31
0.0
  0
LINE
  5
4DA
330
1E
100
AcDbEntity
  8
0
100
AcDbLine
 10
251.3287
 20
218.5189999999999
 30
0.0
 11
261.6286999999999
 21
237.347
 31
0.0
  0
LINE
  5
4DB
330
1E
100
AcDbEntity
  8
0
100
AcDbLine
 10
263.5287
 20
208.2579999999999
 30
0.0
 11
275.5287
 21
229.377
 31
0.0
  0
LINE
  5
4DC
330
1E
100
AcDbEntity
  8
0
100
AcDbLine
 10
237.3286999999999
 20
203.5759999999999
 30
0.0
 11
251.3287
 21
218.5189999999999
 31
0.0
  0
LINE
  5
4DD
330
1E
100
AcDbEntity
  8
0
100
AcDbLine
 10
247.6287
 20
191.6209999999999
 30
0.0
 11
263.5287
 21
208.2579999999999
 31
0.0
  0
LINE
  5
4DE
330
1E
100
AcDbEntity
  8
0
100
AcDbLine
 10
219.5286999999999
 20
188.0349999999999
 30
0.0
 11
237.3286999999999
 21
203.5759999999999
 31
0.0
  0
LINE
  5
4DF
330
1E
100
AcDbEntity
  8
0
100
AcDbLine
 10
227.5287
 20
174.1879999999999
 30
0.0
 11
247.6287
 21
191.6209999999999
 31
0.0
  0
LINE
  5
4E0
330
1E
100
AcDbEntity
  8
0
100
AcDbLine
 10
202.0286999999999
 20
179.169
 30
0.0
 11
219.5286999999999
 21
188.0349999999999
 31
0.0
  0
LINE
  5
4E1
330
1E
100
AcDbEntity
  8
0
100
AcDbLine
 10
183.858789093221
 20
173.6480725709749
 30
0.0
 11
184.7507
 21
714.743
 31
0.0
  0
LINE
  5
4E2
330
1E
100
AcDbEntity
  8
0
100
AcDbLine
 10
183.5927
 20
12.22
 30
0.0
 11
183.831843373902
 21
157.3009330427479
 31
0.0
  0
LINE
  5
4E3
330
1E
100
AcDbEntity
  8
0
100
AcDbLine
 10
162.1716999999999
 20
797.6125714285709
 30
0.0
 11
164.9677
 21
798.0119999999999
 31
0.0
  0
LINE
  5
4E4
330
1E
100
AcDbEntity
  8
0
100
AcDbLine
 10
164.9677
 20
798.0119999999999
 30
0.0
 11
170.3036999999999
 21
800.22
 31
0.0
  0
LINE
  5
4E5
330
1E
100
AcDbEntity
  8
0
100
AcDbLine
 10
165.0596999999999
 20
797.46
 30
0.0
 11
170.5797
 21
799.668
 31
0.0
  0
LINE
  5
4E6
330
1E
100
AcDbEntity
  8
0
100
AcDbLine
 10
162.1716999999999
 20
797.0538749999999
 30
0.0
 11
165.0596999999999
 21
797.46
 31
0.0
  0
LINE
  5
4E7
330
1E
100
AcDbEntity
  8
0
100
AcDbLine
 10
159.1716999999999
 20
798.632
 30
0.0
 11
164.5476999999999
 21
799.388
 31
0.0
  0
LINE
  5
4E8
330
1E
100
AcDbEntity
  8
0
100
AcDbLine
 10
162.1716999999999
 20
799.0538749999999
 30
0.0
 11
162.1716999999999
 21
726.6319999999999
 31
0.0
  0
LINE
  5
4E9
330
1E
100
AcDbEntity
  8
0
100
AcDbLine
 10
153.3757
 20
798.0119999999999
 30
0.0
 11
156.1716999999999
 21
797.6125714285709
 31
0.0
  0
LINE
  5
4EA
330
1E
100
AcDbEntity
  8
0
100
AcDbLine
 10
153.2837
 20
797.46
 30
0.0
 11
156.1716999999999
 21
797.0538749999999
 31
0.0
  0
LINE
  5
4EB
330
1E
100
AcDbEntity
  8
0
100
AcDbLine
 10
136.9996999999999
 20
813.7439999999999
 30
0.0
 11
139.2077
 21
808.2239999999998
 31
0.0
  0
LINE
  5
4EC
330
1E
100
AcDbEntity
  8
0
100
AcDbLine
 10
136.7237
 20
819.632
 30
0.0
 11
137.5517
 21
825.4279999999999
 31
0.0
  0
LINE
  5
4ED
330
1E
100
AcDbEntity
  8
0
100
AcDbLine
 10
136.7237
 20
819.632
 30
0.0
 11
137.5517
 21
813.836
 31
0.0
  0
LINE
  5
4EE
330
1E
100
AcDbEntity
  8
0
100
AcDbLine
 10
136.1716999999999
 20
819.632
 30
0.0
 11
136.9996999999999
 21
825.52
 31
0.0
  0
LINE
  5
4EF
330
1E
100
AcDbEntity
  8
0
100
AcDbLine
 10
136.1716999999999
 20
819.632
 30
0.0
 11
136.1716999999999
 21
819.2669999999999
 31
0.0
  0
LINE
  5
4F0
330
1E
100
AcDbEntity
  8
0
100
AcDbLine
 10
136.1716999999999
 20
819.632
 30
0.0
 11
136.9996999999999
 21
813.7439999999999
 31
0.0
  0
LINE
  5
4F1
330
1E
100
AcDbEntity
  8
0
100
AcDbLine
 10
136.1716999999999
 20
819.2669999999999
 30
0.0
 11
136.1716999999999
 21
819.632
 31
0.0
  0
LINE
  5
4F2
330
1E
100
AcDbEntity
  8
0
100
AcDbLine
 10
137.5517
 20
813.836
 30
0.0
 11
139.7597
 21
808.5
 31
0.0
  0
LINE
  5
4F3
330
1E
100
AcDbEntity
  8
0
100
AcDbLine
 10
138.9276999999999
 20
814.2560000000001
 30
0.0
 11
140.9437
 21
809.2159999999999
 31
0.0
  0
LINE
  5
4F4
330
1E
100
AcDbEntity
  8
0
100
AcDbLine
 10
138.6757
 20
819.632
 30
0.0
 11
139.4317
 21
824.924
 31
0.0
  0
LINE
  5
4F5
330
1E
100
AcDbEntity
  8
0
100
AcDbLine
 10
138.6757
 20
819.632
 30
0.0
 11
139.4317
 21
814.3399999999999
 31
0.0
  0
LINE
  5
4F6
330
1E
100
AcDbEntity
  8
0
100
AcDbLine
 10
138.9276999999999
 20
825.008
 30
0.0
 11
140.9437
 21
830.048
 31
0.0
  0
LINE
  5
4F7
330
1E
100
AcDbEntity
  8
0
100
AcDbLine
 10
138.1716999999999
 20
819.632
 30
0.0
 11
138.9276999999999
 21
825.008
 31
0.0
  0
LINE
  5
4F8
330
1E
100
AcDbEntity
  8
0
100
AcDbLine
 10
138.1716999999999
 20
819.632
 30
0.0
 11
138.9276999999999
 21
814.2560000000001
 31
0.0
  0
LINE
  5
4F9
330
1E
100
AcDbEntity
  8
0
100
AcDbLine
 10
139.2077
 20
808.162951320186
 30
0.0
 11
139.2077
 21
808.2239999999998
 31
0.0
  0
LINE
  5
4FA
330
1E
100
AcDbEntity
  8
0
100
AcDbLine
 10
139.4317
 20
814.3399999999999
 30
0.0
 11
141.4476999999999
 21
809.468
 31
0.0
  0
LINE
  5
4FB
330
1E
100
AcDbEntity
  8
0
100
AcDbLine
 10
140.9437
 20
809.2159999999999
 30
0.0
 11
144.3036999999999
 21
804.7639999999999
 31
0.0
  0
LINE
  5
4FC
330
1E
100
AcDbEntity
  8
0
100
AcDbLine
 10
139.4317
 20
824.924
 30
0.0
 11
141.4476999999999
 21
829.7959999999999
 31
0.0
  0
LINE
  5
4FD
330
1E
100
AcDbEntity
  8
0
100
AcDbLine
 10
141.4476999999999
 20
809.468
 30
0.0
 11
144.7237
 21
805.184
 31
0.0
  0
LINE
  5
4FE
330
1E
100
AcDbEntity
  8
0
100
AcDbLine
 10
141.4476999999999
 20
829.7959999999999
 30
0.0
 11
144.7237
 21
834.0799999999999
 31
0.0
  0
LINE
  5
4FF
330
1E
100
AcDbEntity
  8
0
100
AcDbLine
 10
140.9437
 20
830.048
 30
0.0
 11
144.3036999999999
 21
834.5
 31
0.0
  0
LINE
  5
500
330
1E
100
AcDbEntity
  8
0
100
AcDbLine
 10
139.7597
 20
808.5
 30
0.0
 11
143.3477
 21
803.808
 31
0.0
  0
LINE
  5
501
330
1E
100
AcDbEntity
  8
0
100
AcDbLine
 10
139.2077
 20
808.2239999999998
 30
0.0
 11
139.2077
 21
808.162951320186
 31
0.0
  0
LINE
  5
502
330
1E
100
AcDbEntity
  8
0
100
AcDbLine
 10
139.2077
 20
808.2239999999998
 30
0.0
 11
142.8876999999999
 21
803.348
 31
0.0
  0
LINE
  5
503
330
1E
100
AcDbEntity
  8
0
100
AcDbLine
 10
142.8876999999999
 20
803.348
 30
0.0
 11
147.7637
 21
799.668
 31
0.0
  0
LINE
  5
504
330
1E
100
AcDbEntity
  8
0
100
AcDbLine
 10
137.5517
 20
825.4279999999999
 30
0.0
 11
139.7597
 21
830.7639999999999
 31
0.0
  0
LINE
  5
505
330
1E
100
AcDbEntity
  8
0
100
AcDbLine
 10
139.7597
 20
830.7639999999999
 30
0.0
 11
143.3477
 21
835.4560000000001
 31
0.0
  0
LINE
  5
506
330
1E
100
AcDbEntity
  8
0
100
AcDbLine
 10
136.9996999999999
 20
825.52
 30
0.0
 11
139.2077
 21
831.0399999999999
 31
0.0
  0
LINE
  5
507
330
1E
100
AcDbEntity
  8
0
100
AcDbLine
 10
139.2077
 20
831.0399999999999
 30
0.0
 11
142.8876999999999
 21
835.9160000000001
 31
0.0
  0
LINE
  5
508
330
1E
100
AcDbEntity
  8
0
100
AcDbLine
 10
143.3477
 20
803.808
 30
0.0
 11
148.0397
 21
800.22
 31
0.0
  0
LINE
  5
509
330
1E
100
AcDbEntity
  8
0
100
AcDbLine
 10
147.7637
 20
799.58
 30
0.0
 11
147.7637
 21
799.668
 31
0.0
  0
LINE
  5
50A
330
1E
100
AcDbEntity
  8
0
100
AcDbLine
 10
144.7237
 20
805.184
 30
0.0
 11
149.0077
 21
801.908
 31
0.0
  0
LINE
  5
50B
330
1E
100
AcDbEntity
  8
0
100
AcDbLine
 10
144.3036999999999
 20
804.7639999999999
 30
0.0
 11
148.7556999999999
 21
801.4039999999999
 31
0.0
  0
LINE
  5
50C
330
1E
100
AcDbEntity
  8
0
100
AcDbLine
 10
144.7237
 20
834.0799999999999
 30
0.0
 11
149.0077
 21
837.3560000000001
 31
0.0
  0
LINE
  5
50D
330
1E
100
AcDbEntity
  8
0
100
AcDbLine
 10
144.3036999999999
 20
834.5
 30
0.0
 11
148.7556999999999
 21
837.86
 31
0.0
  0
LINE
  5
50E
330
1E
100
AcDbEntity
  8
0
100
AcDbLine
 10
149.0077
 20
801.908
 30
0.0
 11
153.8797
 21
799.8919999999999
 31
0.0
  0
LINE
  5
50F
330
1E
100
AcDbEntity
  8
0
100
AcDbLine
 10
148.7556999999999
 20
801.4039999999999
 30
0.0
 11
153.7957
 21
799.388
 31
0.0
  0
LINE
  5
510
330
1E
100
AcDbEntity
  8
0
100
AcDbLine
 10
149.0077
 20
837.3560000000001
 30
0.0
 11
153.8797
 21
839.372
 31
0.0
  0
LINE
  5
511
330
1E
100
AcDbEntity
  8
0
100
AcDbLine
 10
148.7556999999999
 20
837.86
 30
0.0
 11
153.7957
 21
839.8760000000001
 31
0.0
  0
LINE
  5
512
330
1E
100
AcDbEntity
  8
0
100
AcDbLine
 10
148.0397
 20
800.22
 30
0.0
 11
153.3757
 21
798.0119999999999
 31
0.0
  0
LINE
  5
513
330
1E
100
AcDbEntity
  8
0
100
AcDbLine
 10
147.7637
 20
799.668
 30
0.0
 11
147.7637
 21
799.58
 31
0.0
  0
LINE
  5
514
330
1E
100
AcDbEntity
  8
0
100
AcDbLine
 10
147.7637
 20
799.668
 30
0.0
 11
153.2837
 21
797.46
 31
0.0
  0
LINE
  5
515
330
1E
100
AcDbEntity
  8
0
100
AcDbLine
 10
143.3477
 20
835.4560000000001
 30
0.0
 11
148.0397
 21
839.0439999999999
 31
0.0
  0
LINE
  5
516
330
1E
100
AcDbEntity
  8
0
100
AcDbLine
 10
148.0397
 20
839.0439999999999
 30
0.0
 11
153.3757
 21
841.2519999999998
 31
0.0
  0
LINE
  5
517
330
1E
100
AcDbEntity
  8
0
100
AcDbLine
 10
142.8876999999999
 20
835.9160000000001
 30
0.0
 11
147.7637
 21
839.596
 31
0.0
  0
LINE
  5
518
330
1E
100
AcDbEntity
  8
0
100
AcDbLine
 10
147.7637
 20
839.596
 30
0.0
 11
153.2837
 21
841.8039999999999
 31
0.0
  0
LINE
  5
519
330
1E
100
AcDbEntity
  8
0
100
AcDbLine
 10
153.8797
 20
799.8919999999999
 30
0.0
 11
159.1716999999999
 21
799.1360000000001
 31
0.0
  0
LINE
  5
51A
330
1E
100
AcDbEntity
  8
0
100
AcDbLine
 10
153.7957
 20
799.388
 30
0.0
 11
159.1716999999999
 21
798.632
 31
0.0
  0
LINE
  5
51B
330
1E
100
AcDbEntity
  8
0
100
AcDbLine
 10
159.1716999999999
 20
799.1360000000001
 30
0.0
 11
164.4636999999999
 21
799.8919999999999
 31
0.0
  0
LINE
  5
51C
330
1E
100
AcDbEntity
  8
0
100
AcDbLine
 10
153.8797
 20
839.372
 30
0.0
 11
159.1716999999999
 21
840.1279999999999
 31
0.0
  0
LINE
  5
51D
330
1E
100
AcDbEntity
  8
0
100
AcDbLine
 10
159.1716999999999
 20
840.1279999999999
 30
0.0
 11
164.4636999999999
 21
839.372
 31
0.0
  0
LINE
  5
51E
330
1E
100
AcDbEntity
  8
0
100
AcDbLine
 10
153.7957
 20
839.8760000000001
 30
0.0
 11
159.1716999999999
 21
840.6319999999999
 31
0.0
  0
LINE
  5
51F
330
1E
100
AcDbEntity
  8
0
100
AcDbLine
 10
164.5476999999999
 20
799.388
 30
0.0
 11
169.5877
 21
801.4039999999999
 31
0.0
  0
LINE
  5
520
330
1E
100
AcDbEntity
  8
0
100
AcDbLine
 10
164.4636999999999
 20
799.8919999999999
 30
0.0
 11
169.3356999999999
 21
801.908
 31
0.0
  0
LINE
  5
521
330
1E
100
AcDbEntity
  8
0
100
AcDbLine
 10
169.3356999999999
 20
801.908
 30
0.0
 11
173.6196999999999
 21
805.184
 31
0.0
  0
LINE
  5
522
330
1E
100
AcDbEntity
  8
0
100
AcDbLine
 10
169.5877
 20
801.4039999999999
 30
0.0
 11
174.0397
 21
804.7639999999999
 31
0.0
  0
LINE
  5
523
330
1E
100
AcDbEntity
  8
0
100
AcDbLine
 10
169.3356999999999
 20
837.3560000000001
 30
0.0
 11
173.6196999999999
 21
834.0799999999999
 31
0.0
  0
LINE
  5
524
330
1E
100
AcDbEntity
  8
0
100
AcDbLine
 10
169.5877
 20
837.86
 30
0.0
 11
174.0397
 21
834.5
 31
0.0
  0
LINE
  5
525
330
1E
100
AcDbEntity
  8
0
100
AcDbLine
 10
170.3036999999999
 20
800.22
 30
0.0
 11
174.9957
 21
803.808
 31
0.0
  0
LINE
  5
526
330
1E
100
AcDbEntity
  8
0
100
AcDbLine
 10
173.6196999999999
 20
805.184
 30
0.0
 11
176.8957
 21
809.468
 31
0.0
  0
LINE
  5
527
330
1E
100
AcDbEntity
  8
0
100
AcDbLine
 10
174.0397
 20
804.7639999999999
 30
0.0
 11
177.3997
 21
809.2159999999999
 31
0.0
  0
LINE
  5
528
330
1E
100
AcDbEntity
  8
0
100
AcDbLine
 10
173.6196999999999
 20
834.0799999999999
 30
0.0
 11
176.8957
 21
829.7959999999999
 31
0.0
  0
LINE
  5
529
330
1E
100
AcDbEntity
  8
0
100
AcDbLine
 10
174.0397
 20
834.5
 30
0.0
 11
177.3997
 21
830.048
 31
0.0
  0
LINE
  5
52A
330
1E
100
AcDbEntity
  8
0
100
AcDbLine
 10
174.9957
 20
803.808
 30
0.0
 11
178.5836999999999
 21
808.5
 31
0.0
  0
LINE
  5
52B
330
1E
100
AcDbEntity
  8
0
100
AcDbLine
 10
170.5797
 20
799.668
 30
0.0
 11
170.5797
 21
799.58
 31
0.0
  0
LINE
  5
52C
330
1E
100
AcDbEntity
  8
0
100
AcDbLine
 10
170.5797
 20
799.668
 30
0.0
 11
175.4557
 21
803.348
 31
0.0
  0
LINE
  5
52D
330
1E
100
AcDbEntity
  8
0
100
AcDbLine
 10
170.5797
 20
799.58
 30
0.0
 11
170.5797
 21
799.668
 31
0.0
  0
LINE
  5
52E
330
1E
100
AcDbEntity
  8
0
100
AcDbLine
 10
175.4557
 20
803.348
 30
0.0
 11
179.1357
 21
808.2239999999998
 31
0.0
  0
LINE
  5
52F
330
1E
100
AcDbEntity
  8
0
100
AcDbLine
 10
174.9957
 20
835.4560000000001
 30
0.0
 11
178.5836999999999
 21
830.7639999999999
 31
0.0
  0
LINE
  5
530
330
1E
100
AcDbEntity
  8
0
100
AcDbLine
 10
164.4636999999999
 20
839.372
 30
0.0
 11
169.3356999999999
 21
837.3560000000001
 31
0.0
  0
LINE
  5
531
330
1E
100
AcDbEntity
  8
0
100
AcDbLine
 10
170.3036999999999
 20
839.0439999999999
 30
0.0
 11
174.9957
 21
835.4560000000001
 31
0.0
  0
LINE
  5
532
330
1E
100
AcDbEntity
  8
0
100
AcDbLine
 10
176.8957
 20
809.468
 30
0.0
 11
178.9117
 21
814.3399999999999
 31
0.0
  0
LINE
  5
533
330
1E
100
AcDbEntity
  8
0
100
AcDbLine
 10
177.3997
 20
809.2159999999999
 30
0.0
 11
179.4157
 21
814.2560000000001
 31
0.0
  0
LINE
  5
534
330
1E
100
AcDbEntity
  8
0
100
AcDbLine
 10
176.8957
 20
829.7959999999999
 30
0.0
 11
178.9117
 21
824.924
 31
0.0
  0
LINE
  5
535
330
1E
100
AcDbEntity
  8
0
100
AcDbLine
 10
177.3997
 20
830.048
 30
0.0
 11
179.4157
 21
825.008
 31
0.0
  0
LINE
  5
536
330
1E
100
AcDbEntity
  8
0
100
AcDbLine
 10
178.9117
 20
814.3399999999999
 30
0.0
 11
179.6677
 21
819.632
 31
0.0
  0
LINE
  5
537
330
1E
100
AcDbEntity
  8
0
100
AcDbLine
 10
179.4157
 20
814.2560000000001
 30
0.0
 11
180.1717
 21
819.632
 31
0.0
  0
LINE
  5
538
330
1E
100
AcDbEntity
  8
0
100
AcDbLine
 10
178.9117
 20
824.924
 30
0.0
 11
179.6677
 21
819.632
 31
0.0
  0
LINE
  5
539
330
1E
100
AcDbEntity
  8
0
100
AcDbLine
 10
179.4157
 20
825.008
 30
0.0
 11
180.1717
 21
819.632
 31
0.0
  0
LINE
  5
53A
330
1E
100
AcDbEntity
  8
0
100
AcDbLine
 10
180.7916999999999
 20
813.836
 30
0.0
 11
181.6197
 21
819.632
 31
0.0
  0
LINE
  5
53B
330
1E
100
AcDbEntity
  8
0
100
AcDbLine
 10
178.5836999999999
 20
808.5
 30
0.0
 11
180.7916999999999
 21
813.836
 31
0.0
  0
LINE
  5
53C
330
1E
100
AcDbEntity
  8
0
100
AcDbLine
 10
179.1357
 20
808.2239999999998
 30
0.0
 11
181.3437
 21
813.7439999999999
 31
0.0
  0
LINE
  5
53D
330
1E
100
AcDbEntity
  8
0
100
AcDbLine
 10
181.3437
 20
813.7439999999999
 30
0.0
 11
182.1716999999999
 21
819.632
 31
0.0
  0
LINE
  5
53E
330
1E
100
AcDbEntity
  8
0
100
AcDbLine
 10
180.7916999999999
 20
825.4279999999999
 30
0.0
 11
181.6197
 21
819.632
 31
0.0
  0
LINE
  5
53F
330
1E
100
AcDbEntity
  8
0
100
AcDbLine
 10
178.5836999999999
 20
830.7639999999999
 30
0.0
 11
180.7916999999999
 21
825.4279999999999
 31
0.0
  0
LINE
  5
540
330
1E
100
AcDbEntity
  8
0
100
AcDbLine
 10
181.3437
 20
825.52
 30
0.0
 11
182.1716999999999
 21
819.632
 31
0.0
  0
LINE
  5
541
330
1E
100
AcDbEntity
  8
0
100
AcDbLine
 10
179.1357
 20
831.0399999999999
 30
0.0
 11
181.3437
 21
825.52
 31
0.0
  0
LINE
  5
542
330
1E
100
AcDbEntity
  8
0
100
AcDbLine
 10
175.4557
 20
835.9160000000001
 30
0.0
 11
179.1357
 21
831.0399999999999
 31
0.0
  0
LINE
  5
543
330
1E
100
AcDbEntity
  8
0
100
AcDbLine
 10
164.5476999999999
 20
839.8760000000001
 30
0.0
 11
169.5877
 21
837.86
 31
0.0
  0
LINE
  5
544
330
1E
100
AcDbEntity
  8
0
100
AcDbLine
 10
164.9677
 20
841.2519999999998
 30
0.0
 11
170.3036999999999
 21
839.0439999999999
 31
0.0
  0
LINE
  5
545
330
1E
100
AcDbEntity
  8
0
100
AcDbLine
 10
170.5797
 20
839.596
 30
0.0
 11
175.4557
 21
835.9160000000001
 31
0.0
  0
LINE
  5
546
330
1E
100
AcDbEntity
  8
0
100
AcDbLine
 10
159.1716999999999
 20
840.6319999999999
 30
0.0
 11
164.5476999999999
 21
839.8760000000001
 31
0.0
  0
LINE
  5
547
330
1E
100
AcDbEntity
  8
0
100
AcDbLine
 10
159.1716999999999
 20
842.0799999999999
 30
0.0
 11
164.9677
 21
841.2519999999998
 31
0.0
  0
LINE
  5
548
330
1E
100
AcDbEntity
  8
0
100
AcDbLine
 10
165.0596999999999
 20
841.8039999999999
 30
0.0
 11
170.5797
 21
839.596
 31
0.0
  0
LINE
  5
549
330
1E
100
AcDbEntity
  8
0
100
AcDbLine
 10
159.1716999999999
 20
842.632
 30
0.0
 11
165.0596999999999
 21
841.8039999999999
 31
0.0
  0
LINE
  5
54A
330
1E
100
AcDbEntity
  8
0
100
AcDbLine
 10
153.3757
 20
841.2519999999998
 30
0.0
 11
159.1716999999999
 21
842.0799999999999
 31
0.0
  0
LINE
  5
54B
330
1E
100
AcDbEntity
  8
0
100
AcDbLine
 10
153.2837
 20
841.8039999999999
 30
0.0
 11
159.1716999999999
 21
842.632
 31
0.0
  0
LINE
  5
54C
330
1E
100
AcDbEntity
  8
0
100
AcDbLine
 10
156.1716999999999
 20
799.0538749999999
 30
0.0
 11
156.1716999999999
 21
726.6319999999999
 31
0.0
  0
LINE
  5
54D
330
1E
100
AcDbEntity
  8
0
100
AcDbLine
 10
202.8287
 20
807.559
 30
0.0
 11
203.4286999999999
 21
807.559
 31
0.0
  0
LINE
  5
54E
330
1E
100
AcDbEntity
  8
0
100
AcDbLine
 10
202.8287
 20
807.559
 30
0.0
 11
202.8287
 21
597.873
 31
0.0
  0
LINE
  5
54F
330
1E
100
AcDbEntity
  8
0
100
AcDbLine
 10
203.4286999999999
 20
807.559
 30
0.0
 11
205.2287
 21
807.559
 31
0.0
  0
LINE
  5
550
330
1E
100
AcDbEntity
  8
0
100
AcDbLine
 10
205.2287
 20
807.559
 30
0.0
 11
207.7287
 21
807.559
 31
0.0
  0
LINE
  5
551
330
1E
100
AcDbEntity
  8
0
100
AcDbLine
 10
207.7287
 20
807.559
 30
0.0
 11
210.8286999999999
 21
807.559
 31
0.0
  0
LINE
  5
552
330
1E
100
AcDbEntity
  8
0
100
AcDbLine
 10
211.5286999999999
 20
807.559
 30
0.0
 11
216.4286999999999
 21
807.559
 31
0.0
  0
LINE
  5
553
330
1E
100
AcDbEntity
  8
0
100
AcDbLine
 10
208.0567
 20
807.559
 30
0.0
 11
210.8286999999999
 21
807.559
 31
0.0
  0
LINE
  5
554
330
1E
100
AcDbEntity
  8
0
100
AcDbLine
 10
205.5047
 20
807.559
 30
0.0
 11
208.0567
 21
807.559
 31
0.0
  0
LINE
  5
555
330
1E
100
AcDbEntity
  8
0
100
AcDbLine
 10
203.2607
 20
807.559
 30
0.0
 11
205.5047
 21
807.559
 31
0.0
  0
LINE
  5
556
330
1E
100
AcDbEntity
  8
0
100
AcDbLine
 10
201.5446999999999
 20
807.559
 30
0.0
 11
203.2607
 21
807.559
 31
0.0
  0
LINE
  5
557
330
1E
100
AcDbEntity
  8
0
100
AcDbLine
 10
201.5446999999999
 20
807.559
 30
0.0
 11
202.8287
 21
807.559
 31
0.0
  0
LINE
  5
558
330
1E
100
AcDbEntity
  8
0
100
AcDbLine
 10
200.4887
 20
807.559
 30
0.0
 11
201.5446999999999
 21
807.559
 31
0.0
  0
LINE
  5
559
330
1E
100
AcDbEntity
  8
0
100
AcDbLine
 10
200.0926999999999
 20
807.559
 30
0.0
 11
200.4887
 21
807.559
 31
0.0
  0
LINE
  5
55A
330
1E
100
AcDbEntity
  8
0
100
AcDbLine
 10
210.8286999999999
 20
807.559
 30
0.0
 11
213.6006999999999
 21
807.559
 31
0.0
  0
LINE
  5
55B
330
1E
100
AcDbEntity
  8
0
100
AcDbLine
 10
210.8286999999999
 20
807.559
 30
0.0
 11
211.5286999999999
 21
807.559
 31
0.0
  0
LINE
  5
55C
330
1E
100
AcDbEntity
  8
0
100
AcDbLine
 10
216.4286999999999
 20
807.559
 30
0.0
 11
218.2287
 21
807.559
 31
0.0
  0
LINE
  5
55D
330
1E
100
AcDbEntity
  8
0
100
AcDbLine
 10
218.2287
 20
807.559
 30
0.0
 11
218.8286999999999
 21
807.559
 31
0.0
  0
LINE
  5
55E
330
1E
100
AcDbEntity
  8
0
100
AcDbLine
 10
213.6006999999999
 20
807.559
 30
0.0
 11
216.1526999999999
 21
807.559
 31
0.0
  0
LINE
  5
55F
330
1E
100
AcDbEntity
  8
0
100
AcDbLine
 10
216.1526999999999
 20
807.559
 30
0.0
 11
218.3966999999999
 21
807.559
 31
0.0
  0
LINE
  5
560
330
1E
100
AcDbEntity
  8
0
100
AcDbLine
 10
218.8286999999999
 20
807.559
 30
0.0
 11
220.1127
 21
807.559
 31
0.0
  0
LINE
  5
561
330
1E
100
AcDbEntity
  8
0
100
AcDbLine
 10
218.8286999999999
 20
807.559
 30
0.0
 11
218.8286999999999
 21
597.873
 31
0.0
  0
LINE
  5
562
330
1E
100
AcDbEntity
  8
0
100
AcDbLine
 10
218.3966999999999
 20
807.559
 30
0.0
 11
220.1127
 21
807.559
 31
0.0
  0
LINE
  5
563
330
1E
100
AcDbEntity
  8
0
100
AcDbLine
 10
220.1127
 20
807.559
 30
0.0
 11
221.1686999999999
 21
807.559
 31
0.0
  0
LINE
  5
564
330
1E
100
AcDbEntity
  8
0
100
AcDbLine
 10
221.5647
 20
807.559
 30
0.0
 11
221.8287
 21
808.15
 31
0.0
  0
LINE
  5
565
330
1E
100
AcDbEntity
  8
0
100
AcDbLine
 10
199.884044291513
 20
808.0261042564998
 30
0.0
 11
200.0926999999999
 21
807.559
 31
0.0
  0
LINE
  5
566
330
1E
100
AcDbEntity
  8
0
100
AcDbLine
 10
221.1686999999999
 20
807.559
 30
0.0
 11
221.5647
 21
807.559
 31
0.0
  0
LINE
  5
567
330
1E
100
AcDbEntity
  8
0
100
AcDbLine
 10
221.8287
 20
808.15
 30
0.0
 11
222.1191681308299
 21
864.8092623668029
 31
0.0
  0
LINE
  5
568
330
1E
100
AcDbEntity
  8
0
100
AcDbLine
 10
225.2766999999999
 20
870.706
 30
0.0
 11
235.1716999999999
 21
887.2200000000001
 31
0.0
  0
LINE
  5
569
330
1E
100
AcDbEntity
  8
0
100
AcDbLine
 10
222.1191681308299
 20
864.8092623668036
 30
0.0
 11
225.2766999999999
 21
870.706
 31
0.0
  0
LINE
  5
56B
330
1E
100
AcDbEntity
  8
0
100
AcDbLine
 10
191.3826999999999
 20
769.789
 30
0.0
 11
199.884044291513
 21
808.0261042564998
 31
0.0
  0
LINE
  5
56C
330
1E
100
AcDbEntity
  8
0
100
AcDbLine
 10
187.2766999999999
 20
742.266
 30
0.0
 11
191.3826999999999
 21
769.789
 31
0.0
  0
LINE
  5
56D
330
1E
100
AcDbEntity
  8
0
100
AcDbLine
 10
135.1716999999999
 20
714.743
 30
0.0
 11
135.1716999999999
 21
172.181117555556
 31
0.0
  0
LINE
  5
56E
330
1E
100
AcDbEntity
  8
0
100
AcDbLine
 10
135.1716999999999
 20
714.743
 30
0.0
 11
135.1716999999999
 21
742.266
 31
0.0
  0
LINE
  5
56F
330
1E
100
AcDbEntity
  8
0
100
AcDbLine
 10
135.1716999999999
 20
714.743
 30
0.0
 11
135.1716999999999
 21
700.22
 31
0.0
  0
LINE
  5
570
330
1E
100
AcDbEntity
  8
0
100
AcDbLine
 10
132.1716999999999
 20
888.3029999999999
 30
0.0
 11
132.4716999999999
 21
887.5449999999998
 31
0.0
  0
LINE
  5
571
330
1E
100
AcDbEntity
  8
0
100
AcDbLine
 10
132.1716999999999
 20
888.3029999999999
 30
0.0
 11
132.1716999999999
 21
899.1369999999999
 31
0.0
  0
LINE
  5
572
330
1E
100
AcDbEntity
  8
0
100
AcDbLine
 10
78.26795
 20
902.28
 30
0.0
 11
80.76795
 21
902.28
 31
0.0
  0
LINE
  5
573
330
1E
100
AcDbEntity
  8
0
100
AcDbLine
 10
80.76795
 20
902.28
 30
0.0
 11
83.66799999999999
 21
902.28
 31
0.0
  0
LINE
  5
574
330
1E
100
AcDbEntity
  8
0
100
AcDbLine
 10
95.26799999999999
 20
902.28
 30
0.0
 11
97.16799999999999
 21
902.28
 31
0.0
  0
LINE
  5
575
330
1E
100
AcDbEntity
  8
0
100
AcDbLine
 10
97.16799999999999
 20
902.28
 30
0.0
 11
98.368
 21
902.28
 31
0.0
  0
LINE
  5
576
330
1E
100
AcDbEntity
  8
0
100
AcDbLine
 10
98.76799999999999
 20
902.28
 30
0.0
 11
98.76799999999999
 21
883.28
 31
0.0
  0
LINE
  5
577
330
1E
100
AcDbEntity
  8
0
100
AcDbLine
 10
98.368
 20
902.28
 30
0.0
 11
98.76799999999999
 21
902.28
 31
0.0
  0
LINE
  5
578
330
1E
100
AcDbEntity
  8
0
100
AcDbLine
 10
92.76799999999999
 20
902.28
 30
0.0
 11
95.26799999999999
 21
902.28
 31
0.0
  0
LINE
  5
579
330
1E
100
AcDbEntity
  8
0
100
AcDbLine
 10
89.868
 20
902.28
 30
0.0
 11
92.76799999999999
 21
902.28
 31
0.0
  0
LINE
  5
57A
330
1E
100
AcDbEntity
  8
0
100
AcDbLine
 10
86.76799999999998
 20
902.28
 30
0.0
 11
89.868
 21
902.28
 31
0.0
  0
LINE
  5
57B
330
1E
100
AcDbEntity
  8
0
100
AcDbLine
 10
83.66799999999999
 20
902.28
 30
0.0
 11
86.76799999999998
 21
902.28
 31
0.0
  0
LINE
  5
57C
330
1E
100
AcDbEntity
  8
0
100
AcDbLine
 10
76.36794999999999
 20
902.28
 30
0.0
 11
78.26795
 21
902.28
 31
0.0
  0
LINE
  5
57D
330
1E
100
AcDbEntity
  8
0
100
AcDbLine
 10
75.16795999999999
 20
902.28
 30
0.0
 11
76.36794999999999
 21
902.28
 31
0.0
  0
LINE
  5
57E
330
1E
100
AcDbEntity
  8
0
100
AcDbLine
 10
78.66795
 20
902.7799999999999
 30
0.0
 11
81.06796000000001
 21
902.7799999999999
 31
0.0
  0
LINE
  5
57F
330
1E
100
AcDbEntity
  8
0
100
AcDbLine
 10
94.868
 20
902.7799999999999
 30
0.0
 11
96.768
 21
902.7799999999999
 31
0.0
  0
LINE
  5
580
330
1E
100
AcDbEntity
  8
0
100
AcDbLine
 10
96.768
 20
902.7799999999999
 30
0.0
 11
97.86799999999999
 21
902.7799999999999
 31
0.0
  0
LINE
  5
581
330
1E
100
AcDbEntity
  8
0
100
AcDbLine
 10
98.26799999999998
 20
902.7799999999999
 30
0.0
 11
98.76799999999999
 21
902.28
 31
0.0
  0
LINE
  5
582
330
1E
100
AcDbEntity
  8
0
100
AcDbLine
 10
97.86799999999999
 20
902.7799999999999
 30
0.0
 11
98.26799999999998
 21
902.7799999999999
 31
0.0
  0
LINE
  5
583
330
1E
100
AcDbEntity
  8
0
100
AcDbLine
 10
92.46799999999998
 20
902.7799999999999
 30
0.0
 11
94.868
 21
902.7799999999999
 31
0.0
  0
LINE
  5
584
330
1E
100
AcDbEntity
  8
0
100
AcDbLine
 10
89.76799999999999
 20
902.7799999999999
 30
0.0
 11
92.46799999999998
 21
902.7799999999999
 31
0.0
  0
LINE
  5
585
330
1E
100
AcDbEntity
  8
0
100
AcDbLine
 10
86.76799999999998
 20
902.7799999999999
 30
0.0
 11
89.76799999999999
 21
902.7799999999999
 31
0.0
  0
LINE
  5
586
330
1E
100
AcDbEntity
  8
0
100
AcDbLine
 10
81.06796000000001
 20
902.7799999999999
 30
0.0
 11
83.76799999999999
 21
902.7799999999999
 31
0.0
  0
LINE
  5
587
330
1E
100
AcDbEntity
  8
0
100
AcDbLine
 10
83.76799999999999
 20
902.7799999999999
 30
0.0
 11
86.76799999999998
 21
902.7799999999999
 31
0.0
  0
LINE
  5
588
330
1E
100
AcDbEntity
  8
0
100
AcDbLine
 10
76.76796
 20
902.7799999999999
 30
0.0
 11
78.66795
 21
902.7799999999999
 31
0.0
  0
LINE
  5
589
330
1E
100
AcDbEntity
  8
0
100
AcDbLine
 10
75.66795
 20
902.7799999999999
 30
0.0
 11
76.76796
 21
902.7799999999999
 31
0.0
  0
LINE
  5
58A
330
1E
100
AcDbEntity
  8
0
100
AcDbLine
 10
75.26796
 20
902.7799999999999
 30
0.0
 11
75.66795
 21
902.7799999999999
 31
0.0
  0
LINE
  5
58B
330
1E
100
AcDbEntity
  8
0
100
AcDbLine
 10
74.76795
 20
902.28
 30
0.0
 11
74.76795
 21
883.28
 31
0.0
  0
LINE
  5
58C
330
1E
100
AcDbEntity
  8
0
100
AcDbLine
 10
74.76795
 20
902.28
 30
0.0
 11
75.16795999999999
 21
902.28
 31
0.0
  0
LINE
  5
58D
330
1E
100
AcDbEntity
  8
0
100
AcDbLine
 10
74.76795
 20
902.28
 30
0.0
 11
75.26796
 21
902.7799999999999
 31
0.0
  0
LINE
  5
58E
330
1E
100
AcDbEntity
  8
0
100
AcDbLine
 10
132.4716999999999
 20
899.895
 30
0.0
 11
132.9717
 21
899.895
 31
0.0
  0
LINE
  5
58F
330
1E
100
AcDbEntity
  8
0
100
AcDbLine
 10
132.4716999999999
 20
899.895
 30
0.0
 11
133.1716999999999
 21
900.22
 31
0.0
  0
LINE
  5
590
330
1E
100
AcDbEntity
  8
0
100
AcDbLine
 10
132.1716999999999
 20
899.1369999999999
 30
0.0
 11
132.1716999999999
 21
888.3029999999999
 31
0.0
  0
LINE
  5
591
330
1E
100
AcDbEntity
  8
0
100
AcDbLine
 10
132.1716999999999
 20
899.1369999999999
 30
0.0
 11
132.4716999999999
 21
899.895
 31
0.0
  0
LINE
  5
592
330
1E
100
AcDbEntity
  8
0
100
AcDbLine
 10
233.3816999999999
 20
887.2200000000001
 30
0.0
 11
235.1716999999999
 21
887.2200000000001
 31
0.0
  0
LINE
  5
593
330
1E
100
AcDbEntity
  8
0
100
AcDbLine
 10
228.4346999999999
 20
887.2200000000001
 30
0.0
 11
233.3816999999999
 21
887.2200000000001
 31
0.0
  0
LINE
  5
594
330
1E
100
AcDbEntity
  8
0
100
AcDbLine
 10
220.4346999999999
 20
887.2200000000001
 30
0.0
 11
228.4346999999999
 21
887.2200000000001
 31
0.0
  0
LINE
  5
595
330
1E
100
AcDbEntity
  8
0
100
AcDbLine
 10
210.1186999999999
 20
887.2200000000001
 30
0.0
 11
220.4346999999999
 21
887.2200000000001
 31
0.0
  0
LINE
  5
596
330
1E
100
AcDbEntity
  8
0
100
AcDbLine
 10
198.0137
 20
887.2200000000001
 30
0.0
 11
210.1186999999999
 21
887.2200000000001
 31
0.0
  0
LINE
  5
597
330
1E
100
AcDbEntity
  8
0
100
AcDbLine
 10
185.1716999999999
 20
887.2200000000001
 30
0.0
 11
198.0137
 21
887.2200000000001
 31
0.0
  0
LINE
  5
598
330
1E
100
AcDbEntity
  8
0
100
AcDbLine
 10
172.3295999999999
 20
887.2200000000001
 30
0.0
 11
185.1716999999999
 21
887.2200000000001
 31
0.0
  0
LINE
  5
599
330
1E
100
AcDbEntity
  8
0
100
AcDbLine
 10
160.2243
 20
887.2200000000001
 30
0.0
 11
172.3295999999999
 21
887.2200000000001
 31
0.0
  0
LINE
  5
59A
330
1E
100
AcDbEntity
  8
0
100
AcDbLine
 10
149.9085
 20
887.2200000000001
 30
0.0
 11
160.2243
 21
887.2200000000001
 31
0.0
  0
LINE
  5
59B
330
1E
100
AcDbEntity
  8
0
100
AcDbLine
 10
141.9085
 20
887.2200000000001
 30
0.0
 11
149.9085
 21
887.2200000000001
 31
0.0
  0
LINE
  5
59C
330
1E
100
AcDbEntity
  8
0
100
AcDbLine
 10
136.9611999999999
 20
887.2200000000001
 30
0.0
 11
141.9085
 21
887.2200000000001
 31
0.0
  0
LINE
  5
59D
330
1E
100
AcDbEntity
  8
0
100
AcDbLine
 10
135.1716999999999
 20
887.2200000000001
 30
0.0
 11
135.1716999999999
 21
869.4219999999999
 31
0.0
  0
LINE
  5
59E
330
1E
100
AcDbEntity
  8
0
100
AcDbLine
 10
135.1716999999999
 20
887.2200000000001
 30
0.0
 11
136.9611999999999
 21
887.2200000000001
 31
0.0
  0
LINE
  5
59F
330
1E
100
AcDbEntity
  8
0
100
AcDbLine
 10
135.1716999999999
 20
887.2200000000001
 30
0.0
 11
135.1716999999999
 21
871.9649999999999
 31
0.0
  0
LINE
  5
5A0
330
1E
100
AcDbEntity
  8
0
100
AcDbLine
 10
235.1716999999999
 20
887.2200000000001
 30
0.0
 11
314.1716999999999
 21
887.2200000000001
 31
0.0
  0
LINE
  5
5A1
330
1E
100
AcDbEntity
  8
0
100
AcDbLine
 10
134.1716999999999
 20
887.2200000000001
 30
0.0
 11
135.1716999999999
 21
887.2200000000001
 31
0.0
  0
LINE
  5
5A2
330
1E
100
AcDbEntity
  8
0
100
AcDbLine
 10
134.1716999999999
 20
887.2200000000001
 30
0.0
 11
510.1716999999999
 21
887.2200000000001
 31
0.0
  0
LINE
  5
5A3
330
1E
100
AcDbEntity
  8
0
100
AcDbLine
 10
134.1716999999999
 20
887.5449999999998
 30
0.0
 11
510.1716999999999
 21
887.5449999999998
 31
0.0
  0
LINE
  5
5A4
330
1E
100
AcDbEntity
  8
0
100
AcDbLine
 10
235.1716999999999
 20
887.2200000000001
 30
0.0
 11
314.1716999999999
 21
887.2200000000001
 31
0.0
  0
LINE
  5
5A5
330
1E
100
AcDbEntity
  8
0
100
AcDbLine
 10
133.1716999999999
 20
887.2200000000001
 30
0.0
 11
134.1716999999999
 21
887.2200000000001
 31
0.0
  0
LINE
  5
5A8
330
1E
100
AcDbEntity
  8
0
100
AcDbLine
 10
134.1716999999999
 20
899.895
 30
0.0
 11
510.1716999999999
 21
899.895
 31
0.0
  0
LINE
  5
5A9
330
1E
100
AcDbEntity
  8
0
100
AcDbLine
 10
134.1716999999999
 20
900.22
 30
0.0
 11
510.1716999999999
 21
900.22
 31
0.0
  0
LINE
  5
5AA
330
1E
100
AcDbEntity
  8
0
100
AcDbLine
 10
133.4716999999999
 20
900.22
 30
0.0
 11
134.1716999999999
 21
900.22
 31
0.0
  0
LINE
  5
5AB
330
1E
100
AcDbEntity
  8
0
100
AcDbLine
 10
133.1716999999999
 20
900.22
 30
0.0
 11
133.4716999999999
 21
900.22
 31
0.0
  0
LINE
  5
5AC
330
1E
100
AcDbEntity
  8
0
100
AcDbLine
 10
132.9717
 20
899.895
 30
0.0
 11
134.1716999999999
 21
899.895
 31
0.0
  0
LINE
  5
5AF
330
1E
100
AcDbEntity
  8
0
100
AcDbLine
 10
132.9717
 20
887.5449999999998
 30
0.0
 11
134.1716999999999
 21
887.5449999999998
 31
0.0
  0
LINE
  5
5B0
330
1E
100
AcDbEntity
  8
0
100
AcDbLine
 10
132.4716999999999
 20
887.5449999999998
 30
0.0
 11
132.9717
 21
887.5449999999998
 31
0.0
  0
LINE
  5
5B1
330
1E
100
AcDbEntity
  8
0
100
AcDbLine
 10
132.4716999999999
 20
887.5449999999998
 30
0.0
 11
133.1716999999999
 21
887.2200000000001
 31
0.0
  0
LINE
  5
5B2
330
1E
100
AcDbEntity
  8
0
100
AcDbLine
 10
314.1716999999999
 20
884.22
 30
0.0
 11
430.1717
 21
884.22
 31
0.0
  0
LINE
  5
5B3
330
1E
100
AcDbEntity
  8
0
100
AcDbLine
 10
314.1716999999999
 20
884.22
 30
0.0
 11
314.1716999999999
 21
887.2200000000001
 31
0.0
  0
LINE
  5
5B4
330
1E
100
AcDbEntity
  8
0
100
AcDbLine
 10
510.1716999999999
 20
887.2200000000001
 30
0.0
 11
511.1716999999999
 21
887.2200000000001
 31
0.0
  0
LINE
  5
5B5
330
1E
100
AcDbEntity
  8
0
100
AcDbLine
 10
510.1716999999999
 20
899.895
 30
0.0
 11
511.3717
 21
899.895
 31
0.0
  0
LINE
  5
5B7
330
1E
100
AcDbEntity
  8
0
100
AcDbLine
 10
511.3717
 20
899.895
 30
0.0
 11
511.8717
 21
899.895
 31
0.0
  0
LINE
  5
5B8
330
1E
100
AcDbEntity
  8
0
100
AcDbLine
 10
510.1716999999999
 20
887.5449999999998
 30
0.0
 11
511.3717
 21
887.5449999999998
 31
0.0
  0
LINE
  5
5BB
330
1E
100
AcDbEntity
  8
0
100
AcDbLine
 10
511.3717
 20
887.5449999999998
 30
0.0
 11
511.8717
 21
887.5449999999998
 31
0.0
  0
LINE
  5
5BD
330
1E
100
AcDbEntity
  8
0
100
AcDbLine
 10
510.1716999999999
 20
900.22
 30
0.0
 11
510.8716999999999
 21
900.22
 31
0.0
  0
LINE
  5
5BE
330
1E
100
AcDbEntity
  8
0
100
AcDbLine
 10
510.8716999999999
 20
900.22
 30
0.0
 11
511.1716999999999
 21
900.22
 31
0.0
  0
LINE
  5
5BF
330
1E
100
AcDbEntity
  8
0
100
AcDbLine
 10
511.1716999999999
 20
900.22
 30
0.0
 11
511.8717
 21
899.895
 31
0.0
  0
LINE
  5
5C0
330
1E
100
AcDbEntity
  8
0
100
AcDbLine
 10
511.8717
 20
899.895
 30
0.0
 11
512.1717
 21
899.1369999999999
 31
0.0
  0
LINE
  5
5C1
330
1E
100
AcDbEntity
  8
0
100
AcDbLine
 10
512.1717
 20
888.3029999999999
 30
0.0
 11
512.1717
 21
899.1369999999999
 31
0.0
  0
LINE
  5
5C2
330
1E
100
AcDbEntity
  8
0
100
AcDbLine
 10
512.1717
 20
899.1369999999999
 30
0.0
 11
512.1717
 21
888.3029999999999
 31
0.0
  0
LINE
  5
5C3
330
1E
100
AcDbEntity
  8
0
100
AcDbLine
 10
511.8717
 20
887.5449999999998
 30
0.0
 11
512.1717
 21
888.3029999999999
 31
0.0
  0
LINE
  5
5C4
330
1E
100
AcDbEntity
  8
0
100
AcDbLine
 10
511.1716999999999
 20
887.2200000000001
 30
0.0
 11
511.8717
 21
887.5449999999998
 31
0.0
  0
LINE
  5
5C5
330
1E
100
AcDbEntity
  8
0
100
AcDbLine
 10
430.1717
 20
887.2200000000001
 30
0.0
 11
430.1717
 21
884.22
 31
0.0
  0
LINE
  5
5C6
330
1E
100
AcDbEntity
  8
0
100
AcDbLine
 10
430.1717
 20
887.2200000000001
 30
0.0
 11
510.1716999999999
 21
887.2200000000001
 31
0.0
  0
LINE
  5
5C7
330
1E
100
AcDbEntity
  8
0
100
AcDbLine
 10
430.1717
 20
884.22
 30
0.0
 11
430.1717
 21
887.2200000000001
 31
0.0
  0
LINE
  5
5C8
330
1E
100
AcDbEntity
  8
0
100
AcDbLine
 10
314.1716999999999
 20
887.2200000000001
 30
0.0
 11
314.1716999999999
 21
884.22
 31
0.0
  0
LINE
  5
5C9
330
1E
100
AcDbEntity
  8
0
100
AcDbLine
 10
314.1716999999999
 20
887.2200000000001
 30
0.0
 11
430.1717
 21
887.2200000000001
 31
0.0
  0
LINE
  5
5CE
330
1E
100
AcDbEntity
  8
0
100
AcDbLine
 10
97.47169999999998
 20
0.5200000000000421
 30
0.0
 11
97.17170000000001
 21
1.22000000000004
 31
0.0
  0
LINE
  5
5CF
330
1E
100
AcDbEntity
  8
0
100
AcDbLine
 10
184.7507
 20
714.743
 30
0.0
 11
187.2766999999999
 21
742.266
 31
0.0
  0
LINE
  5
5D0
330
1E
100
AcDbEntity
  8
0
100
AcDbLine
 10
90.4109
 20
839.48
 30
0.0
 11
90.4109
 21
838.48
 31
0.0
  0
LINE
  5
5D1
330
1E
100
AcDbEntity
  8
0
100
AcDbLine
 10
92.12509999999999
 20
839.48
 30
0.0
 11
92.12509999999999
 21
838.48
 31
0.0
  0
LINE
  5
5D2
330
1E
100
AcDbEntity
  8
0
100
AcDbLine
 10
92.12509999999999
 20
838.48
 30
0.0
 11
92.12509999999999
 21
839.48
 31
0.0
  0
LINE
  5
5D3
330
1E
100
AcDbEntity
  8
0
100
AcDbLine
 10
90.4109
 20
838.48
 30
0.0
 11
90.4109
 21
839.48
 31
0.0
  0
LINE
  5
5D4
330
1E
100
AcDbEntity
  8
0
100
AcDbLine
 10
90.8394
 20
819.58
 30
0.0
 11
91.6966
 21
819.58
 31
0.0
  0
LINE
  5
5D5
330
1E
100
AcDbEntity
  8
0
100
AcDbLine
 10
91.6966
 20
819.58
 30
0.0
 11
92.12509999999999
 21
819.0800000000001
 31
0.0
  0
LINE
  5
5D6
330
1E
100
AcDbEntity
  8
0
100
AcDbLine
 10
90.4109
 20
819.0800000000001
 30
0.0
 11
90.4109
 21
818.0800000000001
 31
0.0
  0
LINE
  5
5D7
330
1E
100
AcDbEntity
  8
0
100
AcDbLine
 10
90.4109
 20
819.0800000000001
 30
0.0
 11
90.8394
 21
819.58
 31
0.0
  0
LINE
  5
5D8
330
1E
100
AcDbEntity
  8
0
100
AcDbLine
 10
90.4109
 20
818.0800000000001
 30
0.0
 11
90.4109
 21
819.0800000000001
 31
0.0
  0
LINE
  5
5D9
330
1E
100
AcDbEntity
  8
0
100
AcDbLine
 10
90.4109
 20
818.0800000000001
 30
0.0
 11
90.8394
 21
817.58
 31
0.0
  0
LINE
  5
5DA
330
1E
100
AcDbEntity
  8
0
100
AcDbLine
 10
92.12509999999999
 20
819.0800000000001
 30
0.0
 11
92.12509999999999
 21
818.0800000000001
 31
0.0
  0
LINE
  5
5DB
330
1E
100
AcDbEntity
  8
0
100
AcDbLine
 10
92.12509999999999
 20
818.0800000000001
 30
0.0
 11
92.12509999999999
 21
819.0800000000001
 31
0.0
  0
LINE
  5
5DC
330
1E
100
AcDbEntity
  8
0
100
AcDbLine
 10
91.6966
 20
817.58
 30
0.0
 11
92.12509999999999
 21
818.0800000000001
 31
0.0
  0
LINE
  5
5DD
330
1E
100
AcDbEntity
  8
0
100
AcDbLine
 10
90.8394
 20
817.58
 30
0.0
 11
91.6966
 21
817.58
 31
0.0
  0
LINE
  5
5DE
330
1E
100
AcDbEntity
  8
0
100
AcDbLine
 10
90.4109
 20
811.28
 30
0.0
 11
90.4109
 21
812.2799999999999
 31
0.0
  0
LINE
  5
5DF
330
1E
100
AcDbEntity
  8
0
100
AcDbLine
 10
90.4109
 20
811.28
 30
0.0
 11
90.8394
 21
810.7799999999999
 31
0.0
  0
LINE
  5
5E0
330
1E
100
AcDbEntity
  8
0
100
AcDbLine
 10
90.8394
 20
810.7799999999999
 30
0.0
 11
91.6966
 21
810.7799999999999
 31
0.0
  0
LINE
  5
5E1
330
1E
100
AcDbEntity
  8
0
100
AcDbLine
 10
92.12509999999999
 20
812.2799999999999
 30
0.0
 11
92.12509999999999
 21
811.28
 31
0.0
  0
LINE
  5
5E2
330
1E
100
AcDbEntity
  8
0
100
AcDbLine
 10
91.6966
 20
812.78
 30
0.0
 11
92.12509999999999
 21
812.2799999999999
 31
0.0
  0
LINE
  5
5E3
330
1E
100
AcDbEntity
  8
0
100
AcDbLine
 10
90.8394
 20
812.78
 30
0.0
 11
91.6966
 21
812.78
 31
0.0
  0
LINE
  5
5E4
330
1E
100
AcDbEntity
  8
0
100
AcDbLine
 10
92.12509999999999
 20
811.28
 30
0.0
 11
92.12509999999999
 21
812.2799999999999
 31
0.0
  0
LINE
  5
5E5
330
1E
100
AcDbEntity
  8
0
100
AcDbLine
 10
91.6966
 20
810.7799999999999
 30
0.0
 11
92.12509999999999
 21
811.28
 31
0.0
  0
LINE
  5
5E6
330
1E
100
AcDbEntity
  8
0
100
AcDbLine
 10
90.4109
 20
812.2799999999999
 30
0.0
 11
90.4109
 21
811.28
 31
0.0
  0
LINE
  5
5E7
330
1E
100
AcDbEntity
  8
0
100
AcDbLine
 10
90.4109
 20
812.2799999999999
 30
0.0
 11
90.8394
 21
812.78
 31
0.0
  0
LINE
  5
5E8
330
1E
100
AcDbEntity
  8
0
100
AcDbLine
 10
91.6966
 20
837.9799999999999
 30
0.0
 11
92.12509999999999
 21
838.48
 31
0.0
  0
LINE
  5
5E9
330
1E
100
AcDbEntity
  8
0
100
AcDbLine
 10
90.8394
 20
837.9799999999999
 30
0.0
 11
91.6966
 21
837.9799999999999
 31
0.0
  0
LINE
  5
5EA
330
1E
100
AcDbEntity
  8
0
100
AcDbLine
 10
90.4109
 20
838.48
 30
0.0
 11
90.8394
 21
837.9799999999999
 31
0.0
  0
LINE
  5
5EB
330
1E
100
AcDbEntity
  8
0
100
AcDbLine
 10
90.8394
 20
826.3799999999999
 30
0.0
 11
91.6966
 21
826.3799999999999
 31
0.0
  0
LINE
  5
5EC
330
1E
100
AcDbEntity
  8
0
100
AcDbLine
 10
92.12509999999999
 20
831.6799999999998
 30
0.0
 11
92.12509999999999
 21
832.68
 31
0.0
  0
LINE
  5
5ED
330
1E
100
AcDbEntity
  8
0
100
AcDbLine
 10
91.6966
 20
833.1799999999999
 30
0.0
 11
92.12509999999999
 21
832.68
 31
0.0
  0
LINE
  5
5EE
330
1E
100
AcDbEntity
  8
0
100
AcDbLine
 10
92.12509999999999
 20
832.68
 30
0.0
 11
92.12509999999999
 21
831.6799999999998
 31
0.0
  0
LINE
  5
5EF
330
1E
100
AcDbEntity
  8
0
100
AcDbLine
 10
90.8394
 20
833.1799999999999
 30
0.0
 11
91.6966
 21
833.1799999999999
 31
0.0
  0
LINE
  5
5F0
330
1E
100
AcDbEntity
  8
0
100
AcDbLine
 10
90.4109
 20
832.68
 30
0.0
 11
90.4109
 21
831.6799999999998
 31
0.0
  0
LINE
  5
5F1
330
1E
100
AcDbEntity
  8
0
100
AcDbLine
 10
90.4109
 20
832.68
 30
0.0
 11
90.8394
 21
833.1799999999999
 31
0.0
  0
LINE
  5
5F2
330
1E
100
AcDbEntity
  8
0
100
AcDbLine
 10
90.4109
 20
831.6799999999998
 30
0.0
 11
90.8394
 21
831.1799999999999
 31
0.0
  0
LINE
  5
5F3
330
1E
100
AcDbEntity
  8
0
100
AcDbLine
 10
90.4109
 20
831.6799999999998
 30
0.0
 11
90.4109
 21
832.68
 31
0.0
  0
LINE
  5
5F4
330
1E
100
AcDbEntity
  8
0
100
AcDbLine
 10
90.8394
 20
831.1799999999999
 30
0.0
 11
91.6966
 21
831.1799999999999
 31
0.0
  0
LINE
  5
5F5
330
1E
100
AcDbEntity
  8
0
100
AcDbLine
 10
91.6966
 20
831.1799999999999
 30
0.0
 11
92.12509999999999
 21
831.6799999999998
 31
0.0
  0
LINE
  5
5F6
330
1E
100
AcDbEntity
  8
0
100
AcDbLine
 10
91.6966
 20
826.3799999999999
 30
0.0
 11
92.12509999999999
 21
825.88
 31
0.0
  0
LINE
  5
5F7
330
1E
100
AcDbEntity
  8
0
100
AcDbLine
 10
90.4109
 20
825.88
 30
0.0
 11
90.4109
 21
824.8799999999999
 31
0.0
  0
LINE
  5
5F8
330
1E
100
AcDbEntity
  8
0
100
AcDbLine
 10
90.4109
 20
825.88
 30
0.0
 11
90.8394
 21
826.3799999999999
 31
0.0
  0
LINE
  5
5F9
330
1E
100
AcDbEntity
  8
0
100
AcDbLine
 10
92.12509999999999
 20
825.88
 30
0.0
 11
92.12509999999999
 21
824.8799999999999
 31
0.0
  0
LINE
  5
5FA
330
1E
100
AcDbEntity
  8
0
100
AcDbLine
 10
90.4109
 20
824.8799999999999
 30
0.0
 11
90.4109
 21
825.88
 31
0.0
  0
LINE
  5
5FB
330
1E
100
AcDbEntity
  8
0
100
AcDbLine
 10
90.4109
 20
824.8799999999999
 30
0.0
 11
90.8394
 21
824.38
 31
0.0
  0
LINE
  5
5FC
330
1E
100
AcDbEntity
  8
0
100
AcDbLine
 10
92.12509999999999
 20
824.8799999999999
 30
0.0
 11
92.12509999999999
 21
825.88
 31
0.0
  0
LINE
  5
5FD
330
1E
100
AcDbEntity
  8
0
100
AcDbLine
 10
91.6966
 20
824.38
 30
0.0
 11
92.12509999999999
 21
824.8799999999999
 31
0.0
  0
LINE
  5
5FE
330
1E
100
AcDbEntity
  8
0
100
AcDbLine
 10
90.8394
 20
824.38
 30
0.0
 11
91.6966
 21
824.38
 31
0.0
  0
LINE
  5
5FF
330
1E
100
AcDbEntity
  8
0
100
AcDbLine
 10
91.6966
 20
853.58
 30
0.0
 11
92.12509999999999
 21
853.0800000000001
 31
0.0
  0
LINE
  5
600
330
1E
100
AcDbEntity
  8
0
100
AcDbLine
 10
90.8394
 20
853.58
 30
0.0
 11
91.6966
 21
853.58
 31
0.0
  0
LINE
  5
601
330
1E
100
AcDbEntity
  8
0
100
AcDbLine
 10
90.4109
 20
853.0800000000001
 30
0.0
 11
90.4109
 21
852.0800000000001
 31
0.0
  0
LINE
  5
602
330
1E
100
AcDbEntity
  8
0
100
AcDbLine
 10
90.4109
 20
853.0800000000001
 30
0.0
 11
90.8394
 21
853.58
 31
0.0
  0
LINE
  5
603
330
1E
100
AcDbEntity
  8
0
100
AcDbLine
 10
92.12509999999999
 20
853.0800000000001
 30
0.0
 11
92.12509999999999
 21
852.0800000000001
 31
0.0
  0
LINE
  5
604
330
1E
100
AcDbEntity
  8
0
100
AcDbLine
 10
92.12509999999999
 20
852.0800000000001
 30
0.0
 11
92.12509999999999
 21
853.0800000000001
 31
0.0
  0
LINE
  5
605
330
1E
100
AcDbEntity
  8
0
100
AcDbLine
 10
90.4109
 20
852.0800000000001
 30
0.0
 11
90.8394
 21
851.58
 31
0.0
  0
LINE
  5
606
330
1E
100
AcDbEntity
  8
0
100
AcDbLine
 10
90.4109
 20
852.0800000000001
 30
0.0
 11
90.4109
 21
853.0800000000001
 31
0.0
  0
LINE
  5
607
330
1E
100
AcDbEntity
  8
0
100
AcDbLine
 10
90.8394
 20
851.58
 30
0.0
 11
91.6966
 21
851.58
 31
0.0
  0
LINE
  5
608
330
1E
100
AcDbEntity
  8
0
100
AcDbLine
 10
91.6966
 20
851.58
 30
0.0
 11
92.12509999999999
 21
852.0800000000001
 31
0.0
  0
LINE
  5
609
330
1E
100
AcDbEntity
  8
0
100
AcDbLine
 10
91.6966
 20
846.78
 30
0.0
 11
92.12509999999999
 21
846.2799999999999
 31
0.0
  0
LINE
  5
60A
330
1E
100
AcDbEntity
  8
0
100
AcDbLine
 10
90.8394
 20
846.78
 30
0.0
 11
91.6966
 21
846.78
 31
0.0
  0
LINE
  5
60B
330
1E
100
AcDbEntity
  8
0
100
AcDbLine
 10
90.4109
 20
846.2799999999999
 30
0.0
 11
90.4109
 21
845.2799999999999
 31
0.0
  0
LINE
  5
60C
330
1E
100
AcDbEntity
  8
0
100
AcDbLine
 10
90.4109
 20
846.2799999999999
 30
0.0
 11
90.8394
 21
846.78
 31
0.0
  0
LINE
  5
60D
330
1E
100
AcDbEntity
  8
0
100
AcDbLine
 10
92.12509999999999
 20
846.2799999999999
 30
0.0
 11
92.12509999999999
 21
845.2799999999999
 31
0.0
  0
LINE
  5
60E
330
1E
100
AcDbEntity
  8
0
100
AcDbLine
 10
92.12509999999999
 20
845.2799999999999
 30
0.0
 11
92.12509999999999
 21
846.2799999999999
 31
0.0
  0
LINE
  5
60F
330
1E
100
AcDbEntity
  8
0
100
AcDbLine
 10
90.4109
 20
845.2799999999999
 30
0.0
 11
90.8394
 21
844.7799999999999
 31
0.0
  0
LINE
  5
610
330
1E
100
AcDbEntity
  8
0
100
AcDbLine
 10
90.4109
 20
845.2799999999999
 30
0.0
 11
90.4109
 21
846.2799999999999
 31
0.0
  0
LINE
  5
611
330
1E
100
AcDbEntity
  8
0
100
AcDbLine
 10
90.8394
 20
844.7799999999999
 30
0.0
 11
91.6966
 21
844.7799999999999
 31
0.0
  0
LINE
  5
612
330
1E
100
AcDbEntity
  8
0
100
AcDbLine
 10
91.6966
 20
844.7799999999999
 30
0.0
 11
92.12509999999999
 21
845.2799999999999
 31
0.0
  0
LINE
  5
613
330
1E
100
AcDbEntity
  8
0
100
AcDbLine
 10
90.8394
 20
839.98
 30
0.0
 11
91.6966
 21
839.98
 31
0.0
  0
LINE
  5
614
330
1E
100
AcDbEntity
  8
0
100
AcDbLine
 10
90.4109
 20
839.48
 30
0.0
 11
90.8394
 21
839.98
 31
0.0
  0
LINE
  5
615
330
1E
100
AcDbEntity
  8
0
100
AcDbLine
 10
91.6966
 20
839.98
 30
0.0
 11
92.12509999999999
 21
839.48
 31
0.0
  0
LINE
  5
616
330
1E
100
AcDbEntity
  8
0
100
AcDbLine
 10
90.8394
 20
873.98
 30
0.0
 11
91.6966
 21
873.98
 31
0.0
  0
LINE
  5
617
330
1E
100
AcDbEntity
  8
0
100
AcDbLine
 10
91.6966
 20
873.98
 30
0.0
 11
92.12509999999999
 21
873.4799999999999
 31
0.0
  0
LINE
  5
618
330
1E
100
AcDbEntity
  8
0
100
AcDbLine
 10
90.4109
 20
873.4799999999999
 30
0.0
 11
90.8394
 21
873.98
 31
0.0
  0
LINE
  5
619
330
1E
100
AcDbEntity
  8
0
100
AcDbLine
 10
90.4109
 20
873.4799999999999
 30
0.0
 11
90.4109
 21
872.48
 31
0.0
  0
LINE
  5
61A
330
1E
100
AcDbEntity
  8
0
100
AcDbLine
 10
92.12509999999999
 20
873.4799999999999
 30
0.0
 11
92.12509999999999
 21
872.48
 31
0.0
  0
LINE
  5
61B
330
1E
100
AcDbEntity
  8
0
100
AcDbLine
 10
91.6966
 20
871.9800000000001
 30
0.0
 11
92.12509999999999
 21
872.48
 31
0.0
  0
LINE
  5
61C
330
1E
100
AcDbEntity
  8
0
100
AcDbLine
 10
90.4109
 20
872.48
 30
0.0
 11
90.4109
 21
873.4799999999999
 31
0.0
  0
LINE
  5
61D
330
1E
100
AcDbEntity
  8
0
100
AcDbLine
 10
90.4109
 20
872.48
 30
0.0
 11
90.8394
 21
871.9800000000001
 31
0.0
  0
LINE
  5
61E
330
1E
100
AcDbEntity
  8
0
100
AcDbLine
 10
92.12509999999999
 20
872.48
 30
0.0
 11
92.12509999999999
 21
873.4799999999999
 31
0.0
  0
LINE
  5
61F
330
1E
100
AcDbEntity
  8
0
100
AcDbLine
 10
90.8394
 20
871.9800000000001
 30
0.0
 11
91.6966
 21
871.9800000000001
 31
0.0
  0
LINE
  5
620
330
1E
100
AcDbEntity
  8
0
100
AcDbLine
 10
90.4109
 20
865.68
 30
0.0
 11
90.4109
 21
866.68
 31
0.0
  0
LINE
  5
621
330
1E
100
AcDbEntity
  8
0
100
AcDbLine
 10
90.4109
 20
865.68
 30
0.0
 11
90.8394
 21
865.1799999999999
 31
0.0
  0
LINE
  5
622
330
1E
100
AcDbEntity
  8
0
100
AcDbLine
 10
91.6966
 20
867.1799999999999
 30
0.0
 11
92.12509999999999
 21
866.68
 31
0.0
  0
LINE
  5
623
330
1E
100
AcDbEntity
  8
0
100
AcDbLine
 10
90.8394
 20
867.1799999999999
 30
0.0
 11
91.6966
 21
867.1799999999999
 31
0.0
  0
LINE
  5
624
330
1E
100
AcDbEntity
  8
0
100
AcDbLine
 10
92.12509999999999
 20
866.68
 30
0.0
 11
92.12509999999999
 21
865.68
 31
0.0
  0
LINE
  5
625
330
1E
100
AcDbEntity
  8
0
100
AcDbLine
 10
90.4109
 20
866.68
 30
0.0
 11
90.4109
 21
865.68
 31
0.0
  0
LINE
  5
626
330
1E
100
AcDbEntity
  8
0
100
AcDbLine
 10
90.4109
 20
866.68
 30
0.0
 11
90.8394
 21
867.1799999999999
 31
0.0
  0
LINE
  5
627
330
1E
100
AcDbEntity
  8
0
100
AcDbLine
 10
90.8394
 20
865.1799999999999
 30
0.0
 11
91.6966
 21
865.1799999999999
 31
0.0
  0
LINE
  5
628
330
1E
100
AcDbEntity
  8
0
100
AcDbLine
 10
91.6966
 20
865.1799999999999
 30
0.0
 11
92.12509999999999
 21
865.68
 31
0.0
  0
LINE
  5
629
330
1E
100
AcDbEntity
  8
0
100
AcDbLine
 10
92.12509999999999
 20
865.68
 30
0.0
 11
92.12509999999999
 21
866.68
 31
0.0
  0
LINE
  5
62A
330
1E
100
AcDbEntity
  8
0
100
AcDbLine
 10
90.8394
 20
860.3799999999999
 30
0.0
 11
91.6966
 21
860.3799999999999
 31
0.0
  0
LINE
  5
62B
330
1E
100
AcDbEntity
  8
0
100
AcDbLine
 10
91.6966
 20
860.3799999999999
 30
0.0
 11
92.12509999999999
 21
859.88
 31
0.0
  0
LINE
  5
62C
330
1E
100
AcDbEntity
  8
0
100
AcDbLine
 10
90.4109
 20
859.88
 30
0.0
 11
90.4109
 21
858.88
 31
0.0
  0
LINE
  5
62D
330
1E
100
AcDbEntity
  8
0
100
AcDbLine
 10
90.4109
 20
859.88
 30
0.0
 11
90.8394
 21
860.3799999999999
 31
0.0
  0
LINE
  5
62E
330
1E
100
AcDbEntity
  8
0
100
AcDbLine
 10
92.12509999999999
 20
859.88
 30
0.0
 11
92.12509999999999
 21
858.88
 31
0.0
  0
LINE
  5
62F
330
1E
100
AcDbEntity
  8
0
100
AcDbLine
 10
90.4109
 20
858.88
 30
0.0
 11
90.4109
 21
859.88
 31
0.0
  0
LINE
  5
630
330
1E
100
AcDbEntity
  8
0
100
AcDbLine
 10
90.4109
 20
858.88
 30
0.0
 11
90.8394
 21
858.38
 31
0.0
  0
LINE
  5
631
330
1E
100
AcDbEntity
  8
0
100
AcDbLine
 10
92.12509999999999
 20
858.88
 30
0.0
 11
92.12509999999999
 21
859.88
 31
0.0
  0
LINE
  5
632
330
1E
100
AcDbEntity
  8
0
100
AcDbLine
 10
91.6966
 20
858.38
 30
0.0
 11
92.12509999999999
 21
858.88
 31
0.0
  0
LINE
  5
633
330
1E
100
AcDbEntity
  8
0
100
AcDbLine
 10
90.8394
 20
858.38
 30
0.0
 11
91.6966
 21
858.38
 31
0.0
  0
LINE
  5
634
330
1E
100
AcDbEntity
  8
0
100
AcDbLine
 10
92.12509999999999
 20
879.2799999999999
 30
0.0
 11
92.12509999999999
 21
880.2799999999999
 31
0.0
  0
LINE
  5
635
330
1E
100
AcDbEntity
  8
0
100
AcDbLine
 10
91.6966
 20
880.78
 30
0.0
 11
92.12509999999999
 21
880.2799999999999
 31
0.0
  0
LINE
  5
636
330
1E
100
AcDbEntity
  8
0
100
AcDbLine
 10
90.8394
 20
880.78
 30
0.0
 11
91.6966
 21
880.78
 31
0.0
  0
LINE
  5
637
330
1E
100
AcDbEntity
  8
0
100
AcDbLine
 10
92.12509999999999
 20
880.2799999999999
 30
0.0
 11
92.12509999999999
 21
879.2799999999999
 31
0.0
  0
LINE
  5
638
330
1E
100
AcDbEntity
  8
0
100
AcDbLine
 10
91.6966
 20
878.78
 30
0.0
 11
92.12509999999999
 21
879.2799999999999
 31
0.0
  0
LINE
  5
639
330
1E
100
AcDbEntity
  8
0
100
AcDbLine
 10
90.4109
 20
880.2799999999999
 30
0.0
 11
90.4109
 21
879.2799999999999
 31
0.0
  0
LINE
  5
63A
330
1E
100
AcDbEntity
  8
0
100
AcDbLine
 10
90.4109
 20
880.2799999999999
 30
0.0
 11
90.8394
 21
880.78
 31
0.0
  0
LINE
  5
63B
330
1E
100
AcDbEntity
  8
0
100
AcDbLine
 10
90.4109
 20
879.2799999999999
 30
0.0
 11
90.8394
 21
878.78
 31
0.0
  0
LINE
  5
63C
330
1E
100
AcDbEntity
  8
0
100
AcDbLine
 10
90.4109
 20
879.2799999999999
 30
0.0
 11
90.4109
 21
880.2799999999999
 31
0.0
  0
LINE
  5
63D
330
1E
100
AcDbEntity
  8
0
100
AcDbLine
 10
90.8394
 20
878.78
 30
0.0
 11
91.6966
 21
878.78
 31
0.0
  0
LINE
  5
63E
330
1E
100
AcDbEntity
  8
0
100
AcDbLine
 10
94.91089999999999
 20
838.48
 30
0.0
 11
94.91089999999999
 21
839.48
 31
0.0
  0
LINE
  5
63F
330
1E
100
AcDbEntity
  8
0
100
AcDbLine
 10
96.62510000000001
 20
838.48
 30
0.0
 11
96.62510000000001
 21
839.48
 31
0.0
  0
LINE
  5
640
330
1E
100
AcDbEntity
  8
0
100
AcDbLine
 10
96.62510000000001
 20
839.48
 30
0.0
 11
96.62510000000001
 21
838.48
 31
0.0
  0
LINE
  5
641
330
1E
100
AcDbEntity
  8
0
100
AcDbLine
 10
94.91089999999999
 20
839.48
 30
0.0
 11
94.91089999999999
 21
838.48
 31
0.0
  0
LINE
  5
642
330
1E
100
AcDbEntity
  8
0
100
AcDbLine
 10
95.33939999999999
 20
812.78
 30
0.0
 11
96.19660000000001
 21
812.78
 31
0.0
  0
LINE
  5
643
330
1E
100
AcDbEntity
  8
0
100
AcDbLine
 10
95.33939999999999
 20
810.7799999999999
 30
0.0
 11
96.19660000000001
 21
810.7799999999999
 31
0.0
  0
LINE
  5
644
330
1E
100
AcDbEntity
  8
0
100
AcDbLine
 10
95.33939999999999
 20
817.58
 30
0.0
 11
96.19660000000001
 21
817.58
 31
0.0
  0
LINE
  5
645
330
1E
100
AcDbEntity
  8
0
100
AcDbLine
 10
95.33939999999999
 20
819.58
 30
0.0
 11
96.19660000000001
 21
819.58
 31
0.0
  0
LINE
  5
646
330
1E
100
AcDbEntity
  8
0
100
AcDbLine
 10
94.91089999999999
 20
812.2799999999999
 30
0.0
 11
95.33939999999999
 21
812.78
 31
0.0
  0
LINE
  5
647
330
1E
100
AcDbEntity
  8
0
100
AcDbLine
 10
94.91089999999999
 20
812.2799999999999
 30
0.0
 11
94.91089999999999
 21
811.28
 31
0.0
  0
LINE
  5
648
330
1E
100
AcDbEntity
  8
0
100
AcDbLine
 10
94.91089999999999
 20
811.28
 30
0.0
 11
95.33939999999999
 21
810.7799999999999
 31
0.0
  0
LINE
  5
649
330
1E
100
AcDbEntity
  8
0
100
AcDbLine
 10
94.91089999999999
 20
811.28
 30
0.0
 11
94.91089999999999
 21
812.2799999999999
 31
0.0
  0
LINE
  5
64A
330
1E
100
AcDbEntity
  8
0
100
AcDbLine
 10
94.91089999999999
 20
818.0800000000001
 30
0.0
 11
95.33939999999999
 21
817.58
 31
0.0
  0
LINE
  5
64B
330
1E
100
AcDbEntity
  8
0
100
AcDbLine
 10
94.91089999999999
 20
818.0800000000001
 30
0.0
 11
94.91089999999999
 21
819.0800000000001
 31
0.0
  0
LINE
  5
64C
330
1E
100
AcDbEntity
  8
0
100
AcDbLine
 10
94.91089999999999
 20
819.0800000000001
 30
0.0
 11
95.33939999999999
 21
819.58
 31
0.0
  0
LINE
  5
64D
330
1E
100
AcDbEntity
  8
0
100
AcDbLine
 10
94.91089999999999
 20
819.0800000000001
 30
0.0
 11
94.91089999999999
 21
818.0800000000001
 31
0.0
  0
LINE
  5
64E
330
1E
100
AcDbEntity
  8
0
100
AcDbLine
 10
96.19660000000001
 20
810.7799999999999
 30
0.0
 11
96.62510000000001
 21
811.28
 31
0.0
  0
LINE
  5
64F
330
1E
100
AcDbEntity
  8
0
100
AcDbLine
 10
96.62510000000001
 20
811.28
 30
0.0
 11
96.62510000000001
 21
812.2799999999999
 31
0.0
  0
LINE
  5
650
330
1E
100
AcDbEntity
  8
0
100
AcDbLine
 10
96.19660000000001
 20
812.78
 30
0.0
 11
96.62510000000001
 21
812.2799999999999
 31
0.0
  0
LINE
  5
651
330
1E
100
AcDbEntity
  8
0
100
AcDbLine
 10
96.62510000000001
 20
812.2799999999999
 30
0.0
 11
96.62510000000001
 21
811.28
 31
0.0
  0
LINE
  5
652
330
1E
100
AcDbEntity
  8
0
100
AcDbLine
 10
96.19660000000001
 20
817.58
 30
0.0
 11
96.62510000000001
 21
818.0800000000001
 31
0.0
  0
LINE
  5
653
330
1E
100
AcDbEntity
  8
0
100
AcDbLine
 10
96.62510000000001
 20
818.0800000000001
 30
0.0
 11
96.62510000000001
 21
819.0800000000001
 31
0.0
  0
LINE
  5
654
330
1E
100
AcDbEntity
  8
0
100
AcDbLine
 10
96.62510000000001
 20
819.0800000000001
 30
0.0
 11
96.62510000000001
 21
818.0800000000001
 31
0.0
  0
LINE
  5
655
330
1E
100
AcDbEntity
  8
0
100
AcDbLine
 10
96.19660000000001
 20
819.58
 30
0.0
 11
96.62510000000001
 21
819.0800000000001
 31
0.0
  0
LINE
  5
656
330
1E
100
AcDbEntity
  8
0
100
AcDbLine
 10
95.33939999999999
 20
824.38
 30
0.0
 11
96.19660000000001
 21
824.38
 31
0.0
  0
LINE
  5
657
330
1E
100
AcDbEntity
  8
0
100
AcDbLine
 10
95.33939999999999
 20
831.1799999999999
 30
0.0
 11
96.19660000000001
 21
831.1799999999999
 31
0.0
  0
LINE
  5
658
330
1E
100
AcDbEntity
  8
0
100
AcDbLine
 10
95.33939999999999
 20
833.1799999999999
 30
0.0
 11
96.19660000000001
 21
833.1799999999999
 31
0.0
  0
LINE
  5
659
330
1E
100
AcDbEntity
  8
0
100
AcDbLine
 10
95.33939999999999
 20
826.3799999999999
 30
0.0
 11
96.19660000000001
 21
826.3799999999999
 31
0.0
  0
LINE
  5
65A
330
1E
100
AcDbEntity
  8
0
100
AcDbLine
 10
95.33939999999999
 20
837.9799999999999
 30
0.0
 11
96.19660000000001
 21
837.9799999999999
 31
0.0
  0
LINE
  5
65B
330
1E
100
AcDbEntity
  8
0
100
AcDbLine
 10
94.91089999999999
 20
824.8799999999999
 30
0.0
 11
95.33939999999999
 21
824.38
 31
0.0
  0
LINE
  5
65C
330
1E
100
AcDbEntity
  8
0
100
AcDbLine
 10
94.91089999999999
 20
824.8799999999999
 30
0.0
 11
94.91089999999999
 21
825.88
 31
0.0
  0
LINE
  5
65D
330
1E
100
AcDbEntity
  8
0
100
AcDbLine
 10
94.91089999999999
 20
825.88
 30
0.0
 11
95.33939999999999
 21
826.3799999999999
 31
0.0
  0
LINE
  5
65E
330
1E
100
AcDbEntity
  8
0
100
AcDbLine
 10
94.91089999999999
 20
825.88
 30
0.0
 11
94.91089999999999
 21
824.8799999999999
 31
0.0
  0
LINE
  5
65F
330
1E
100
AcDbEntity
  8
0
100
AcDbLine
 10
94.91089999999999
 20
831.6799999999998
 30
0.0
 11
94.91089999999999
 21
832.68
 31
0.0
  0
LINE
  5
660
330
1E
100
AcDbEntity
  8
0
100
AcDbLine
 10
94.91089999999999
 20
831.6799999999998
 30
0.0
 11
95.33939999999999
 21
831.1799999999999
 31
0.0
  0
LINE
  5
661
330
1E
100
AcDbEntity
  8
0
100
AcDbLine
 10
94.91089999999999
 20
832.68
 30
0.0
 11
95.33939999999999
 21
833.1799999999999
 31
0.0
  0
LINE
  5
662
330
1E
100
AcDbEntity
  8
0
100
AcDbLine
 10
94.91089999999999
 20
832.68
 30
0.0
 11
94.91089999999999
 21
831.6799999999998
 31
0.0
  0
LINE
  5
663
330
1E
100
AcDbEntity
  8
0
100
AcDbLine
 10
94.91089999999999
 20
838.48
 30
0.0
 11
95.33939999999999
 21
837.9799999999999
 31
0.0
  0
LINE
  5
664
330
1E
100
AcDbEntity
  8
0
100
AcDbLine
 10
96.19660000000001
 20
824.38
 30
0.0
 11
96.62510000000001
 21
824.8799999999999
 31
0.0
  0
LINE
  5
665
330
1E
100
AcDbEntity
  8
0
100
AcDbLine
 10
96.62510000000001
 20
824.8799999999999
 30
0.0
 11
96.62510000000001
 21
825.88
 31
0.0
  0
LINE
  5
666
330
1E
100
AcDbEntity
  8
0
100
AcDbLine
 10
96.62510000000001
 20
825.88
 30
0.0
 11
96.62510000000001
 21
824.8799999999999
 31
0.0
  0
LINE
  5
667
330
1E
100
AcDbEntity
  8
0
100
AcDbLine
 10
96.19660000000001
 20
826.3799999999999
 30
0.0
 11
96.62510000000001
 21
825.88
 31
0.0
  0
LINE
  5
668
330
1E
100
AcDbEntity
  8
0
100
AcDbLine
 10
96.19660000000001
 20
831.1799999999999
 30
0.0
 11
96.62510000000001
 21
831.6799999999998
 31
0.0
  0
LINE
  5
669
330
1E
100
AcDbEntity
  8
0
100
AcDbLine
 10
96.62510000000001
 20
832.68
 30
0.0
 11
96.62510000000001
 21
831.6799999999998
 31
0.0
  0
LINE
  5
66A
330
1E
100
AcDbEntity
  8
0
100
AcDbLine
 10
96.19660000000001
 20
833.1799999999999
 30
0.0
 11
96.62510000000001
 21
832.68
 31
0.0
  0
LINE
  5
66B
330
1E
100
AcDbEntity
  8
0
100
AcDbLine
 10
96.62510000000001
 20
831.6799999999998
 30
0.0
 11
96.62510000000001
 21
832.68
 31
0.0
  0
LINE
  5
66C
330
1E
100
AcDbEntity
  8
0
100
AcDbLine
 10
96.19660000000001
 20
837.9799999999999
 30
0.0
 11
96.62510000000001
 21
838.48
 31
0.0
  0
LINE
  5
66D
330
1E
100
AcDbEntity
  8
0
100
AcDbLine
 10
95.33939999999999
 20
839.98
 30
0.0
 11
96.19660000000001
 21
839.98
 31
0.0
  0
LINE
  5
66E
330
1E
100
AcDbEntity
  8
0
100
AcDbLine
 10
95.33939999999999
 20
844.7799999999999
 30
0.0
 11
96.19660000000001
 21
844.7799999999999
 31
0.0
  0
LINE
  5
66F
330
1E
100
AcDbEntity
  8
0
100
AcDbLine
 10
95.33939999999999
 20
846.78
 30
0.0
 11
96.19660000000001
 21
846.78
 31
0.0
  0
LINE
  5
670
330
1E
100
AcDbEntity
  8
0
100
AcDbLine
 10
95.33939999999999
 20
851.58
 30
0.0
 11
96.19660000000001
 21
851.58
 31
0.0
  0
LINE
  5
671
330
1E
100
AcDbEntity
  8
0
100
AcDbLine
 10
95.33939999999999
 20
853.58
 30
0.0
 11
96.19660000000001
 21
853.58
 31
0.0
  0
LINE
  5
672
330
1E
100
AcDbEntity
  8
0
100
AcDbLine
 10
94.91089999999999
 20
839.48
 30
0.0
 11
95.33939999999999
 21
839.98
 31
0.0
  0
LINE
  5
673
330
1E
100
AcDbEntity
  8
0
100
AcDbLine
 10
94.91089999999999
 20
845.2799999999999
 30
0.0
 11
94.91089999999999
 21
846.2799999999999
 31
0.0
  0
LINE
  5
674
330
1E
100
AcDbEntity
  8
0
100
AcDbLine
 10
94.91089999999999
 20
845.2799999999999
 30
0.0
 11
95.33939999999999
 21
844.7799999999999
 31
0.0
  0
LINE
  5
675
330
1E
100
AcDbEntity
  8
0
100
AcDbLine
 10
94.91089999999999
 20
846.2799999999999
 30
0.0
 11
95.33939999999999
 21
846.78
 31
0.0
  0
LINE
  5
676
330
1E
100
AcDbEntity
  8
0
100
AcDbLine
 10
94.91089999999999
 20
846.2799999999999
 30
0.0
 11
94.91089999999999
 21
845.2799999999999
 31
0.0
  0
LINE
  5
677
330
1E
100
AcDbEntity
  8
0
100
AcDbLine
 10
94.91089999999999
 20
852.0800000000001
 30
0.0
 11
94.91089999999999
 21
853.0800000000001
 31
0.0
  0
LINE
  5
678
330
1E
100
AcDbEntity
  8
0
100
AcDbLine
 10
94.91089999999999
 20
852.0800000000001
 30
0.0
 11
95.33939999999999
 21
851.58
 31
0.0
  0
LINE
  5
679
330
1E
100
AcDbEntity
  8
0
100
AcDbLine
 10
94.91089999999999
 20
853.0800000000001
 30
0.0
 11
95.33939999999999
 21
853.58
 31
0.0
  0
LINE
  5
67A
330
1E
100
AcDbEntity
  8
0
100
AcDbLine
 10
94.91089999999999
 20
853.0800000000001
 30
0.0
 11
94.91089999999999
 21
852.0800000000001
 31
0.0
  0
LINE
  5
67B
330
1E
100
AcDbEntity
  8
0
100
AcDbLine
 10
96.19660000000001
 20
839.98
 30
0.0
 11
96.62510000000001
 21
839.48
 31
0.0
  0
LINE
  5
67C
330
1E
100
AcDbEntity
  8
0
100
AcDbLine
 10
96.19660000000001
 20
844.7799999999999
 30
0.0
 11
96.62510000000001
 21
845.2799999999999
 31
0.0
  0
LINE
  5
67D
330
1E
100
AcDbEntity
  8
0
100
AcDbLine
 10
96.62510000000001
 20
845.2799999999999
 30
0.0
 11
96.62510000000001
 21
846.2799999999999
 31
0.0
  0
LINE
  5
67E
330
1E
100
AcDbEntity
  8
0
100
AcDbLine
 10
96.62510000000001
 20
846.2799999999999
 30
0.0
 11
96.62510000000001
 21
845.2799999999999
 31
0.0
  0
LINE
  5
67F
330
1E
100
AcDbEntity
  8
0
100
AcDbLine
 10
96.19660000000001
 20
846.78
 30
0.0
 11
96.62510000000001
 21
846.2799999999999
 31
0.0
  0
LINE
  5
680
330
1E
100
AcDbEntity
  8
0
100
AcDbLine
 10
96.19660000000001
 20
851.58
 30
0.0
 11
96.62510000000001
 21
852.0800000000001
 31
0.0
  0
LINE
  5
681
330
1E
100
AcDbEntity
  8
0
100
AcDbLine
 10
96.62510000000001
 20
852.0800000000001
 30
0.0
 11
96.62510000000001
 21
853.0800000000001
 31
0.0
  0
LINE
  5
682
330
1E
100
AcDbEntity
  8
0
100
AcDbLine
 10
96.62510000000001
 20
853.0800000000001
 30
0.0
 11
96.62510000000001
 21
852.0800000000001
 31
0.0
  0
LINE
  5
683
330
1E
100
AcDbEntity
  8
0
100
AcDbLine
 10
96.19660000000001
 20
853.58
 30
0.0
 11
96.62510000000001
 21
853.0800000000001
 31
0.0
  0
LINE
  5
684
330
1E
100
AcDbEntity
  8
0
100
AcDbLine
 10
95.33939999999999
 20
858.38
 30
0.0
 11
96.19660000000001
 21
858.38
 31
0.0
  0
LINE
  5
685
330
1E
100
AcDbEntity
  8
0
100
AcDbLine
 10
95.33939999999999
 20
860.3799999999999
 30
0.0
 11
96.19660000000001
 21
860.3799999999999
 31
0.0
  0
LINE
  5
686
330
1E
100
AcDbEntity
  8
0
100
AcDbLine
 10
95.33939999999999
 20
865.1799999999999
 30
0.0
 11
96.19660000000001
 21
865.1799999999999
 31
0.0
  0
LINE
  5
687
330
1E
100
AcDbEntity
  8
0
100
AcDbLine
 10
95.33939999999999
 20
867.1799999999999
 30
0.0
 11
96.19660000000001
 21
867.1799999999999
 31
0.0
  0
LINE
  5
688
330
1E
100
AcDbEntity
  8
0
100
AcDbLine
 10
95.33939999999999
 20
871.9800000000001
 30
0.0
 11
96.19660000000001
 21
871.9800000000001
 31
0.0
  0
LINE
  5
689
330
1E
100
AcDbEntity
  8
0
100
AcDbLine
 10
95.33939999999999
 20
873.98
 30
0.0
 11
96.19660000000001
 21
873.98
 31
0.0
  0
LINE
  5
68A
330
1E
100
AcDbEntity
  8
0
100
AcDbLine
 10
94.91089999999999
 20
858.88
 30
0.0
 11
95.33939999999999
 21
858.38
 31
0.0
  0
LINE
  5
68B
330
1E
100
AcDbEntity
  8
0
100
AcDbLine
 10
94.91089999999999
 20
858.88
 30
0.0
 11
94.91089999999999
 21
859.88
 31
0.0
  0
LINE
  5
68C
330
1E
100
AcDbEntity
  8
0
100
AcDbLine
 10
94.91089999999999
 20
859.88
 30
0.0
 11
95.33939999999999
 21
860.3799999999999
 31
0.0
  0
LINE
  5
68D
330
1E
100
AcDbEntity
  8
0
100
AcDbLine
 10
94.91089999999999
 20
859.88
 30
0.0
 11
94.91089999999999
 21
858.88
 31
0.0
  0
LINE
  5
68E
330
1E
100
AcDbEntity
  8
0
100
AcDbLine
 10
94.91089999999999
 20
866.68
 30
0.0
 11
95.33939999999999
 21
867.1799999999999
 31
0.0
  0
LINE
  5
68F
330
1E
100
AcDbEntity
  8
0
100
AcDbLine
 10
94.91089999999999
 20
866.68
 30
0.0
 11
94.91089999999999
 21
865.68
 31
0.0
  0
LINE
  5
690
330
1E
100
AcDbEntity
  8
0
100
AcDbLine
 10
94.91089999999999
 20
865.68
 30
0.0
 11
95.33939999999999
 21
865.1799999999999
 31
0.0
  0
LINE
  5
691
330
1E
100
AcDbEntity
  8
0
100
AcDbLine
 10
94.91089999999999
 20
865.68
 30
0.0
 11
94.91089999999999
 21
866.68
 31
0.0
  0
LINE
  5
692
330
1E
100
AcDbEntity
  8
0
100
AcDbLine
 10
94.91089999999999
 20
872.48
 30
0.0
 11
95.33939999999999
 21
871.9800000000001
 31
0.0
  0
LINE
  5
693
330
1E
100
AcDbEntity
  8
0
100
AcDbLine
 10
94.91089999999999
 20
872.48
 30
0.0
 11
94.91089999999999
 21
873.4799999999999
 31
0.0
  0
LINE
  5
694
330
1E
100
AcDbEntity
  8
0
100
AcDbLine
 10
94.91089999999999
 20
873.4799999999999
 30
0.0
 11
94.91089999999999
 21
872.48
 31
0.0
  0
LINE
  5
695
330
1E
100
AcDbEntity
  8
0
100
AcDbLine
 10
94.91089999999999
 20
873.4799999999999
 30
0.0
 11
95.33939999999999
 21
873.98
 31
0.0
  0
LINE
  5
696
330
1E
100
AcDbEntity
  8
0
100
AcDbLine
 10
96.19660000000001
 20
858.38
 30
0.0
 11
96.62510000000001
 21
858.88
 31
0.0
  0
LINE
  5
697
330
1E
100
AcDbEntity
  8
0
100
AcDbLine
 10
96.62510000000001
 20
858.88
 30
0.0
 11
96.62510000000001
 21
859.88
 31
0.0
  0
LINE
  5
698
330
1E
100
AcDbEntity
  8
0
100
AcDbLine
 10
96.62510000000001
 20
859.88
 30
0.0
 11
96.62510000000001
 21
858.88
 31
0.0
  0
LINE
  5
699
330
1E
100
AcDbEntity
  8
0
100
AcDbLine
 10
96.19660000000001
 20
860.3799999999999
 30
0.0
 11
96.62510000000001
 21
859.88
 31
0.0
  0
LINE
  5
69A
330
1E
100
AcDbEntity
  8
0
100
AcDbLine
 10
96.62510000000001
 20
865.68
 30
0.0
 11
96.62510000000001
 21
866.68
 31
0.0
  0
LINE
  5
69B
330
1E
100
AcDbEntity
  8
0
100
AcDbLine
 10
96.19660000000001
 20
865.1799999999999
 30
0.0
 11
96.62510000000001
 21
865.68
 31
0.0
  0
LINE
  5
69C
330
1E
100
AcDbEntity
  8
0
100
AcDbLine
 10
96.62510000000001
 20
866.68
 30
0.0
 11
96.62510000000001
 21
865.68
 31
0.0
  0
LINE
  5
69D
330
1E
100
AcDbEntity
  8
0
100
AcDbLine
 10
96.19660000000001
 20
867.1799999999999
 30
0.0
 11
96.62510000000001
 21
866.68
 31
0.0
  0
LINE
  5
69E
330
1E
100
AcDbEntity
  8
0
100
AcDbLine
 10
96.62510000000001
 20
872.48
 30
0.0
 11
96.62510000000001
 21
873.4799999999999
 31
0.0
  0
LINE
  5
69F
330
1E
100
AcDbEntity
  8
0
100
AcDbLine
 10
96.19660000000001
 20
871.9800000000001
 30
0.0
 11
96.62510000000001
 21
872.48
 31
0.0
  0
LINE
  5
6A0
330
1E
100
AcDbEntity
  8
0
100
AcDbLine
 10
96.62510000000001
 20
873.4799999999999
 30
0.0
 11
96.62510000000001
 21
872.48
 31
0.0
  0
LINE
  5
6A1
330
1E
100
AcDbEntity
  8
0
100
AcDbLine
 10
96.19660000000001
 20
873.98
 30
0.0
 11
96.62510000000001
 21
873.4799999999999
 31
0.0
  0
LINE
  5
6A2
330
1E
100
AcDbEntity
  8
0
100
AcDbLine
 10
95.33939999999999
 20
878.78
 30
0.0
 11
96.19660000000001
 21
878.78
 31
0.0
  0
LINE
  5
6A3
330
1E
100
AcDbEntity
  8
0
100
AcDbLine
 10
95.33939999999999
 20
880.78
 30
0.0
 11
96.19660000000001
 21
880.78
 31
0.0
  0
LINE
  5
6A4
330
1E
100
AcDbEntity
  8
0
100
AcDbLine
 10
94.91089999999999
 20
879.2799999999999
 30
0.0
 11
94.91089999999999
 21
880.2799999999999
 31
0.0
  0
LINE
  5
6A5
330
1E
100
AcDbEntity
  8
0
100
AcDbLine
 10
94.91089999999999
 20
879.2799999999999
 30
0.0
 11
95.33939999999999
 21
878.78
 31
0.0
  0
LINE
  5
6A6
330
1E
100
AcDbEntity
  8
0
100
AcDbLine
 10
94.91089999999999
 20
880.2799999999999
 30
0.0
 11
95.33939999999999
 21
880.78
 31
0.0
  0
LINE
  5
6A7
330
1E
100
AcDbEntity
  8
0
100
AcDbLine
 10
94.91089999999999
 20
880.2799999999999
 30
0.0
 11
94.91089999999999
 21
879.2799999999999
 31
0.0
  0
LINE
  5
6A8
330
1E
100
AcDbEntity
  8
0
100
AcDbLine
 10
96.19660000000001
 20
878.78
 30
0.0
 11
96.62510000000001
 21
879.2799999999999
 31
0.0
  0
LINE
  5
6A9
330
1E
100
AcDbEntity
  8
0
100
AcDbLine
 10
96.62510000000001
 20
880.2799999999999
 30
0.0
 11
96.62510000000001
 21
879.2799999999999
 31
0.0
  0
LINE
  5
6AA
330
1E
100
AcDbEntity
  8
0
100
AcDbLine
 10
96.19660000000001
 20
880.78
 30
0.0
 11
96.62510000000001
 21
880.2799999999999
 31
0.0
  0
LINE
  5
6AB
330
1E
100
AcDbEntity
  8
0
100
AcDbLine
 10
96.62510000000001
 20
879.2799999999999
 30
0.0
 11
96.62510000000001
 21
880.2799999999999
 31
0.0
  0
LINE
  5
788
330
1E
100
AcDbEntity
  8
0
100
AcDbLine
 10
81.4109
 20
838.48
 30
0.0
 11
81.4109
 21
839.48
 31
0.0
  0
LINE
  5
789
330
1E
100
AcDbEntity
  8
0
100
AcDbLine
 10
83.12510000000001
 20
838.48
 30
0.0
 11
83.12510000000001
 21
839.48
 31
0.0
  0
LINE
  5
78A
330
1E
100
AcDbEntity
  8
0
100
AcDbLine
 10
83.12510000000001
 20
839.48
 30
0.0
 11
83.12510000000001
 21
838.48
 31
0.0
  0
LINE
  5
78B
330
1E
100
AcDbEntity
  8
0
100
AcDbLine
 10
81.4109
 20
839.48
 30
0.0
 11
81.4109
 21
838.48
 31
0.0
  0
LINE
  5
78C
330
1E
100
AcDbEntity
  8
0
100
AcDbLine
 10
76.91089999999999
 20
839.48
 30
0.0
 11
76.91089999999999
 21
838.48
 31
0.0
  0
LINE
  5
78D
330
1E
100
AcDbEntity
  8
0
100
AcDbLine
 10
78.6251
 20
839.48
 30
0.0
 11
78.6251
 21
838.48
 31
0.0
  0
LINE
  5
78E
330
1E
100
AcDbEntity
  8
0
100
AcDbLine
 10
78.6251
 20
838.48
 30
0.0
 11
78.6251
 21
839.48
 31
0.0
  0
LINE
  5
78F
330
1E
100
AcDbEntity
  8
0
100
AcDbLine
 10
76.91089999999999
 20
838.48
 30
0.0
 11
76.91089999999999
 21
839.48
 31
0.0
  0
LINE
  5
790
330
1E
100
AcDbEntity
  8
0
100
AcDbLine
 10
81.83939999999999
 20
812.78
 30
0.0
 11
82.6966
 21
812.78
 31
0.0
  0
LINE
  5
791
330
1E
100
AcDbEntity
  8
0
100
AcDbLine
 10
81.83939999999999
 20
810.7799999999999
 30
0.0
 11
82.6966
 21
810.7799999999999
 31
0.0
  0
LINE
  5
792
330
1E
100
AcDbEntity
  8
0
100
AcDbLine
 10
81.83939999999999
 20
817.58
 30
0.0
 11
82.6966
 21
817.58
 31
0.0
  0
LINE
  5
793
330
1E
100
AcDbEntity
  8
0
100
AcDbLine
 10
81.83939999999999
 20
819.58
 30
0.0
 11
82.6966
 21
819.58
 31
0.0
  0
LINE
  5
794
330
1E
100
AcDbEntity
  8
0
100
AcDbLine
 10
81.4109
 20
812.2799999999999
 30
0.0
 11
81.83939999999999
 21
812.78
 31
0.0
  0
LINE
  5
795
330
1E
100
AcDbEntity
  8
0
100
AcDbLine
 10
81.4109
 20
812.2799999999999
 30
0.0
 11
81.4109
 21
811.28
 31
0.0
  0
LINE
  5
796
330
1E
100
AcDbEntity
  8
0
100
AcDbLine
 10
81.4109
 20
811.28
 30
0.0
 11
81.83939999999999
 21
810.7799999999999
 31
0.0
  0
LINE
  5
797
330
1E
100
AcDbEntity
  8
0
100
AcDbLine
 10
81.4109
 20
811.28
 30
0.0
 11
81.4109
 21
812.2799999999999
 31
0.0
  0
LINE
  5
798
330
1E
100
AcDbEntity
  8
0
100
AcDbLine
 10
81.4109
 20
818.0800000000001
 30
0.0
 11
81.83939999999999
 21
817.58
 31
0.0
  0
LINE
  5
799
330
1E
100
AcDbEntity
  8
0
100
AcDbLine
 10
81.4109
 20
818.0800000000001
 30
0.0
 11
81.4109
 21
819.0800000000001
 31
0.0
  0
LINE
  5
79A
330
1E
100
AcDbEntity
  8
0
100
AcDbLine
 10
81.4109
 20
819.0800000000001
 30
0.0
 11
81.83939999999999
 21
819.58
 31
0.0
  0
LINE
  5
79B
330
1E
100
AcDbEntity
  8
0
100
AcDbLine
 10
81.4109
 20
819.0800000000001
 30
0.0
 11
81.4109
 21
818.0800000000001
 31
0.0
  0
LINE
  5
79C
330
1E
100
AcDbEntity
  8
0
100
AcDbLine
 10
77.3394
 20
819.58
 30
0.0
 11
78.1966
 21
819.58
 31
0.0
  0
LINE
  5
79D
330
1E
100
AcDbEntity
  8
0
100
AcDbLine
 10
78.1966
 20
819.58
 30
0.0
 11
78.6251
 21
819.0800000000001
 31
0.0
  0
LINE
  5
79E
330
1E
100
AcDbEntity
  8
0
100
AcDbLine
 10
76.91089999999999
 20
819.0800000000001
 30
0.0
 11
76.91089999999999
 21
818.0800000000001
 31
0.0
  0
LINE
  5
79F
330
1E
100
AcDbEntity
  8
0
100
AcDbLine
 10
76.91089999999999
 20
819.0800000000001
 30
0.0
 11
77.3394
 21
819.58
 31
0.0
  0
LINE
  5
7A0
330
1E
100
AcDbEntity
  8
0
100
AcDbLine
 10
76.91089999999999
 20
818.0800000000001
 30
0.0
 11
76.91089999999999
 21
819.0800000000001
 31
0.0
  0
LINE
  5
7A1
330
1E
100
AcDbEntity
  8
0
100
AcDbLine
 10
76.91089999999999
 20
818.0800000000001
 30
0.0
 11
77.3394
 21
817.58
 31
0.0
  0
LINE
  5
7A2
330
1E
100
AcDbEntity
  8
0
100
AcDbLine
 10
78.6251
 20
819.0800000000001
 30
0.0
 11
78.6251
 21
818.0800000000001
 31
0.0
  0
LINE
  5
7A3
330
1E
100
AcDbEntity
  8
0
100
AcDbLine
 10
78.6251
 20
818.0800000000001
 30
0.0
 11
78.6251
 21
819.0800000000001
 31
0.0
  0
LINE
  5
7A4
330
1E
100
AcDbEntity
  8
0
100
AcDbLine
 10
78.1966
 20
817.58
 30
0.0
 11
78.6251
 21
818.0800000000001
 31
0.0
  0
LINE
  5
7A5
330
1E
100
AcDbEntity
  8
0
100
AcDbLine
 10
77.3394
 20
817.58
 30
0.0
 11
78.1966
 21
817.58
 31
0.0
  0
LINE
  5
7A6
330
1E
100
AcDbEntity
  8
0
100
AcDbLine
 10
76.91089999999999
 20
811.28
 30
0.0
 11
76.91089999999999
 21
812.2799999999999
 31
0.0
  0
LINE
  5
7A7
330
1E
100
AcDbEntity
  8
0
100
AcDbLine
 10
76.91089999999999
 20
811.28
 30
0.0
 11
77.3394
 21
810.7799999999999
 31
0.0
  0
LINE
  5
7A8
330
1E
100
AcDbEntity
  8
0
100
AcDbLine
 10
77.3394
 20
810.7799999999999
 30
0.0
 11
78.1966
 21
810.7799999999999
 31
0.0
  0
LINE
  5
7A9
330
1E
100
AcDbEntity
  8
0
100
AcDbLine
 10
78.6251
 20
812.2799999999999
 30
0.0
 11
78.6251
 21
811.28
 31
0.0
  0
LINE
  5
7AA
330
1E
100
AcDbEntity
  8
0
100
AcDbLine
 10
78.1966
 20
812.78
 30
0.0
 11
78.6251
 21
812.2799999999999
 31
0.0
  0
LINE
  5
7AB
330
1E
100
AcDbEntity
  8
0
100
AcDbLine
 10
77.3394
 20
812.78
 30
0.0
 11
78.1966
 21
812.78
 31
0.0
  0
LINE
  5
7AC
330
1E
100
AcDbEntity
  8
0
100
AcDbLine
 10
78.6251
 20
811.28
 30
0.0
 11
78.6251
 21
812.2799999999999
 31
0.0
  0
LINE
  5
7AD
330
1E
100
AcDbEntity
  8
0
100
AcDbLine
 10
78.1966
 20
810.7799999999999
 30
0.0
 11
78.6251
 21
811.28
 31
0.0
  0
LINE
  5
7AE
330
1E
100
AcDbEntity
  8
0
100
AcDbLine
 10
76.91089999999999
 20
812.2799999999999
 30
0.0
 11
76.91089999999999
 21
811.28
 31
0.0
  0
LINE
  5
7AF
330
1E
100
AcDbEntity
  8
0
100
AcDbLine
 10
76.91089999999999
 20
812.2799999999999
 30
0.0
 11
77.3394
 21
812.78
 31
0.0
  0
LINE
  5
7B0
330
1E
100
AcDbEntity
  8
0
100
AcDbLine
 10
82.6966
 20
810.7799999999999
 30
0.0
 11
83.12510000000001
 21
811.28
 31
0.0
  0
LINE
  5
7B1
330
1E
100
AcDbEntity
  8
0
100
AcDbLine
 10
83.12510000000001
 20
811.28
 30
0.0
 11
83.12510000000001
 21
812.2799999999999
 31
0.0
  0
LINE
  5
7B2
330
1E
100
AcDbEntity
  8
0
100
AcDbLine
 10
82.6966
 20
812.78
 30
0.0
 11
83.12510000000001
 21
812.2799999999999
 31
0.0
  0
LINE
  5
7B3
330
1E
100
AcDbEntity
  8
0
100
AcDbLine
 10
83.12510000000001
 20
812.2799999999999
 30
0.0
 11
83.12510000000001
 21
811.28
 31
0.0
  0
LINE
  5
7B4
330
1E
100
AcDbEntity
  8
0
100
AcDbLine
 10
82.6966
 20
817.58
 30
0.0
 11
83.12510000000001
 21
818.0800000000001
 31
0.0
  0
LINE
  5
7B5
330
1E
100
AcDbEntity
  8
0
100
AcDbLine
 10
83.12510000000001
 20
818.0800000000001
 30
0.0
 11
83.12510000000001
 21
819.0800000000001
 31
0.0
  0
LINE
  5
7B6
330
1E
100
AcDbEntity
  8
0
100
AcDbLine
 10
83.12510000000001
 20
819.0800000000001
 30
0.0
 11
83.12510000000001
 21
818.0800000000001
 31
0.0
  0
LINE
  5
7B7
330
1E
100
AcDbEntity
  8
0
100
AcDbLine
 10
82.6966
 20
819.58
 30
0.0
 11
83.12510000000001
 21
819.0800000000001
 31
0.0
  0
LINE
  5
7B8
330
1E
100
AcDbEntity
  8
0
100
AcDbLine
 10
81.83939999999999
 20
824.38
 30
0.0
 11
82.6966
 21
824.38
 31
0.0
  0
LINE
  5
7B9
330
1E
100
AcDbEntity
  8
0
100
AcDbLine
 10
81.83939999999999
 20
831.1799999999999
 30
0.0
 11
82.6966
 21
831.1799999999999
 31
0.0
  0
LINE
  5
7BA
330
1E
100
AcDbEntity
  8
0
100
AcDbLine
 10
81.83939999999999
 20
833.1799999999999
 30
0.0
 11
82.6966
 21
833.1799999999999
 31
0.0
  0
LINE
  5
7BB
330
1E
100
AcDbEntity
  8
0
100
AcDbLine
 10
81.83939999999999
 20
826.3799999999999
 30
0.0
 11
82.6966
 21
826.3799999999999
 31
0.0
  0
LINE
  5
7BC
330
1E
100
AcDbEntity
  8
0
100
AcDbLine
 10
81.83939999999999
 20
837.9799999999999
 30
0.0
 11
82.6966
 21
837.9799999999999
 31
0.0
  0
LINE
  5
7BD
330
1E
100
AcDbEntity
  8
0
100
AcDbLine
 10
81.4109
 20
824.8799999999999
 30
0.0
 11
81.83939999999999
 21
824.38
 31
0.0
  0
LINE
  5
7BE
330
1E
100
AcDbEntity
  8
0
100
AcDbLine
 10
81.4109
 20
824.8799999999999
 30
0.0
 11
81.4109
 21
825.88
 31
0.0
  0
LINE
  5
7BF
330
1E
100
AcDbEntity
  8
0
100
AcDbLine
 10
81.4109
 20
825.88
 30
0.0
 11
81.83939999999999
 21
826.3799999999999
 31
0.0
  0
LINE
  5
7C0
330
1E
100
AcDbEntity
  8
0
100
AcDbLine
 10
81.4109
 20
825.88
 30
0.0
 11
81.4109
 21
824.8799999999999
 31
0.0
  0
LINE
  5
7C1
330
1E
100
AcDbEntity
  8
0
100
AcDbLine
 10
81.4109
 20
831.6799999999998
 30
0.0
 11
81.4109
 21
832.68
 31
0.0
  0
LINE
  5
7C2
330
1E
100
AcDbEntity
  8
0
100
AcDbLine
 10
81.4109
 20
831.6799999999998
 30
0.0
 11
81.83939999999999
 21
831.1799999999999
 31
0.0
  0
LINE
  5
7C3
330
1E
100
AcDbEntity
  8
0
100
AcDbLine
 10
81.4109
 20
832.68
 30
0.0
 11
81.83939999999999
 21
833.1799999999999
 31
0.0
  0
LINE
  5
7C4
330
1E
100
AcDbEntity
  8
0
100
AcDbLine
 10
81.4109
 20
832.68
 30
0.0
 11
81.4109
 21
831.6799999999998
 31
0.0
  0
LINE
  5
7C5
330
1E
100
AcDbEntity
  8
0
100
AcDbLine
 10
81.4109
 20
838.48
 30
0.0
 11
81.83939999999999
 21
837.9799999999999
 31
0.0
  0
LINE
  5
7C6
330
1E
100
AcDbEntity
  8
0
100
AcDbLine
 10
78.1966
 20
837.9799999999999
 30
0.0
 11
78.6251
 21
838.48
 31
0.0
  0
LINE
  5
7C7
330
1E
100
AcDbEntity
  8
0
100
AcDbLine
 10
77.3394
 20
837.9799999999999
 30
0.0
 11
78.1966
 21
837.9799999999999
 31
0.0
  0
LINE
  5
7C8
330
1E
100
AcDbEntity
  8
0
100
AcDbLine
 10
76.91089999999999
 20
838.48
 30
0.0
 11
77.3394
 21
837.9799999999999
 31
0.0
  0
LINE
  5
7C9
330
1E
100
AcDbEntity
  8
0
100
AcDbLine
 10
77.3394
 20
826.3799999999999
 30
0.0
 11
78.1966
 21
826.3799999999999
 31
0.0
  0
LINE
  5
7CA
330
1E
100
AcDbEntity
  8
0
100
AcDbLine
 10
78.6251
 20
831.6799999999998
 30
0.0
 11
78.6251
 21
832.68
 31
0.0
  0
LINE
  5
7CB
330
1E
100
AcDbEntity
  8
0
100
AcDbLine
 10
78.1966
 20
833.1799999999999
 30
0.0
 11
78.6251
 21
832.68
 31
0.0
  0
LINE
  5
7CC
330
1E
100
AcDbEntity
  8
0
100
AcDbLine
 10
78.6251
 20
832.68
 30
0.0
 11
78.6251
 21
831.6799999999998
 31
0.0
  0
LINE
  5
7CD
330
1E
100
AcDbEntity
  8
0
100
AcDbLine
 10
77.3394
 20
833.1799999999999
 30
0.0
 11
78.1966
 21
833.1799999999999
 31
0.0
  0
LINE
  5
7CE
330
1E
100
AcDbEntity
  8
0
100
AcDbLine
 10
76.91089999999999
 20
832.68
 30
0.0
 11
76.91089999999999
 21
831.6799999999998
 31
0.0
  0
LINE
  5
7CF
330
1E
100
AcDbEntity
  8
0
100
AcDbLine
 10
76.91089999999999
 20
832.68
 30
0.0
 11
77.3394
 21
833.1799999999999
 31
0.0
  0
LINE
  5
7D0
330
1E
100
AcDbEntity
  8
0
100
AcDbLine
 10
76.91089999999999
 20
831.6799999999998
 30
0.0
 11
77.3394
 21
831.1799999999999
 31
0.0
  0
LINE
  5
7D1
330
1E
100
AcDbEntity
  8
0
100
AcDbLine
 10
76.91089999999999
 20
831.6799999999998
 30
0.0
 11
76.91089999999999
 21
832.68
 31
0.0
  0
LINE
  5
7D2
330
1E
100
AcDbEntity
  8
0
100
AcDbLine
 10
77.3394
 20
831.1799999999999
 30
0.0
 11
78.1966
 21
831.1799999999999
 31
0.0
  0
LINE
  5
7D3
330
1E
100
AcDbEntity
  8
0
100
AcDbLine
 10
78.1966
 20
831.1799999999999
 30
0.0
 11
78.6251
 21
831.6799999999998
 31
0.0
  0
LINE
  5
7D4
330
1E
100
AcDbEntity
  8
0
100
AcDbLine
 10
78.1966
 20
826.3799999999999
 30
0.0
 11
78.6251
 21
825.88
 31
0.0
  0
LINE
  5
7D5
330
1E
100
AcDbEntity
  8
0
100
AcDbLine
 10
76.91089999999999
 20
825.88
 30
0.0
 11
76.91089999999999
 21
824.8799999999999
 31
0.0
  0
LINE
  5
7D6
330
1E
100
AcDbEntity
  8
0
100
AcDbLine
 10
76.91089999999999
 20
825.88
 30
0.0
 11
77.3394
 21
826.3799999999999
 31
0.0
  0
LINE
  5
7D7
330
1E
100
AcDbEntity
  8
0
100
AcDbLine
 10
78.6251
 20
825.88
 30
0.0
 11
78.6251
 21
824.8799999999999
 31
0.0
  0
LINE
  5
7D8
330
1E
100
AcDbEntity
  8
0
100
AcDbLine
 10
76.91089999999999
 20
824.8799999999999
 30
0.0
 11
76.91089999999999
 21
825.88
 31
0.0
  0
LINE
  5
7D9
330
1E
100
AcDbEntity
  8
0
100
AcDbLine
 10
76.91089999999999
 20
824.8799999999999
 30
0.0
 11
77.3394
 21
824.38
 31
0.0
  0
LINE
  5
7DA
330
1E
100
AcDbEntity
  8
0
100
AcDbLine
 10
78.6251
 20
824.8799999999999
 30
0.0
 11
78.6251
 21
825.88
 31
0.0
  0
LINE
  5
7DB
330
1E
100
AcDbEntity
  8
0
100
AcDbLine
 10
78.1966
 20
824.38
 30
0.0
 11
78.6251
 21
824.8799999999999
 31
0.0
  0
LINE
  5
7DC
330
1E
100
AcDbEntity
  8
0
100
AcDbLine
 10
77.3394
 20
824.38
 30
0.0
 11
78.1966
 21
824.38
 31
0.0
  0
LINE
  5
7DD
330
1E
100
AcDbEntity
  8
0
100
AcDbLine
 10
82.6966
 20
824.38
 30
0.0
 11
83.12510000000001
 21
824.8799999999999
 31
0.0
  0
LINE
  5
7DE
330
1E
100
AcDbEntity
  8
0
100
AcDbLine
 10
83.12510000000001
 20
824.8799999999999
 30
0.0
 11
83.12510000000001
 21
825.88
 31
0.0
  0
LINE
  5
7DF
330
1E
100
AcDbEntity
  8
0
100
AcDbLine
 10
83.12510000000001
 20
825.88
 30
0.0
 11
83.12510000000001
 21
824.8799999999999
 31
0.0
  0
LINE
  5
7E0
330
1E
100
AcDbEntity
  8
0
100
AcDbLine
 10
82.6966
 20
826.3799999999999
 30
0.0
 11
83.12510000000001
 21
825.88
 31
0.0
  0
LINE
  5
7E1
330
1E
100
AcDbEntity
  8
0
100
AcDbLine
 10
82.6966
 20
831.1799999999999
 30
0.0
 11
83.12510000000001
 21
831.6799999999998
 31
0.0
  0
LINE
  5
7E2
330
1E
100
AcDbEntity
  8
0
100
AcDbLine
 10
83.12510000000001
 20
832.68
 30
0.0
 11
83.12510000000001
 21
831.6799999999998
 31
0.0
  0
LINE
  5
7E3
330
1E
100
AcDbEntity
  8
0
100
AcDbLine
 10
82.6966
 20
833.1799999999999
 30
0.0
 11
83.12510000000001
 21
832.68
 31
0.0
  0
LINE
  5
7E4
330
1E
100
AcDbEntity
  8
0
100
AcDbLine
 10
83.12510000000001
 20
831.6799999999998
 30
0.0
 11
83.12510000000001
 21
832.68
 31
0.0
  0
LINE
  5
7E5
330
1E
100
AcDbEntity
  8
0
100
AcDbLine
 10
82.6966
 20
837.9799999999999
 30
0.0
 11
83.12510000000001
 21
838.48
 31
0.0
  0
LINE
  5
7E6
330
1E
100
AcDbEntity
  8
0
100
AcDbLine
 10
81.83939999999999
 20
839.98
 30
0.0
 11
82.6966
 21
839.98
 31
0.0
  0
LINE
  5
7E7
330
1E
100
AcDbEntity
  8
0
100
AcDbLine
 10
81.83939999999999
 20
844.7799999999999
 30
0.0
 11
82.6966
 21
844.7799999999999
 31
0.0
  0
LINE
  5
7E8
330
1E
100
AcDbEntity
  8
0
100
AcDbLine
 10
81.83939999999999
 20
846.78
 30
0.0
 11
82.6966
 21
846.78
 31
0.0
  0
LINE
  5
7E9
330
1E
100
AcDbEntity
  8
0
100
AcDbLine
 10
81.83939999999999
 20
851.58
 30
0.0
 11
82.6966
 21
851.58
 31
0.0
  0
LINE
  5
7EA
330
1E
100
AcDbEntity
  8
0
100
AcDbLine
 10
81.83939999999999
 20
853.58
 30
0.0
 11
82.6966
 21
853.58
 31
0.0
  0
LINE
  5
7EB
330
1E
100
AcDbEntity
  8
0
100
AcDbLine
 10
81.4109
 20
839.48
 30
0.0
 11
81.83939999999999
 21
839.98
 31
0.0
  0
LINE
  5
7EC
330
1E
100
AcDbEntity
  8
0
100
AcDbLine
 10
81.4109
 20
845.2799999999999
 30
0.0
 11
81.4109
 21
846.2799999999999
 31
0.0
  0
LINE
  5
7ED
330
1E
100
AcDbEntity
  8
0
100
AcDbLine
 10
81.4109
 20
845.2799999999999
 30
0.0
 11
81.83939999999999
 21
844.7799999999999
 31
0.0
  0
LINE
  5
7EE
330
1E
100
AcDbEntity
  8
0
100
AcDbLine
 10
81.4109
 20
846.2799999999999
 30
0.0
 11
81.83939999999999
 21
846.78
 31
0.0
  0
LINE
  5
7EF
330
1E
100
AcDbEntity
  8
0
100
AcDbLine
 10
81.4109
 20
846.2799999999999
 30
0.0
 11
81.4109
 21
845.2799999999999
 31
0.0
  0
LINE
  5
7F0
330
1E
100
AcDbEntity
  8
0
100
AcDbLine
 10
81.4109
 20
852.0800000000001
 30
0.0
 11
81.4109
 21
853.0800000000001
 31
0.0
  0
LINE
  5
7F1
330
1E
100
AcDbEntity
  8
0
100
AcDbLine
 10
81.4109
 20
852.0800000000001
 30
0.0
 11
81.83939999999999
 21
851.58
 31
0.0
  0
LINE
  5
7F2
330
1E
100
AcDbEntity
  8
0
100
AcDbLine
 10
81.4109
 20
853.0800000000001
 30
0.0
 11
81.83939999999999
 21
853.58
 31
0.0
  0
LINE
  5
7F3
330
1E
100
AcDbEntity
  8
0
100
AcDbLine
 10
81.4109
 20
853.0800000000001
 30
0.0
 11
81.4109
 21
852.0800000000001
 31
0.0
  0
LINE
  5
7F4
330
1E
100
AcDbEntity
  8
0
100
AcDbLine
 10
78.1966
 20
853.58
 30
0.0
 11
78.6251
 21
853.0800000000001
 31
0.0
  0
LINE
  5
7F5
330
1E
100
AcDbEntity
  8
0
100
AcDbLine
 10
77.3394
 20
853.58
 30
0.0
 11
78.1966
 21
853.58
 31
0.0
  0
LINE
  5
7F6
330
1E
100
AcDbEntity
  8
0
100
AcDbLine
 10
76.91089999999999
 20
853.0800000000001
 30
0.0
 11
76.91089999999999
 21
852.0800000000001
 31
0.0
  0
LINE
  5
7F7
330
1E
100
AcDbEntity
  8
0
100
AcDbLine
 10
76.91089999999999
 20
853.0800000000001
 30
0.0
 11
77.3394
 21
853.58
 31
0.0
  0
LINE
  5
7F8
330
1E
100
AcDbEntity
  8
0
100
AcDbLine
 10
78.6251
 20
853.0800000000001
 30
0.0
 11
78.6251
 21
852.0800000000001
 31
0.0
  0
LINE
  5
7F9
330
1E
100
AcDbEntity
  8
0
100
AcDbLine
 10
78.6251
 20
852.0800000000001
 30
0.0
 11
78.6251
 21
853.0800000000001
 31
0.0
  0
LINE
  5
7FA
330
1E
100
AcDbEntity
  8
0
100
AcDbLine
 10
76.91089999999999
 20
852.0800000000001
 30
0.0
 11
77.3394
 21
851.58
 31
0.0
  0
LINE
  5
7FB
330
1E
100
AcDbEntity
  8
0
100
AcDbLine
 10
76.91089999999999
 20
852.0800000000001
 30
0.0
 11
76.91089999999999
 21
853.0800000000001
 31
0.0
  0
LINE
  5
7FC
330
1E
100
AcDbEntity
  8
0
100
AcDbLine
 10
77.3394
 20
851.58
 30
0.0
 11
78.1966
 21
851.58
 31
0.0
  0
LINE
  5
7FD
330
1E
100
AcDbEntity
  8
0
100
AcDbLine
 10
78.1966
 20
851.58
 30
0.0
 11
78.6251
 21
852.0800000000001
 31
0.0
  0
LINE
  5
7FE
330
1E
100
AcDbEntity
  8
0
100
AcDbLine
 10
78.1966
 20
846.78
 30
0.0
 11
78.6251
 21
846.2799999999999
 31
0.0
  0
LINE
  5
7FF
330
1E
100
AcDbEntity
  8
0
100
AcDbLine
 10
77.3394
 20
846.78
 30
0.0
 11
78.1966
 21
846.78
 31
0.0
  0
LINE
  5
800
330
1E
100
AcDbEntity
  8
0
100
AcDbLine
 10
76.91089999999999
 20
846.2799999999999
 30
0.0
 11
76.91089999999999
 21
845.2799999999999
 31
0.0
  0
LINE
  5
801
330
1E
100
AcDbEntity
  8
0
100
AcDbLine
 10
76.91089999999999
 20
846.2799999999999
 30
0.0
 11
77.3394
 21
846.78
 31
0.0
  0
LINE
  5
802
330
1E
100
AcDbEntity
  8
0
100
AcDbLine
 10
78.6251
 20
846.2799999999999
 30
0.0
 11
78.6251
 21
845.2799999999999
 31
0.0
  0
LINE
  5
803
330
1E
100
AcDbEntity
  8
0
100
AcDbLine
 10
78.6251
 20
845.2799999999999
 30
0.0
 11
78.6251
 21
846.2799999999999
 31
0.0
  0
LINE
  5
804
330
1E
100
AcDbEntity
  8
0
100
AcDbLine
 10
76.91089999999999
 20
845.2799999999999
 30
0.0
 11
77.3394
 21
844.7799999999999
 31
0.0
  0
LINE
  5
805
330
1E
100
AcDbEntity
  8
0
100
AcDbLine
 10
76.91089999999999
 20
845.2799999999999
 30
0.0
 11
76.91089999999999
 21
846.2799999999999
 31
0.0
  0
LINE
  5
806
330
1E
100
AcDbEntity
  8
0
100
AcDbLine
 10
77.3394
 20
844.7799999999999
 30
0.0
 11
78.1966
 21
844.7799999999999
 31
0.0
  0
LINE
  5
807
330
1E
100
AcDbEntity
  8
0
100
AcDbLine
 10
78.1966
 20
844.7799999999999
 30
0.0
 11
78.6251
 21
845.2799999999999
 31
0.0
  0
LINE
  5
808
330
1E
100
AcDbEntity
  8
0
100
AcDbLine
 10
77.3394
 20
839.98
 30
0.0
 11
78.1966
 21
839.98
 31
0.0
  0
LINE
  5
809
330
1E
100
AcDbEntity
  8
0
100
AcDbLine
 10
76.91089999999999
 20
839.48
 30
0.0
 11
77.3394
 21
839.98
 31
0.0
  0
LINE
  5
80A
330
1E
100
AcDbEntity
  8
0
100
AcDbLine
 10
78.1966
 20
839.98
 30
0.0
 11
78.6251
 21
839.48
 31
0.0
  0
LINE
  5
80B
330
1E
100
AcDbEntity
  8
0
100
AcDbLine
 10
82.6966
 20
839.98
 30
0.0
 11
83.12510000000001
 21
839.48
 31
0.0
  0
LINE
  5
80C
330
1E
100
AcDbEntity
  8
0
100
AcDbLine
 10
82.6966
 20
844.7799999999999
 30
0.0
 11
83.12510000000001
 21
845.2799999999999
 31
0.0
  0
LINE
  5
80D
330
1E
100
AcDbEntity
  8
0
100
AcDbLine
 10
83.12510000000001
 20
845.2799999999999
 30
0.0
 11
83.12510000000001
 21
846.2799999999999
 31
0.0
  0
LINE
  5
80E
330
1E
100
AcDbEntity
  8
0
100
AcDbLine
 10
83.12510000000001
 20
846.2799999999999
 30
0.0
 11
83.12510000000001
 21
845.2799999999999
 31
0.0
  0
LINE
  5
80F
330
1E
100
AcDbEntity
  8
0
100
AcDbLine
 10
82.6966
 20
846.78
 30
0.0
 11
83.12510000000001
 21
846.2799999999999
 31
0.0
  0
LINE
  5
810
330
1E
100
AcDbEntity
  8
0
100
AcDbLine
 10
82.6966
 20
851.58
 30
0.0
 11
83.12510000000001
 21
852.0800000000001
 31
0.0
  0
LINE
  5
811
330
1E
100
AcDbEntity
  8
0
100
AcDbLine
 10
83.12510000000001
 20
852.0800000000001
 30
0.0
 11
83.12510000000001
 21
853.0800000000001
 31
0.0
  0
LINE
  5
812
330
1E
100
AcDbEntity
  8
0
100
AcDbLine
 10
83.12510000000001
 20
853.0800000000001
 30
0.0
 11
83.12510000000001
 21
852.0800000000001
 31
0.0
  0
LINE
  5
813
330
1E
100
AcDbEntity
  8
0
100
AcDbLine
 10
82.6966
 20
853.58
 30
0.0
 11
83.12510000000001
 21
853.0800000000001
 31
0.0
  0
LINE
  5
814
330
1E
100
AcDbEntity
  8
0
100
AcDbLine
 10
81.83939999999999
 20
858.38
 30
0.0
 11
82.6966
 21
858.38
 31
0.0
  0
LINE
  5
815
330
1E
100
AcDbEntity
  8
0
100
AcDbLine
 10
81.83939999999999
 20
860.3799999999999
 30
0.0
 11
82.6966
 21
860.3799999999999
 31
0.0
  0
LINE
  5
816
330
1E
100
AcDbEntity
  8
0
100
AcDbLine
 10
81.83939999999999
 20
865.1799999999999
 30
0.0
 11
82.6966
 21
865.1799999999999
 31
0.0
  0
LINE
  5
817
330
1E
100
AcDbEntity
  8
0
100
AcDbLine
 10
81.83939999999999
 20
867.1799999999999
 30
0.0
 11
82.6966
 21
867.1799999999999
 31
0.0
  0
LINE
  5
818
330
1E
100
AcDbEntity
  8
0
100
AcDbLine
 10
81.83939999999999
 20
871.9800000000001
 30
0.0
 11
82.6966
 21
871.9800000000001
 31
0.0
  0
LINE
  5
819
330
1E
100
AcDbEntity
  8
0
100
AcDbLine
 10
81.83939999999999
 20
873.98
 30
0.0
 11
82.6966
 21
873.98
 31
0.0
  0
LINE
  5
81A
330
1E
100
AcDbEntity
  8
0
100
AcDbLine
 10
81.4109
 20
858.88
 30
0.0
 11
81.83939999999999
 21
858.38
 31
0.0
  0
LINE
  5
81B
330
1E
100
AcDbEntity
  8
0
100
AcDbLine
 10
81.4109
 20
858.88
 30
0.0
 11
81.4109
 21
859.88
 31
0.0
  0
LINE
  5
81C
330
1E
100
AcDbEntity
  8
0
100
AcDbLine
 10
81.4109
 20
859.88
 30
0.0
 11
81.83939999999999
 21
860.3799999999999
 31
0.0
  0
LINE
  5
81D
330
1E
100
AcDbEntity
  8
0
100
AcDbLine
 10
81.4109
 20
859.88
 30
0.0
 11
81.4109
 21
858.88
 31
0.0
  0
LINE
  5
81E
330
1E
100
AcDbEntity
  8
0
100
AcDbLine
 10
81.4109
 20
866.68
 30
0.0
 11
81.83939999999999
 21
867.1799999999999
 31
0.0
  0
LINE
  5
81F
330
1E
100
AcDbEntity
  8
0
100
AcDbLine
 10
81.4109
 20
866.68
 30
0.0
 11
81.4109
 21
865.68
 31
0.0
  0
LINE
  5
820
330
1E
100
AcDbEntity
  8
0
100
AcDbLine
 10
81.4109
 20
865.68
 30
0.0
 11
81.83939999999999
 21
865.1799999999999
 31
0.0
  0
LINE
  5
821
330
1E
100
AcDbEntity
  8
0
100
AcDbLine
 10
81.4109
 20
865.68
 30
0.0
 11
81.4109
 21
866.68
 31
0.0
  0
LINE
  5
822
330
1E
100
AcDbEntity
  8
0
100
AcDbLine
 10
81.4109
 20
872.48
 30
0.0
 11
81.83939999999999
 21
871.9800000000001
 31
0.0
  0
LINE
  5
823
330
1E
100
AcDbEntity
  8
0
100
AcDbLine
 10
81.4109
 20
872.48
 30
0.0
 11
81.4109
 21
873.4799999999999
 31
0.0
  0
LINE
  5
824
330
1E
100
AcDbEntity
  8
0
100
AcDbLine
 10
81.4109
 20
873.4799999999999
 30
0.0
 11
81.4109
 21
872.48
 31
0.0
  0
LINE
  5
825
330
1E
100
AcDbEntity
  8
0
100
AcDbLine
 10
81.4109
 20
873.4799999999999
 30
0.0
 11
81.83939999999999
 21
873.98
 31
0.0
  0
LINE
  5
826
330
1E
100
AcDbEntity
  8
0
100
AcDbLine
 10
77.3394
 20
873.98
 30
0.0
 11
78.1966
 21
873.98
 31
0.0
  0
LINE
  5
827
330
1E
100
AcDbEntity
  8
0
100
AcDbLine
 10
78.1966
 20
873.98
 30
0.0
 11
78.6251
 21
873.4799999999999
 31
0.0
  0
LINE
  5
828
330
1E
100
AcDbEntity
  8
0
100
AcDbLine
 10
76.91089999999999
 20
873.4799999999999
 30
0.0
 11
77.3394
 21
873.98
 31
0.0
  0
LINE
  5
829
330
1E
100
AcDbEntity
  8
0
100
AcDbLine
 10
76.91089999999999
 20
873.4799999999999
 30
0.0
 11
76.91089999999999
 21
872.48
 31
0.0
  0
LINE
  5
82A
330
1E
100
AcDbEntity
  8
0
100
AcDbLine
 10
78.6251
 20
873.4799999999999
 30
0.0
 11
78.6251
 21
872.48
 31
0.0
  0
LINE
  5
82B
330
1E
100
AcDbEntity
  8
0
100
AcDbLine
 10
78.1966
 20
871.9800000000001
 30
0.0
 11
78.6251
 21
872.48
 31
0.0
  0
LINE
  5
82C
330
1E
100
AcDbEntity
  8
0
100
AcDbLine
 10
76.91089999999999
 20
872.48
 30
0.0
 11
76.91089999999999
 21
873.4799999999999
 31
0.0
  0
LINE
  5
82D
330
1E
100
AcDbEntity
  8
0
100
AcDbLine
 10
76.91089999999999
 20
872.48
 30
0.0
 11
77.3394
 21
871.9800000000001
 31
0.0
  0
LINE
  5
82E
330
1E
100
AcDbEntity
  8
0
100
AcDbLine
 10
78.6251
 20
872.48
 30
0.0
 11
78.6251
 21
873.4799999999999
 31
0.0
  0
LINE
  5
82F
330
1E
100
AcDbEntity
  8
0
100
AcDbLine
 10
77.3394
 20
871.9800000000001
 30
0.0
 11
78.1966
 21
871.9800000000001
 31
0.0
  0
LINE
  5
830
330
1E
100
AcDbEntity
  8
0
100
AcDbLine
 10
76.91089999999999
 20
865.68
 30
0.0
 11
76.91089999999999
 21
866.68
 31
0.0
  0
LINE
  5
831
330
1E
100
AcDbEntity
  8
0
100
AcDbLine
 10
76.91089999999999
 20
865.68
 30
0.0
 11
77.3394
 21
865.1799999999999
 31
0.0
  0
LINE
  5
832
330
1E
100
AcDbEntity
  8
0
100
AcDbLine
 10
78.1966
 20
867.1799999999999
 30
0.0
 11
78.6251
 21
866.68
 31
0.0
  0
LINE
  5
833
330
1E
100
AcDbEntity
  8
0
100
AcDbLine
 10
77.3394
 20
867.1799999999999
 30
0.0
 11
78.1966
 21
867.1799999999999
 31
0.0
  0
LINE
  5
834
330
1E
100
AcDbEntity
  8
0
100
AcDbLine
 10
78.6251
 20
866.68
 30
0.0
 11
78.6251
 21
865.68
 31
0.0
  0
LINE
  5
835
330
1E
100
AcDbEntity
  8
0
100
AcDbLine
 10
76.91089999999999
 20
866.68
 30
0.0
 11
76.91089999999999
 21
865.68
 31
0.0
  0
LINE
  5
836
330
1E
100
AcDbEntity
  8
0
100
AcDbLine
 10
76.91089999999999
 20
866.68
 30
0.0
 11
77.3394
 21
867.1799999999999
 31
0.0
  0
LINE
  5
837
330
1E
100
AcDbEntity
  8
0
100
AcDbLine
 10
77.3394
 20
865.1799999999999
 30
0.0
 11
78.1966
 21
865.1799999999999
 31
0.0
  0
LINE
  5
838
330
1E
100
AcDbEntity
  8
0
100
AcDbLine
 10
78.1966
 20
865.1799999999999
 30
0.0
 11
78.6251
 21
865.68
 31
0.0
  0
LINE
  5
839
330
1E
100
AcDbEntity
  8
0
100
AcDbLine
 10
78.6251
 20
865.68
 30
0.0
 11
78.6251
 21
866.68
 31
0.0
  0
LINE
  5
83A
330
1E
100
AcDbEntity
  8
0
100
AcDbLine
 10
77.3394
 20
860.3799999999999
 30
0.0
 11
78.1966
 21
860.3799999999999
 31
0.0
  0
LINE
  5
83B
330
1E
100
AcDbEntity
  8
0
100
AcDbLine
 10
78.1966
 20
860.3799999999999
 30
0.0
 11
78.6251
 21
859.88
 31
0.0
  0
LINE
  5
83C
330
1E
100
AcDbEntity
  8
0
100
AcDbLine
 10
76.91089999999999
 20
859.88
 30
0.0
 11
76.91089999999999
 21
858.88
 31
0.0
  0
LINE
  5
83D
330
1E
100
AcDbEntity
  8
0
100
AcDbLine
 10
76.91089999999999
 20
859.88
 30
0.0
 11
77.3394
 21
860.3799999999999
 31
0.0
  0
LINE
  5
83E
330
1E
100
AcDbEntity
  8
0
100
AcDbLine
 10
78.6251
 20
859.88
 30
0.0
 11
78.6251
 21
858.88
 31
0.0
  0
LINE
  5
83F
330
1E
100
AcDbEntity
  8
0
100
AcDbLine
 10
76.91089999999999
 20
858.88
 30
0.0
 11
76.91089999999999
 21
859.88
 31
0.0
  0
LINE
  5
840
330
1E
100
AcDbEntity
  8
0
100
AcDbLine
 10
76.91089999999999
 20
858.88
 30
0.0
 11
77.3394
 21
858.38
 31
0.0
  0
LINE
  5
841
330
1E
100
AcDbEntity
  8
0
100
AcDbLine
 10
78.6251
 20
858.88
 30
0.0
 11
78.6251
 21
859.88
 31
0.0
  0
LINE
  5
842
330
1E
100
AcDbEntity
  8
0
100
AcDbLine
 10
78.1966
 20
858.38
 30
0.0
 11
78.6251
 21
858.88
 31
0.0
  0
LINE
  5
843
330
1E
100
AcDbEntity
  8
0
100
AcDbLine
 10
77.3394
 20
858.38
 30
0.0
 11
78.1966
 21
858.38
 31
0.0
  0
LINE
  5
844
330
1E
100
AcDbEntity
  8
0
100
AcDbLine
 10
82.6966
 20
858.38
 30
0.0
 11
83.12510000000001
 21
858.88
 31
0.0
  0
LINE
  5
845
330
1E
100
AcDbEntity
  8
0
100
AcDbLine
 10
83.12510000000001
 20
858.88
 30
0.0
 11
83.12510000000001
 21
859.88
 31
0.0
  0
LINE
  5
846
330
1E
100
AcDbEntity
  8
0
100
AcDbLine
 10
83.12510000000001
 20
859.88
 30
0.0
 11
83.12510000000001
 21
858.88
 31
0.0
  0
LINE
  5
847
330
1E
100
AcDbEntity
  8
0
100
AcDbLine
 10
82.6966
 20
860.3799999999999
 30
0.0
 11
83.12510000000001
 21
859.88
 31
0.0
  0
LINE
  5
848
330
1E
100
AcDbEntity
  8
0
100
AcDbLine
 10
83.12510000000001
 20
865.68
 30
0.0
 11
83.12510000000001
 21
866.68
 31
0.0
  0
LINE
  5
849
330
1E
100
AcDbEntity
  8
0
100
AcDbLine
 10
82.6966
 20
865.1799999999999
 30
0.0
 11
83.12510000000001
 21
865.68
 31
0.0
  0
LINE
  5
84A
330
1E
100
AcDbEntity
  8
0
100
AcDbLine
 10
83.12510000000001
 20
866.68
 30
0.0
 11
83.12510000000001
 21
865.68
 31
0.0
  0
LINE
  5
84B
330
1E
100
AcDbEntity
  8
0
100
AcDbLine
 10
82.6966
 20
867.1799999999999
 30
0.0
 11
83.12510000000001
 21
866.68
 31
0.0
  0
LINE
  5
84C
330
1E
100
AcDbEntity
  8
0
100
AcDbLine
 10
83.12510000000001
 20
872.48
 30
0.0
 11
83.12510000000001
 21
873.4799999999999
 31
0.0
  0
LINE
  5
84D
330
1E
100
AcDbEntity
  8
0
100
AcDbLine
 10
82.6966
 20
871.9800000000001
 30
0.0
 11
83.12510000000001
 21
872.48
 31
0.0
  0
LINE
  5
84E
330
1E
100
AcDbEntity
  8
0
100
AcDbLine
 10
83.12510000000001
 20
873.4799999999999
 30
0.0
 11
83.12510000000001
 21
872.48
 31
0.0
  0
LINE
  5
84F
330
1E
100
AcDbEntity
  8
0
100
AcDbLine
 10
82.6966
 20
873.98
 30
0.0
 11
83.12510000000001
 21
873.4799999999999
 31
0.0
  0
LINE
  5
850
330
1E
100
AcDbEntity
  8
0
100
AcDbLine
 10
81.83939999999999
 20
878.78
 30
0.0
 11
82.6966
 21
878.78
 31
0.0
  0
LINE
  5
851
330
1E
100
AcDbEntity
  8
0
100
AcDbLine
 10
81.83939999999999
 20
880.78
 30
0.0
 11
82.6966
 21
880.78
 31
0.0
  0
LINE
  5
852
330
1E
100
AcDbEntity
  8
0
100
AcDbLine
 10
81.4109
 20
879.2799999999999
 30
0.0
 11
81.4109
 21
880.2799999999999
 31
0.0
  0
LINE
  5
853
330
1E
100
AcDbEntity
  8
0
100
AcDbLine
 10
81.4109
 20
879.2799999999999
 30
0.0
 11
81.83939999999999
 21
878.78
 31
0.0
  0
LINE
  5
854
330
1E
100
AcDbEntity
  8
0
100
AcDbLine
 10
81.4109
 20
880.2799999999999
 30
0.0
 11
81.83939999999999
 21
880.78
 31
0.0
  0
LINE
  5
855
330
1E
100
AcDbEntity
  8
0
100
AcDbLine
 10
81.4109
 20
880.2799999999999
 30
0.0
 11
81.4109
 21
879.2799999999999
 31
0.0
  0
LINE
  5
856
330
1E
100
AcDbEntity
  8
0
100
AcDbLine
 10
78.6251
 20
879.2799999999999
 30
0.0
 11
78.6251
 21
880.2799999999999
 31
0.0
  0
LINE
  5
857
330
1E
100
AcDbEntity
  8
0
100
AcDbLine
 10
78.1966
 20
880.78
 30
0.0
 11
78.6251
 21
880.2799999999999
 31
0.0
  0
LINE
  5
858
330
1E
100
AcDbEntity
  8
0
100
AcDbLine
 10
77.3394
 20
880.78
 30
0.0
 11
78.1966
 21
880.78
 31
0.0
  0
LINE
  5
859
330
1E
100
AcDbEntity
  8
0
100
AcDbLine
 10
78.6251
 20
880.2799999999999
 30
0.0
 11
78.6251
 21
879.2799999999999
 31
0.0
  0
LINE
  5
85A
330
1E
100
AcDbEntity
  8
0
100
AcDbLine
 10
78.1966
 20
878.78
 30
0.0
 11
78.6251
 21
879.2799999999999
 31
0.0
  0
LINE
  5
85B
330
1E
100
AcDbEntity
  8
0
100
AcDbLine
 10
76.91089999999999
 20
880.2799999999999
 30
0.0
 11
76.91089999999999
 21
879.2799999999999
 31
0.0
  0
LINE
  5
85C
330
1E
100
AcDbEntity
  8
0
100
AcDbLine
 10
76.91089999999999
 20
880.2799999999999
 30
0.0
 11
77.3394
 21
880.78
 31
0.0
  0
LINE
  5
85D
330
1E
100
AcDbEntity
  8
0
100
AcDbLine
 10
76.91089999999999
 20
879.2799999999999
 30
0.0
 11
77.3394
 21
878.78
 31
0.0
  0
LINE
  5
85E
330
1E
100
AcDbEntity
  8
0
100
AcDbLine
 10
76.91089999999999
 20
879.2799999999999
 30
0.0
 11
76.91089999999999
 21
880.2799999999999
 31
0.0
  0
LINE
  5
85F
330
1E
100
AcDbEntity
  8
0
100
AcDbLine
 10
77.3394
 20
878.78
 30
0.0
 11
78.1966
 21
878.78
 31
0.0
  0
LINE
  5
860
330
1E
100
AcDbEntity
  8
0
100
AcDbLine
 10
82.6966
 20
878.78
 30
0.0
 11
83.12510000000001
 21
879.2799999999999
 31
0.0
  0
LINE
  5
861
330
1E
100
AcDbEntity
  8
0
100
AcDbLine
 10
83.12510000000001
 20
880.2799999999999
 30
0.0
 11
83.12510000000001
 21
879.2799999999999
 31
0.0
  0
LINE
  5
862
330
1E
100
AcDbEntity
  8
0
100
AcDbLine
 10
82.6966
 20
880.78
 30
0.0
 11
83.12510000000001
 21
880.2799999999999
 31
0.0
  0
LINE
  5
863
330
1E
100
AcDbEntity
  8
0
100
AcDbLine
 10
83.12510000000001
 20
879.2799999999999
 30
0.0
 11
83.12510000000001
 21
880.2799999999999
 31
0.0
  0
ENDSEC
  0
SECTION
  2
OBJECTS
  0
DICTIONARY
  5
C
330
0
100
AcDbDictionary
281
     1
  3
ACAD_GROUP
350
D
  3
ACAD_LAYOUT
350
19
  3
ACAD_MLINESTYLE
350
16
  3
ACAD_PLOTSETTINGS
350
18
  3
ACAD_PLOTSTYLENAME
350
E
  3
AcDbVariableDictionary
350
864
  0
DICTIONARY
  5
D
102
{ACAD_REACTORS
330
C
102
}
330
C
100
AcDbDictionary
281
     1
  0
DICTIONARY
  5
19
102
{ACAD_REACTORS
330
C
102
}
330
C
100
AcDbDictionary
281
     1
  3
Layout1
350
1D
  3
Model
350
21
  0
DICTIONARY
  5
16
102
{ACAD_REACTORS
330
C
102
}
330
C
100
AcDbDictionary
281
     1
  3
Standard
350
17
  0
DICTIONARY
  5
18
102
{ACAD_REACTORS
330
C
102
}
330
C
100
AcDbDictionary
281
     1
  0
ACDBDICTIONARYWDFLT
  5
E
102
{ACAD_REACTORS
330
C
102
}
330
C
100
AcDbDictionary
281
     1
  3
Normal
350
F
100
AcDbDictionaryWithDefault
340
F
  0
DICTIONARY
  5
864
102
{ACAD_REACTORS
330
C
102
}
330
C
100
AcDbDictionary
281
     1
  3
DIMASSOC
350
865
  0
LAYOUT
  5
1D
102
{ACAD_REACTORS
330
19
102
}
330
19
100
AcDbPlotSettings
  1

  2
hp deskjet 980c series
  4

  6

 40
0.0
 41
0.0
 42
0.0
 43
0.0
 44
0.0
 45
0.0
 46
0.0
 47
0.0
 48
0.0
 49
0.0
140
0.0
141
0.0
142
1.0
143
1.0
 70
   688
 72
     0
 73
     0
 74
     5
  7

 75
    16
147
1.0
148
0.0
149
0.0
100
AcDbLayout
  1
Layout1
 70
     1
 71
     1
 10
0.0
 20
0.0
 11
12.0
 21
9.0
 12
0.0
 22
0.0
 32
0.0
 14
1.000000000000000E+20
 24
1.000000000000000E+20
 34
1.000000000000000E+20
 15
-1.000000000000000E+20
 25
-1.000000000000000E+20
 35
-1.000000000000000E+20
146
0.0
 13
0.0
 23
0.0
 33
0.0
 16
1.0
 26
0.0
 36
0.0
 17
0.0
 27
1.0
 37
0.0
 76
     0
330
1A
  0
LAYOUT
  5
21
102
{ACAD_REACTORS
330
19
102
}
330
19
100
AcDbPlotSettings
  1

  2
hp deskjet 980c series
  4

  6

 40
0.0
 41
0.0
 42
0.0
 43
0.0
 44
0.0
 45
0.0
 46
0.0
 47
0.0
 48
0.0
 49
0.0
140
0.0
141
0.0
142
1.0
143
1.0
 70
  1712
 72
     0
 73
     0
 74
     0
  7

 75
     0
147
1.0
148
0.0
149
0.0
100
AcDbLayout
  1
Model
 70
     1
 71
     0
 10
0.0
 20
0.0
 11
12.0
 21
9.0
 12
0.0
 22
0.0
 32
0.0
 14
0.0
 24
0.0
 34
0.0
 15
0.0
 25
0.0
 35
0.0
146
0.0
 13
0.0
 23
0.0
 33
0.0
 16
1.0
 26
0.0
 36
0.0
 17
0.0
 27
1.0
 37
0.0
 76
     0
330
1E
  0
MLINESTYLE
  5
17
102
{ACAD_REACTORS
330
16
102
}
330
16
100
AcDbMlineStyle
  2
STANDARD
 70
     0
  3

 62
   256
 51
90.0
 52
90.0
 71
     2
 49
0.5
 62
   256
  6
BYLAYER
 49
-0.5
 62
   256
  6
BYLAYER
  0
ACDBPLACEHOLDER
  5
F
102
{ACAD_REACTORS
330
E
102
}
330
E
  0
DICTIONARYVAR
  5
865
102
{ACAD_REACTORS
330
864
102
}
330
864
100
DictionaryVariables
280
     0
  1
1
  0
ENDSEC
  0
EOF
