  0
SECTION
  2
HEADER
  9
$ACADVER
  1
AC1015
  9
$ACADMAINTVER
 70
    13
  9
$DWGCODEPAGE
  3
ANSI_1252
  9
$INSBASE
 10
0.0
 20
0.0
 30
0.0
  9
$EXTMIN
 10
0.0000000000000144
 20
-0.0000000000000145
 30
0.0
  9
$EXTMAX
 10
292.0
 20
900.0
 30
0.0
  9
$LIMMIN
 10
0.0
 20
0.0
  9
$LIMMAX
 10
12.0
 20
9.0
  9
$ORTHOMODE
 70
     0
  9
$REGENMODE
 70
     1
  9
$FILLMODE
 70
     1
  9
$QTEXTMODE
 70
     0
  9
$MIRRTEXT
 70
     1
  9
$LTSCALE
 40
1.0
  9
$ATTMODE
 70
     1
  9
$TEXTSIZE
 40
0.2
  9
$TRACEWID
 40
0.05
  9
$TEXTSTYLE
  7
Standard
  9
$CLAYER
  8
0
  9
$CELTYPE
  6
Continuous
  9
$CECOLOR
 62
   256
  9
$CELTSCALE
 40
1.0
  9
$DISPSILH
 70
     0
  9
$DIMSCALE
 40
1.0
  9
$DIMASZ
 40
0.18
  9
$DIMEXO
 40
0.0625
  9
$DIMDLI
 40
0.38
  9
$DIMRND
 40
0.0
  9
$DIMDLE
 40
0.0
  9
$DIMEXE
 40
0.18
  9
$DIMTP
 40
0.0
  9
$DIMTM
 40
0.0
  9
$DIMTXT
 40
0.18
  9
$DIMCEN
 40
0.09
  9
$DIMTSZ
 40
0.0
  9
$DIMTOL
 70
     0
  9
$DIMLIM
 70
     0
  9
$DIMTIH
 70
     1
  9
$DIMTOH
 70
     1
  9
$DIMSE1
 70
     0
  9
$DIMSE2
 70
     0
  9
$DIMTAD
 70
     0
  9
$DIMZIN
 70
     0
  9
$DIMBLK
  1

  9
$DIMASO
 70
     1
  9
$DIMSHO
 70
     1
  9
$DIMPOST
  1

  9
$DIMAPOST
  1

  9
$DIMALT
 70
     0
  9
$DIMALTD
 70
     2
  9
$DIMALTF
 40
25.4
  9
$DIMLFAC
 40
1.0
  9
$DIMTOFL
 70
     0
  9
$DIMTVP
 40
0.0
  9
$DIMTIX
 70
     0
  9
$DIMSOXD
 70
     0
  9
$DIMSAH
 70
     0
  9
$DIMBLK1
  1

  9
$DIMBLK2
  1

  9
$DIMSTYLE
  2
Standard
  9
$DIMCLRD
 70
     0
  9
$DIMCLRE
 70
     0
  9
$DIMCLRT
 70
     0
  9
$DIMTFAC
 40
1.0
  9
$DIMGAP
 40
0.09
  9
$DIMJUST
 70
     0
  9
$DIMSD1
 70
     0
  9
$DIMSD2
 70
     0
  9
$DIMTOLJ
 70
     1
  9
$DIMTZIN
 70
     0
  9
$DIMALTZ
 70
     0
  9
$DIMALTTZ
 70
     0
  9
$DIMUPT
 70
     0
  9
$DIMDEC
 70
     4
  9
$DIMTDEC
 70
     4
  9
$DIMALTU
 70
     2
  9
$DIMALTTD
 70
     2
  9
$DIMTXSTY
  7
Standard
  9
$DIMAUNIT
 70
     0
  9
$DIMADEC
 70
     0
  9
$DIMALTRND
 40
0.0
  9
$DIMAZIN
 70
     0
  9
$DIMDSEP
 70
    46
  9
$DIMATFIT
 70
     3
  9
$DIMFRAC
 70
     0
  9
$DIMLDRBLK
  1

  9
$DIMLUNIT
 70
     2
  9
$DIMLWD
 70
    -2
  9
$DIMLWE
 70
    -2
  9
$DIMTMOVE
 70
     0
  9
$LUNITS
 70
     2
  9
$LUPREC
 70
     4
  9
$SKETCHINC
 40
0.1
  9
$FILLETRAD
 40
0.0
  9
$AUNITS
 70
     0
  9
$AUPREC
 70
     0
  9
$MENU
  1
.
  9
$ELEVATION
 40
0.0
  9
$PELEVATION
 40
0.0
  9
$THICKNESS
 40
0.0
  9
$LIMCHECK
 70
     0
  9
$CHAMFERA
 40
0.0
  9
$CHAMFERB
 40
0.0
  9
$CHAMFERC
 40
0.0
  9
$CHAMFERD
 40
0.0
  9
$SKPOLY
 70
     0
  9
$TDCREATE
 40
2454874.770886134
  9
$TDUCREATE
 40
2454874.729219467
  9
$TDUPDATE
 40
2454874.775308159
  9
$TDUUPDATE
 40
2454874.733641493
  9
$TDINDWG
 40
0.0044220255
  9
$TDUSRTIMER
 40
0.0044220255
  9
$USRTIMER
 70
     1
  9
$ANGBASE
 50
0.0
  9
$ANGDIR
 70
     0
  9
$PDMODE
 70
     0
  9
$PDSIZE
 40
0.0
  9
$PLINEWID
 40
0.0
  9
$SPLFRAME
 70
     0
  9
$SPLINETYPE
 70
     6
  9
$SPLINESEGS
 70
     8
  9
$HANDSEED
  5
48D
  9
$SURFTAB1
 70
     6
  9
$SURFTAB2
 70
     6
  9
$SURFTYPE
 70
     6
  9
$SURFU
 70
     6
  9
$SURFV
 70
     6
  9
$UCSBASE
  2

  9
$UCSNAME
  2

  9
$UCSORG
 10
0.0
 20
0.0
 30
0.0
  9
$UCSXDIR
 10
1.0
 20
0.0
 30
0.0
  9
$UCSYDIR
 10
0.0
 20
1.0
 30
0.0
  9
$UCSORTHOREF
  2

  9
$UCSORTHOVIEW
 70
     1
  9
$UCSORGTOP
 10
0.0
 20
0.0
 30
0.0
  9
$UCSORGBOTTOM
 10
0.0
 20
0.0
 30
0.0
  9
$UCSORGLEFT
 10
0.0
 20
0.0
 30
0.0
  9
$UCSORGRIGHT
 10
0.0
 20
0.0
 30
0.0
  9
$UCSORGFRONT
 10
0.0
 20
0.0
 30
0.0
  9
$UCSORGBACK
 10
0.0
 20
0.0
 30
0.0
  9
$PUCSBASE
  2

  9
$PUCSNAME
  2

  9
$PUCSORG
 10
0.0
 20
0.0
 30
0.0
  9
$PUCSXDIR
 10
1.0
 20
0.0
 30
0.0
  9
$PUCSYDIR
 10
0.0
 20
1.0
 30
0.0
  9
$PUCSORTHOREF
  2

  9
$PUCSORTHOVIEW
 70
     0
  9
$PUCSORGTOP
 10
0.0
 20
0.0
 30
0.0
  9
$PUCSORGBOTTOM
 10
0.0
 20
0.0
 30
0.0
  9
$PUCSORGLEFT
 10
0.0
 20
0.0
 30
0.0
  9
$PUCSORGRIGHT
 10
0.0
 20
0.0
 30
0.0
  9
$PUCSORGFRONT
 10
0.0
 20
0.0
 30
0.0
  9
$PUCSORGBACK
 10
0.0
 20
0.0
 30
0.0
  9
$USERI1
 70
     0
  9
$USERI2
 70
     0
  9
$USERI3
 70
     0
  9
$USERI4
 70
     0
  9
$USERI5
 70
     0
  9
$USERR1
 40
0.0
  9
$USERR2
 40
0.0
  9
$USERR3
 40
0.0
  9
$USERR4
 40
0.0
  9
$USERR5
 40
0.0
  9
$WORLDVIEW
 70
     1
  9
$SHADEDGE
 70
     3
  9
$SHADEDIF
 70
    70
  9
$TILEMODE
 70
     1
  9
$MAXACTVP
 70
    64
  9
$PINSBASE
 10
0.0
 20
0.0
 30
0.0
  9
$PLIMCHECK
 70
     0
  9
$PEXTMIN
 10
1.000000000000000E+20
 20
1.000000000000000E+20
 30
1.000000000000000E+20
  9
$PEXTMAX
 10
-1.000000000000000E+20
 20
-1.000000000000000E+20
 30
-1.000000000000000E+20
  9
$PLIMMIN
 10
0.0
 20
0.0
  9
$PLIMMAX
 10
12.0
 20
9.0
  9
$UNITMODE
 70
     0
  9
$VISRETAIN
 70
     1
  9
$PLINEGEN
 70
     0
  9
$PSLTSCALE
 70
     1
  9
$TREEDEPTH
 70
  3020
  9
$CMLSTYLE
  2
Standard
  9
$CMLJUST
 70
     0
  9
$CMLSCALE
 40
1.0
  9
$PROXYGRAPHICS
 70
     1
  9
$MEASUREMENT
 70
     0
  9
$CELWEIGHT
370
    -1
  9
$ENDCAPS
280
     0
  9
$JOINSTYLE
280
     0
  9
$LWDISPLAY
290
     0
  9
$INSUNITS
 70
     0
  9
$HYPERLINKBASE
  1

  9
$STYLESHEET
  1

  9
$XEDIT
290
     1
  9
$CEPSNTYPE
380
     0
  9
$PSTYLEMODE
290
     1
  9
$FINGERPRINTGUID
  2
{22557F88-3C2A-41A0-A485-E4D1D7701FF8}
  9
$VERSIONGUID
  2
{DCD8B1DC-BB4D-4FB3-BF85-7E09FE970064}
  9
$EXTNAMES
290
     1
  9
$PSVPSCALE
 40
0.0
  9
$OLESTARTUP
290
     0
  0
ENDSEC
  0
SECTION
  2
CLASSES
  0
CLASS
  1
ACDBDICTIONARYWDFLT
  2
AcDbDictionaryWithDefault
  3
AutoCAD 2000
 90
        0
280
     0
281
     0
  0
CLASS
  1
ACDBPLACEHOLDER
  2
AcDbPlaceHolder
  3
AutoCAD 2000
 90
        0
280
     0
281
     0
  0
CLASS
  1
LAYOUT
  2
AcDbLayout
  3
AutoCAD 2000
 90
        0
280
     0
281
     0
  0
CLASS
  1
DICTIONARYVAR
  2
AcDbDictionaryVar
  3
AutoCAD 2000
 90
        0
280
     0
281
     0
  0
ENDSEC
  0
SECTION
  2
TABLES
  0
TABLE
  2
VPORT
  5
8
330
0
100
AcDbSymbolTable
 70
     2
  0
VPORT
  5
48C
330
8
100
AcDbSymbolTableRecord
100
AcDbViewportTableRecord
  2
*Active
 70
     0
 10
0.0
 20
0.0
 11
1.0
 21
1.0
 12
146.0
 22
450.0
 13
0.0
 23
0.0
 14
1.0
 24
1.0
 15
0.0
 25
0.0
 16
0.0
 26
0.0
 36
1.0
 17
0.0
 27
0.0
 37
0.0
 40
905.6842105263157
 41
1.968387776606954
 42
50.0
 43
0.0
 44
0.0
 50
0.0
 51
0.0
 71
     0
 72
   100
 73
     1
 74
     3
 75
     0
 76
     0
 77
     0
 78
     0
281
     0
 65
     1
110
0.0
120
0.0
130
0.0
111
1.0
121
0.0
131
0.0
112
0.0
122
1.0
132
0.0
 79
     1
146
0.0
  0
ENDTAB
  0
TABLE
  2
LTYPE
  5
5
330
0
100
AcDbSymbolTable
 70
     1
  0
LTYPE
  5
13
330
5
100
AcDbSymbolTableRecord
100
AcDbLinetypeTableRecord
  2
ByBlock
 70
     0
  3

 72
    65
 73
     0
 40
0.0
  0
LTYPE
  5
14
330
5
100
AcDbSymbolTableRecord
100
AcDbLinetypeTableRecord
  2
ByLayer
 70
     0
  3

 72
    65
 73
     0
 40
0.0
  0
LTYPE
  5
15
330
5
100
AcDbSymbolTableRecord
100
AcDbLinetypeTableRecord
  2
Continuous
 70
     0
  3
Solid line
 72
    65
 73
     0
 40
0.0
  0
ENDTAB
  0
TABLE
  2
LAYER
  5
2
330
0
100
AcDbSymbolTable
 70
     1
  0
LAYER
  5
10
330
2
100
AcDbSymbolTableRecord
100
AcDbLayerTableRecord
  2
0
 70
     0
 62
     7
  6
Continuous
370
    -3
390
F
  0
ENDTAB
  0
TABLE
  2
STYLE
  5
3
330
0
100
AcDbSymbolTable
 70
     1
  0
STYLE
  5
11
330
3
100
AcDbSymbolTableRecord
100
AcDbTextStyleTableRecord
  2
Standard
 70
     0
 40
0.0
 41
1.0
 50
0.0
 71
     0
 42
0.2
  3
txt
  4

  0
ENDTAB
  0
TABLE
  2
VIEW
  5
6
330
0
100
AcDbSymbolTable
 70
     0
  0
ENDTAB
  0
TABLE
  2
UCS
  5
7
330
0
100
AcDbSymbolTable
 70
     0
  0
ENDTAB
  0
TABLE
  2
APPID
  5
9
330
0
100
AcDbSymbolTable
 70
     1
  0
APPID
  5
12
330
9
100
AcDbSymbolTableRecord
100
AcDbRegAppTableRecord
  2
ACAD
 70
     0
  0
ENDTAB
  0
TABLE
  2
DIMSTYLE
  5
A
330
0
100
AcDbSymbolTable
 70
     1
100
AcDbDimStyleTable
 71
     0
  0
DIMSTYLE
105
483
330
A
100
AcDbSymbolTableRecord
100
AcDbDimStyleTableRecord
  2
Standard
 70
     0
340
11
  0
ENDTAB
  0
TABLE
  2
BLOCK_RECORD
  5
1
330
0
100
AcDbSymbolTable
 70
     0
  0
BLOCK_RECORD
  5
1E
330
1
100
AcDbSymbolTableRecord
100
AcDbBlockTableRecord
  2
*Model_Space
340
21
  0
BLOCK_RECORD
  5
1A
330
1
100
AcDbSymbolTableRecord
100
AcDbBlockTableRecord
  2
*Paper_Space
340
1D
  0
ENDTAB
  0
ENDSEC
  0
SECTION
  2
BLOCKS
  0
BLOCK
  5
1F
330
1E
100
AcDbEntity
  8
0
100
AcDbBlockBegin
  2
*Model_Space
 70
     0
 10
0.0
 20
0.0
 30
0.0
  3
*Model_Space
  1

  0
ENDBLK
  5
20
330
1E
100
AcDbEntity
  8
0
100
AcDbBlockEnd
  0
BLOCK
  5
1B
330
1A
100
AcDbEntity
 67
     1
  8
0
100
AcDbBlockBegin
  2
*Paper_Space
 70
     0
 10
0.0
 20
0.0
 30
0.0
  3
*Paper_Space
  1

  0
ENDBLK
  5
1C
330
1A
100
AcDbEntity
 67
     1
  8
0
100
AcDbBlockEnd
  0
ENDSEC
  0
SECTION
  2
ENTITIES
  0
LINE
  5
22
330
1E
100
AcDbEntity
  8
0
100
AcDbLine
 10
97.55600000000001
 20
-0.000000000000006
 30
0.0
 11
104.372
 21
-0.0000000000000064
 31
0.0
  0
LINE
  5
23
330
1E
100
AcDbEntity
  8
0
100
AcDbLine
 10
40.0
 20
252.372
 30
0.0
 11
41.2
 21
233.245
 31
0.0
  0
LINE
  5
24
330
1E
100
AcDbEntity
  8
0
100
AcDbLine
 10
40.0
 20
252.372
 30
0.0
 11
41.2
 21
271.499
 31
0.0
  0
LINE
  5
25
330
1E
100
AcDbEntity
  8
0
100
AcDbLine
 10
25.2
 20
272.296
 30
0.0
 11
29.1
 21
295.607
 31
0.0
  0
LINE
  5
26
330
1E
100
AcDbEntity
  8
0
100
AcDbLine
 10
29.1
 20
295.607
 30
0.0
 11
35.6
 21
319.3159999999999
 31
0.0
  0
LINE
  5
27
330
1E
100
AcDbEntity
  8
0
100
AcDbLine
 10
41.2
 20
271.499
 30
0.0
 11
44.9
 21
292.8179999999999
 31
0.0
  0
LINE
  5
28
330
1E
100
AcDbEntity
  8
0
100
AcDbLine
 10
35.6
 20
319.3159999999999
 30
0.0
 11
46.29999999999999
 21
342.9259999999999
 31
0.0
  0
LINE
  5
29
330
1E
100
AcDbEntity
  8
0
100
AcDbLine
 10
24.0
 20
252.372
 30
0.0
 11
25.2
 21
232.4479999999999
 31
0.0
  0
LINE
  5
2A
330
1E
100
AcDbEntity
  8
0
100
AcDbLine
 10
24.0
 20
252.372
 30
0.0
 11
25.2
 21
272.296
 31
0.0
  0
LINE
  5
2B
330
1E
100
AcDbEntity
  8
0
100
AcDbLine
 10
44.9
 20
292.8179999999999
 30
0.0
 11
50.6
 21
313.837
 31
0.0
  0
LINE
  5
2C
330
1E
100
AcDbEntity
  8
0
100
AcDbLine
 10
41.2
 20
233.245
 30
0.0
 11
44.9
 21
211.927
 31
0.0
  0
LINE
  5
2D
330
1E
100
AcDbEntity
  8
0
100
AcDbLine
 10
25.2
 20
232.4479999999999
 30
0.0
 11
29.1
 21
209.1369999999999
 31
0.0
  0
LINE
  5
2E
330
1E
100
AcDbEntity
  8
0
100
AcDbLine
 10
46.29999999999999
 20
342.9259999999999
 30
0.0
 11
58.3
 21
365.0459999999999
 31
0.0
  0
LINE
  5
2F
330
1E
100
AcDbEntity
  8
0
100
AcDbLine
 10
44.9
 20
211.927
 30
0.0
 11
50.6
 21
190.907
 31
0.0
  0
LINE
  5
30
330
1E
100
AcDbEntity
  8
0
100
AcDbLine
 10
29.1
 20
209.1369999999999
 30
0.0
 11
35.6
 21
185.4279999999999
 31
0.0
  0
LINE
  5
32
330
1E
100
AcDbEntity
  8
0
100
AcDbLine
 10
50.6
 20
313.837
 30
0.0
 11
60.2
 21
334.9569999999999
 31
0.0
  0
LINE
  5
3A
330
1E
100
AcDbEntity
  8
0
100
AcDbLine
 10
58.3
 20
365.0459999999999
 30
0.0
 11
70.59999999999999
 21
386.563
 31
0.0
  0
LINE
  5
3C
330
1E
100
AcDbEntity
  8
0
100
AcDbLine
 10
50.6
 20
190.907
 30
0.0
 11
60.2
 21
169.7879999999999
 31
0.0
  0
LINE
  5
3D
330
1E
100
AcDbEntity
  8
0
100
AcDbLine
 10
35.6
 20
185.4279999999999
 30
0.0
 11
46.29999999999999
 21
161.8179999999999
 31
0.0
  0
LINE
  5
42
330
1E
100
AcDbEntity
  8
0
100
AcDbLine
 10
60.2
 20
334.9569999999999
 30
0.0
 11
70.5
 21
353.785
 31
0.0
  0
LINE
  5
4C
330
1E
100
AcDbEntity
  8
0
100
AcDbLine
 10
60.2
 20
169.7879999999999
 30
0.0
 11
70.5
 21
150.96
 31
0.0
  0
LINE
  5
4D
330
1E
100
AcDbEntity
  8
0
100
AcDbLine
 10
46.29999999999999
 20
161.8179999999999
 30
0.0
 11
58.3
 21
140.6989999999999
 31
0.0
  0
LINE
  5
4E
330
1E
100
AcDbEntity
  8
0
100
AcDbLine
 10
70.59999999999999
 20
386.563
 30
0.0
 11
79.59999999999999
 21
406.0889999999999
 31
0.0
  0
LINE
  5
4F
330
1E
100
AcDbEntity
  8
0
100
AcDbLine
 10
70.5
 20
353.785
 30
0.0
 11
83.59999999999999
 21
377.199
 31
0.0
  0
LINE
  5
50
330
1E
100
AcDbEntity
  8
0
100
AcDbLine
 10
70.5
 20
150.96
 30
0.0
 11
84.50000000000001
 21
136.0169999999999
 31
0.0
  0
LINE
  5
51
330
1E
100
AcDbEntity
  8
0
100
AcDbLine
 10
58.3
 20
140.6989999999999
 30
0.0
 11
74.2
 21
124.062
 31
0.0
  0
LINE
  5
52
330
1E
100
AcDbEntity
  8
0
100
AcDbLine
 10
79.59999999999999
 20
406.0889999999999
 30
0.0
 11
87.5
 21
428.8019999999999
 31
0.0
  0
LINE
  5
53
330
1E
100
AcDbEntity
  8
0
100
AcDbLine
 10
93.7
 20
453.109
 30
0.0
 11
98.3
 21
477.217
 31
0.0
  0
LINE
  5
54
330
1E
100
AcDbEntity
  8
0
100
AcDbLine
 10
87.5
 20
428.8019999999999
 30
0.0
 11
93.7
 21
453.109
 31
0.0
  0
LINE
  5
55
330
1E
100
AcDbEntity
  8
0
100
AcDbLine
 10
93.0
 20
397.4219999999999
 30
0.0
 11
101.4
 21
420.8319999999999
 31
0.0
  0
LINE
  5
56
330
1E
100
AcDbEntity
  8
0
100
AcDbLine
 10
83.59999999999999
 20
377.199
 30
0.0
 11
93.0
 21
397.4219999999999
 31
0.0
  0
LINE
  5
57
330
1E
100
AcDbEntity
  8
0
100
AcDbLine
 10
84.50000000000001
 20
136.0169999999999
 30
0.0
 11
102.2999999999999
 21
120.476
 31
0.0
  0
LINE
  5
58
330
1E
100
AcDbEntity
  8
0
100
AcDbLine
 10
74.2
 20
124.062
 30
0.0
 11
94.29999999999999
 21
106.6289999999999
 31
0.0
  0
LINE
  5
59
330
1E
100
AcDbEntity
  8
0
100
AcDbLine
 10
94.29999999999999
 20
106.6289999999999
 30
0.0
 11
114.3
 21
96.6669
 31
0.0
  0
LINE
  5
5A
330
1E
100
AcDbEntity
  8
0
100
AcDbLine
 10
98.3
 20
477.217
 30
0.0
 11
101.2
 21
498.8349999999999
 31
0.0
  0
LINE
  5
5B
330
1E
100
AcDbEntity
  8
0
100
AcDbLine
 10
99.26000000000001
 20
14.0
 30
0.0
 11
106.076
 21
14.0
 31
0.0
  0
LINE
  5
5C
330
1E
100
AcDbEntity
  8
0
100
AcDbLine
 10
96.704
 20
14.0
 30
0.0
 11
99.26000000000001
 21
14.0
 31
0.0
  0
LINE
  5
5D
330
1E
100
AcDbEntity
  8
0
100
AcDbLine
 10
97.55600000000001
 20
13.16
 30
0.0
 11
104.372
 21
13.16
 31
0.0
  0
LINE
  5
5E
330
1E
100
AcDbEntity
  8
0
100
AcDbLine
 10
95.0
 20
13.16
 30
0.0
 11
96.704
 21
14.0
 31
0.0
  0
LINE
  5
5F
330
1E
100
AcDbEntity
  8
0
100
AcDbLine
 10
95.0
 20
13.16
 30
0.0
 11
95.0
 21
-0.0000000000000062
 31
0.0
  0
LINE
  5
60
330
1E
100
AcDbEntity
  8
0
100
AcDbLine
 10
95.0
 20
13.16
 30
0.0
 11
97.55600000000001
 21
13.16
 31
0.0
  0
LINE
  5
61
330
1E
100
AcDbEntity
  8
0
100
AcDbLine
 10
95.0
 20
-0.0000000000000058
 30
0.0
 11
97.55600000000001
 21
-0.000000000000006
 31
0.0
  0
LINE
  5
62
330
1E
100
AcDbEntity
  8
0
100
AcDbLine
 10
95.0
 20
-0.0000000000000058
 30
0.0
 11
95.0
 21
13.16
 31
0.0
  0
LINE
  5
63
330
1E
100
AcDbEntity
  8
0
100
AcDbLine
 10
19.5
 20
733.0
 30
0.0
 11
21.23209999999999
 21
734.0
 31
0.0
  0
LINE
  5
64
330
1E
100
AcDbEntity
  8
0
100
AcDbLine
 10
20.2321911376242
 20
735.73205261839
 30
0.0
 11
59.2032
 21
758.232
 31
0.0
  0
LINE
  5
65
330
1E
100
AcDbEntity
  8
0
100
AcDbLine
 10
20.8821
 20
734.6060000000001
 30
0.0
 11
21.23209999999999
 21
734.0
 31
0.0
  0
LINE
  5
66
330
1E
100
AcDbEntity
  8
0
100
AcDbLine
 10
19.93209999999999
 20
736.2519999999999
 30
0.0
 11
20.8821
 21
734.6060000000001
 31
0.0
  0
LINE
  5
67
330
1E
100
AcDbEntity
  8
0
100
AcDbLine
 10
20.2321911376242
 20
735.73205261839
 30
0.0
 11
59.2032
 21
758.232
 31
0.0
  0
LINE
  5
68
330
1E
100
AcDbEntity
  8
0
100
AcDbLine
 10
19.0821
 20
737.7239999999999
 30
0.0
 11
19.93209999999999
 21
736.2519999999999
 31
0.0
  0
LINE
  5
69
330
1E
100
AcDbEntity
  8
0
100
AcDbLine
 10
19.15
 20
733.6060000000001
 30
0.0
 11
19.5
 21
733.0
 31
0.0
  0
LINE
  5
6A
330
1E
100
AcDbEntity
  8
0
100
AcDbLine
 10
18.2
 20
735.2519999999999
 30
0.0
 11
19.15
 21
733.6060000000001
 31
0.0
  0
LINE
  5
6B
330
1E
100
AcDbEntity
  8
0
100
AcDbLine
 10
15.8321
 20
743.3530000000001
 30
0.0
 11
17.68209999999999
 21
740.1489999999999
 31
0.0
  0
LINE
  5
6C
330
1E
100
AcDbEntity
  8
0
100
AcDbLine
 10
16.3321
 20
742.4869999999999
 30
0.0
 11
18.3821
 21
738.936
 31
0.0
  0
LINE
  5
6D
330
1E
100
AcDbEntity
  8
0
100
AcDbLine
 10
17.68209999999999
 20
740.1489999999999
 30
0.0
 11
19.0821
 21
737.7239999999999
 31
0.0
  0
LINE
  5
6E
330
1E
100
AcDbEntity
  8
0
100
AcDbLine
 10
100.0
 20
740.591
 30
0.0
 11
100.2639999999999
 21
740.0
 31
0.0
  0
LINE
  5
6F
330
1E
100
AcDbEntity
  8
0
100
AcDbLine
 10
100.0
 20
740.591
 30
0.0
 11
100.0
 21
756.0
 31
0.0
  0
LINE
  5
70
330
1E
100
AcDbEntity
  8
0
100
AcDbLine
 10
18.3821
 20
738.936
 30
0.0
 11
19.93209999999999
 21
736.2519999999999
 31
0.0
  0
LINE
  5
71
330
1E
100
AcDbEntity
  8
0
100
AcDbLine
 10
16.65
 20
737.936
 30
0.0
 11
18.2
 21
735.2519999999999
 31
0.0
  0
LINE
  5
72
330
1E
100
AcDbEntity
  8
0
100
AcDbLine
 10
14.59999999999999
 20
741.4869999999999
 30
0.0
 11
16.65
 21
737.936
 31
0.0
  0
LINE
  5
73
330
1E
100
AcDbEntity
  8
0
100
AcDbLine
 10
11.4821
 20
750.888
 30
0.0
 11
13.9821
 21
746.557
 31
0.0
  0
LINE
  5
74
330
1E
100
AcDbEntity
  8
0
100
AcDbLine
 10
9.750000000000008
 20
749.888
 30
0.0
 11
12.25
 21
745.557
 31
0.0
  0
LINE
  5
75
330
1E
100
AcDbEntity
  8
0
100
AcDbLine
 10
4.582050000000009
 20
762.8389999999999
 30
0.0
 11
6.632050000000009
 21
759.288
 31
0.0
  0
LINE
  5
76
330
1E
100
AcDbEntity
  8
0
100
AcDbLine
 10
2.850000000000009
 20
761.8389999999999
 30
0.0
 11
4.900000000000009
 21
758.288
 31
0.0
  0
LINE
  5
77
330
1E
100
AcDbEntity
  8
0
100
AcDbLine
 10
0.0000000000000144
 20
766.7749999999999
 30
0.0
 11
1.73205000000001
 21
767.7749999999999
 31
0.0
  0
LINE
  5
78
330
1E
100
AcDbEntity
  8
0
100
AcDbLine
 10
0.0000000000000146
 20
766.7749999999999
 30
0.0
 11
0.3500000000000151
 21
766.169
 31
0.0
  0
LINE
  5
79
330
1E
100
AcDbEntity
  8
0
100
AcDbLine
 10
0.0000000000000145
 20
766.7749999999999
 30
0.0
 11
0.3500000000000151
 21
766.169
 31
0.0
  0
LINE
  5
7A
330
1E
100
AcDbEntity
  8
0
100
AcDbLine
 10
0.0000000000000145
 20
766.7749999999999
 30
0.0
 11
1.73205000000001
 21
767.7749999999999
 31
0.0
  0
LINE
  5
7B
330
1E
100
AcDbEntity
  8
0
100
AcDbLine
 10
2.732050000000009
 20
766.0429999999999
 30
0.0
 11
41.7032
 21
788.543
 31
0.0
  0
LINE
  5
7C
330
1E
100
AcDbEntity
  8
0
100
AcDbLine
 10
2.082050000000009
 20
767.1689999999999
 30
0.0
 11
3.032050000000009
 21
765.523
 31
0.0
  0
LINE
  5
7D
330
1E
100
AcDbEntity
  8
0
100
AcDbLine
 10
3.032050000000009
 20
765.523
 30
0.0
 11
4.582050000000009
 21
762.8389999999999
 31
0.0
  0
LINE
  5
7E
330
1E
100
AcDbEntity
  8
0
100
AcDbLine
 10
2.732050000000009
 20
766.0429999999999
 30
0.0
 11
3.032050000000009
 21
765.523
 31
0.0
  0
LINE
  5
7F
330
1E
100
AcDbEntity
  8
0
100
AcDbLine
 10
2.732050000000009
 20
766.0429999999999
 30
0.0
 11
41.7032
 21
788.543
 31
0.0
  0
LINE
  5
80
330
1E
100
AcDbEntity
  8
0
100
AcDbLine
 10
1.73205000000001
 20
767.7749999999999
 30
0.0
 11
2.082050000000009
 21
767.1689999999999
 31
0.0
  0
LINE
  5
81
330
1E
100
AcDbEntity
  8
0
100
AcDbLine
 10
0.3500000000000151
 20
766.169
 30
0.0
 11
1.30000000000001
 21
764.523
 31
0.0
  0
LINE
  5
82
330
1E
100
AcDbEntity
  8
0
100
AcDbLine
 10
1.30000000000001
 20
764.523
 30
0.0
 11
2.850000000000009
 21
761.8389999999999
 31
0.0
  0
LINE
  5
83
330
1E
100
AcDbEntity
  8
0
100
AcDbLine
 10
6.632050000000009
 20
759.288
 30
0.0
 11
8.982050000000018
 21
755.218
 31
0.0
  0
LINE
  5
84
330
1E
100
AcDbEntity
  8
0
100
AcDbLine
 10
8.982050000000018
 20
755.218
 30
0.0
 11
11.4821
 21
750.888
 31
0.0
  0
LINE
  5
85
330
1E
100
AcDbEntity
  8
0
100
AcDbLine
 10
4.900000000000009
 20
758.288
 30
0.0
 11
7.250000000000009
 21
754.218
 31
0.0
  0
LINE
  5
86
330
1E
100
AcDbEntity
  8
0
100
AcDbLine
 10
7.250000000000009
 20
754.218
 30
0.0
 11
9.750000000000008
 21
749.888
 31
0.0
  0
LINE
  5
87
330
1E
100
AcDbEntity
  8
0
100
AcDbLine
 10
13.9821
 20
746.557
 30
0.0
 11
16.3321
 21
742.4869999999999
 31
0.0
  0
LINE
  5
88
330
1E
100
AcDbEntity
  8
0
100
AcDbLine
 10
54.80319999999999
 20
765.853
 30
0.0
 11
56.6532
 21
762.6489999999998
 31
0.0
  0
LINE
  5
89
330
1E
100
AcDbEntity
  8
0
100
AcDbLine
 10
56.6532
 20
762.6489999999998
 30
0.0
 11
58.0532
 21
760.2239999999999
 31
0.0
  0
LINE
  5
8A
330
1E
100
AcDbEntity
  8
0
100
AcDbLine
 10
58.0362
 20
761.253
 30
0.0
 11
58.8362
 21
759.868
 31
0.0
  0
LINE
  5
8B
330
1E
100
AcDbEntity
  8
0
100
AcDbLine
 10
56.6862
 20
763.5919999999999
 30
0.0
 11
58.0362
 21
761.253
 31
0.0
  0
LINE
  5
8C
330
1E
100
AcDbEntity
  8
0
100
AcDbLine
 10
57.5192
 20
763.1489999999999
 30
0.0
 11
58.91919999999999
 21
760.7239999999999
 31
0.0
  0
LINE
  5
8D
330
1E
100
AcDbEntity
  8
0
100
AcDbLine
 10
55.66919999999999
 20
766.353
 30
0.0
 11
57.5192
 21
763.1489999999999
 31
0.0
  0
LINE
  5
8E
330
1E
100
AcDbEntity
  8
0
100
AcDbLine
 10
50.4532
 20
773.388
 30
0.0
 11
52.7032
 21
769.49
 31
0.0
  0
LINE
  5
8F
330
1E
100
AcDbEntity
  8
0
100
AcDbLine
 10
50.8862
 20
773.638
 30
0.0
 11
53.0362
 21
769.9139999999999
 31
0.0
  0
LINE
  5
90
330
1E
100
AcDbEntity
  8
0
100
AcDbLine
 10
46.1032
 20
780.922
 30
0.0
 11
48.2032
 21
777.285
 31
0.0
  0
LINE
  5
91
330
1E
100
AcDbEntity
  8
0
100
AcDbLine
 10
46.7862
 20
780.7389999999998
 30
0.0
 11
48.73619999999999
 21
777.3610000000001
 31
0.0
  0
LINE
  5
92
330
1E
100
AcDbEntity
  8
0
100
AcDbLine
 10
46.9692
 20
781.422
 30
0.0
 11
49.0692
 21
777.7849999999999
 31
0.0
  0
LINE
  5
93
330
1E
100
AcDbEntity
  8
0
100
AcDbLine
 10
49.0692
 20
777.7849999999999
 30
0.0
 11
51.3192
 21
773.888
 31
0.0
  0
LINE
  5
94
330
1E
100
AcDbEntity
  8
0
100
AcDbLine
 10
48.73619999999999
 20
777.3610000000001
 30
0.0
 11
50.8862
 21
773.638
 31
0.0
  0
LINE
  5
95
330
1E
100
AcDbEntity
  8
0
100
AcDbLine
 10
48.2032
 20
777.285
 30
0.0
 11
50.4532
 21
773.388
 31
0.0
  0
LINE
  5
96
330
1E
100
AcDbEntity
  8
0
100
AcDbLine
 10
52.7032
 20
769.49
 30
0.0
 11
54.80319999999999
 21
765.853
 31
0.0
  0
LINE
  5
97
330
1E
100
AcDbEntity
  8
0
100
AcDbLine
 10
53.0362
 20
769.9139999999999
 30
0.0
 11
54.98619999999999
 21
766.536
 31
0.0
  0
LINE
  5
98
330
1E
100
AcDbEntity
  8
0
100
AcDbLine
 10
53.5692
 20
769.99
 30
0.0
 11
55.66919999999999
 21
766.353
 31
0.0
  0
LINE
  5
99
330
1E
100
AcDbEntity
  8
0
100
AcDbLine
 10
51.3192
 20
773.888
 30
0.0
 11
53.5692
 21
769.99
 31
0.0
  0
LINE
  5
9A
330
1E
100
AcDbEntity
  8
0
100
AcDbLine
 10
54.98619999999999
 20
766.536
 30
0.0
 11
56.6862
 21
763.5919999999999
 31
0.0
  0
LINE
  5
9B
330
1E
100
AcDbEntity
  8
0
100
AcDbLine
 10
58.9032
 20
758.7519999999999
 30
0.0
 11
59.2032
 21
758.232
 31
0.0
  0
LINE
  5
9C
330
1E
100
AcDbEntity
  8
0
100
AcDbLine
 10
59.76919999999999
 20
759.2519999999999
 30
0.0
 11
60.0692
 21
758.732
 31
0.0
  0
LINE
  5
9D
330
1E
100
AcDbEntity
  8
0
100
AcDbLine
 10
100.0
 20
756.0
 30
0.0
 11
100.0
 21
771.4089999999999
 31
0.0
  0
LINE
  5
9E
330
1E
100
AcDbEntity
  8
0
100
AcDbLine
 10
100.0
 20
756.0
 30
0.0
 11
100.0
 21
740.591
 31
0.0
  0
LINE
  5
9F
330
1E
100
AcDbEntity
  8
0
100
AcDbLine
 10
60.0692
 20
758.732
 30
0.0
 11
100.04006468802
 21
781.4483019394769
 31
0.0
  0
LINE
  5
A0
330
1E
100
AcDbEntity
  8
0
100
AcDbLine
 10
58.8362
 20
759.868
 30
0.0
 11
59.1362
 21
759.348
 31
0.0
  0
LINE
  5
A1
330
1E
100
AcDbEntity
  8
0
100
AcDbLine
 10
100.0
 20
771.4089999999999
 30
0.0
 11
100.0
 21
756.0
 31
0.0
  0
LINE
  5
A2
330
1E
100
AcDbEntity
  8
0
100
AcDbLine
 10
100.0
 20
771.4089999999999
 30
0.0
 11
100.2639999999999
 21
772.0
 31
0.0
  0
LINE
  5
A3
330
1E
100
AcDbEntity
  8
0
100
AcDbLine
 10
58.91919999999999
 20
760.7239999999999
 30
0.0
 11
59.76919999999999
 21
759.2519999999999
 31
0.0
  0
LINE
  5
A4
330
1E
100
AcDbEntity
  8
0
100
AcDbLine
 10
59.1362
 20
759.348
 30
0.0
 11
59.2032
 21
758.232
 31
0.0
  0
LINE
  5
A5
330
1E
100
AcDbEntity
  8
0
100
AcDbLine
 10
59.1362
 20
759.348
 30
0.0
 11
60.0692
 21
758.732
 31
0.0
  0
LINE
  5
A6
330
1E
100
AcDbEntity
  8
0
100
AcDbLine
 10
58.0532
 20
760.2239999999999
 30
0.0
 11
58.9032
 21
758.7519999999999
 31
0.0
  0
LINE
  5
A7
330
1E
100
AcDbEntity
  8
0
100
AcDbLine
 10
13.9340230766704
 20
746.640288461976
 30
0.0
 11
15.8321
 21
743.3530000000001
 31
0.0
  0
LINE
  5
A8
330
1E
100
AcDbEntity
  8
0
100
AcDbLine
 10
13.9340230766699
 20
746.6402884619769
 30
0.0
 11
15.8321
 21
743.3530000000001
 31
0.0
  0
LINE
  5
A9
330
1E
100
AcDbEntity
  8
0
100
AcDbLine
 10
12.25
 20
745.557
 30
0.0
 11
14.59999999999999
 21
741.4869999999999
 31
0.0
  0
LINE
  5
AA
330
1E
100
AcDbEntity
  8
0
100
AcDbLine
 10
100.0
 20
781.4255323157209
 30
0.0
 11
100.0
 21
772.0
 31
0.0
  0
LINE
  5
AB
330
1E
100
AcDbEntity
  8
0
100
AcDbLine
 10
42.0032
 20
788.023
 30
0.0
 11
42.8532
 21
786.551
 31
0.0
  0
LINE
  5
AC
330
1E
100
AcDbEntity
  8
0
100
AcDbLine
 10
41.7032
 20
788.543
 30
0.0
 11
42.6362
 21
787.9269999999999
 31
0.0
  0
LINE
  5
AD
330
1E
100
AcDbEntity
  8
0
100
AcDbLine
 10
41.7032
 20
788.543
 30
0.0
 11
42.0032
 21
788.023
 31
0.0
  0
LINE
  5
AE
330
1E
100
AcDbEntity
  8
0
100
AcDbLine
 10
45.08619999999999
 20
783.6829999999999
 30
0.0
 11
46.7862
 21
780.7389999999998
 31
0.0
  0
LINE
  5
AF
330
1E
100
AcDbEntity
  8
0
100
AcDbLine
 10
42.8532
 20
786.551
 30
0.0
 11
44.2532
 21
784.1260000000001
 31
0.0
  0
LINE
  5
B0
330
1E
100
AcDbEntity
  8
0
100
AcDbLine
 10
42.5692
 20
789.043
 30
0.0
 11
145.0
 21
848.0
 31
0.0
  0
LINE
  5
B1
330
1E
100
AcDbEntity
  8
0
100
AcDbLine
 10
42.6362
 20
787.9269999999999
 30
0.0
 11
42.93619999999999
 21
787.4069999999999
 31
0.0
  0
LINE
  5
B2
330
1E
100
AcDbEntity
  8
0
100
AcDbLine
 10
42.8692
 20
788.523
 30
0.0
 11
43.7192
 21
787.051
 31
0.0
  0
LINE
  5
B3
330
1E
100
AcDbEntity
  8
0
100
AcDbLine
 10
42.93619999999999
 20
787.4069999999999
 30
0.0
 11
43.73619999999999
 21
786.0219999999999
 31
0.0
  0
LINE
  5
B4
330
1E
100
AcDbEntity
  8
0
100
AcDbLine
 10
43.7192
 20
787.051
 30
0.0
 11
45.11919999999999
 21
784.626
 31
0.0
  0
LINE
  5
B5
330
1E
100
AcDbEntity
  8
0
100
AcDbLine
 10
43.73619999999999
 20
786.0219999999999
 30
0.0
 11
45.08619999999999
 21
783.6829999999999
 31
0.0
  0
LINE
  5
B6
330
1E
100
AcDbEntity
  8
0
100
AcDbLine
 10
45.11919999999999
 20
784.626
 30
0.0
 11
46.9692
 21
781.422
 31
0.0
  0
LINE
  5
B7
330
1E
100
AcDbEntity
  8
0
100
AcDbLine
 10
75.0
 20
887.0
 30
0.0
 11
145.1299999999999
 21
887.0
 31
0.0
  0
LINE
  5
B8
330
1E
100
AcDbEntity
  8
0
100
AcDbLine
 10
75.0
 20
887.0
 30
0.0
 11
75.0
 21
887.1
 31
0.0
  0
LINE
  5
B9
330
1E
100
AcDbEntity
  8
0
100
AcDbLine
 10
75.0
 20
887.1
 30
0.0
 11
75.0
 21
887.0
 31
0.0
  0
LINE
  5
BA
330
1E
100
AcDbEntity
  8
0
100
AcDbLine
 10
75.0
 20
887.1
 30
0.0
 11
75.0
 21
887.5
 31
0.0
  0
LINE
  5
BB
330
1E
100
AcDbEntity
  8
0
100
AcDbLine
 10
75.0
 20
887.5
 30
0.0
 11
75.0
 21
887.1
 31
0.0
  0
LINE
  5
BC
330
1E
100
AcDbEntity
  8
0
100
AcDbLine
 10
75.0
 20
887.5
 30
0.0
 11
75.0
 21
888.1
 31
0.0
  0
LINE
  5
BD
330
1E
100
AcDbEntity
  8
0
100
AcDbLine
 10
75.0
 20
888.1
 30
0.0
 11
75.0
 21
887.5
 31
0.0
  0
LINE
  5
BE
330
1E
100
AcDbEntity
  8
0
100
AcDbLine
 10
75.0
 20
888.1
 30
0.0
 11
75.0
 21
889.0
 31
0.0
  0
LINE
  5
BF
330
1E
100
AcDbEntity
  8
0
100
AcDbLine
 10
75.0
 20
889.0
 30
0.0
 11
75.0
 21
888.1
 31
0.0
  0
LINE
  5
C0
330
1E
100
AcDbEntity
  8
0
100
AcDbLine
 10
75.0
 20
889.0
 30
0.0
 11
75.0
 21
890.0
 31
0.0
  0
LINE
  5
C1
330
1E
100
AcDbEntity
  8
0
100
AcDbLine
 10
75.0
 20
890.0
 30
0.0
 11
75.0
 21
889.0
 31
0.0
  0
LINE
  5
C2
330
1E
100
AcDbEntity
  8
0
100
AcDbLine
 10
75.0
 20
890.0
 30
0.0
 11
75.0
 21
891.0
 31
0.0
  0
LINE
  5
C3
330
1E
100
AcDbEntity
  8
0
100
AcDbLine
 10
75.0
 20
894.8999999999999
 30
0.0
 11
75.0
 21
895.0
 31
0.0
  0
LINE
  5
C4
330
1E
100
AcDbEntity
  8
0
100
AcDbLine
 10
75.0
 20
894.8999999999999
 30
0.0
 11
75.0
 21
894.5
 31
0.0
  0
LINE
  5
C5
330
1E
100
AcDbEntity
  8
0
100
AcDbLine
 10
75.0
 20
895.0
 30
0.0
 11
145.1299999999999
 21
895.0
 31
0.0
  0
LINE
  5
C6
330
1E
100
AcDbEntity
  8
0
100
AcDbLine
 10
75.0
 20
895.0
 30
0.0
 11
75.0
 21
894.8999999999999
 31
0.0
  0
LINE
  5
C7
330
1E
100
AcDbEntity
  8
0
100
AcDbLine
 10
75.0
 20
894.5
 30
0.0
 11
75.0
 21
894.8999999999999
 31
0.0
  0
LINE
  5
C8
330
1E
100
AcDbEntity
  8
0
100
AcDbLine
 10
75.0
 20
894.5
 30
0.0
 11
75.0
 21
893.9
 31
0.0
  0
LINE
  5
C9
330
1E
100
AcDbEntity
  8
0
100
AcDbLine
 10
75.0
 20
893.9
 30
0.0
 11
75.0
 21
894.5
 31
0.0
  0
LINE
  5
CA
330
1E
100
AcDbEntity
  8
0
100
AcDbLine
 10
75.0
 20
893.9
 30
0.0
 11
75.0
 21
893.0
 31
0.0
  0
LINE
  5
CB
330
1E
100
AcDbEntity
  8
0
100
AcDbLine
 10
75.0
 20
893.0
 30
0.0
 11
75.0
 21
893.9
 31
0.0
  0
LINE
  5
CC
330
1E
100
AcDbEntity
  8
0
100
AcDbLine
 10
75.0
 20
893.0
 30
0.0
 11
75.0
 21
892.0
 31
0.0
  0
LINE
  5
CD
330
1E
100
AcDbEntity
  8
0
100
AcDbLine
 10
75.0
 20
892.0
 30
0.0
 11
75.0
 21
893.0
 31
0.0
  0
LINE
  5
CE
330
1E
100
AcDbEntity
  8
0
100
AcDbLine
 10
75.0
 20
892.0
 30
0.0
 11
75.0
 21
891.0
 31
0.0
  0
LINE
  5
CF
330
1E
100
AcDbEntity
  8
0
100
AcDbLine
 10
75.0
 20
891.0
 30
0.0
 11
75.0
 21
892.0
 31
0.0
  0
LINE
  5
D0
330
1E
100
AcDbEntity
  8
0
100
AcDbLine
 10
75.0
 20
891.0
 30
0.0
 11
75.0
 21
890.0
 31
0.0
  0
LINE
  5
D1
330
1E
100
AcDbEntity
  8
0
100
AcDbLine
 10
44.2532
 20
784.1260000000001
 30
0.0
 11
46.1032
 21
780.922
 31
0.0
  0
LINE
  5
D2
330
1E
100
AcDbEntity
  8
0
100
AcDbLine
 10
42.5692
 20
789.043
 30
0.0
 11
42.6362
 21
787.9269999999999
 31
0.0
  0
LINE
  5
D3
330
1E
100
AcDbEntity
  8
0
100
AcDbLine
 10
42.5692
 20
789.043
 30
0.0
 11
145.0
 21
848.0
 31
0.0
  0
LINE
  5
D4
330
1E
100
AcDbEntity
  8
0
100
AcDbLine
 10
42.5692
 20
789.043
 30
0.0
 11
42.8692
 21
788.523
 31
0.0
  0
LINE
  5
D5
330
1E
100
AcDbEntity
  8
0
100
AcDbLine
 10
115.732
 20
-0.0000000000000071
 30
0.0
 11
130.7839999999999
 21
-0.000000000000008
 31
0.0
  0
LINE
  5
D6
330
1E
100
AcDbEntity
  8
0
100
AcDbLine
 10
100.2639999999999
 20
740.0
 30
0.0
 11
100.6599999999999
 21
740.0
 31
0.0
  0
LINE
  5
D7
330
1E
100
AcDbEntity
  8
0
100
AcDbLine
 10
101.2
 20
498.8349999999999
 30
0.0
 11
103.0
 21
530.3139999999999
 31
0.0
  0
LINE
  5
D8
330
1E
100
AcDbEntity
  8
0
100
AcDbLine
 10
101.4
 20
420.8319999999999
 30
0.0
 11
108.2
 21
446.435
 31
0.0
  0
LINE
  5
D9
330
1E
100
AcDbEntity
  8
0
100
AcDbLine
 10
100.6599999999999
 20
740.0
 30
0.0
 11
101.716
 21
740.0
 31
0.0
  0
LINE
  5
DA
330
1E
100
AcDbEntity
  8
0
100
AcDbLine
 10
100.6599999999999
 20
772.0
 30
0.0
 11
101.716
 21
772.0
 31
0.0
  0
LINE
  5
DB
330
1E
100
AcDbEntity
  8
0
100
AcDbLine
 10
100.2639999999999
 20
772.0
 30
0.0
 11
100.6599999999999
 21
772.0
 31
0.0
  0
LINE
  5
DC
330
1E
100
AcDbEntity
  8
0
100
AcDbLine
 10
100.4
 20
772.0
 30
0.0
 11
101.5
 21
772.0
 31
0.0
  0
LINE
  5
DD
330
1E
100
AcDbEntity
  8
0
100
AcDbLine
 10
103.0
 20
740.0
 30
0.0
 11
103.6
 21
740.0
 31
0.0
  0
LINE
  5
DE
330
1E
100
AcDbEntity
  8
0
100
AcDbLine
 10
103.0
 20
530.3139999999999
 30
0.0
 11
103.0
 21
740.0
 31
0.0
  0
LINE
  5
DF
330
1E
100
AcDbEntity
  8
0
100
AcDbLine
 10
102.2999999999999
 20
120.476
 30
0.0
 11
119.7999999999999
 21
111.61
 31
0.0
  0
LINE
  5
E0
330
1E
100
AcDbEntity
  8
0
100
AcDbLine
 10
103.432
 20
740.0
 30
0.0
 11
105.676
 21
740.0
 31
0.0
  0
LINE
  5
E1
330
1E
100
AcDbEntity
  8
0
100
AcDbLine
 10
101.716
 20
740.0
 30
0.0
 11
103.0
 21
740.0
 31
0.0
  0
LINE
  5
E2
330
1E
100
AcDbEntity
  8
0
100
AcDbLine
 10
101.716
 20
740.0
 30
0.0
 11
103.432
 21
740.0
 31
0.0
  0
LINE
  5
E3
330
1E
100
AcDbEntity
  8
0
100
AcDbLine
 10
103.6
 20
740.0
 30
0.0
 11
105.4
 21
740.0
 31
0.0
  0
LINE
  5
E4
330
1E
100
AcDbEntity
  8
0
100
AcDbLine
 10
103.432
 20
772.0
 30
0.0
 11
105.676
 21
772.0
 31
0.0
  0
LINE
  5
E5
330
1E
100
AcDbEntity
  8
0
100
AcDbLine
 10
101.716
 20
772.0
 30
0.0
 11
103.432
 21
772.0
 31
0.0
  0
LINE
  5
E6
330
1E
100
AcDbEntity
  8
0
100
AcDbLine
 10
101.5
 20
772.0
 30
0.0
 11
103.2
 21
772.0
 31
0.0
  0
LINE
  5
E7
330
1E
100
AcDbEntity
  8
0
100
AcDbLine
 10
103.2
 20
772.0
 30
0.0
 11
105.4999999999999
 21
772.0
 31
0.0
  0
LINE
  5
E8
330
1E
100
AcDbEntity
  8
0
100
AcDbLine
 10
105.4
 20
740.0
 30
0.0
 11
110.3029999999999
 21
740.0
 31
0.0
  0
LINE
  5
E9
330
1E
100
AcDbEntity
  8
0
100
AcDbLine
 10
105.676
 20
740.0
 30
0.0
 11
108.2279999999999
 21
740.0
 31
0.0
  0
LINE
  5
EA
330
1E
100
AcDbEntity
  8
0
100
AcDbLine
 10
110.3029999999999
 20
740.0
 30
0.0
 11
111.0
 21
740.0
 31
0.0
  0
LINE
  5
EB
330
1E
100
AcDbEntity
  8
0
100
AcDbLine
 10
108.2
 20
446.435
 30
0.0
 11
113.3
 21
471.738
 31
0.0
  0
LINE
  5
EC
330
1E
100
AcDbEntity
  8
0
100
AcDbLine
 10
108.2279999999999
 20
740.0
 30
0.0
 11
111.0
 21
740.0
 31
0.0
  0
LINE
  5
ED
330
1E
100
AcDbEntity
  8
0
100
AcDbLine
 10
113.3
 20
471.738
 30
0.0
 11
117.0
 21
496.045
 31
0.0
  0
LINE
  5
EE
330
1E
100
AcDbEntity
  8
0
100
AcDbLine
 10
111.0
 20
740.0
 30
0.0
 11
113.772
 21
740.0
 31
0.0
  0
LINE
  5
EF
330
1E
100
AcDbEntity
  8
0
100
AcDbLine
 10
111.0
 20
740.0
 30
0.0
 11
114.1
 21
740.0
 31
0.0
  0
LINE
  5
F0
330
1E
100
AcDbEntity
  8
0
100
AcDbLine
 10
113.772
 20
740.0
 30
0.0
 11
116.324
 21
740.0
 31
0.0
  0
LINE
  5
F1
330
1E
100
AcDbEntity
  8
0
100
AcDbLine
 10
113.772
 20
772.0
 30
0.0
 11
116.324
 21
772.0
 31
0.0
  0
LINE
  5
F2
330
1E
100
AcDbEntity
  8
0
100
AcDbLine
 10
108.2279999999999
 20
772.0
 30
0.0
 11
111.0
 21
772.0
 31
0.0
  0
LINE
  5
F3
330
1E
100
AcDbEntity
  8
0
100
AcDbLine
 10
105.676
 20
772.0
 30
0.0
 11
108.2279999999999
 21
772.0
 31
0.0
  0
LINE
  5
F4
330
1E
100
AcDbEntity
  8
0
100
AcDbLine
 10
106.076
 20
14.0
 30
0.0
 11
117.152
 21
14.0
 31
0.0
  0
LINE
  5
F5
330
1E
100
AcDbEntity
  8
0
100
AcDbLine
 10
105.4999999999999
 20
772.0
 30
0.0
 11
108.2
 21
772.0
 31
0.0
  0
LINE
  5
F6
330
1E
100
AcDbEntity
  8
0
100
AcDbLine
 10
108.2
 20
772.0
 30
0.0
 11
111.0
 21
772.0
 31
0.0
  0
LINE
  5
F7
330
1E
100
AcDbEntity
  8
0
100
AcDbLine
 10
114.1
 20
740.0
 30
0.0
 11
116.5999999999999
 21
740.0
 31
0.0
  0
LINE
  5
F8
330
1E
100
AcDbEntity
  8
0
100
AcDbLine
 10
114.3
 20
96.6669
 30
0.0
 11
137.0
 21
89.79319999999999
 31
0.0
  0
LINE
  5
F9
330
1E
100
AcDbEntity
  8
0
100
AcDbLine
 10
116.5999999999999
 20
740.0
 30
0.0
 11
118.4
 21
740.0
 31
0.0
  0
LINE
  5
FA
330
1E
100
AcDbEntity
  8
0
100
AcDbLine
 10
117.0
 20
496.045
 30
0.0
 11
119.0
 21
530.3139999999999
 31
0.0
  0
LINE
  5
FB
330
1E
100
AcDbEntity
  8
0
100
AcDbLine
 10
116.324
 20
740.0
 30
0.0
 11
118.568
 21
740.0
 31
0.0
  0
LINE
  5
FC
330
1E
100
AcDbEntity
  8
0
100
AcDbLine
 10
116.324
 20
772.0
 30
0.0
 11
118.568
 21
772.0
 31
0.0
  0
LINE
  5
FD
330
1E
100
AcDbEntity
  8
0
100
AcDbLine
 10
118.4
 20
740.0
 30
0.0
 11
119.0
 21
740.0
 31
0.0
  0
LINE
  5
FE
330
1E
100
AcDbEntity
  8
0
100
AcDbLine
 10
118.568
 20
740.0
 30
0.0
 11
120.2839999999999
 21
740.0
 31
0.0
  0
LINE
  5
FF
330
1E
100
AcDbEntity
  8
0
100
AcDbLine
 10
118.568
 20
772.0
 30
0.0
 11
120.2839999999999
 21
772.0
 31
0.0
  0
LINE
  5
100
330
1E
100
AcDbEntity
  8
0
100
AcDbLine
 10
117.152
 20
14.0
 30
0.0
 11
131.6359999999999
 21
14.0
 31
0.0
  0
LINE
  5
101
330
1E
100
AcDbEntity
  8
0
100
AcDbLine
 10
115.732
 20
13.16
 30
0.0
 11
130.7839999999999
 21
13.16
 31
0.0
  0
LINE
  5
102
330
1E
100
AcDbEntity
  8
0
100
AcDbLine
 10
119.0
 20
530.3139999999999
 30
0.0
 11
119.0
 21
740.0
 31
0.0
  0
LINE
  5
103
330
1E
100
AcDbEntity
  8
0
100
AcDbLine
 10
119.7999999999999
 20
111.61
 30
0.0
 11
139.8
 21
105.5329999999999
 31
0.0
  0
LINE
  5
104
330
1E
100
AcDbEntity
  8
0
100
AcDbLine
 10
119.0
 20
740.0
 30
0.0
 11
120.2839999999999
 21
740.0
 31
0.0
  0
LINE
  5
105
330
1E
100
AcDbEntity
  8
0
100
AcDbLine
 10
120.2839999999999
 20
740.0
 30
0.0
 11
121.34
 21
740.0
 31
0.0
  0
LINE
  5
106
330
1E
100
AcDbEntity
  8
0
100
AcDbLine
 10
121.34
 20
740.0
 30
0.0
 11
121.7359999999999
 21
740.0
 31
0.0
  0
LINE
  5
107
330
1E
100
AcDbEntity
  8
0
100
AcDbLine
 10
120.2839999999999
 20
772.0
 30
0.0
 11
121.34
 21
772.0
 31
0.0
  0
LINE
  5
108
330
1E
100
AcDbEntity
  8
0
100
AcDbLine
 10
121.34
 20
772.0
 30
0.0
 11
121.7359999999999
 21
772.0
 31
0.0
  0
LINE
  5
109
330
1E
100
AcDbEntity
  8
0
100
AcDbLine
 10
121.7359999999999
 20
740.0
 30
0.0
 11
122.0
 21
740.591
 31
0.0
  0
LINE
  5
10A
330
1E
100
AcDbEntity
  8
0
100
AcDbLine
 10
121.5999999999999
 20
772.0
 30
0.0
 11
122.0
 21
772.0
 31
0.0
  0
LINE
  5
10B
330
1E
100
AcDbEntity
  8
0
100
AcDbLine
 10
120.5
 20
772.0
 30
0.0
 11
121.5999999999999
 21
772.0
 31
0.0
  0
LINE
  5
10C
330
1E
100
AcDbEntity
  8
0
100
AcDbLine
 10
118.7999999999999
 20
772.0
 30
0.0
 11
120.5
 21
772.0
 31
0.0
  0
LINE
  5
10D
330
1E
100
AcDbEntity
  8
0
100
AcDbLine
 10
116.5
 20
772.0
 30
0.0
 11
118.7999999999999
 21
772.0
 31
0.0
  0
LINE
  5
10E
330
1E
100
AcDbEntity
  8
0
100
AcDbLine
 10
113.7999999999999
 20
772.0
 30
0.0
 11
116.5
 21
772.0
 31
0.0
  0
LINE
  5
10F
330
1E
100
AcDbEntity
  8
0
100
AcDbLine
 10
111.0
 20
772.0
 30
0.0
 11
113.7999999999999
 21
772.0
 31
0.0
  0
LINE
  5
110
330
1E
100
AcDbEntity
  8
0
100
AcDbLine
 10
111.0
 20
772.0
 30
0.0
 11
113.772
 21
772.0
 31
0.0
  0
LINE
  5
111
330
1E
100
AcDbEntity
  8
0
100
AcDbLine
 10
104.372
 20
13.16
 30
0.0
 11
115.732
 21
13.16
 31
0.0
  0
LINE
  5
112
330
1E
100
AcDbEntity
  8
0
100
AcDbLine
 10
104.372
 20
-0.0000000000000064
 30
0.0
 11
115.732
 21
-0.0000000000000071
 31
0.0
  0
LINE
  5
113
330
1E
100
AcDbEntity
  8
0
100
AcDbLine
 10
147.8239999999999
 20
-0.0000000000000091
 30
0.0
 11
166.0
 21
-0.0000000000000102
 31
0.0
  0
LINE
  5
114
330
1E
100
AcDbEntity
  8
0
100
AcDbLine
 10
122.0
 20
740.591
 30
0.0
 11
122.0
 21
756.0
 31
0.0
  0
LINE
  5
115
330
1E
100
AcDbEntity
  8
0
100
AcDbLine
 10
122.0
 20
771.4089999999999
 30
0.0
 11
122.0
 21
756.0
 31
0.0
  0
LINE
  5
116
330
1E
100
AcDbEntity
  8
0
100
AcDbLine
 10
122.0
 20
756.0
 30
0.0
 11
122.0
 21
771.4089999999999
 31
0.0
  0
LINE
  5
117
330
1E
100
AcDbEntity
  8
0
100
AcDbLine
 10
122.0
 20
756.0
 30
0.0
 11
122.0
 21
740.591
 31
0.0
  0
LINE
  5
118
330
1E
100
AcDbEntity
  8
0
100
AcDbLine
 10
139.8
 20
105.5329999999999
 30
0.0
 11
145.0
 21
105.0510930232559
 31
0.0
  0
LINE
  5
119
330
1E
100
AcDbEntity
  8
0
100
AcDbLine
 10
137.0
 20
89.79319999999999
 30
0.0
 11
145.0
 21
89.07591999999999
 31
0.0
  0
LINE
  5
11A
330
1E
100
AcDbEntity
  8
0
100
AcDbLine
 10
131.6359999999999
 20
14.0
 30
0.0
 11
148.108
 21
14.0
 31
0.0
  0
LINE
  5
11B
330
1E
100
AcDbEntity
  8
0
100
AcDbLine
 10
130.7839999999999
 20
13.16
 30
0.0
 11
147.8239999999999
 21
13.16
 31
0.0
  0
LINE
  5
11C
330
1E
100
AcDbEntity
  8
0
100
AcDbLine
 10
147.8239999999999
 20
13.16
 30
0.0
 11
166.0
 21
13.16
 31
0.0
  0
LINE
  5
11D
330
1E
100
AcDbEntity
  8
0
100
AcDbLine
 10
160.6239999999999
 20
14.0
 30
0.0
 11
166.0
 21
14.0
 31
0.0
  0
LINE
  5
11E
330
1E
100
AcDbEntity
  8
0
100
AcDbLine
 10
166.0
 20
14.0
 30
0.0
 11
183.8919999999999
 21
14.0
 31
0.0
  0
LINE
  5
11F
330
1E
100
AcDbEntity
  8
0
100
AcDbLine
 10
166.0
 20
13.16
 30
0.0
 11
184.1759999999999
 21
13.16
 31
0.0
  0
LINE
  5
120
330
1E
100
AcDbEntity
  8
0
100
AcDbLine
 10
155.584
 20
14.0
 30
0.0
 11
160.6239999999999
 21
14.0
 31
0.0
  0
LINE
  5
121
330
1E
100
AcDbEntity
  8
0
100
AcDbLine
 10
151.1319999999999
 20
14.0
 30
0.0
 11
155.584
 21
14.0
 31
0.0
  0
LINE
  5
122
330
1E
100
AcDbEntity
  8
0
100
AcDbLine
 10
145.0
 20
660.422
 30
0.0
 11
145.4209999999999
 21
660.0
 31
0.0
  0
LINE
  5
123
330
1E
100
AcDbEntity
  8
0
100
AcDbLine
 10
145.0
 20
660.422
 30
0.0
 11
145.0
 21
807.0
 31
0.0
  0
LINE
  5
124
330
1E
100
AcDbEntity
  8
0
100
AcDbLine
 10
145.0
 20
660.422
 30
0.0
 11
145.7559999999999
 21
660.422
 31
0.0
  0
LINE
  5
125
330
1E
100
AcDbEntity
  8
0
100
AcDbLine
 10
145.7559999999999
 20
659.5779999999999
 30
0.0
 11
147.772
 21
659.5779999999999
 31
0.0
  0
LINE
  5
126
330
1E
100
AcDbEntity
  8
0
100
AcDbLine
 10
151.1319999999999
 20
659.5779999999999
 30
0.0
 11
155.584
 21
659.5779999999999
 31
0.0
  0
LINE
  5
127
330
1E
100
AcDbEntity
  8
0
100
AcDbLine
 10
147.772
 20
659.5779999999999
 30
0.0
 11
151.1319999999999
 21
659.5779999999999
 31
0.0
  0
LINE
  5
128
330
1E
100
AcDbEntity
  8
0
100
AcDbLine
 10
155.584
 20
659.5779999999999
 30
0.0
 11
160.6239999999999
 21
659.5779999999999
 31
0.0
  0
LINE
  5
129
330
1E
100
AcDbEntity
  8
0
100
AcDbLine
 10
151.483
 20
660.0
 30
0.0
 11
155.7949999999999
 21
660.0
 31
0.0
  0
LINE
  5
12A
330
1E
100
AcDbEntity
  8
0
100
AcDbLine
 10
148.193
 20
660.0
 30
0.0
 11
151.483
 21
660.0
 31
0.0
  0
LINE
  5
12B
330
1E
100
AcDbEntity
  8
0
100
AcDbLine
 10
146.177
 20
660.0
 30
0.0
 11
148.193
 21
660.0
 31
0.0
  0
LINE
  5
12C
330
1E
100
AcDbEntity
  8
0
100
AcDbLine
 10
147.772
 20
660.422
 30
0.0
 11
151.1319999999999
 21
660.422
 31
0.0
  0
LINE
  5
12D
330
1E
100
AcDbEntity
  8
0
100
AcDbLine
 10
145.7559999999999
 20
660.422
 30
0.0
 11
147.772
 21
660.422
 31
0.0
  0
LINE
  5
12E
330
1E
100
AcDbEntity
  8
0
100
AcDbLine
 10
145.4209999999999
 20
660.0
 30
0.0
 11
146.177
 21
660.0
 31
0.0
  0
LINE
  5
12F
330
1E
100
AcDbEntity
  8
0
100
AcDbLine
 10
160.6239999999999
 20
659.5779999999999
 30
0.0
 11
166.0
 21
659.5779999999999
 31
0.0
  0
LINE
  5
130
330
1E
100
AcDbEntity
  8
0
100
AcDbLine
 10
160.6939999999999
 20
660.0
 30
0.0
 11
166.0
 21
660.0
 31
0.0
  0
LINE
  5
131
330
1E
100
AcDbEntity
  8
0
100
AcDbLine
 10
155.7949999999999
 20
660.0
 30
0.0
 11
160.6939999999999
 21
660.0
 31
0.0
  0
LINE
  5
132
330
1E
100
AcDbEntity
  8
0
100
AcDbLine
 10
160.6239999999999
 20
660.422
 30
0.0
 11
166.0
 21
660.422
 31
0.0
  0
LINE
  5
133
330
1E
100
AcDbEntity
  8
0
100
AcDbLine
 10
155.584
 20
660.422
 30
0.0
 11
160.6239999999999
 21
660.422
 31
0.0
  0
LINE
  5
134
330
1E
100
AcDbEntity
  8
0
100
AcDbLine
 10
151.1319999999999
 20
660.422
 30
0.0
 11
155.584
 21
660.422
 31
0.0
  0
LINE
  5
135
330
1E
100
AcDbEntity
  8
0
100
AcDbLine
 10
145.0
 20
659.5779999999999
 30
0.0
 11
145.4209999999999
 21
660.0
 31
0.0
  0
LINE
  5
136
330
1E
100
AcDbEntity
  8
0
100
AcDbLine
 10
145.0
 20
659.5779999999999
 30
0.0
 11
145.7559999999999
 21
659.5779999999999
 31
0.0
  0
LINE
  5
137
330
1E
100
AcDbEntity
  8
0
100
AcDbLine
 10
148.108
 20
14.0
 30
0.0
 11
151.1319999999999
 21
14.0
 31
0.0
  0
LINE
  5
138
330
1E
100
AcDbEntity
  8
0
100
AcDbLine
 10
148.108
 20
14.0
 30
0.0
 11
166.0
 21
14.0
 31
0.0
  0
LINE
  5
139
330
1E
100
AcDbEntity
  8
0
100
AcDbLine
 10
145.0
 20
14.0
 30
0.0
 11
145.0
 21
659.5779999999999
 31
0.0
  0
LINE
  5
13A
330
1E
100
AcDbEntity
  8
0
100
AcDbLine
 10
130.7839999999999
 20
-0.000000000000008
 30
0.0
 11
147.8239999999999
 21
-0.0000000000000091
 31
0.0
  0
LINE
  5
13B
330
1E
100
AcDbEntity
  8
0
100
AcDbLine
 10
184.1759999999999
 20
13.16
 30
0.0
 11
201.2159999999999
 21
13.16
 31
0.0
  0
LINE
  5
13C
330
1E
100
AcDbEntity
  8
0
100
AcDbLine
 10
183.8919999999999
 20
14.0
 30
0.0
 11
184.2279999999999
 21
14.0
 31
0.0
  0
LINE
  5
13D
330
1E
100
AcDbEntity
  8
0
100
AcDbLine
 10
183.8919999999999
 20
14.0
 30
0.0
 11
200.3639999999999
 21
14.0
 31
0.0
  0
LINE
  5
13E
330
1E
100
AcDbEntity
  8
0
100
AcDbLine
 10
187.0
 20
14.0
 30
0.0
 11
187.0
 21
619.5
 31
0.0
  0
LINE
  5
13F
330
1E
100
AcDbEntity
  8
0
100
AcDbLine
 10
200.3639999999999
 20
14.0
 30
0.0
 11
214.8479999999999
 21
14.0
 31
0.0
  0
LINE
  5
140
330
1E
100
AcDbEntity
  8
0
100
AcDbLine
 10
201.2159999999999
 20
13.16
 30
0.0
 11
216.2679999999999
 21
13.16
 31
0.0
  0
LINE
  5
141
330
1E
100
AcDbEntity
  8
0
100
AcDbLine
 10
184.2279999999999
 20
14.0
 30
0.0
 11
186.244
 21
14.0
 31
0.0
  0
LINE
  5
142
330
1E
100
AcDbEntity
  8
0
100
AcDbLine
 10
166.0
 20
659.5779999999999
 30
0.0
 11
171.3759999999999
 21
659.5779999999999
 31
0.0
  0
LINE
  5
143
330
1E
100
AcDbEntity
  8
0
100
AcDbLine
 10
166.0
 20
660.0
 30
0.0
 11
171.3059999999999
 21
660.0
 31
0.0
  0
LINE
  5
144
330
1E
100
AcDbEntity
  8
0
100
AcDbLine
 10
171.3759999999999
 20
659.5779999999999
 30
0.0
 11
176.4159999999999
 21
659.5779999999999
 31
0.0
  0
LINE
  5
145
330
1E
100
AcDbEntity
  8
0
100
AcDbLine
 10
176.4159999999999
 20
659.5779999999999
 30
0.0
 11
180.868
 21
659.5779999999999
 31
0.0
  0
LINE
  5
146
330
1E
100
AcDbEntity
  8
0
100
AcDbLine
 10
171.3059999999999
 20
660.0
 30
0.0
 11
176.205
 21
660.0
 31
0.0
  0
LINE
  5
147
330
1E
100
AcDbEntity
  8
0
100
AcDbLine
 10
176.205
 20
660.0
 30
0.0
 11
180.517
 21
660.0
 31
0.0
  0
LINE
  5
148
330
1E
100
AcDbEntity
  8
0
100
AcDbLine
 10
166.0
 20
660.422
 30
0.0
 11
171.3759999999999
 21
660.422
 31
0.0
  0
LINE
  5
149
330
1E
100
AcDbEntity
  8
0
100
AcDbLine
 10
171.3759999999999
 20
660.422
 30
0.0
 11
176.4159999999999
 21
660.422
 31
0.0
  0
LINE
  5
14A
330
1E
100
AcDbEntity
  8
0
100
AcDbLine
 10
184.2279999999999
 20
659.4999999999999
 30
0.0
 11
194.2999999999999
 21
659.4999999999999
 31
0.0
  0
LINE
  5
14B
330
1E
100
AcDbEntity
  8
0
100
AcDbLine
 10
184.2279999999999
 20
619.5
 30
0.0
 11
194.2999999999999
 21
619.5
 31
0.0
  0
LINE
  5
14C
330
1E
100
AcDbEntity
  8
0
100
AcDbLine
 10
180.868
 20
659.5779999999999
 30
0.0
 11
184.2279999999999
 21
659.5779999999999
 31
0.0
  0
LINE
  5
14D
330
1E
100
AcDbEntity
  8
0
100
AcDbLine
 10
184.2279999999999
 20
659.5779999999999
 30
0.0
 11
186.244
 21
659.5779999999999
 31
0.0
  0
LINE
  5
14E
330
1E
100
AcDbEntity
  8
0
100
AcDbLine
 10
180.517
 20
660.0
 30
0.0
 11
183.807
 21
660.0
 31
0.0
  0
LINE
  5
14F
330
1E
100
AcDbEntity
  8
0
100
AcDbLine
 10
183.807
 20
660.0
 30
0.0
 11
185.8229999999999
 21
660.0
 31
0.0
  0
LINE
  5
150
330
1E
100
AcDbEntity
  8
0
100
AcDbLine
 10
176.4159999999999
 20
660.422
 30
0.0
 11
180.868
 21
660.422
 31
0.0
  0
LINE
  5
151
330
1E
100
AcDbEntity
  8
0
100
AcDbLine
 10
180.868
 20
660.422
 30
0.0
 11
184.2279999999999
 21
660.422
 31
0.0
  0
LINE
  5
152
330
1E
100
AcDbEntity
  8
0
100
AcDbLine
 10
186.244
 20
659.5779999999999
 30
0.0
 11
187.0
 21
659.5779999999999
 31
0.0
  0
LINE
  5
153
330
1E
100
AcDbEntity
  8
0
100
AcDbLine
 10
185.8229999999999
 20
660.0
 30
0.0
 11
186.579
 21
660.0
 31
0.0
  0
LINE
  5
154
330
1E
100
AcDbEntity
  8
0
100
AcDbLine
 10
184.2279999999999
 20
660.422
 30
0.0
 11
186.244
 21
660.422
 31
0.0
  0
LINE
  5
155
330
1E
100
AcDbEntity
  8
0
100
AcDbLine
 10
186.244
 20
660.422
 30
0.0
 11
187.0
 21
660.422
 31
0.0
  0
LINE
  5
156
330
1E
100
AcDbEntity
  8
0
100
AcDbLine
 10
187.0
 20
619.5
 30
0.0
 11
194.2999999999999
 21
619.5
 31
0.0
  0
LINE
  5
157
330
1E
100
AcDbEntity
  8
0
100
AcDbLine
 10
187.0
 20
108.81458
 30
0.0
 11
196.1999999999999
 21
111.61
 31
0.0
  0
LINE
  5
158
330
1E
100
AcDbEntity
  8
0
100
AcDbLine
 10
187.0
 20
92.21564933920701
 30
0.0
 11
201.6999999999999
 21
96.6669
 31
0.0
  0
LINE
  5
159
330
1E
100
AcDbEntity
  8
0
100
AcDbLine
 10
187.0
 20
659.4999999999999
 30
0.0
 11
187.0
 21
659.5779999999999
 31
0.0
  0
LINE
  5
15A
330
1E
100
AcDbEntity
  8
0
100
AcDbLine
 10
187.0
 20
660.422
 30
0.0
 11
187.0
 21
852.0
 31
0.0
  0
LINE
  5
15B
330
1E
100
AcDbEntity
  8
0
100
AcDbLine
 10
186.579
 20
660.0
 30
0.0
 11
187.0
 21
659.5779999999999
 31
0.0
  0
LINE
  5
15C
330
1E
100
AcDbEntity
  8
0
100
AcDbLine
 10
186.579
 20
660.0
 30
0.0
 11
187.0
 21
660.422
 31
0.0
  0
LINE
  5
15D
330
1E
100
AcDbEntity
  8
0
100
AcDbLine
 10
187.0
 20
14.0
 30
0.0
 11
187.0
 21
619.5
 31
0.0
  0
LINE
  5
15E
330
1E
100
AcDbEntity
  8
0
100
AcDbLine
 10
194.0
 20
619.5
 30
0.0
 11
194.4
 21
619.5
 31
0.0
  0
LINE
  5
15F
330
1E
100
AcDbEntity
  8
0
100
AcDbLine
 10
194.4
 20
619.5
 30
0.0
 11
195.5999999999999
 21
619.5
 31
0.0
  0
LINE
  5
160
330
1E
100
AcDbEntity
  8
0
100
AcDbLine
 10
195.5999999999999
 20
619.5
 30
0.0
 11
197.1999999999999
 21
619.5
 31
0.0
  0
LINE
  5
161
330
1E
100
AcDbEntity
  8
0
100
AcDbLine
 10
195.5999999999999
 20
619.5
 30
0.0
 11
197.0
 21
619.5
 31
0.0
  0
LINE
  5
162
330
1E
100
AcDbEntity
  8
0
100
AcDbLine
 10
194.2999999999999
 20
619.5
 30
0.0
 11
195.0
 21
619.5
 31
0.0
  0
LINE
  5
163
330
1E
100
AcDbEntity
  8
0
100
AcDbLine
 10
194.2999999999999
 20
619.5
 30
0.0
 11
194.2999999999999
 21
659.4999999999999
 31
0.0
  0
LINE
  5
164
330
1E
100
AcDbEntity
  8
0
100
AcDbLine
 10
193.4
 20
661.0
 30
0.0
 11
194.5999999999999
 21
661.0
 31
0.0
  0
LINE
  5
165
330
1E
100
AcDbEntity
  8
0
100
AcDbLine
 10
192.5
 20
749.7999999999999
 30
0.0
 11
193.0
 21
749.7999999999999
 31
0.0
  0
LINE
  5
166
330
1E
100
AcDbEntity
  8
0
100
AcDbLine
 10
192.5
 20
749.7999999999999
 30
0.0
 11
192.5
 21
750.3
 31
0.0
  0
LINE
  5
167
330
1E
100
AcDbEntity
  8
0
100
AcDbLine
 10
192.5
 20
750.3
 30
0.0
 11
192.5
 21
749.7999999999999
 31
0.0
  0
LINE
  5
168
330
1E
100
AcDbEntity
  8
0
100
AcDbLine
 10
192.5
 20
750.3
 30
0.0
 11
193.1509999999999
 21
750.3
 31
0.0
  0
LINE
  5
169
330
1E
100
AcDbEntity
  8
0
100
AcDbLine
 10
192.5
 20
750.3
 30
0.0
 11
192.5
 21
751.2999999999999
 31
0.0
  0
LINE
  5
16A
330
1E
100
AcDbEntity
  8
0
100
AcDbLine
 10
192.5
 20
751.7999999999999
 30
0.0
 11
193.0
 21
751.7999999999999
 31
0.0
  0
LINE
  5
16B
330
1E
100
AcDbEntity
  8
0
100
AcDbLine
 10
192.5
 20
751.7999999999999
 30
0.0
 11
192.5
 21
751.2999999999999
 31
0.0
  0
LINE
  5
16C
330
1E
100
AcDbEntity
  8
0
100
AcDbLine
 10
192.5
 20
751.2999999999999
 30
0.0
 11
192.5
 21
751.7999999999999
 31
0.0
  0
LINE
  5
16D
330
1E
100
AcDbEntity
  8
0
100
AcDbLine
 10
192.5
 20
751.2999999999999
 30
0.0
 11
193.1509999999999
 21
751.2999999999999
 31
0.0
  0
LINE
  5
16E
330
1E
100
AcDbEntity
  8
0
100
AcDbLine
 10
192.5
 20
751.2999999999999
 30
0.0
 11
192.5
 21
750.3
 31
0.0
  0
LINE
  5
16F
330
1E
100
AcDbEntity
  8
0
100
AcDbLine
 10
192.5
 20
745.0
 30
0.0
 11
192.5
 21
744.5
 31
0.0
  0
LINE
  5
170
330
1E
100
AcDbEntity
  8
0
100
AcDbLine
 10
192.5
 20
745.0
 30
0.0
 11
193.0
 21
745.0
 31
0.0
  0
LINE
  5
171
330
1E
100
AcDbEntity
  8
0
100
AcDbLine
 10
192.5
 20
744.5
 30
0.0
 11
192.5
 21
743.5
 31
0.0
  0
LINE
  5
172
330
1E
100
AcDbEntity
  8
0
100
AcDbLine
 10
192.5
 20
744.5
 30
0.0
 11
192.5
 21
745.0
 31
0.0
  0
LINE
  5
173
330
1E
100
AcDbEntity
  8
0
100
AcDbLine
 10
192.5
 20
744.5
 30
0.0
 11
193.1509999999999
 21
744.5
 31
0.0
  0
LINE
  5
174
330
1E
100
AcDbEntity
  8
0
100
AcDbLine
 10
192.5
 20
743.5
 30
0.0
 11
192.5
 21
743.0
 31
0.0
  0
LINE
  5
175
330
1E
100
AcDbEntity
  8
0
100
AcDbLine
 10
192.5
 20
743.5
 30
0.0
 11
192.5
 21
744.5
 31
0.0
  0
LINE
  5
176
330
1E
100
AcDbEntity
  8
0
100
AcDbLine
 10
192.5
 20
743.5
 30
0.0
 11
193.1509999999999
 21
743.5
 31
0.0
  0
LINE
  5
177
330
1E
100
AcDbEntity
  8
0
100
AcDbLine
 10
192.5
 20
743.0
 30
0.0
 11
192.5
 21
743.5
 31
0.0
  0
LINE
  5
178
330
1E
100
AcDbEntity
  8
0
100
AcDbLine
 10
192.5
 20
743.0
 30
0.0
 11
193.0
 21
743.0
 31
0.0
  0
LINE
  5
179
330
1E
100
AcDbEntity
  8
0
100
AcDbLine
 10
193.0
 20
749.7999999999999
 30
0.0
 11
193.0
 21
745.0
 31
0.0
  0
LINE
  5
17A
330
1E
100
AcDbEntity
  8
0
100
AcDbLine
 10
192.5
 20
756.6
 30
0.0
 11
193.0
 21
756.6
 31
0.0
  0
LINE
  5
17B
330
1E
100
AcDbEntity
  8
0
100
AcDbLine
 10
192.5
 20
756.6
 30
0.0
 11
192.5
 21
757.1
 31
0.0
  0
LINE
  5
17C
330
1E
100
AcDbEntity
  8
0
100
AcDbLine
 10
192.5
 20
757.1
 30
0.0
 11
192.5
 21
756.6
 31
0.0
  0
LINE
  5
17D
330
1E
100
AcDbEntity
  8
0
100
AcDbLine
 10
192.5
 20
757.1
 30
0.0
 11
193.1509999999999
 21
757.1
 31
0.0
  0
LINE
  5
17E
330
1E
100
AcDbEntity
  8
0
100
AcDbLine
 10
192.5
 20
757.1
 30
0.0
 11
192.5
 21
758.1
 31
0.0
  0
LINE
  5
17F
330
1E
100
AcDbEntity
  8
0
100
AcDbLine
 10
192.5
 20
763.4
 30
0.0
 11
192.5
 21
763.9
 31
0.0
  0
LINE
  5
180
330
1E
100
AcDbEntity
  8
0
100
AcDbLine
 10
192.5
 20
763.4
 30
0.0
 11
193.0
 21
763.4
 31
0.0
  0
LINE
  5
181
330
1E
100
AcDbEntity
  8
0
100
AcDbLine
 10
192.5
 20
758.6
 30
0.0
 11
193.0
 21
758.6
 31
0.0
  0
LINE
  5
182
330
1E
100
AcDbEntity
  8
0
100
AcDbLine
 10
192.5
 20
758.6
 30
0.0
 11
192.5
 21
758.1
 31
0.0
  0
LINE
  5
183
330
1E
100
AcDbEntity
  8
0
100
AcDbLine
 10
192.5
 20
758.1
 30
0.0
 11
192.5
 21
758.6
 31
0.0
  0
LINE
  5
184
330
1E
100
AcDbEntity
  8
0
100
AcDbLine
 10
192.5
 20
758.1
 30
0.0
 11
193.1509999999999
 21
758.1
 31
0.0
  0
LINE
  5
185
330
1E
100
AcDbEntity
  8
0
100
AcDbLine
 10
192.5
 20
758.1
 30
0.0
 11
192.5
 21
757.1
 31
0.0
  0
LINE
  5
186
330
1E
100
AcDbEntity
  8
0
100
AcDbLine
 10
192.5
 20
765.3999999999999
 30
0.0
 11
192.5
 21
764.9
 31
0.0
  0
LINE
  5
187
330
1E
100
AcDbEntity
  8
0
100
AcDbLine
 10
192.5
 20
765.3999999999999
 30
0.0
 11
193.0
 21
765.3999999999999
 31
0.0
  0
LINE
  5
188
330
1E
100
AcDbEntity
  8
0
100
AcDbLine
 10
192.5
 20
764.9
 30
0.0
 11
192.5
 21
765.3999999999999
 31
0.0
  0
LINE
  5
189
330
1E
100
AcDbEntity
  8
0
100
AcDbLine
 10
192.5
 20
764.9
 30
0.0
 11
192.5
 21
763.9
 31
0.0
  0
LINE
  5
18A
330
1E
100
AcDbEntity
  8
0
100
AcDbLine
 10
192.5
 20
764.9
 30
0.0
 11
193.1509999999999
 21
764.9
 31
0.0
  0
LINE
  5
18B
330
1E
100
AcDbEntity
  8
0
100
AcDbLine
 10
192.5
 20
763.9
 30
0.0
 11
192.5
 21
764.9
 31
0.0
  0
LINE
  5
18C
330
1E
100
AcDbEntity
  8
0
100
AcDbLine
 10
192.5
 20
763.9
 30
0.0
 11
193.1509999999999
 21
763.9
 31
0.0
  0
LINE
  5
18D
330
1E
100
AcDbEntity
  8
0
100
AcDbLine
 10
192.5
 20
763.9
 30
0.0
 11
192.5
 21
763.4
 31
0.0
  0
LINE
  5
18E
330
1E
100
AcDbEntity
  8
0
100
AcDbLine
 10
193.0
 20
763.4
 30
0.0
 11
193.0
 21
758.6
 31
0.0
  0
LINE
  5
18F
330
1E
100
AcDbEntity
  8
0
100
AcDbLine
 10
193.0
 20
756.6
 30
0.0
 11
193.0
 21
751.7999999999999
 31
0.0
  0
LINE
  5
190
330
1E
100
AcDbEntity
  8
0
100
AcDbLine
 10
192.5
 20
770.2
 30
0.0
 11
193.0
 21
770.2
 31
0.0
  0
LINE
  5
191
330
1E
100
AcDbEntity
  8
0
100
AcDbLine
 10
192.5
 20
770.2
 30
0.0
 11
192.5
 21
770.7
 31
0.0
  0
LINE
  5
192
330
1E
100
AcDbEntity
  8
0
100
AcDbLine
 10
192.5
 20
770.7
 30
0.0
 11
192.5
 21
770.2
 31
0.0
  0
LINE
  5
193
330
1E
100
AcDbEntity
  8
0
100
AcDbLine
 10
192.5
 20
770.7
 30
0.0
 11
193.0
 21
770.7
 31
0.0
  0
LINE
  5
194
330
1E
100
AcDbEntity
  8
0
100
AcDbLine
 10
192.5
 20
770.7
 30
0.0
 11
192.5
 21
771.7
 31
0.0
  0
LINE
  5
195
330
1E
100
AcDbEntity
  8
0
100
AcDbLine
 10
192.5
 20
771.7
 30
0.0
 11
192.5
 21
772.2
 31
0.0
  0
LINE
  5
196
330
1E
100
AcDbEntity
  8
0
100
AcDbLine
 10
192.5
 20
771.7
 30
0.0
 11
193.0
 21
771.7
 31
0.0
  0
LINE
  5
197
330
1E
100
AcDbEntity
  8
0
100
AcDbLine
 10
192.5
 20
771.7
 30
0.0
 11
192.5
 21
770.7
 31
0.0
  0
LINE
  5
198
330
1E
100
AcDbEntity
  8
0
100
AcDbLine
 10
193.0
 20
770.2
 30
0.0
 11
193.0
 21
765.3999999999999
 31
0.0
  0
LINE
  5
199
330
1E
100
AcDbEntity
  8
0
100
AcDbLine
 10
193.0
 20
765.3999999999999
 30
0.0
 11
193.0
 21
770.2
 31
0.0
  0
LINE
  5
19A
330
1E
100
AcDbEntity
  8
0
100
AcDbLine
 10
193.0
 20
758.6
 30
0.0
 11
193.0
 21
763.4
 31
0.0
  0
LINE
  5
19B
330
1E
100
AcDbEntity
  8
0
100
AcDbLine
 10
193.0
 20
751.7999999999999
 30
0.0
 11
193.0
 21
756.6
 31
0.0
  0
LINE
  5
19C
330
1E
100
AcDbEntity
  8
0
100
AcDbLine
 10
193.763
 20
743.5
 30
0.0
 11
194.55
 21
743.5
 31
0.0
  0
LINE
  5
19D
330
1E
100
AcDbEntity
  8
0
100
AcDbLine
 10
193.763
 20
743.5
 30
0.0
 11
193.763
 21
744.5
 31
0.0
  0
LINE
  5
19E
330
1E
100
AcDbEntity
  8
0
100
AcDbLine
 10
193.61
 20
743.0
 30
0.0
 11
193.763
 21
743.5
 31
0.0
  0
LINE
  5
19F
330
1E
100
AcDbEntity
  8
0
100
AcDbLine
 10
193.61
 20
743.0
 30
0.0
 11
194.397
 21
743.0
 31
0.0
  0
LINE
  5
1A0
330
1E
100
AcDbEntity
  8
0
100
AcDbLine
 10
193.304
 20
743.0
 30
0.0
 11
193.61
 21
743.0
 31
0.0
  0
LINE
  5
1A1
330
1E
100
AcDbEntity
  8
0
100
AcDbLine
 10
193.304
 20
743.0
 30
0.0
 11
194.0410423452769
 21
743.0
 31
0.0
  0
LINE
  5
1A2
330
1E
100
AcDbEntity
  8
0
100
AcDbLine
 10
193.1509999999999
 20
744.5
 30
0.0
 11
193.304
 21
745.0
 31
0.0
  0
LINE
  5
1A3
330
1E
100
AcDbEntity
  8
0
100
AcDbLine
 10
193.1509999999999
 20
744.5
 30
0.0
 11
193.1509999999999
 21
743.5
 31
0.0
  0
LINE
  5
1A4
330
1E
100
AcDbEntity
  8
0
100
AcDbLine
 10
193.304
 20
745.0
 30
0.0
 11
193.61
 21
745.0
 31
0.0
  0
LINE
  5
1A5
330
1E
100
AcDbEntity
  8
0
100
AcDbLine
 10
193.1509999999999
 20
750.3
 30
0.0
 11
193.304
 21
749.7999999999999
 31
0.0
  0
LINE
  5
1A6
330
1E
100
AcDbEntity
  8
0
100
AcDbLine
 10
193.1509999999999
 20
750.3
 30
0.0
 11
193.1509999999999
 21
751.2999999999999
 31
0.0
  0
LINE
  5
1A7
330
1E
100
AcDbEntity
  8
0
100
AcDbLine
 10
193.1509999999999
 20
751.2999999999999
 30
0.0
 11
193.304
 21
751.7999999999999
 31
0.0
  0
LINE
  5
1A8
330
1E
100
AcDbEntity
  8
0
100
AcDbLine
 10
193.1509999999999
 20
751.2999999999999
 30
0.0
 11
193.1509999999999
 21
750.3
 31
0.0
  0
LINE
  5
1A9
330
1E
100
AcDbEntity
  8
0
100
AcDbLine
 10
193.304
 20
749.7999999999999
 30
0.0
 11
193.61
 21
749.7999999999999
 31
0.0
  0
LINE
  5
1AA
330
1E
100
AcDbEntity
  8
0
100
AcDbLine
 10
193.304
 20
749.7999999999999
 30
0.0
 11
194.092
 21
749.7999999999999
 31
0.0
  0
LINE
  5
1AB
330
1E
100
AcDbEntity
  8
0
100
AcDbLine
 10
193.61
 20
749.7999999999999
 30
0.0
 11
193.763
 21
750.3
 31
0.0
  0
LINE
  5
1AC
330
1E
100
AcDbEntity
  8
0
100
AcDbLine
 10
193.61
 20
749.7999999999999
 30
0.0
 11
194.094201954397
 21
749.7999999999999
 31
0.0
  0
LINE
  5
1AD
330
1E
100
AcDbEntity
  8
0
100
AcDbLine
 10
193.1509999999999
 20
757.1
 30
0.0
 11
193.304
 21
756.6
 31
0.0
  0
LINE
  5
1AE
330
1E
100
AcDbEntity
  8
0
100
AcDbLine
 10
193.1509999999999
 20
757.1
 30
0.0
 11
193.1509999999999
 21
758.1
 31
0.0
  0
LINE
  5
1AF
330
1E
100
AcDbEntity
  8
0
100
AcDbLine
 10
193.1509999999999
 20
758.1
 30
0.0
 11
193.304
 21
758.6
 31
0.0
  0
LINE
  5
1B0
330
1E
100
AcDbEntity
  8
0
100
AcDbLine
 10
193.1509999999999
 20
758.1
 30
0.0
 11
193.1509999999999
 21
757.1
 31
0.0
  0
LINE
  5
1B1
330
1E
100
AcDbEntity
  8
0
100
AcDbLine
 10
193.304
 20
756.6
 30
0.0
 11
193.61
 21
756.6
 31
0.0
  0
LINE
  5
1B3
330
1E
100
AcDbEntity
  8
0
100
AcDbLine
 10
193.61
 20
756.6
 30
0.0
 11
193.763
 21
757.1
 31
0.0
  0
LINE
  5
1B5
330
1E
100
AcDbEntity
  8
0
100
AcDbLine
 10
193.1509999999999
 20
763.9
 30
0.0
 11
193.1509999999999
 21
764.9
 31
0.0
  0
LINE
  5
1B6
330
1E
100
AcDbEntity
  8
0
100
AcDbLine
 10
193.1509999999999
 20
763.9
 30
0.0
 11
193.304
 21
763.4
 31
0.0
  0
LINE
  5
1B7
330
1E
100
AcDbEntity
  8
0
100
AcDbLine
 10
193.1509999999999
 20
764.9
 30
0.0
 11
193.304
 21
765.3999999999999
 31
0.0
  0
LINE
  5
1B8
330
1E
100
AcDbEntity
  8
0
100
AcDbLine
 10
193.1509999999999
 20
764.9
 30
0.0
 11
193.1509999999999
 21
763.9
 31
0.0
  0
LINE
  5
1B9
330
1E
100
AcDbEntity
  8
0
100
AcDbLine
 10
193.61
 20
763.4
 30
0.0
 11
193.763
 21
763.9
 31
0.0
  0
LINE
  5
1BB
330
1E
100
AcDbEntity
  8
0
100
AcDbLine
 10
193.304
 20
763.4
 30
0.0
 11
193.61
 21
763.4
 31
0.0
  0
LINE
  5
1BD
330
1E
100
AcDbEntity
  8
0
100
AcDbLine
 10
193.1509999999999
 20
770.7
 30
0.0
 11
193.304
 21
770.2
 31
0.0
  0
LINE
  5
1BE
330
1E
100
AcDbEntity
  8
0
100
AcDbLine
 10
193.1509999999999
 20
770.7
 30
0.0
 11
193.1509999999999
 21
771.7
 31
0.0
  0
LINE
  5
1BF
330
1E
100
AcDbEntity
  8
0
100
AcDbLine
 10
193.1509999999999
 20
771.7
 30
0.0
 11
193.304
 21
772.2
 31
0.0
  0
LINE
  5
1C0
330
1E
100
AcDbEntity
  8
0
100
AcDbLine
 10
193.1509999999999
 20
771.7
 30
0.0
 11
193.1509999999999
 21
770.7
 31
0.0
  0
LINE
  5
1C1
330
1E
100
AcDbEntity
  8
0
100
AcDbLine
 10
193.304
 20
770.2
 30
0.0
 11
193.61
 21
770.2
 31
0.0
  0
LINE
  5
1C3
330
1E
100
AcDbEntity
  8
0
100
AcDbLine
 10
193.61
 20
770.2
 30
0.0
 11
193.763
 21
770.7
 31
0.0
  0
LINE
  5
1C5
330
1E
100
AcDbEntity
  8
0
100
AcDbLine
 10
193.304
 20
765.3999999999999
 30
0.0
 11
193.61
 21
765.3999999999999
 31
0.0
  0
LINE
  5
1C6
330
1E
100
AcDbEntity
  8
0
100
AcDbLine
 10
193.61
 20
765.3999999999999
 30
0.0
 11
193.763
 21
764.9
 31
0.0
  0
LINE
  5
1C8
330
1E
100
AcDbEntity
  8
0
100
AcDbLine
 10
193.304
 20
758.6
 30
0.0
 11
193.61
 21
758.6
 31
0.0
  0
LINE
  5
1CA
330
1E
100
AcDbEntity
  8
0
100
AcDbLine
 10
193.61
 20
758.6
 30
0.0
 11
193.763
 21
758.1
 31
0.0
  0
LINE
  5
1CB
330
1E
100
AcDbEntity
  8
0
100
AcDbLine
 10
193.304
 20
751.7999999999999
 30
0.0
 11
193.61
 21
751.7999999999999
 31
0.0
  0
LINE
  5
1CC
330
1E
100
AcDbEntity
  8
0
100
AcDbLine
 10
193.763
 20
750.3
 30
0.0
 11
194.55
 21
750.3
 31
0.0
  0
LINE
  5
1CD
330
1E
100
AcDbEntity
  8
0
100
AcDbLine
 10
193.763
 20
750.3
 30
0.0
 11
193.763
 21
751.2999999999999
 31
0.0
  0
LINE
  5
1CF
330
1E
100
AcDbEntity
  8
0
100
AcDbLine
 10
193.763
 20
770.7
 30
0.0
 11
193.763
 21
771.7
 31
0.0
  0
LINE
  5
1D1
330
1E
100
AcDbEntity
  8
0
100
AcDbLine
 10
193.763
 20
771.7
 30
0.0
 11
193.763
 21
770.7
 31
0.0
  0
LINE
  5
1D3
330
1E
100
AcDbEntity
  8
0
100
AcDbLine
 10
193.763
 20
764.9
 30
0.0
 11
193.763
 21
763.9
 31
0.0
  0
LINE
  5
1D4
330
1E
100
AcDbEntity
  8
0
100
AcDbLine
 10
193.763
 20
763.9
 30
0.0
 11
193.763
 21
764.9
 31
0.0
  0
LINE
  5
1D7
330
1E
100
AcDbEntity
  8
0
100
AcDbLine
 10
193.763
 20
757.1
 30
0.0
 11
193.763
 21
758.1
 31
0.0
  0
LINE
  5
1D9
330
1E
100
AcDbEntity
  8
0
100
AcDbLine
 10
193.763
 20
758.1
 30
0.0
 11
193.763
 21
757.1
 31
0.0
  0
LINE
  5
1DA
330
1E
100
AcDbEntity
  8
0
100
AcDbLine
 10
193.763
 20
751.2999999999999
 30
0.0
 11
194.55
 21
751.2999999999999
 31
0.0
  0
LINE
  5
1DB
330
1E
100
AcDbEntity
  8
0
100
AcDbLine
 10
193.763
 20
751.2999999999999
 30
0.0
 11
193.763
 21
750.3
 31
0.0
  0
LINE
  5
1DC
330
1E
100
AcDbEntity
  8
0
100
AcDbLine
 10
193.61
 20
751.7999999999999
 30
0.0
 11
194.109837133551
 21
751.7999999999999
 31
0.0
  0
LINE
  5
1DD
330
1E
100
AcDbEntity
  8
0
100
AcDbLine
 10
193.61
 20
751.7999999999999
 30
0.0
 11
193.763
 21
751.2999999999999
 31
0.0
  0
LINE
  5
1DE
330
1E
100
AcDbEntity
  8
0
100
AcDbLine
 10
193.61
 20
745.0
 30
0.0
 11
193.763
 21
744.5
 31
0.0
  0
LINE
  5
1DF
330
1E
100
AcDbEntity
  8
0
100
AcDbLine
 10
193.61
 20
745.0
 30
0.0
 11
194.397
 21
745.0
 31
0.0
  0
LINE
  5
1E0
330
1E
100
AcDbEntity
  8
0
100
AcDbLine
 10
193.763
 20
744.5
 30
0.0
 11
193.763
 21
743.5
 31
0.0
  0
LINE
  5
1E1
330
1E
100
AcDbEntity
  8
0
100
AcDbLine
 10
193.763
 20
744.5
 30
0.0
 11
194.55
 21
744.5
 31
0.0
  0
LINE
  5
1E2
330
1E
100
AcDbEntity
  8
0
100
AcDbLine
 10
193.1509999999999
 20
743.5
 30
0.0
 11
193.304
 21
743.0
 31
0.0
  0
LINE
  5
1E3
330
1E
100
AcDbEntity
  8
0
100
AcDbLine
 10
193.1509999999999
 20
743.5
 30
0.0
 11
193.1509999999999
 21
744.5
 31
0.0
  0
LINE
  5
1E4
330
1E
100
AcDbEntity
  8
0
100
AcDbLine
 10
193.0
 20
745.0
 30
0.0
 11
193.0
 21
749.7999999999999
 31
0.0
  0
LINE
  5
1E5
330
1E
100
AcDbEntity
  8
0
100
AcDbLine
 10
193.0
 20
661.0
 30
0.0
 11
194.0
 21
660.0
 31
0.0
  0
LINE
  5
1E6
330
1E
100
AcDbEntity
  8
0
100
AcDbLine
 10
193.0
 20
661.0
 30
0.0
 11
193.0
 21
743.0
 31
0.0
  0
LINE
  5
1E7
330
1E
100
AcDbEntity
  8
0
100
AcDbLine
 10
193.0
 20
661.0
 30
0.0
 11
193.4
 21
661.0
 31
0.0
  0
LINE
  5
1E8
330
1E
100
AcDbEntity
  8
0
100
AcDbLine
 10
195.0
 20
660.0
 30
0.0
 11
195.0
 21
659.4999999999999
 31
0.0
  0
LINE
  5
1E9
330
1E
100
AcDbEntity
  8
0
100
AcDbLine
 10
195.0
 20
660.0
 30
0.0
 11
195.4
 21
660.0
 31
0.0
  0
LINE
  5
1EA
330
1E
100
AcDbEntity
  8
0
100
AcDbLine
 10
194.5999999999999
 20
661.0
 30
0.0
 11
196.5
 21
661.0
 31
0.0
  0
LINE
  5
1EB
330
1E
100
AcDbEntity
  8
0
100
AcDbLine
 10
194.4
 20
660.0
 30
0.0
 11
195.0
 21
660.0
 31
0.0
  0
LINE
  5
1EC
330
1E
100
AcDbEntity
  8
0
100
AcDbLine
 10
194.4
 20
660.0
 30
0.0
 11
195.5
 21
660.0
 31
0.0
  0
LINE
  5
1ED
330
1E
100
AcDbEntity
  8
0
100
AcDbLine
 10
194.0
 20
660.0
 30
0.0
 11
194.4
 21
660.0
 31
0.0
  0
LINE
  5
1EE
330
1E
100
AcDbEntity
  8
0
100
AcDbLine
 10
194.2999999999999
 20
659.4999999999999
 30
0.0
 11
195.0
 21
659.4999999999999
 31
0.0
  0
LINE
  5
1EF
330
1E
100
AcDbEntity
  8
0
100
AcDbLine
 10
194.2999999999999
 20
659.4999999999999
 30
0.0
 11
194.2999999999999
 21
619.5
 31
0.0
  0
LINE
  5
1F0
330
1E
100
AcDbEntity
  8
0
100
AcDbLine
 10
195.5
 20
660.0
 30
0.0
 11
197.1999999999999
 21
660.0
 31
0.0
  0
LINE
  5
1F1
330
1E
100
AcDbEntity
  8
0
100
AcDbLine
 10
196.3
 20
660.0
 30
0.0
 11
197.9
 21
660.0
 31
0.0
  0
LINE
  5
1F2
330
1E
100
AcDbEntity
  8
0
100
AcDbLine
 10
196.492
 20
743.5
 30
0.0
 11
197.1049999999999
 21
743.5
 31
0.0
  0
LINE
  5
1F3
330
1E
100
AcDbEntity
  8
0
100
AcDbLine
 10
196.492
 20
743.5
 30
0.0
 11
196.492
 21
744.5
 31
0.0
  0
LINE
  5
1F4
330
1E
100
AcDbEntity
  8
0
100
AcDbLine
 10
196.202
 20
743.0
 30
0.0
 11
196.492
 21
743.5
 31
0.0
  0
LINE
  5
1F5
330
1E
100
AcDbEntity
  8
0
100
AcDbLine
 10
196.202
 20
743.0
 30
0.0
 11
196.5
 21
743.0
 31
0.0
  0
LINE
  5
1F6
330
1E
100
AcDbEntity
  8
0
100
AcDbLine
 10
195.62
 20
743.0
 30
0.0
 11
196.202
 21
743.0
 31
0.0
  0
LINE
  5
1F7
330
1E
100
AcDbEntity
  8
0
100
AcDbLine
 10
195.62
 20
743.0
 30
0.0
 11
196.233
 21
743.0
 31
0.0
  0
LINE
  5
1F8
330
1E
100
AcDbEntity
  8
0
100
AcDbLine
 10
195.33
 20
744.5
 30
0.0
 11
195.62
 21
745.0
 31
0.0
  0
LINE
  5
1F9
330
1E
100
AcDbEntity
  8
0
100
AcDbLine
 10
195.33
 20
744.5
 30
0.0
 11
195.33
 21
743.5
 31
0.0
  0
LINE
  5
1FA
330
1E
100
AcDbEntity
  8
0
100
AcDbLine
 10
195.62
 20
745.0
 30
0.0
 11
196.201
 21
745.0
 31
0.0
  0
LINE
  5
1FB
330
1E
100
AcDbEntity
  8
0
100
AcDbLine
 10
195.33
 20
770.7
 30
0.0
 11
195.62
 21
770.2
 31
0.0
  0
LINE
  5
1FC
330
1E
100
AcDbEntity
  8
0
100
AcDbLine
 10
195.33
 20
770.7
 30
0.0
 11
195.33
 21
771.7
 31
0.0
  0
LINE
  5
1FD
330
1E
100
AcDbEntity
  8
0
100
AcDbLine
 10
195.33
 20
771.7
 30
0.0
 11
195.62
 21
772.2
 31
0.0
  0
LINE
  5
1FE
330
1E
100
AcDbEntity
  8
0
100
AcDbLine
 10
195.33
 20
771.7
 30
0.0
 11
195.33
 21
770.7
 31
0.0
  0
LINE
  5
1FF
330
1E
100
AcDbEntity
  8
0
100
AcDbLine
 10
195.33
 20
764.9
 30
0.0
 11
195.62
 21
765.3999999999999
 31
0.0
  0
LINE
  5
200
330
1E
100
AcDbEntity
  8
0
100
AcDbLine
 10
195.33
 20
764.9
 30
0.0
 11
195.33
 21
763.9
 31
0.0
  0
LINE
  5
201
330
1E
100
AcDbEntity
  8
0
100
AcDbLine
 10
195.33
 20
763.9
 30
0.0
 11
195.62
 21
763.4
 31
0.0
  0
LINE
  5
202
330
1E
100
AcDbEntity
  8
0
100
AcDbLine
 10
195.33
 20
763.9
 30
0.0
 11
195.33
 21
764.9
 31
0.0
  0
LINE
  5
203
330
1E
100
AcDbEntity
  8
0
100
AcDbLine
 10
195.33
 20
757.1
 30
0.0
 11
195.62
 21
756.6
 31
0.0
  0
LINE
  5
204
330
1E
100
AcDbEntity
  8
0
100
AcDbLine
 10
195.33
 20
757.1
 30
0.0
 11
195.33
 21
758.1
 31
0.0
  0
LINE
  5
205
330
1E
100
AcDbEntity
  8
0
100
AcDbLine
 10
195.33
 20
758.1
 30
0.0
 11
195.62
 21
758.6
 31
0.0
  0
LINE
  5
206
330
1E
100
AcDbEntity
  8
0
100
AcDbLine
 10
195.33
 20
758.1
 30
0.0
 11
195.33
 21
757.1
 31
0.0
  0
LINE
  5
207
330
1E
100
AcDbEntity
  8
0
100
AcDbLine
 10
195.33
 20
750.3
 30
0.0
 11
195.62
 21
749.7999999999999
 31
0.0
  0
LINE
  5
208
330
1E
100
AcDbEntity
  8
0
100
AcDbLine
 10
195.33
 20
750.3
 30
0.0
 11
195.33
 21
751.2999999999999
 31
0.0
  0
LINE
  5
209
330
1E
100
AcDbEntity
  8
0
100
AcDbLine
 10
195.62
 20
749.7999999999999
 30
0.0
 11
196.202
 21
749.7999999999999
 31
0.0
  0
LINE
  5
20A
330
1E
100
AcDbEntity
  8
0
100
AcDbLine
 10
195.62
 20
749.7999999999999
 30
0.0
 11
196.233
 21
749.7999999999999
 31
0.0
  0
LINE
  5
20B
330
1E
100
AcDbEntity
  8
0
100
AcDbLine
 10
196.492
 20
751.2999999999999
 30
0.0
 11
197.1049999999999
 21
751.2999999999999
 31
0.0
  0
LINE
  5
20C
330
1E
100
AcDbEntity
  8
0
100
AcDbLine
 10
196.492
 20
751.2999999999999
 30
0.0
 11
196.492
 21
750.3
 31
0.0
  0
LINE
  5
20D
330
1E
100
AcDbEntity
  8
0
100
AcDbLine
 10
196.492
 20
750.3
 30
0.0
 11
196.492
 21
751.2999999999999
 31
0.0
  0
LINE
  5
20E
330
1E
100
AcDbEntity
  8
0
100
AcDbLine
 10
196.492
 20
750.3
 30
0.0
 11
197.1049999999999
 21
750.3
 31
0.0
  0
LINE
  5
20F
330
1E
100
AcDbEntity
  8
0
100
AcDbLine
 10
196.202
 20
749.7999999999999
 30
0.0
 11
196.5
 21
749.7999999999999
 31
0.0
  0
LINE
  5
210
330
1E
100
AcDbEntity
  8
0
100
AcDbLine
 10
196.202
 20
749.7999999999999
 30
0.0
 11
196.492
 21
750.3
 31
0.0
  0
LINE
  5
211
330
1E
100
AcDbEntity
  8
0
100
AcDbLine
 10
195.62
 20
751.7999999999999
 30
0.0
 11
196.201
 21
751.7999999999999
 31
0.0
  0
LINE
  5
212
330
1E
100
AcDbEntity
  8
0
100
AcDbLine
 10
195.62
 20
756.6
 30
0.0
 11
196.202
 21
756.6
 31
0.0
  0
LINE
  5
213
330
1E
100
AcDbEntity
  8
0
100
AcDbLine
 10
195.62
 20
756.6
 30
0.0
 11
196.233
 21
756.6
 31
0.0
  0
LINE
  5
214
330
1E
100
AcDbEntity
  8
0
100
AcDbLine
 10
195.62
 20
770.2
 30
0.0
 11
196.202
 21
770.2
 31
0.0
  0
LINE
  5
215
330
1E
100
AcDbEntity
  8
0
100
AcDbLine
 10
195.62
 20
770.2
 30
0.0
 11
195.951661237785
 21
770.2
 31
0.0
  0
LINE
  5
216
330
1E
100
AcDbEntity
  8
0
100
AcDbLine
 10
195.62
 20
765.3999999999999
 30
0.0
 11
196.201
 21
765.3999999999999
 31
0.0
  0
LINE
  5
217
330
1E
100
AcDbEntity
  8
0
100
AcDbLine
 10
196.201
 20
765.3999999999999
 30
0.0
 11
196.492
 21
764.9
 31
0.0
  0
LINE
  5
218
330
1E
100
AcDbEntity
  8
0
100
AcDbLine
 10
196.201
 20
765.3999999999999
 30
0.0
 11
196.5
 21
765.3999999999999
 31
0.0
  0
LINE
  5
219
330
1E
100
AcDbEntity
  8
0
100
AcDbLine
 10
195.62
 20
763.4
 30
0.0
 11
196.202
 21
763.4
 31
0.0
  0
LINE
  5
21A
330
1E
100
AcDbEntity
  8
0
100
AcDbLine
 10
195.62
 20
763.4
 30
0.0
 11
195.867491856678
 21
763.4
 31
0.0
  0
LINE
  5
21B
330
1E
100
AcDbEntity
  8
0
100
AcDbLine
 10
195.62
 20
758.6
 30
0.0
 11
196.201
 21
758.6
 31
0.0
  0
LINE
  5
21C
330
1E
100
AcDbEntity
  8
0
100
AcDbLine
 10
196.202
 20
770.2
 30
0.0
 11
196.5
 21
770.2
 31
0.0
  0
LINE
  5
21D
330
1E
100
AcDbEntity
  8
0
100
AcDbLine
 10
196.202
 20
770.2
 30
0.0
 11
196.492
 21
770.7
 31
0.0
  0
LINE
  5
21E
330
1E
100
AcDbEntity
  8
0
100
AcDbLine
 10
196.492
 20
763.9
 30
0.0
 11
196.492
 21
764.9
 31
0.0
  0
LINE
  5
221
330
1E
100
AcDbEntity
  8
0
100
AcDbLine
 10
196.492
 20
771.7
 30
0.0
 11
196.492
 21
770.7
 31
0.0
  0
LINE
  5
222
330
1E
100
AcDbEntity
  8
0
100
AcDbLine
 10
196.492
 20
770.7
 30
0.0
 11
196.492
 21
771.7
 31
0.0
  0
LINE
  5
224
330
1E
100
AcDbEntity
  8
0
100
AcDbLine
 10
196.492
 20
764.9
 30
0.0
 11
196.492
 21
763.9
 31
0.0
  0
LINE
  5
226
330
1E
100
AcDbEntity
  8
0
100
AcDbLine
 10
196.202
 20
763.4
 30
0.0
 11
196.492
 21
763.9
 31
0.0
  0
LINE
  5
227
330
1E
100
AcDbEntity
  8
0
100
AcDbLine
 10
196.202
 20
763.4
 30
0.0
 11
196.5
 21
763.4
 31
0.0
  0
LINE
  5
229
330
1E
100
AcDbEntity
  8
0
100
AcDbLine
 10
196.492
 20
758.1
 30
0.0
 11
196.492
 21
757.1
 31
0.0
  0
LINE
  5
22A
330
1E
100
AcDbEntity
  8
0
100
AcDbLine
 10
196.492
 20
757.1
 30
0.0
 11
196.492
 21
758.1
 31
0.0
  0
LINE
  5
22C
330
1E
100
AcDbEntity
  8
0
100
AcDbLine
 10
196.202
 20
756.6
 30
0.0
 11
196.5
 21
756.6
 31
0.0
  0
LINE
  5
22D
330
1E
100
AcDbEntity
  8
0
100
AcDbLine
 10
196.202
 20
756.6
 30
0.0
 11
196.492
 21
757.1
 31
0.0
  0
LINE
  5
22E
330
1E
100
AcDbEntity
  8
0
100
AcDbLine
 10
196.201
 20
758.6
 30
0.0
 11
196.5
 21
758.6
 31
0.0
  0
LINE
  5
22F
330
1E
100
AcDbEntity
  8
0
100
AcDbLine
 10
196.201
 20
758.6
 30
0.0
 11
196.492
 21
758.1
 31
0.0
  0
LINE
  5
230
330
1E
100
AcDbEntity
  8
0
100
AcDbLine
 10
196.201
 20
751.7999999999999
 30
0.0
 11
196.5
 21
751.7999999999999
 31
0.0
  0
LINE
  5
231
330
1E
100
AcDbEntity
  8
0
100
AcDbLine
 10
196.201
 20
751.7999999999999
 30
0.0
 11
196.492
 21
751.2999999999999
 31
0.0
  0
LINE
  5
232
330
1E
100
AcDbEntity
  8
0
100
AcDbLine
 10
195.33
 20
751.2999999999999
 30
0.0
 11
195.62
 21
751.7999999999999
 31
0.0
  0
LINE
  5
233
330
1E
100
AcDbEntity
  8
0
100
AcDbLine
 10
195.33
 20
751.2999999999999
 30
0.0
 11
195.33
 21
750.3
 31
0.0
  0
LINE
  5
234
330
1E
100
AcDbEntity
  8
0
100
AcDbLine
 10
196.201
 20
745.0
 30
0.0
 11
196.492
 21
744.5
 31
0.0
  0
LINE
  5
235
330
1E
100
AcDbEntity
  8
0
100
AcDbLine
 10
196.201
 20
745.0
 30
0.0
 11
196.5
 21
745.0
 31
0.0
  0
LINE
  5
236
330
1E
100
AcDbEntity
  8
0
100
AcDbLine
 10
196.492
 20
744.5
 30
0.0
 11
196.492
 21
743.5
 31
0.0
  0
LINE
  5
237
330
1E
100
AcDbEntity
  8
0
100
AcDbLine
 10
196.492
 20
744.5
 30
0.0
 11
197.1049999999999
 21
744.5
 31
0.0
  0
LINE
  5
238
330
1E
100
AcDbEntity
  8
0
100
AcDbLine
 10
195.33
 20
743.5
 30
0.0
 11
195.62
 21
743.0
 31
0.0
  0
LINE
  5
239
330
1E
100
AcDbEntity
  8
0
100
AcDbLine
 10
195.33
 20
743.5
 30
0.0
 11
195.33
 21
744.5
 31
0.0
  0
LINE
  5
23A
330
1E
100
AcDbEntity
  8
0
100
AcDbLine
 10
196.5
 20
661.0
 30
0.0
 11
199.0
 21
661.0
 31
0.0
  0
LINE
  5
23B
330
1E
100
AcDbEntity
  8
0
100
AcDbLine
 10
195.4
 20
660.0
 30
0.0
 11
196.3
 21
660.0
 31
0.0
  0
LINE
  5
23C
330
1E
100
AcDbEntity
  8
0
100
AcDbLine
 10
195.0
 20
659.4999999999999
 30
0.0
 11
198.0
 21
659.4999999999999
 31
0.0
  0
LINE
  5
23D
330
1E
100
AcDbEntity
  8
0
100
AcDbLine
 10
195.0
 20
659.4999999999999
 30
0.0
 11
195.0
 21
660.0
 31
0.0
  0
LINE
  5
23E
330
1E
100
AcDbEntity
  8
0
100
AcDbLine
 10
195.0
 20
619.5
 30
0.0
 11
198.0
 21
619.5
 31
0.0
  0
LINE
  5
23F
330
1E
100
AcDbEntity
  8
0
100
AcDbLine
 10
195.0
 20
619.5
 30
0.0
 11
197.0
 21
619.5
 31
0.0
  0
LINE
  5
240
330
1E
100
AcDbEntity
  8
0
100
AcDbLine
 10
197.1999999999999
 20
619.5
 30
0.0
 11
199.3999999999999
 21
619.5
 31
0.0
  0
LINE
  5
241
330
1E
100
AcDbEntity
  8
0
100
AcDbLine
 10
197.1999999999999
 20
660.0
 30
0.0
 11
199.5
 21
660.0
 31
0.0
  0
LINE
  5
242
330
1E
100
AcDbEntity
  8
0
100
AcDbLine
 10
197.9
 20
660.0
 30
0.0
 11
200.0
 21
660.0
 31
0.0
  0
LINE
  5
243
330
1E
100
AcDbEntity
  8
0
100
AcDbLine
 10
199.0
 20
661.0
 30
0.0
 11
201.9
 21
661.0
 31
0.0
  0
LINE
  5
244
330
1E
100
AcDbEntity
  8
0
100
AcDbLine
 10
198.0
 20
659.4999999999999
 30
0.0
 11
201.4
 21
659.4999999999999
 31
0.0
  0
LINE
  5
245
330
1E
100
AcDbEntity
  8
0
100
AcDbLine
 10
198.0
 20
619.5
 30
0.0
 11
201.4
 21
619.5
 31
0.0
  0
LINE
  5
246
330
1E
100
AcDbEntity
  8
0
100
AcDbLine
 10
197.0
 20
619.5
 30
0.0
 11
197.0
 21
530.3139999999999
 31
0.0
  0
LINE
  5
247
330
1E
100
AcDbEntity
  8
0
100
AcDbLine
 10
197.0
 20
530.3139999999999
 30
0.0
 11
199.0
 21
496.045
 31
0.0
  0
LINE
  5
248
330
1E
100
AcDbEntity
  8
0
100
AcDbLine
 10
197.0
 20
530.3139999999999
 30
0.0
 11
197.0
 21
619.5
 31
0.0
  0
LINE
  5
249
330
1E
100
AcDbEntity
  8
0
100
AcDbLine
 10
199.5
 20
660.0
 30
0.0
 11
202.1999999999999
 21
660.0
 31
0.0
  0
LINE
  5
24A
330
1E
100
AcDbEntity
  8
0
100
AcDbLine
 10
200.0
 20
660.0
 30
0.0
 11
202.4
 21
660.0
 31
0.0
  0
LINE
  5
24B
330
1E
100
AcDbEntity
  8
0
100
AcDbLine
 10
199.3999999999999
 20
619.5
 30
0.0
 11
202.0999999999999
 21
619.5
 31
0.0
  0
LINE
  5
24C
330
1E
100
AcDbEntity
  8
0
100
AcDbLine
 10
199.0
 20
496.045
 30
0.0
 11
202.7
 21
471.738
 31
0.0
  0
LINE
  5
24D
330
1E
100
AcDbEntity
  8
0
100
AcDbLine
 10
196.1999999999999
 20
111.61
 30
0.0
 11
213.7
 21
120.476
 31
0.0
  0
LINE
  5
24E
330
1E
100
AcDbEntity
  8
0
100
AcDbLine
 10
187.0
 20
659.5779999999999
 30
0.0
 11
187.0
 21
659.4999999999999
 31
0.0
  0
LINE
  5
24F
330
1E
100
AcDbEntity
  8
0
100
AcDbLine
 10
186.244
 20
14.0
 30
0.0
 11
187.0
 21
14.0
 31
0.0
  0
LINE
  5
250
330
1E
100
AcDbEntity
  8
0
100
AcDbLine
 10
166.0
 20
-0.0000000000000102
 30
0.0
 11
184.1759999999999
 21
-0.0000000000000113
 31
0.0
  0
LINE
  5
251
330
1E
100
AcDbEntity
  8
0
100
AcDbLine
 10
184.1759999999999
 20
-0.0000000000000113
 30
0.0
 11
201.2159999999999
 21
-0.0000000000000123
 31
0.0
  0
LINE
  5
252
330
1E
100
AcDbEntity
  8
0
100
AcDbLine
 10
227.6279999999999
 20
13.16
 30
0.0
 11
234.444
 21
13.16
 31
0.0
  0
LINE
  5
253
330
1E
100
AcDbEntity
  8
0
100
AcDbLine
 10
201.4
 20
659.4999999999999
 30
0.0
 11
205.0
 21
659.4999999999999
 31
0.0
  0
LINE
  5
254
330
1E
100
AcDbEntity
  8
0
100
AcDbLine
 10
201.4
 20
619.5
 30
0.0
 11
205.0
 21
619.5
 31
0.0
  0
LINE
  5
255
330
1E
100
AcDbEntity
  8
0
100
AcDbLine
 10
201.9
 20
661.0
 30
0.0
 11
205.0
 21
661.0
 31
0.0
  0
LINE
  5
256
330
1E
100
AcDbEntity
  8
0
100
AcDbLine
 10
202.1999999999999
 20
660.0
 30
0.0
 11
205.0
 21
660.0
 31
0.0
  0
LINE
  5
257
330
1E
100
AcDbEntity
  8
0
100
AcDbLine
 10
202.4
 20
660.0
 30
0.0
 11
205.0
 21
660.0
 31
0.0
  0
LINE
  5
258
330
1E
100
AcDbEntity
  8
0
100
AcDbLine
 10
202.0999999999999
 20
619.5
 30
0.0
 11
205.146
 21
619.5
 31
0.0
  0
LINE
  5
259
330
1E
100
AcDbEntity
  8
0
100
AcDbLine
 10
205.146
 20
619.5
 30
0.0
 11
207.9
 21
619.5
 31
0.0
  0
LINE
  5
25A
330
1E
100
AcDbEntity
  8
0
100
AcDbLine
 10
205.0
 20
619.5
 30
0.0
 11
208.5999999999999
 21
619.5
 31
0.0
  0
LINE
  5
25B
330
1E
100
AcDbEntity
  8
0
100
AcDbLine
 10
207.9
 20
619.5
 30
0.0
 11
210.4999999999999
 21
619.5
 31
0.0
  0
LINE
  5
25C
330
1E
100
AcDbEntity
  8
0
100
AcDbLine
 10
208.5999999999999
 20
619.5
 30
0.0
 11
212.0999999999999
 21
619.5
 31
0.0
  0
LINE
  5
25D
330
1E
100
AcDbEntity
  8
0
100
AcDbLine
 10
210.4999999999999
 20
619.5
 30
0.0
 11
212.5
 21
619.5
 31
0.0
  0
LINE
  5
25E
330
1E
100
AcDbEntity
  8
0
100
AcDbLine
 10
212.0999999999999
 20
619.5
 30
0.0
 11
214.9
 21
619.5
 31
0.0
  0
LINE
  5
25F
330
1E
100
AcDbEntity
  8
0
100
AcDbLine
 10
205.0
 20
659.4999999999999
 30
0.0
 11
208.5999999999999
 21
659.4999999999999
 31
0.0
  0
LINE
  5
260
330
1E
100
AcDbEntity
  8
0
100
AcDbLine
 10
205.0
 20
661.0
 30
0.0
 11
208.0999999999999
 21
661.0
 31
0.0
  0
LINE
  5
261
330
1E
100
AcDbEntity
  8
0
100
AcDbLine
 10
207.8
 20
660.0
 30
0.0
 11
210.4999999999999
 21
660.0
 31
0.0
  0
LINE
  5
262
330
1E
100
AcDbEntity
  8
0
100
AcDbLine
 10
212.0999999999999
 20
660.0
 30
0.0
 11
213.7
 21
660.0
 31
0.0
  0
LINE
  5
263
330
1E
100
AcDbEntity
  8
0
100
AcDbLine
 10
210.4999999999999
 20
660.0
 30
0.0
 11
212.8
 21
660.0
 31
0.0
  0
LINE
  5
264
330
1E
100
AcDbEntity
  8
0
100
AcDbLine
 10
210.0
 20
660.0
 30
0.0
 11
212.0999999999999
 21
660.0
 31
0.0
  0
LINE
  5
265
330
1E
100
AcDbEntity
  8
0
100
AcDbLine
 10
211.0
 20
661.0
 30
0.0
 11
213.5
 21
661.0
 31
0.0
  0
LINE
  5
266
330
1E
100
AcDbEntity
  8
0
100
AcDbLine
 10
208.0999999999999
 20
661.0
 30
0.0
 11
211.0
 21
661.0
 31
0.0
  0
LINE
  5
267
330
1E
100
AcDbEntity
  8
0
100
AcDbLine
 10
207.6
 20
660.0
 30
0.0
 11
210.0
 21
660.0
 31
0.0
  0
LINE
  5
268
330
1E
100
AcDbEntity
  8
0
100
AcDbLine
 10
205.0
 20
660.0
 30
0.0
 11
207.6
 21
660.0
 31
0.0
  0
LINE
  5
269
330
1E
100
AcDbEntity
  8
0
100
AcDbLine
 10
205.0
 20
660.0
 30
0.0
 11
207.8
 21
660.0
 31
0.0
  0
LINE
  5
26A
330
1E
100
AcDbEntity
  8
0
100
AcDbLine
 10
208.5999999999999
 20
659.4999999999999
 30
0.0
 11
212.0999999999999
 21
659.4999999999999
 31
0.0
  0
LINE
  5
26B
330
1E
100
AcDbEntity
  8
0
100
AcDbLine
 10
212.8
 20
660.0
 30
0.0
 11
214.5
 21
660.0
 31
0.0
  0
LINE
  5
26C
330
1E
100
AcDbEntity
  8
0
100
AcDbLine
 10
212.0999999999999
 20
659.4999999999999
 30
0.0
 11
214.9
 21
659.4999999999999
 31
0.0
  0
LINE
  5
26D
330
1E
100
AcDbEntity
  8
0
100
AcDbLine
 10
212.5
 20
619.5
 30
0.0
 11
216.4
 21
619.5
 31
0.0
  0
LINE
  5
26E
330
1E
100
AcDbEntity
  8
0
100
AcDbLine
 10
213.5
 20
661.0
 30
0.0
 11
215.3999999999999
 21
661.0
 31
0.0
  0
LINE
  5
26F
330
1E
100
AcDbEntity
  8
0
100
AcDbLine
 10
213.0
 20
619.5
 30
0.0
 11
213.0
 21
530.3139999999999
 31
0.0
  0
LINE
  5
270
330
1E
100
AcDbEntity
  8
0
100
AcDbLine
 10
213.0
 20
619.5
 30
0.0
 11
216.4
 21
619.5
 31
0.0
  0
LINE
  5
271
330
1E
100
AcDbEntity
  8
0
100
AcDbLine
 10
213.0
 20
619.5
 30
0.0
 11
214.9
 21
619.5
 31
0.0
  0
LINE
  5
272
330
1E
100
AcDbEntity
  8
0
100
AcDbLine
 10
213.0
 20
530.3139999999999
 30
0.0
 11
214.8
 21
498.8349999999999
 31
0.0
  0
LINE
  5
273
330
1E
100
AcDbEntity
  8
0
100
AcDbLine
 10
213.0
 20
530.3139999999999
 30
0.0
 11
213.0
 21
619.5
 31
0.0
  0
LINE
  5
274
330
1E
100
AcDbEntity
  8
0
100
AcDbLine
 10
202.7
 20
471.738
 30
0.0
 11
207.8
 21
446.435
 31
0.0
  0
LINE
  5
275
330
1E
100
AcDbEntity
  8
0
100
AcDbLine
 10
207.8
 20
446.435
 30
0.0
 11
214.5999999999999
 21
420.8319999999999
 31
0.0
  0
LINE
  5
276
330
1E
100
AcDbEntity
  8
0
100
AcDbLine
 10
214.5
 20
660.0
 30
0.0
 11
215.6
 21
660.0
 31
0.0
  0
LINE
  5
277
330
1E
100
AcDbEntity
  8
0
100
AcDbLine
 10
213.7
 20
660.0
 30
0.0
 11
214.5999999999999
 21
660.0
 31
0.0
  0
LINE
  5
278
330
1E
100
AcDbEntity
  8
0
100
AcDbLine
 10
214.5999999999999
 20
660.0
 30
0.0
 11
215.0
 21
660.0
 31
0.0
  0
LINE
  5
279
330
1E
100
AcDbEntity
  8
0
100
AcDbLine
 10
214.9
 20
659.4999999999999
 30
0.0
 11
216.4
 21
659.4999999999999
 31
0.0
  0
LINE
  5
27A
330
1E
100
AcDbEntity
  8
0
100
AcDbLine
 10
215.0
 20
660.0
 30
0.0
 11
215.0
 21
659.4999999999999
 31
0.0
  0
LINE
  5
27B
330
1E
100
AcDbEntity
  8
0
100
AcDbLine
 10
215.0
 20
660.0
 30
0.0
 11
215.6
 21
660.0
 31
0.0
  0
LINE
  5
27C
330
1E
100
AcDbEntity
  8
0
100
AcDbLine
 10
215.3999999999999
 20
661.0
 30
0.0
 11
216.5999999999999
 21
661.0
 31
0.0
  0
LINE
  5
27D
330
1E
100
AcDbEntity
  8
0
100
AcDbLine
 10
216.0
 20
660.0
 30
0.0
 11
217.0
 21
661.0
 31
0.0
  0
LINE
  5
27E
330
1E
100
AcDbEntity
  8
0
100
AcDbLine
 10
215.6
 20
660.0
 30
0.0
 11
216.0
 21
660.0
 31
0.0
  0
LINE
  5
27F
330
1E
100
AcDbEntity
  8
0
100
AcDbLine
 10
215.0
 20
659.4999999999999
 30
0.0
 11
215.0
 21
660.0
 31
0.0
  0
LINE
  5
280
330
1E
100
AcDbEntity
  8
0
100
AcDbLine
 10
217.0
 20
661.0
 30
0.0
 11
217.0
 21
814.4999999999999
 31
0.0
  0
LINE
  5
281
330
1E
100
AcDbEntity
  8
0
100
AcDbLine
 10
216.5999999999999
 20
661.0
 30
0.0
 11
217.0
 21
661.0
 31
0.0
  0
LINE
  5
282
330
1E
100
AcDbEntity
  8
0
100
AcDbLine
 10
216.4
 20
659.4999999999999
 30
0.0
 11
216.4
 21
619.5
 31
0.0
  0
LINE
  5
283
330
1E
100
AcDbEntity
  8
0
100
AcDbLine
 10
216.4
 20
619.5
 30
0.0
 11
216.4
 21
659.4999999999999
 31
0.0
  0
LINE
  5
284
330
1E
100
AcDbEntity
  8
0
100
AcDbLine
 10
214.9
 20
619.5
 30
0.0
 11
216.4
 21
619.5
 31
0.0
  0
LINE
  5
285
330
1E
100
AcDbEntity
  8
0
100
AcDbLine
 10
214.8
 20
498.8349999999999
 30
0.0
 11
217.7
 21
477.217
 31
0.0
  0
LINE
  5
286
330
1E
100
AcDbEntity
  8
0
100
AcDbLine
 10
217.7
 20
477.217
 30
0.0
 11
222.3
 21
453.109
 31
0.0
  0
LINE
  5
287
330
1E
100
AcDbEntity
  8
0
100
AcDbLine
 10
222.3
 20
453.109
 30
0.0
 11
228.5
 21
428.8019999999999
 31
0.0
  0
LINE
  5
288
330
1E
100
AcDbEntity
  8
0
100
AcDbLine
 10
214.5999999999999
 20
420.8319999999999
 30
0.0
 11
223.0
 21
397.4219999999999
 31
0.0
  0
LINE
  5
289
330
1E
100
AcDbEntity
  8
0
100
AcDbLine
 10
223.0
 20
397.4219999999999
 30
0.0
 11
232.4
 21
377.199
 31
0.0
  0
LINE
  5
28A
330
1E
100
AcDbEntity
  8
0
100
AcDbLine
 10
213.7
 20
120.476
 30
0.0
 11
231.4999999999999
 21
136.0169999999999
 31
0.0
  0
LINE
  5
28B
330
1E
100
AcDbEntity
  8
0
100
AcDbLine
 10
221.7
 20
106.6289999999999
 30
0.0
 11
241.8
 21
124.062
 31
0.0
  0
LINE
  5
28C
330
1E
100
AcDbEntity
  8
0
100
AcDbLine
 10
201.6999999999999
 20
96.6669
 30
0.0
 11
221.7
 21
106.6289999999999
 31
0.0
  0
LINE
  5
28D
330
1E
100
AcDbEntity
  8
0
100
AcDbLine
 10
214.8479999999999
 20
14.0
 30
0.0
 11
225.924
 21
14.0
 31
0.0
  0
LINE
  5
28E
330
1E
100
AcDbEntity
  8
0
100
AcDbLine
 10
225.924
 20
14.0
 30
0.0
 11
232.74
 21
14.0
 31
0.0
  0
LINE
  5
28F
330
1E
100
AcDbEntity
  8
0
100
AcDbLine
 10
216.2679999999999
 20
13.16
 30
0.0
 11
227.6279999999999
 21
13.16
 31
0.0
  0
LINE
  5
290
330
1E
100
AcDbEntity
  8
0
100
AcDbLine
 10
201.2159999999999
 20
-0.0000000000000123
 30
0.0
 11
216.2679999999999
 21
-0.0000000000000132
 31
0.0
  0
LINE
  5
291
330
1E
100
AcDbEntity
  8
0
100
AcDbLine
 10
216.2679999999999
 20
-0.0000000000000132
 30
0.0
 11
227.6279999999999
 21
-0.0000000000000139
 31
0.0
  0
LINE
  5
292
330
1E
100
AcDbEntity
  8
0
100
AcDbLine
 10
234.444
 20
13.16
 30
0.0
 11
237.0
 21
13.16
 31
0.0
  0
LINE
  5
293
330
1E
100
AcDbEntity
  8
0
100
AcDbLine
 10
237.0
 20
-0.0000000000000145
 30
0.0
 11
237.0
 21
13.16
 31
0.0
  0
LINE
  5
294
330
1E
100
AcDbEntity
  8
0
100
AcDbLine
 10
234.444
 20
-0.0000000000000144
 30
0.0
 11
237.0
 21
-0.0000000000000145
 31
0.0
  0
LINE
  5
295
330
1E
100
AcDbEntity
  8
0
100
AcDbLine
 10
228.5
 20
428.8019999999999
 30
0.0
 11
236.4
 21
406.0889999999999
 31
0.0
  0
LINE
  5
296
330
1E
100
AcDbEntity
  8
0
100
AcDbLine
 10
232.4
 20
377.199
 30
0.0
 11
245.5
 21
354.785
 31
0.0
  0
LINE
  5
297
330
1E
100
AcDbEntity
  8
0
100
AcDbLine
 10
231.4999999999999
 20
136.0169999999999
 30
0.0
 11
245.5
 21
150.96
 31
0.0
  0
LINE
  5
298
330
1E
100
AcDbEntity
  8
0
100
AcDbLine
 10
232.74
 20
14.0
 30
0.0
 11
235.2959999999999
 21
14.0
 31
0.0
  0
LINE
  5
29B
330
1E
100
AcDbEntity
  8
0
100
AcDbLine
 10
245.5
 20
354.785
 30
0.0
 11
255.8
 21
334.9569999999999
 31
0.0
  0
LINE
  5
2AA
330
1E
100
AcDbEntity
  8
0
100
AcDbLine
 10
236.4
 20
406.0889999999999
 30
0.0
 11
245.4
 21
386.563
 31
0.0
  0
LINE
  5
2AB
330
1E
100
AcDbEntity
  8
0
100
AcDbLine
 10
245.4
 20
386.563
 30
0.0
 11
257.6999999999999
 21
365.0459999999999
 31
0.0
  0
LINE
  5
2AE
330
1E
100
AcDbEntity
  8
0
100
AcDbLine
 10
255.8
 20
334.9569999999999
 30
0.0
 11
265.3999999999999
 21
313.837
 31
0.0
  0
LINE
  5
2B3
330
1E
100
AcDbEntity
  8
0
100
AcDbLine
 10
255.8
 20
169.7879999999999
 30
0.0
 11
265.3999999999999
 21
190.907
 31
0.0
  0
LINE
  5
2B4
330
1E
100
AcDbEntity
  8
0
100
AcDbLine
 10
245.5
 20
150.96
 30
0.0
 11
255.8
 21
169.7879999999999
 31
0.0
  0
LINE
  5
2B5
330
1E
100
AcDbEntity
  8
0
100
AcDbLine
 10
265.3999999999999
 20
313.837
 30
0.0
 11
271.1
 21
292.8179999999999
 31
0.0
  0
LINE
  5
2B6
330
1E
100
AcDbEntity
  8
0
100
AcDbLine
 10
269.7
 20
342.9259999999999
 30
0.0
 11
280.3999999999999
 21
319.3159999999999
 31
0.0
  0
LINE
  5
2B7
330
1E
100
AcDbEntity
  8
0
100
AcDbLine
 10
257.6999999999999
 20
365.0459999999999
 30
0.0
 11
269.7
 21
342.9259999999999
 31
0.0
  0
LINE
  5
2B8
330
1E
100
AcDbEntity
  8
0
100
AcDbLine
 10
274.8
 20
271.499
 30
0.0
 11
276.0
 21
252.372
 31
0.0
  0
LINE
  5
2B9
330
1E
100
AcDbEntity
  8
0
100
AcDbLine
 10
271.1
 20
292.8179999999999
 30
0.0
 11
274.8
 21
271.499
 31
0.0
  0
LINE
  5
2BA
330
1E
100
AcDbEntity
  8
0
100
AcDbLine
 10
274.8
 20
233.245
 30
0.0
 11
276.0
 21
252.372
 31
0.0
  0
LINE
  5
2BB
330
1E
100
AcDbEntity
  8
0
100
AcDbLine
 10
271.1
 20
211.927
 30
0.0
 11
274.8
 21
233.245
 31
0.0
  0
LINE
  5
2BC
330
1E
100
AcDbEntity
  8
0
100
AcDbLine
 10
265.3999999999999
 20
190.907
 30
0.0
 11
271.1
 21
211.927
 31
0.0
  0
LINE
  5
2BD
330
1E
100
AcDbEntity
  8
0
100
AcDbLine
 10
286.8999999999999
 20
295.607
 30
0.0
 11
290.8
 21
272.296
 31
0.0
  0
LINE
  5
2BE
330
1E
100
AcDbEntity
  8
0
100
AcDbLine
 10
280.3999999999999
 20
319.3159999999999
 30
0.0
 11
286.8999999999999
 21
295.607
 31
0.0
  0
LINE
  5
2BF
330
1E
100
AcDbEntity
  8
0
100
AcDbLine
 10
290.8
 20
272.296
 30
0.0
 11
292.0
 21
252.372
 31
0.0
  0
LINE
  5
2C0
330
1E
100
AcDbEntity
  8
0
100
AcDbLine
 10
290.8
 20
232.4479999999999
 30
0.0
 11
292.0
 21
252.372
 31
0.0
  0
LINE
  5
2C1
330
1E
100
AcDbEntity
  8
0
100
AcDbLine
 10
286.8999999999999
 20
209.1369999999999
 30
0.0
 11
290.8
 21
232.4479999999999
 31
0.0
  0
LINE
  5
2C2
330
1E
100
AcDbEntity
  8
0
100
AcDbLine
 10
280.3999999999999
 20
185.4279999999999
 30
0.0
 11
286.8999999999999
 21
209.1369999999999
 31
0.0
  0
LINE
  5
2C3
330
1E
100
AcDbEntity
  8
0
100
AcDbLine
 10
269.7
 20
161.8179999999999
 30
0.0
 11
280.3999999999999
 21
185.4279999999999
 31
0.0
  0
LINE
  5
2C4
330
1E
100
AcDbEntity
  8
0
100
AcDbLine
 10
257.6999999999999
 20
140.6989999999999
 30
0.0
 11
269.7
 21
161.8179999999999
 31
0.0
  0
LINE
  5
2C5
330
1E
100
AcDbEntity
  8
0
100
AcDbLine
 10
241.8
 20
124.062
 30
0.0
 11
257.6999999999999
 21
140.6989999999999
 31
0.0
  0
LINE
  5
2C6
330
1E
100
AcDbEntity
  8
0
100
AcDbLine
 10
235.2959999999999
 20
14.0
 30
0.0
 11
237.0
 21
13.16
 31
0.0
  0
LINE
  5
2C7
330
1E
100
AcDbEntity
  8
0
100
AcDbLine
 10
237.0
 20
13.16
 30
0.0
 11
237.0
 21
-0.0000000000000141
 31
0.0
  0
LINE
  5
2C8
330
1E
100
AcDbEntity
  8
0
100
AcDbLine
 10
227.6279999999999
 20
-0.0000000000000139
 30
0.0
 11
234.444
 21
-0.0000000000000144
 31
0.0
  0
LINE
  5
2C9
330
1E
100
AcDbEntity
  8
0
100
AcDbLine
 10
192.5
 20
777.0
 30
0.0
 11
192.5
 21
777.5
 31
0.0
  0
LINE
  5
2CA
330
1E
100
AcDbEntity
  8
0
100
AcDbLine
 10
192.5
 20
777.0
 30
0.0
 11
193.0
 21
777.0
 31
0.0
  0
LINE
  5
2CB
330
1E
100
AcDbEntity
  8
0
100
AcDbLine
 10
192.5
 20
779.0
 30
0.0
 11
192.5
 21
778.5
 31
0.0
  0
LINE
  5
2CC
330
1E
100
AcDbEntity
  8
0
100
AcDbLine
 10
192.5
 20
779.0
 30
0.0
 11
193.0
 21
779.0
 31
0.0
  0
LINE
  5
2CD
330
1E
100
AcDbEntity
  8
0
100
AcDbLine
 10
192.5
 20
778.5
 30
0.0
 11
192.5
 21
779.0
 31
0.0
  0
LINE
  5
2CE
330
1E
100
AcDbEntity
  8
0
100
AcDbLine
 10
192.5
 20
778.5
 30
0.0
 11
192.5
 21
777.5
 31
0.0
  0
LINE
  5
2CF
330
1E
100
AcDbEntity
  8
0
100
AcDbLine
 10
192.5
 20
778.5
 30
0.0
 11
193.0
 21
778.5
 31
0.0
  0
LINE
  5
2D0
330
1E
100
AcDbEntity
  8
0
100
AcDbLine
 10
192.5
 20
777.5
 30
0.0
 11
192.5
 21
778.5
 31
0.0
  0
LINE
  5
2D1
330
1E
100
AcDbEntity
  8
0
100
AcDbLine
 10
192.5
 20
777.5
 30
0.0
 11
193.0
 21
777.5
 31
0.0
  0
LINE
  5
2D2
330
1E
100
AcDbEntity
  8
0
100
AcDbLine
 10
192.5
 20
777.5
 30
0.0
 11
192.5
 21
777.0
 31
0.0
  0
LINE
  5
2D3
330
1E
100
AcDbEntity
  8
0
100
AcDbLine
 10
192.5
 20
772.2
 30
0.0
 11
193.0
 21
772.2
 31
0.0
  0
LINE
  5
2D4
330
1E
100
AcDbEntity
  8
0
100
AcDbLine
 10
192.5
 20
772.2
 30
0.0
 11
192.5
 21
771.7
 31
0.0
  0
LINE
  5
2D5
330
1E
100
AcDbEntity
  8
0
100
AcDbLine
 10
193.0
 20
777.0
 30
0.0
 11
193.0
 21
772.2
 31
0.0
  0
LINE
  5
2D6
330
1E
100
AcDbEntity
  8
0
100
AcDbLine
 10
192.5
 20
783.8
 30
0.0
 11
192.5
 21
784.2999999999999
 31
0.0
  0
LINE
  5
2D7
330
1E
100
AcDbEntity
  8
0
100
AcDbLine
 10
192.5
 20
783.8
 30
0.0
 11
193.0
 21
783.8
 31
0.0
  0
LINE
  5
2D8
330
1E
100
AcDbEntity
  8
0
100
AcDbLine
 10
192.5
 20
790.6
 30
0.0
 11
193.0
 21
790.6
 31
0.0
  0
LINE
  5
2D9
330
1E
100
AcDbEntity
  8
0
100
AcDbLine
 10
192.5
 20
790.6
 30
0.0
 11
192.5
 21
791.1
 31
0.0
  0
LINE
  5
2DA
330
1E
100
AcDbEntity
  8
0
100
AcDbLine
 10
192.5
 20
785.7999999999999
 30
0.0
 11
192.5
 21
785.2999999999999
 31
0.0
  0
LINE
  5
2DB
330
1E
100
AcDbEntity
  8
0
100
AcDbLine
 10
192.5
 20
785.7999999999999
 30
0.0
 11
193.0
 21
785.7999999999999
 31
0.0
  0
LINE
  5
2DC
330
1E
100
AcDbEntity
  8
0
100
AcDbLine
 10
192.5
 20
785.2999999999999
 30
0.0
 11
192.5
 21
785.7999999999999
 31
0.0
  0
LINE
  5
2DD
330
1E
100
AcDbEntity
  8
0
100
AcDbLine
 10
192.5
 20
785.2999999999999
 30
0.0
 11
192.5
 21
784.2999999999999
 31
0.0
  0
LINE
  5
2DE
330
1E
100
AcDbEntity
  8
0
100
AcDbLine
 10
192.5
 20
785.2999999999999
 30
0.0
 11
193.0
 21
785.2999999999999
 31
0.0
  0
LINE
  5
2DF
330
1E
100
AcDbEntity
  8
0
100
AcDbLine
 10
192.5
 20
784.2999999999999
 30
0.0
 11
192.5
 21
785.2999999999999
 31
0.0
  0
LINE
  5
2E0
330
1E
100
AcDbEntity
  8
0
100
AcDbLine
 10
192.5
 20
784.2999999999999
 30
0.0
 11
193.0
 21
784.2999999999999
 31
0.0
  0
LINE
  5
2E1
330
1E
100
AcDbEntity
  8
0
100
AcDbLine
 10
192.5
 20
784.2999999999999
 30
0.0
 11
192.5
 21
783.8
 31
0.0
  0
LINE
  5
2E2
330
1E
100
AcDbEntity
  8
0
100
AcDbLine
 10
192.5
 20
791.1
 30
0.0
 11
192.5
 21
790.6
 31
0.0
  0
LINE
  5
2E3
330
1E
100
AcDbEntity
  8
0
100
AcDbLine
 10
192.5
 20
791.1
 30
0.0
 11
193.0
 21
791.1
 31
0.0
  0
LINE
  5
2E4
330
1E
100
AcDbEntity
  8
0
100
AcDbLine
 10
192.5
 20
791.1
 30
0.0
 11
192.5
 21
792.1
 31
0.0
  0
LINE
  5
2E5
330
1E
100
AcDbEntity
  8
0
100
AcDbLine
 10
192.5
 20
792.6
 30
0.0
 11
193.0
 21
792.6
 31
0.0
  0
LINE
  5
2E6
330
1E
100
AcDbEntity
  8
0
100
AcDbLine
 10
192.5
 20
792.6
 30
0.0
 11
192.5
 21
792.1
 31
0.0
  0
LINE
  5
2E7
330
1E
100
AcDbEntity
  8
0
100
AcDbLine
 10
192.5
 20
792.1
 30
0.0
 11
192.5
 21
792.6
 31
0.0
  0
LINE
  5
2E8
330
1E
100
AcDbEntity
  8
0
100
AcDbLine
 10
192.5
 20
792.1
 30
0.0
 11
193.0
 21
792.1
 31
0.0
  0
LINE
  5
2E9
330
1E
100
AcDbEntity
  8
0
100
AcDbLine
 10
192.5
 20
792.1
 30
0.0
 11
192.5
 21
791.1
 31
0.0
  0
LINE
  5
2EA
330
1E
100
AcDbEntity
  8
0
100
AcDbLine
 10
193.0
 20
790.6
 30
0.0
 11
193.0
 21
785.7999999999999
 31
0.0
  0
LINE
  5
2EB
330
1E
100
AcDbEntity
  8
0
100
AcDbLine
 10
193.0
 20
783.8
 30
0.0
 11
193.0
 21
779.0
 31
0.0
  0
LINE
  5
2EC
330
1E
100
AcDbEntity
  8
0
100
AcDbLine
 10
193.0
 20
792.6
 30
0.0
 11
193.0
 21
797.4
 31
0.0
  0
LINE
  5
2ED
330
1E
100
AcDbEntity
  8
0
100
AcDbLine
 10
193.0
 20
785.7999999999999
 30
0.0
 11
193.0
 21
790.6
 31
0.0
  0
LINE
  5
2EE
330
1E
100
AcDbEntity
  8
0
100
AcDbLine
 10
193.0
 20
779.0
 30
0.0
 11
193.0
 21
783.8
 31
0.0
  0
LINE
  5
2EF
330
1E
100
AcDbEntity
  8
0
100
AcDbLine
 10
193.304
 20
772.2
 30
0.0
 11
193.61
 21
772.2
 31
0.0
  0
LINE
  5
2F1
330
1E
100
AcDbEntity
  8
0
100
AcDbLine
 10
193.61
 20
772.2
 30
0.0
 11
193.763
 21
771.7
 31
0.0
  0
LINE
  5
2F2
330
1E
100
AcDbEntity
  8
0
100
AcDbLine
 10
195.62
 20
772.2
 30
0.0
 11
196.201
 21
772.2
 31
0.0
  0
LINE
  5
2F3
330
1E
100
AcDbEntity
  8
0
100
AcDbLine
 10
193.61
 20
777.0
 30
0.0
 11
193.763
 21
777.5
 31
0.0
  0
LINE
  5
2F5
330
1E
100
AcDbEntity
  8
0
100
AcDbLine
 10
193.1509999999999
 20
777.5
 30
0.0
 11
193.1509999999999
 21
778.5
 31
0.0
  0
LINE
  5
2F6
330
1E
100
AcDbEntity
  8
0
100
AcDbLine
 10
193.1509999999999
 20
777.5
 30
0.0
 11
193.304
 21
777.0
 31
0.0
  0
LINE
  5
2F7
330
1E
100
AcDbEntity
  8
0
100
AcDbLine
 10
193.1509999999999
 20
778.5
 30
0.0
 11
193.304
 21
779.0
 31
0.0
  0
LINE
  5
2F8
330
1E
100
AcDbEntity
  8
0
100
AcDbLine
 10
193.1509999999999
 20
778.5
 30
0.0
 11
193.1509999999999
 21
777.5
 31
0.0
  0
LINE
  5
2FA
330
1E
100
AcDbEntity
  8
0
100
AcDbLine
 10
193.763
 20
778.5
 30
0.0
 11
193.763
 21
777.5
 31
0.0
  0
LINE
  5
2FB
330
1E
100
AcDbEntity
  8
0
100
AcDbLine
 10
193.304
 20
777.0
 30
0.0
 11
193.61
 21
777.0
 31
0.0
  0
LINE
  5
2FD
330
1E
100
AcDbEntity
  8
0
100
AcDbLine
 10
193.763
 20
777.5
 30
0.0
 11
193.763
 21
778.5
 31
0.0
  0
LINE
  5
2FF
330
1E
100
AcDbEntity
  8
0
100
AcDbLine
 10
193.304
 20
779.0
 30
0.0
 11
193.61
 21
779.0
 31
0.0
  0
LINE
  5
300
330
1E
100
AcDbEntity
  8
0
100
AcDbLine
 10
193.61
 20
779.0
 30
0.0
 11
193.763
 21
778.5
 31
0.0
  0
LINE
  5
302
330
1E
100
AcDbEntity
  8
0
100
AcDbLine
 10
195.33
 20
778.5
 30
0.0
 11
195.62
 21
779.0
 31
0.0
  0
LINE
  5
303
330
1E
100
AcDbEntity
  8
0
100
AcDbLine
 10
195.33
 20
778.5
 30
0.0
 11
195.33
 21
777.5
 31
0.0
  0
LINE
  5
304
330
1E
100
AcDbEntity
  8
0
100
AcDbLine
 10
195.33
 20
777.5
 30
0.0
 11
195.62
 21
777.0
 31
0.0
  0
LINE
  5
305
330
1E
100
AcDbEntity
  8
0
100
AcDbLine
 10
195.33
 20
777.5
 30
0.0
 11
195.33
 21
778.5
 31
0.0
  0
LINE
  5
306
330
1E
100
AcDbEntity
  8
0
100
AcDbLine
 10
193.61
 20
783.8
 30
0.0
 11
193.763
 21
784.2999999999999
 31
0.0
  0
LINE
  5
308
330
1E
100
AcDbEntity
  8
0
100
AcDbLine
 10
193.1509999999999
 20
784.2999999999999
 30
0.0
 11
193.1509999999999
 21
785.2999999999999
 31
0.0
  0
LINE
  5
309
330
1E
100
AcDbEntity
  8
0
100
AcDbLine
 10
193.1509999999999
 20
784.2999999999999
 30
0.0
 11
193.304
 21
783.8
 31
0.0
  0
LINE
  5
30A
330
1E
100
AcDbEntity
  8
0
100
AcDbLine
 10
193.1509999999999
 20
785.2999999999999
 30
0.0
 11
193.304
 21
785.7999999999999
 31
0.0
  0
LINE
  5
30B
330
1E
100
AcDbEntity
  8
0
100
AcDbLine
 10
193.1509999999999
 20
785.2999999999999
 30
0.0
 11
193.1509999999999
 21
784.2999999999999
 31
0.0
  0
LINE
  5
30D
330
1E
100
AcDbEntity
  8
0
100
AcDbLine
 10
193.763
 20
785.2999999999999
 30
0.0
 11
193.763
 21
784.2999999999999
 31
0.0
  0
LINE
  5
30E
330
1E
100
AcDbEntity
  8
0
100
AcDbLine
 10
193.304
 20
783.8
 30
0.0
 11
193.61
 21
783.8
 31
0.0
  0
LINE
  5
310
330
1E
100
AcDbEntity
  8
0
100
AcDbLine
 10
193.763
 20
784.2999999999999
 30
0.0
 11
193.763
 21
785.2999999999999
 31
0.0
  0
LINE
  5
312
330
1E
100
AcDbEntity
  8
0
100
AcDbLine
 10
193.304
 20
785.7999999999999
 30
0.0
 11
193.61
 21
785.7999999999999
 31
0.0
  0
LINE
  5
313
330
1E
100
AcDbEntity
  8
0
100
AcDbLine
 10
193.61
 20
785.7999999999999
 30
0.0
 11
193.763
 21
785.2999999999999
 31
0.0
  0
LINE
  5
315
330
1E
100
AcDbEntity
  8
0
100
AcDbLine
 10
195.33
 20
785.2999999999999
 30
0.0
 11
195.62
 21
785.7999999999999
 31
0.0
  0
LINE
  5
316
330
1E
100
AcDbEntity
  8
0
100
AcDbLine
 10
195.33
 20
785.2999999999999
 30
0.0
 11
195.33
 21
784.2999999999999
 31
0.0
  0
LINE
  5
317
330
1E
100
AcDbEntity
  8
0
100
AcDbLine
 10
195.33
 20
784.2999999999999
 30
0.0
 11
195.62
 21
783.8
 31
0.0
  0
LINE
  5
318
330
1E
100
AcDbEntity
  8
0
100
AcDbLine
 10
195.33
 20
784.2999999999999
 30
0.0
 11
195.33
 21
785.2999999999999
 31
0.0
  0
LINE
  5
319
330
1E
100
AcDbEntity
  8
0
100
AcDbLine
 10
193.1509999999999
 20
791.1
 30
0.0
 11
193.304
 21
790.6
 31
0.0
  0
LINE
  5
31A
330
1E
100
AcDbEntity
  8
0
100
AcDbLine
 10
193.1509999999999
 20
791.1
 30
0.0
 11
193.1509999999999
 21
792.1
 31
0.0
  0
LINE
  5
31B
330
1E
100
AcDbEntity
  8
0
100
AcDbLine
 10
193.304
 20
790.6
 30
0.0
 11
193.61
 21
790.6
 31
0.0
  0
LINE
  5
31E
330
1E
100
AcDbEntity
  8
0
100
AcDbLine
 10
193.763
 20
791.1
 30
0.0
 11
193.763
 21
792.1
 31
0.0
  0
LINE
  5
31F
330
1E
100
AcDbEntity
  8
0
100
AcDbLine
 10
193.61
 20
790.6
 30
0.0
 11
193.763
 21
791.1
 31
0.0
  0
LINE
  5
321
330
1E
100
AcDbEntity
  8
0
100
AcDbLine
 10
193.1509999999999
 20
792.1
 30
0.0
 11
193.304
 21
792.6
 31
0.0
  0
LINE
  5
322
330
1E
100
AcDbEntity
  8
0
100
AcDbLine
 10
193.1509999999999
 20
792.1
 30
0.0
 11
193.1509999999999
 21
791.1
 31
0.0
  0
LINE
  5
323
330
1E
100
AcDbEntity
  8
0
100
AcDbLine
 10
193.304
 20
792.6
 30
0.0
 11
193.61
 21
792.6
 31
0.0
  0
LINE
  5
325
330
1E
100
AcDbEntity
  8
0
100
AcDbLine
 10
193.763
 20
792.1
 30
0.0
 11
193.763
 21
791.1
 31
0.0
  0
LINE
  5
327
330
1E
100
AcDbEntity
  8
0
100
AcDbLine
 10
193.61
 20
792.6
 30
0.0
 11
193.763
 21
792.1
 31
0.0
  0
LINE
  5
328
330
1E
100
AcDbEntity
  8
0
100
AcDbLine
 10
195.33
 20
791.1
 30
0.0
 11
195.62
 21
790.6
 31
0.0
  0
LINE
  5
329
330
1E
100
AcDbEntity
  8
0
100
AcDbLine
 10
195.33
 20
791.1
 30
0.0
 11
195.33
 21
792.1
 31
0.0
  0
LINE
  5
32A
330
1E
100
AcDbEntity
  8
0
100
AcDbLine
 10
195.62
 20
790.6
 30
0.0
 11
196.202
 21
790.6
 31
0.0
  0
LINE
  5
32B
330
1E
100
AcDbEntity
  8
0
100
AcDbLine
 10
195.62
 20
790.6
 30
0.0
 11
196.204169381108
 21
790.6
 31
0.0
  0
LINE
  5
32C
330
1E
100
AcDbEntity
  8
0
100
AcDbLine
 10
195.62
 20
792.6
 30
0.0
 11
196.201
 21
792.6
 31
0.0
  0
LINE
  5
32D
330
1E
100
AcDbEntity
  8
0
100
AcDbLine
 10
195.33
 20
792.1
 30
0.0
 11
195.62
 21
792.6
 31
0.0
  0
LINE
  5
32E
330
1E
100
AcDbEntity
  8
0
100
AcDbLine
 10
195.33
 20
792.1
 30
0.0
 11
195.33
 21
791.1
 31
0.0
  0
LINE
  5
32F
330
1E
100
AcDbEntity
  8
0
100
AcDbLine
 10
195.62
 20
785.7999999999999
 30
0.0
 11
196.201
 21
785.7999999999999
 31
0.0
  0
LINE
  5
330
330
1E
100
AcDbEntity
  8
0
100
AcDbLine
 10
195.62
 20
783.8
 30
0.0
 11
196.202
 21
783.8
 31
0.0
  0
LINE
  5
331
330
1E
100
AcDbEntity
  8
0
100
AcDbLine
 10
195.62
 20
783.8
 30
0.0
 11
196.12
 21
783.8
 31
0.0
  0
LINE
  5
332
330
1E
100
AcDbEntity
  8
0
100
AcDbLine
 10
195.62
 20
779.0
 30
0.0
 11
196.201
 21
779.0
 31
0.0
  0
LINE
  5
333
330
1E
100
AcDbEntity
  8
0
100
AcDbLine
 10
196.492
 20
777.5
 30
0.0
 11
196.492
 21
778.5
 31
0.0
  0
LINE
  5
335
330
1E
100
AcDbEntity
  8
0
100
AcDbLine
 10
196.202
 20
790.6
 30
0.0
 11
196.5
 21
790.6
 31
0.0
  0
LINE
  5
336
330
1E
100
AcDbEntity
  8
0
100
AcDbLine
 10
196.202
 20
790.6
 30
0.0
 11
196.492
 21
791.1
 31
0.0
  0
LINE
  5
337
330
1E
100
AcDbEntity
  8
0
100
AcDbLine
 10
196.201
 20
792.6
 30
0.0
 11
196.5
 21
792.6
 31
0.0
  0
LINE
  5
338
330
1E
100
AcDbEntity
  8
0
100
AcDbLine
 10
196.201
 20
792.6
 30
0.0
 11
196.492
 21
792.1
 31
0.0
  0
LINE
  5
339
330
1E
100
AcDbEntity
  8
0
100
AcDbLine
 10
196.201
 20
785.7999999999999
 30
0.0
 11
196.492
 21
785.2999999999999
 31
0.0
  0
LINE
  5
33A
330
1E
100
AcDbEntity
  8
0
100
AcDbLine
 10
196.201
 20
785.7999999999999
 30
0.0
 11
196.5
 21
785.7999999999999
 31
0.0
  0
LINE
  5
33B
330
1E
100
AcDbEntity
  8
0
100
AcDbLine
 10
196.492
 20
784.2999999999999
 30
0.0
 11
196.492
 21
785.2999999999999
 31
0.0
  0
LINE
  5
33E
330
1E
100
AcDbEntity
  8
0
100
AcDbLine
 10
196.492
 20
792.1
 30
0.0
 11
196.492
 21
791.1
 31
0.0
  0
LINE
  5
33F
330
1E
100
AcDbEntity
  8
0
100
AcDbLine
 10
196.492
 20
791.1
 30
0.0
 11
196.492
 21
792.1
 31
0.0
  0
LINE
  5
341
330
1E
100
AcDbEntity
  8
0
100
AcDbLine
 10
196.492
 20
785.2999999999999
 30
0.0
 11
196.492
 21
784.2999999999999
 31
0.0
  0
LINE
  5
343
330
1E
100
AcDbEntity
  8
0
100
AcDbLine
 10
196.202
 20
783.8
 30
0.0
 11
196.492
 21
784.2999999999999
 31
0.0
  0
LINE
  5
344
330
1E
100
AcDbEntity
  8
0
100
AcDbLine
 10
196.202
 20
783.8
 30
0.0
 11
196.5
 21
783.8
 31
0.0
  0
LINE
  5
345
330
1E
100
AcDbEntity
  8
0
100
AcDbLine
 10
196.201
 20
779.0
 30
0.0
 11
196.492
 21
778.5
 31
0.0
  0
LINE
  5
346
330
1E
100
AcDbEntity
  8
0
100
AcDbLine
 10
196.201
 20
779.0
 30
0.0
 11
196.5
 21
779.0
 31
0.0
  0
LINE
  5
347
330
1E
100
AcDbEntity
  8
0
100
AcDbLine
 10
196.492
 20
778.5
 30
0.0
 11
196.492
 21
777.5
 31
0.0
  0
LINE
  5
349
330
1E
100
AcDbEntity
  8
0
100
AcDbLine
 10
196.202
 20
777.0
 30
0.0
 11
196.492
 21
777.5
 31
0.0
  0
LINE
  5
34A
330
1E
100
AcDbEntity
  8
0
100
AcDbLine
 10
196.202
 20
777.0
 30
0.0
 11
196.5
 21
777.0
 31
0.0
  0
LINE
  5
34B
330
1E
100
AcDbEntity
  8
0
100
AcDbLine
 10
195.62
 20
777.0
 30
0.0
 11
196.202
 21
777.0
 31
0.0
  0
LINE
  5
34C
330
1E
100
AcDbEntity
  8
0
100
AcDbLine
 10
195.62
 20
777.0
 30
0.0
 11
196.035830618893
 21
777.0
 31
0.0
  0
LINE
  5
34D
330
1E
100
AcDbEntity
  8
0
100
AcDbLine
 10
196.201
 20
772.2
 30
0.0
 11
196.5
 21
772.2
 31
0.0
  0
LINE
  5
34E
330
1E
100
AcDbEntity
  8
0
100
AcDbLine
 10
196.201
 20
772.2
 30
0.0
 11
196.492
 21
771.7
 31
0.0
  0
LINE
  5
34F
330
1E
100
AcDbEntity
  8
0
100
AcDbLine
 10
193.0
 20
772.2
 30
0.0
 11
193.0
 21
777.0
 31
0.0
  0
LINE
  5
350
330
1E
100
AcDbEntity
  8
0
100
AcDbLine
 10
122.0
 20
772.0
 30
0.0
 11
122.0
 21
793.9286054058129
 31
0.0
  0
LINE
  5
351
330
1E
100
AcDbEntity
  8
0
100
AcDbLine
 10
121.7359999999999
 20
772.0
 30
0.0
 11
122.0
 21
772.0
 31
0.0
  0
LINE
  5
352
330
1E
100
AcDbEntity
  8
0
100
AcDbLine
 10
121.7359999999999
 20
772.0
 30
0.0
 11
122.0
 21
771.4089999999999
 31
0.0
  0
LINE
  5
353
330
1E
100
AcDbEntity
  8
0
100
AcDbLine
 10
145.0
 20
807.0
 30
0.0
 11
145.7589999999999
 21
808.8789999999999
 31
0.0
  0
LINE
  5
354
330
1E
100
AcDbEntity
  8
0
100
AcDbLine
 10
145.0
 20
848.0
 30
0.0
 11
145.0
 21
863.4
 31
0.0
  0
LINE
  5
355
330
1E
100
AcDbEntity
  8
0
100
AcDbLine
 10
145.0
 20
848.0
 30
0.0
 11
145.617
 21
847.4429999999999
 31
0.0
  0
LINE
  5
356
330
1E
100
AcDbEntity
  8
0
100
AcDbLine
 10
145.0
 20
863.4
 30
0.0
 11
145.5039999999999
 21
864.0
 31
0.0
  0
LINE
  5
357
330
1E
100
AcDbEntity
  8
0
100
AcDbLine
 10
145.0
 20
863.4
 30
0.0
 11
145.7559999999999
 21
863.4
 31
0.0
  0
LINE
  5
358
330
1E
100
AcDbEntity
  8
0
100
AcDbLine
 10
145.0
 20
863.4
 30
0.0
 11
145.0
 21
848.0
 31
0.0
  0
LINE
  5
35F
330
1E
100
AcDbEntity
  8
0
100
AcDbLine
 10
145.1299999999999
 20
881.372906976744
 30
0.0
 11
145.1299999999999
 21
866.0
 31
0.0
  0
LINE
  5
360
330
1E
100
AcDbEntity
  8
0
100
AcDbLine
 10
145.5039999999999
 20
864.0
 30
0.0
 11
146.2599999999999
 21
864.0
 31
0.0
  0
LINE
  5
361
330
1E
100
AcDbEntity
  8
0
100
AcDbLine
 10
145.7559999999999
 20
863.4
 30
0.0
 11
147.772
 21
863.4
 31
0.0
  0
LINE
  5
362
330
1E
100
AcDbEntity
  8
0
100
AcDbLine
 10
145.7589999999999
 20
808.8789999999999
 30
0.0
 11
146.931
 21
811.58
 31
0.0
  0
LINE
  5
363
330
1E
100
AcDbEntity
  8
0
100
AcDbLine
 10
145.617
 20
847.4429999999999
 30
0.0
 11
146.924
 21
846.2869999999998
 31
0.0
  0
LINE
  5
364
330
1E
100
AcDbEntity
  8
0
100
AcDbLine
 10
146.0
 20
864.5930000000001
 30
0.0
 11
146.1473755305959
 21
866.0679502426949
 31
0.0
  0
LINE
  5
365
330
1E
100
AcDbEntity
  8
0
100
AcDbLine
 10
146.0
 20
864.5930000000001
 30
0.0
 11
146.0
 21
864.0
 31
0.0
  0
LINE
  5
366
330
1E
100
AcDbEntity
  8
0
100
AcDbLine
 10
146.0
 20
864.5930000000001
 30
0.0
 11
146.1473755305959
 21
866.0679502426949
 31
0.0
  0
LINE
  5
367
330
1E
100
AcDbEntity
  8
0
100
AcDbLine
 10
147.772
 20
863.4
 30
0.0
 11
151.1319999999999
 21
863.4
 31
0.0
  0
LINE
  5
368
330
1E
100
AcDbEntity
  8
0
100
AcDbLine
 10
146.931
 20
811.58
 30
0.0
 11
149.184
 21
816.1939999999999
 31
0.0
  0
LINE
  5
369
330
1E
100
AcDbEntity
  8
0
100
AcDbLine
 10
146.924
 20
846.2869999999998
 30
0.0
 11
149.065
 21
844.3619999999999
 31
0.0
  0
LINE
  5
36A
330
1E
100
AcDbEntity
  8
0
100
AcDbLine
 10
146.2599999999999
 20
864.0
 30
0.0
 11
148.276
 21
864.0
 31
0.0
  0
LINE
  5
36B
330
1E
100
AcDbEntity
  8
0
100
AcDbLine
 10
146.0
 20
864.0
 30
0.0
 11
146.0
 21
864.5930000000001
 31
0.0
  0
LINE
  5
36C
330
1E
100
AcDbEntity
  8
0
100
AcDbLine
 10
145.877
 20
866.0499999999998
 30
0.0
 11
148.0459999999999
 21
866.1939999999999
 31
0.0
  0
LINE
  5
36D
330
1E
100
AcDbEntity
  8
0
100
AcDbLine
 10
149.184
 20
816.1939999999999
 30
0.0
 11
151.436
 21
821.7319999999999
 31
0.0
  0
LINE
  5
36E
330
1E
100
AcDbEntity
  8
0
100
AcDbLine
 10
151.436
 20
821.7319999999999
 30
0.0
 11
153.734
 21
827.8999999999999
 31
0.0
  0
LINE
  5
36F
330
1E
100
AcDbEntity
  8
0
100
AcDbLine
 10
153.734
 20
827.8999999999999
 30
0.0
 11
154.365
 21
831.7379999999999
 31
0.0
  0
LINE
  5
370
330
1E
100
AcDbEntity
  8
0
100
AcDbLine
 10
148.276
 20
864.0
 30
0.0
 11
151.552
 21
864.0
 31
0.0
  0
LINE
  5
371
330
1E
100
AcDbEntity
  8
0
100
AcDbLine
 10
155.584
 20
863.4
 30
0.0
 11
160.6239999999999
 21
863.4
 31
0.0
  0
LINE
  5
372
330
1E
100
AcDbEntity
  8
0
100
AcDbLine
 10
155.836
 20
864.0
 30
0.0
 11
160.708
 21
864.0
 31
0.0
  0
LINE
  5
373
330
1E
100
AcDbEntity
  8
0
100
AcDbLine
 10
151.552
 20
864.0
 30
0.0
 11
155.836
 21
864.0
 31
0.0
  0
LINE
  5
374
330
1E
100
AcDbEntity
  8
0
100
AcDbLine
 10
151.1319999999999
 20
863.4
 30
0.0
 11
155.584
 21
863.4
 31
0.0
  0
LINE
  5
375
330
1E
100
AcDbEntity
  8
0
100
AcDbLine
 10
149.065
 20
844.3619999999999
 30
0.0
 11
151.512
 21
841.6319999999998
 31
0.0
  0
LINE
  5
376
330
1E
100
AcDbEntity
  8
0
100
AcDbLine
 10
153.8189999999999
 20
838.221
 30
0.0
 11
154.365
 21
831.7379999999999
 31
0.0
  0
LINE
  5
377
330
1E
100
AcDbEntity
  8
0
100
AcDbLine
 10
148.0459999999999
 20
866.1939999999999
 30
0.0
 11
151.485
 21
866.4239999999999
 31
0.0
  0
LINE
  5
378
330
1E
100
AcDbEntity
  8
0
100
AcDbLine
 10
151.485
 20
866.4239999999999
 30
0.0
 11
156.0459999999999
 21
866.7280000000001
 31
0.0
  0
LINE
  5
379
330
1E
100
AcDbEntity
  8
0
100
AcDbLine
 10
160.6239999999999
 20
863.4
 30
0.0
 11
166.0
 21
863.4
 31
0.0
  0
LINE
  5
37A
330
1E
100
AcDbEntity
  8
0
100
AcDbLine
 10
166.0
 20
863.4
 30
0.0
 11
171.3759999999999
 21
863.4
 31
0.0
  0
LINE
  5
37B
330
1E
100
AcDbEntity
  8
0
100
AcDbLine
 10
171.3759999999999
 20
863.4
 30
0.0
 11
176.4159999999999
 21
863.4
 31
0.0
  0
LINE
  5
37C
330
1E
100
AcDbEntity
  8
0
100
AcDbLine
 10
176.4159999999999
 20
863.4
 30
0.0
 11
180.868
 21
863.4
 31
0.0
  0
LINE
  5
37D
330
1E
100
AcDbEntity
  8
0
100
AcDbLine
 10
180.868
 20
863.4
 30
0.0
 11
184.2279999999999
 21
863.4
 31
0.0
  0
LINE
  5
37E
330
1E
100
AcDbEntity
  8
0
100
AcDbLine
 10
160.708
 20
864.0
 30
0.0
 11
166.0
 21
864.0
 31
0.0
  0
LINE
  5
37F
330
1E
100
AcDbEntity
  8
0
100
AcDbLine
 10
166.0
 20
864.0
 30
0.0
 11
171.2919999999999
 21
864.0
 31
0.0
  0
LINE
  5
380
330
1E
100
AcDbEntity
  8
0
100
AcDbLine
 10
171.2919999999999
 20
864.0
 30
0.0
 11
176.164
 21
864.0
 31
0.0
  0
LINE
  5
381
330
1E
100
AcDbEntity
  8
0
100
AcDbLine
 10
176.164
 20
864.0
 30
0.0
 11
180.4479999999999
 21
864.0
 31
0.0
  0
LINE
  5
382
330
1E
100
AcDbEntity
  8
0
100
AcDbLine
 10
180.4479999999999
 20
864.0
 30
0.0
 11
183.724
 21
864.0
 31
0.0
  0
LINE
  5
383
330
1E
100
AcDbEntity
  8
0
100
AcDbLine
 10
183.724
 20
864.0
 30
0.0
 11
185.74
 21
864.0
 31
0.0
  0
LINE
  5
384
330
1E
100
AcDbEntity
  8
0
100
AcDbLine
 10
185.74
 20
864.0
 30
0.0
 11
186.4959999999999
 21
864.0
 31
0.0
  0
LINE
  5
385
330
1E
100
AcDbEntity
  8
0
100
AcDbLine
 10
184.2279999999999
 20
863.4
 30
0.0
 11
186.244
 21
863.4
 31
0.0
  0
LINE
  5
386
330
1E
100
AcDbEntity
  8
0
100
AcDbLine
 10
186.244
 20
863.4
 30
0.0
 11
187.0
 21
863.4
 31
0.0
  0
LINE
  5
387
330
1E
100
AcDbEntity
  8
0
100
AcDbLine
 10
192.5
 20
797.4
 30
0.0
 11
192.5
 21
797.9
 31
0.0
  0
LINE
  5
388
330
1E
100
AcDbEntity
  8
0
100
AcDbLine
 10
192.5
 20
797.4
 30
0.0
 11
193.0
 21
797.4
 31
0.0
  0
LINE
  5
389
330
1E
100
AcDbEntity
  8
0
100
AcDbLine
 10
192.5
 20
799.3999999999999
 30
0.0
 11
192.5
 21
798.8999999999999
 31
0.0
  0
LINE
  5
38A
330
1E
100
AcDbEntity
  8
0
100
AcDbLine
 10
192.5
 20
799.3999999999999
 30
0.0
 11
193.0
 21
799.3999999999999
 31
0.0
  0
LINE
  5
38B
330
1E
100
AcDbEntity
  8
0
100
AcDbLine
 10
192.5
 20
798.8999999999999
 30
0.0
 11
192.5
 21
797.9
 31
0.0
  0
LINE
  5
38C
330
1E
100
AcDbEntity
  8
0
100
AcDbLine
 10
192.5
 20
798.8999999999999
 30
0.0
 11
192.5
 21
799.3999999999999
 31
0.0
  0
LINE
  5
38D
330
1E
100
AcDbEntity
  8
0
100
AcDbLine
 10
192.5
 20
798.8999999999999
 30
0.0
 11
193.0
 21
798.8999999999999
 31
0.0
  0
LINE
  5
38E
330
1E
100
AcDbEntity
  8
0
100
AcDbLine
 10
192.5
 20
806.2000000000001
 30
0.0
 11
193.0
 21
806.2000000000001
 31
0.0
  0
LINE
  5
38F
330
1E
100
AcDbEntity
  8
0
100
AcDbLine
 10
192.5
 20
806.2000000000001
 30
0.0
 11
192.5
 21
805.7
 31
0.0
  0
LINE
  5
390
330
1E
100
AcDbEntity
  8
0
100
AcDbLine
 10
192.5
 20
805.7
 30
0.0
 11
192.5
 21
804.7
 31
0.0
  0
LINE
  5
391
330
1E
100
AcDbEntity
  8
0
100
AcDbLine
 10
192.5
 20
805.7
 30
0.0
 11
193.0
 21
805.7
 31
0.0
  0
LINE
  5
392
330
1E
100
AcDbEntity
  8
0
100
AcDbLine
 10
192.5
 20
805.7
 30
0.0
 11
192.5
 21
806.2000000000001
 31
0.0
  0
LINE
  5
393
330
1E
100
AcDbEntity
  8
0
100
AcDbLine
 10
192.5
 20
804.7
 30
0.0
 11
192.5
 21
804.1999999999999
 31
0.0
  0
LINE
  5
394
330
1E
100
AcDbEntity
  8
0
100
AcDbLine
 10
192.5
 20
804.7
 30
0.0
 11
192.5
 21
805.7
 31
0.0
  0
LINE
  5
395
330
1E
100
AcDbEntity
  8
0
100
AcDbLine
 10
192.5
 20
804.7
 30
0.0
 11
193.0
 21
804.7
 31
0.0
  0
LINE
  5
396
330
1E
100
AcDbEntity
  8
0
100
AcDbLine
 10
192.5
 20
804.1999999999999
 30
0.0
 11
192.5
 21
804.7
 31
0.0
  0
LINE
  5
397
330
1E
100
AcDbEntity
  8
0
100
AcDbLine
 10
192.5
 20
804.1999999999999
 30
0.0
 11
193.0
 21
804.1999999999999
 31
0.0
  0
LINE
  5
398
330
1E
100
AcDbEntity
  8
0
100
AcDbLine
 10
192.5
 20
797.9
 30
0.0
 11
192.5
 21
797.4
 31
0.0
  0
LINE
  5
399
330
1E
100
AcDbEntity
  8
0
100
AcDbLine
 10
192.5
 20
797.9
 30
0.0
 11
193.0
 21
797.9
 31
0.0
  0
LINE
  5
39A
330
1E
100
AcDbEntity
  8
0
100
AcDbLine
 10
192.5
 20
797.9
 30
0.0
 11
192.5
 21
798.8999999999999
 31
0.0
  0
LINE
  5
39B
330
1E
100
AcDbEntity
  8
0
100
AcDbLine
 10
193.0
 20
804.1999999999999
 30
0.0
 11
193.0
 21
799.3999999999999
 31
0.0
  0
LINE
  5
39C
330
1E
100
AcDbEntity
  8
0
100
AcDbLine
 10
193.0
 20
797.4
 30
0.0
 11
193.0
 21
792.6
 31
0.0
  0
LINE
  5
39D
330
1E
100
AcDbEntity
  8
0
100
AcDbLine
 10
195.62
 20
797.4
 30
0.0
 11
196.202
 21
797.4
 31
0.0
  0
LINE
  5
39E
330
1E
100
AcDbEntity
  8
0
100
AcDbLine
 10
195.62
 20
797.4
 30
0.0
 11
196.233
 21
797.4
 31
0.0
  0
LINE
  5
39F
330
1E
100
AcDbEntity
  8
0
100
AcDbLine
 10
193.61
 20
797.4
 30
0.0
 11
193.763
 21
797.9
 31
0.0
  0
LINE
  5
3A2
330
1E
100
AcDbEntity
  8
0
100
AcDbLine
 10
193.763
 20
797.9
 30
0.0
 11
193.763
 21
798.8999999999999
 31
0.0
  0
LINE
  5
3A4
330
1E
100
AcDbEntity
  8
0
100
AcDbLine
 10
193.304
 20
797.4
 30
0.0
 11
193.61
 21
797.4
 31
0.0
  0
LINE
  5
3A5
330
1E
100
AcDbEntity
  8
0
100
AcDbLine
 10
193.1509999999999
 20
797.9
 30
0.0
 11
193.304
 21
797.4
 31
0.0
  0
LINE
  5
3A6
330
1E
100
AcDbEntity
  8
0
100
AcDbLine
 10
193.1509999999999
 20
797.9
 30
0.0
 11
193.1509999999999
 21
798.8999999999999
 31
0.0
  0
LINE
  5
3A7
330
1E
100
AcDbEntity
  8
0
100
AcDbLine
 10
193.1509999999999
 20
798.8999999999999
 30
0.0
 11
193.304
 21
799.3999999999999
 31
0.0
  0
LINE
  5
3A8
330
1E
100
AcDbEntity
  8
0
100
AcDbLine
 10
193.1509999999999
 20
798.8999999999999
 30
0.0
 11
193.1509999999999
 21
797.9
 31
0.0
  0
LINE
  5
3A9
330
1E
100
AcDbEntity
  8
0
100
AcDbLine
 10
193.304
 20
799.3999999999999
 30
0.0
 11
193.61
 21
799.3999999999999
 31
0.0
  0
LINE
  5
3AA
330
1E
100
AcDbEntity
  8
0
100
AcDbLine
 10
193.61
 20
799.3999999999999
 30
0.0
 11
193.763
 21
798.8999999999999
 31
0.0
  0
LINE
  5
3AC
330
1E
100
AcDbEntity
  8
0
100
AcDbLine
 10
193.304
 20
804.1999999999999
 30
0.0
 11
193.61
 21
804.1999999999999
 31
0.0
  0
LINE
  5
3AE
330
1E
100
AcDbEntity
  8
0
100
AcDbLine
 10
193.763
 20
798.8999999999999
 30
0.0
 11
193.763
 21
797.9
 31
0.0
  0
LINE
  5
3B0
330
1E
100
AcDbEntity
  8
0
100
AcDbLine
 10
195.33
 20
798.8999999999999
 30
0.0
 11
195.62
 21
799.3999999999999
 31
0.0
  0
LINE
  5
3B1
330
1E
100
AcDbEntity
  8
0
100
AcDbLine
 10
195.33
 20
798.8999999999999
 30
0.0
 11
195.33
 21
797.9
 31
0.0
  0
LINE
  5
3B2
330
1E
100
AcDbEntity
  8
0
100
AcDbLine
 10
195.62
 20
799.3999999999999
 30
0.0
 11
196.201
 21
799.3999999999999
 31
0.0
  0
LINE
  5
3B3
330
1E
100
AcDbEntity
  8
0
100
AcDbLine
 10
196.201
 20
799.3999999999999
 30
0.0
 11
196.492
 21
798.8999999999999
 31
0.0
  0
LINE
  5
3B4
330
1E
100
AcDbEntity
  8
0
100
AcDbLine
 10
196.201
 20
799.3999999999999
 30
0.0
 11
196.5
 21
799.3999999999999
 31
0.0
  0
LINE
  5
3B5
330
1E
100
AcDbEntity
  8
0
100
AcDbLine
 10
195.62
 20
804.1999999999999
 30
0.0
 11
196.202
 21
804.1999999999999
 31
0.0
  0
LINE
  5
3B6
330
1E
100
AcDbEntity
  8
0
100
AcDbLine
 10
195.62
 20
804.1999999999999
 30
0.0
 11
196.233
 21
804.1999999999999
 31
0.0
  0
LINE
  5
3B7
330
1E
100
AcDbEntity
  8
0
100
AcDbLine
 10
196.202
 20
804.1999999999999
 30
0.0
 11
196.492
 21
804.7
 31
0.0
  0
LINE
  5
3B8
330
1E
100
AcDbEntity
  8
0
100
AcDbLine
 10
196.202
 20
804.1999999999999
 30
0.0
 11
196.5
 21
804.1999999999999
 31
0.0
  0
LINE
  5
3B9
330
1E
100
AcDbEntity
  8
0
100
AcDbLine
 10
193.61
 20
804.1999999999999
 30
0.0
 11
193.763
 21
804.7
 31
0.0
  0
LINE
  5
3BB
330
1E
100
AcDbEntity
  8
0
100
AcDbLine
 10
195.33
 20
797.9
 30
0.0
 11
195.62
 21
797.4
 31
0.0
  0
LINE
  5
3BC
330
1E
100
AcDbEntity
  8
0
100
AcDbLine
 10
195.33
 20
797.9
 30
0.0
 11
195.33
 21
798.8999999999999
 31
0.0
  0
LINE
  5
3BD
330
1E
100
AcDbEntity
  8
0
100
AcDbLine
 10
196.492
 20
798.8999999999999
 30
0.0
 11
196.492
 21
797.9
 31
0.0
  0
LINE
  5
3C0
330
1E
100
AcDbEntity
  8
0
100
AcDbLine
 10
196.492
 20
797.9
 30
0.0
 11
196.492
 21
798.8999999999999
 31
0.0
  0
LINE
  5
3C1
330
1E
100
AcDbEntity
  8
0
100
AcDbLine
 10
196.202
 20
797.4
 30
0.0
 11
196.492
 21
797.9
 31
0.0
  0
LINE
  5
3C2
330
1E
100
AcDbEntity
  8
0
100
AcDbLine
 10
196.202
 20
797.4
 30
0.0
 11
196.5
 21
797.4
 31
0.0
  0
LINE
  5
3C3
330
1E
100
AcDbEntity
  8
0
100
AcDbLine
 10
193.1509999999999
 20
805.7
 30
0.0
 11
193.1509999999999
 21
804.7
 31
0.0
  0
LINE
  5
3C4
330
1E
100
AcDbEntity
  8
0
100
AcDbLine
 10
193.1509999999999
 20
805.7
 30
0.0
 11
193.304
 21
806.2000000000001
 31
0.0
  0
LINE
  5
3C5
330
1E
100
AcDbEntity
  8
0
100
AcDbLine
 10
193.1509999999999
 20
804.7
 30
0.0
 11
193.304
 21
804.1999999999999
 31
0.0
  0
LINE
  5
3C6
330
1E
100
AcDbEntity
  8
0
100
AcDbLine
 10
193.1509999999999
 20
804.7
 30
0.0
 11
193.1509999999999
 21
805.7
 31
0.0
  0
LINE
  5
3C7
330
1E
100
AcDbEntity
  8
0
100
AcDbLine
 10
193.763
 20
805.7
 30
0.0
 11
193.763
 21
804.7
 31
0.0
  0
LINE
  5
3CA
330
1E
100
AcDbEntity
  8
0
100
AcDbLine
 10
193.763
 20
804.7
 30
0.0
 11
193.763
 21
805.7
 31
0.0
  0
LINE
  5
3CB
330
1E
100
AcDbEntity
  8
0
100
AcDbLine
 10
195.33
 20
805.7
 30
0.0
 11
195.33
 21
804.7
 31
0.0
  0
LINE
  5
3CC
330
1E
100
AcDbEntity
  8
0
100
AcDbLine
 10
195.33
 20
805.7
 30
0.0
 11
195.62
 21
806.2000000000001
 31
0.0
  0
LINE
  5
3CD
330
1E
100
AcDbEntity
  8
0
100
AcDbLine
 10
195.33
 20
804.7
 30
0.0
 11
195.62
 21
804.1999999999999
 31
0.0
  0
LINE
  5
3CE
330
1E
100
AcDbEntity
  8
0
100
AcDbLine
 10
195.33
 20
804.7
 30
0.0
 11
195.33
 21
805.7
 31
0.0
  0
LINE
  5
3CF
330
1E
100
AcDbEntity
  8
0
100
AcDbLine
 10
193.304
 20
806.2000000000001
 30
0.0
 11
193.61
 21
806.2000000000001
 31
0.0
  0
LINE
  5
3D1
330
1E
100
AcDbEntity
  8
0
100
AcDbLine
 10
193.61
 20
806.2000000000001
 30
0.0
 11
193.763
 21
805.7
 31
0.0
  0
LINE
  5
3D2
330
1E
100
AcDbEntity
  8
0
100
AcDbLine
 10
195.62
 20
806.2000000000001
 30
0.0
 11
196.201
 21
806.2000000000001
 31
0.0
  0
LINE
  5
3D3
330
1E
100
AcDbEntity
  8
0
100
AcDbLine
 10
196.201
 20
806.2000000000001
 30
0.0
 11
196.5
 21
806.2000000000001
 31
0.0
  0
LINE
  5
3D4
330
1E
100
AcDbEntity
  8
0
100
AcDbLine
 10
196.201
 20
806.2000000000001
 30
0.0
 11
196.492
 21
805.7
 31
0.0
  0
LINE
  5
3D5
330
1E
100
AcDbEntity
  8
0
100
AcDbLine
 10
196.492
 20
805.7
 30
0.0
 11
196.492
 21
804.7
 31
0.0
  0
LINE
  5
3D8
330
1E
100
AcDbEntity
  8
0
100
AcDbLine
 10
196.492
 20
804.7
 30
0.0
 11
196.492
 21
805.7
 31
0.0
  0
LINE
  5
3D9
330
1E
100
AcDbEntity
  8
0
100
AcDbLine
 10
193.0
 20
799.3999999999999
 30
0.0
 11
193.0
 21
804.1999999999999
 31
0.0
  0
LINE
  5
3DA
330
1E
100
AcDbEntity
  8
0
100
AcDbLine
 10
192.5
 20
811.0
 30
0.0
 11
192.5
 21
811.5
 31
0.0
  0
LINE
  5
3DB
330
1E
100
AcDbEntity
  8
0
100
AcDbLine
 10
192.5
 20
811.0
 30
0.0
 11
193.0
 21
811.0
 31
0.0
  0
LINE
  5
3DC
330
1E
100
AcDbEntity
  8
0
100
AcDbLine
 10
192.5
 20
813.0
 30
0.0
 11
192.5
 21
812.5
 31
0.0
  0
LINE
  5
3DD
330
1E
100
AcDbEntity
  8
0
100
AcDbLine
 10
192.5
 20
813.0
 30
0.0
 11
193.0
 21
813.0
 31
0.0
  0
LINE
  5
3DE
330
1E
100
AcDbEntity
  8
0
100
AcDbLine
 10
192.5
 20
812.5
 30
0.0
 11
192.5
 21
813.0
 31
0.0
  0
LINE
  5
3DF
330
1E
100
AcDbEntity
  8
0
100
AcDbLine
 10
192.5
 20
812.5
 30
0.0
 11
192.5
 21
811.5
 31
0.0
  0
LINE
  5
3E0
330
1E
100
AcDbEntity
  8
0
100
AcDbLine
 10
192.5
 20
812.5
 30
0.0
 11
193.0
 21
812.5
 31
0.0
  0
LINE
  5
3E1
330
1E
100
AcDbEntity
  8
0
100
AcDbLine
 10
192.5
 20
811.5
 30
0.0
 11
192.5
 21
812.5
 31
0.0
  0
LINE
  5
3E2
330
1E
100
AcDbEntity
  8
0
100
AcDbLine
 10
192.5
 20
811.5
 30
0.0
 11
193.0
 21
811.5
 31
0.0
  0
LINE
  5
3E3
330
1E
100
AcDbEntity
  8
0
100
AcDbLine
 10
192.5
 20
811.5
 30
0.0
 11
192.5
 21
811.0
 31
0.0
  0
LINE
  5
3E4
330
1E
100
AcDbEntity
  8
0
100
AcDbLine
 10
193.0
 20
811.0
 30
0.0
 11
193.0
 21
806.2000000000001
 31
0.0
  0
LINE
  5
3E5
330
1E
100
AcDbEntity
  8
0
100
AcDbLine
 10
193.0
 20
834.5
 30
0.0
 11
193.5
 21
835.0
 31
0.0
  0
LINE
  5
3E6
330
1E
100
AcDbEntity
  8
0
100
AcDbLine
 10
193.0
 20
834.5
 30
0.0
 11
193.0
 21
815.4999999999999
 31
0.0
  0
LINE
  5
3E7
330
1E
100
AcDbEntity
  8
0
100
AcDbLine
 10
193.0
 20
834.5
 30
0.0
 11
193.4
 21
834.5
 31
0.0
  0
LINE
  5
3E8
330
1E
100
AcDbEntity
  8
0
100
AcDbLine
 10
193.0
 20
815.4999999999999
 30
0.0
 11
194.0
 21
815.0
 31
0.0
  0
LINE
  5
3E9
330
1E
100
AcDbEntity
  8
0
100
AcDbLine
 10
193.0
 20
815.4999999999999
 30
0.0
 11
193.0
 21
834.5
 31
0.0
  0
LINE
  5
3EA
330
1E
100
AcDbEntity
  8
0
100
AcDbLine
 10
193.0
 20
815.4999999999999
 30
0.0
 11
193.4
 21
815.4999999999999
 31
0.0
  0
LINE
  5
3EB
330
1E
100
AcDbEntity
  8
0
100
AcDbLine
 10
193.0
 20
814.4999999999999
 30
0.0
 11
194.0
 21
815.0
 31
0.0
  0
LINE
  5
3EC
330
1E
100
AcDbEntity
  8
0
100
AcDbLine
 10
193.0
 20
814.4999999999999
 30
0.0
 11
193.0
 21
813.0
 31
0.0
  0
LINE
  5
3ED
330
1E
100
AcDbEntity
  8
0
100
AcDbLine
 10
193.0
 20
814.4999999999999
 30
0.0
 11
193.4
 21
814.4999999999999
 31
0.0
  0
LINE
  5
3EE
330
1E
100
AcDbEntity
  8
0
100
AcDbLine
 10
193.61
 20
811.0
 30
0.0
 11
193.763
 21
811.5
 31
0.0
  0
LINE
  5
3F0
330
1E
100
AcDbEntity
  8
0
100
AcDbLine
 10
193.304
 20
811.0
 30
0.0
 11
193.61
 21
811.0
 31
0.0
  0
LINE
  5
3F2
330
1E
100
AcDbEntity
  8
0
100
AcDbLine
 10
193.1509999999999
 20
811.5
 30
0.0
 11
193.1509999999999
 21
812.5
 31
0.0
  0
LINE
  5
3F3
330
1E
100
AcDbEntity
  8
0
100
AcDbLine
 10
193.1509999999999
 20
811.5
 30
0.0
 11
193.304
 21
811.0
 31
0.0
  0
LINE
  5
3F4
330
1E
100
AcDbEntity
  8
0
100
AcDbLine
 10
193.304
 20
813.0
 30
0.0
 11
193.61
 21
813.0
 31
0.0
  0
LINE
  5
3F5
330
1E
100
AcDbEntity
  8
0
100
AcDbLine
 10
193.61
 20
813.0
 30
0.0
 11
193.763
 21
812.5
 31
0.0
  0
LINE
  5
3F7
330
1E
100
AcDbEntity
  8
0
100
AcDbLine
 10
193.1509999999999
 20
812.5
 30
0.0
 11
193.304
 21
813.0
 31
0.0
  0
LINE
  5
3F8
330
1E
100
AcDbEntity
  8
0
100
AcDbLine
 10
193.1509999999999
 20
812.5
 30
0.0
 11
193.1509999999999
 21
811.5
 31
0.0
  0
LINE
  5
3F9
330
1E
100
AcDbEntity
  8
0
100
AcDbLine
 10
193.763
 20
812.5
 30
0.0
 11
193.763
 21
811.5
 31
0.0
  0
LINE
  5
3FC
330
1E
100
AcDbEntity
  8
0
100
AcDbLine
 10
193.763
 20
811.5
 30
0.0
 11
193.763
 21
812.5
 31
0.0
  0
LINE
  5
3FD
330
1E
100
AcDbEntity
  8
0
100
AcDbLine
 10
195.33
 20
811.5
 30
0.0
 11
195.33
 21
812.5
 31
0.0
  0
LINE
  5
3FE
330
1E
100
AcDbEntity
  8
0
100
AcDbLine
 10
195.33
 20
811.5
 30
0.0
 11
195.62
 21
811.0
 31
0.0
  0
LINE
  5
3FF
330
1E
100
AcDbEntity
  8
0
100
AcDbLine
 10
196.202
 20
811.0
 30
0.0
 11
196.492
 21
811.5
 31
0.0
  0
LINE
  5
400
330
1E
100
AcDbEntity
  8
0
100
AcDbLine
 10
196.202
 20
811.0
 30
0.0
 11
196.5
 21
811.0
 31
0.0
  0
LINE
  5
401
330
1E
100
AcDbEntity
  8
0
100
AcDbLine
 10
195.62
 20
811.0
 30
0.0
 11
196.202
 21
811.0
 31
0.0
  0
LINE
  5
402
330
1E
100
AcDbEntity
  8
0
100
AcDbLine
 10
195.62
 20
811.0
 30
0.0
 11
196.233
 21
811.0
 31
0.0
  0
LINE
  5
403
330
1E
100
AcDbEntity
  8
0
100
AcDbLine
 10
195.33
 20
812.5
 30
0.0
 11
195.62
 21
813.0
 31
0.0
  0
LINE
  5
404
330
1E
100
AcDbEntity
  8
0
100
AcDbLine
 10
195.33
 20
812.5
 30
0.0
 11
195.33
 21
811.5
 31
0.0
  0
LINE
  5
405
330
1E
100
AcDbEntity
  8
0
100
AcDbLine
 10
195.62
 20
813.0
 30
0.0
 11
196.201
 21
813.0
 31
0.0
  0
LINE
  5
406
330
1E
100
AcDbEntity
  8
0
100
AcDbLine
 10
196.201
 20
813.0
 30
0.0
 11
196.492
 21
812.5
 31
0.0
  0
LINE
  5
407
330
1E
100
AcDbEntity
  8
0
100
AcDbLine
 10
196.201
 20
813.0
 30
0.0
 11
196.5
 21
813.0
 31
0.0
  0
LINE
  5
408
330
1E
100
AcDbEntity
  8
0
100
AcDbLine
 10
196.492
 20
812.5
 30
0.0
 11
196.492
 21
811.5
 31
0.0
  0
LINE
  5
40B
330
1E
100
AcDbEntity
  8
0
100
AcDbLine
 10
196.492
 20
811.5
 30
0.0
 11
196.492
 21
812.5
 31
0.0
  0
LINE
  5
40C
330
1E
100
AcDbEntity
  8
0
100
AcDbLine
 10
196.5
 20
814.4999999999999
 30
0.0
 11
199.0
 21
814.4999999999999
 31
0.0
  0
LINE
  5
40D
330
1E
100
AcDbEntity
  8
0
100
AcDbLine
 10
213.5
 20
814.4999999999999
 30
0.0
 11
215.3999999999999
 21
814.4999999999999
 31
0.0
  0
LINE
  5
40E
330
1E
100
AcDbEntity
  8
0
100
AcDbLine
 10
215.3999999999999
 20
814.4999999999999
 30
0.0
 11
216.5999999999999
 21
814.4999999999999
 31
0.0
  0
LINE
  5
40F
330
1E
100
AcDbEntity
  8
0
100
AcDbLine
 10
216.5999999999999
 20
814.4999999999999
 30
0.0
 11
217.0
 21
814.4999999999999
 31
0.0
  0
LINE
  5
410
330
1E
100
AcDbEntity
  8
0
100
AcDbLine
 10
211.0
 20
814.4999999999999
 30
0.0
 11
213.5
 21
814.4999999999999
 31
0.0
  0
LINE
  5
411
330
1E
100
AcDbEntity
  8
0
100
AcDbLine
 10
208.0999999999999
 20
814.4999999999999
 30
0.0
 11
211.0
 21
814.4999999999999
 31
0.0
  0
LINE
  5
412
330
1E
100
AcDbEntity
  8
0
100
AcDbLine
 10
205.0
 20
814.4999999999999
 30
0.0
 11
208.0999999999999
 21
814.4999999999999
 31
0.0
  0
LINE
  5
413
330
1E
100
AcDbEntity
  8
0
100
AcDbLine
 10
199.0
 20
814.4999999999999
 30
0.0
 11
201.9
 21
814.4999999999999
 31
0.0
  0
LINE
  5
414
330
1E
100
AcDbEntity
  8
0
100
AcDbLine
 10
201.9
 20
814.4999999999999
 30
0.0
 11
205.0
 21
814.4999999999999
 31
0.0
  0
LINE
  5
415
330
1E
100
AcDbEntity
  8
0
100
AcDbLine
 10
194.5999999999999
 20
814.4999999999999
 30
0.0
 11
196.5
 21
814.4999999999999
 31
0.0
  0
LINE
  5
416
330
1E
100
AcDbEntity
  8
0
100
AcDbLine
 10
193.9
 20
835.0
 30
0.0
 11
195.0
 21
835.0
 31
0.0
  0
LINE
  5
417
330
1E
100
AcDbEntity
  8
0
100
AcDbLine
 10
193.5
 20
835.0
 30
0.0
 11
193.9
 21
835.0
 31
0.0
  0
LINE
  5
418
330
1E
100
AcDbEntity
  8
0
100
AcDbLine
 10
193.4
 20
834.5
 30
0.0
 11
194.5999999999999
 21
834.5
 31
0.0
  0
LINE
  5
419
330
1E
100
AcDbEntity
  8
0
100
AcDbLine
 10
193.4
 20
815.4999999999999
 30
0.0
 11
194.5999999999999
 21
815.4999999999999
 31
0.0
  0
LINE
  5
41A
330
1E
100
AcDbEntity
  8
0
100
AcDbLine
 10
197.1999999999999
 20
815.0
 30
0.0
 11
199.5
 21
815.0
 31
0.0
  0
LINE
  5
41B
330
1E
100
AcDbEntity
  8
0
100
AcDbLine
 10
212.8
 20
815.0
 30
0.0
 11
214.5
 21
815.0
 31
0.0
  0
LINE
  5
41C
330
1E
100
AcDbEntity
  8
0
100
AcDbLine
 10
214.5
 20
815.0
 30
0.0
 11
215.6
 21
815.0
 31
0.0
  0
LINE
  5
41D
330
1E
100
AcDbEntity
  8
0
100
AcDbLine
 10
216.0
 20
815.0
 30
0.0
 11
217.0
 21
814.4999999999999
 31
0.0
  0
LINE
  5
41E
330
1E
100
AcDbEntity
  8
0
100
AcDbLine
 10
216.0
 20
815.0
 30
0.0
 11
217.0
 21
815.4999999999999
 31
0.0
  0
LINE
  5
41F
330
1E
100
AcDbEntity
  8
0
100
AcDbLine
 10
215.6
 20
815.0
 30
0.0
 11
216.0
 21
815.0
 31
0.0
  0
LINE
  5
420
330
1E
100
AcDbEntity
  8
0
100
AcDbLine
 10
210.4999999999999
 20
815.0
 30
0.0
 11
212.8
 21
815.0
 31
0.0
  0
LINE
  5
421
330
1E
100
AcDbEntity
  8
0
100
AcDbLine
 10
207.8
 20
815.0
 30
0.0
 11
210.4999999999999
 21
815.0
 31
0.0
  0
LINE
  5
422
330
1E
100
AcDbEntity
  8
0
100
AcDbLine
 10
205.0
 20
815.0
 30
0.0
 11
207.8
 21
815.0
 31
0.0
  0
LINE
  5
423
330
1E
100
AcDbEntity
  8
0
100
AcDbLine
 10
199.5
 20
815.0
 30
0.0
 11
202.1999999999999
 21
815.0
 31
0.0
  0
LINE
  5
424
330
1E
100
AcDbEntity
  8
0
100
AcDbLine
 10
202.1999999999999
 20
815.0
 30
0.0
 11
205.0
 21
815.0
 31
0.0
  0
LINE
  5
425
330
1E
100
AcDbEntity
  8
0
100
AcDbLine
 10
195.5
 20
815.0
 30
0.0
 11
197.1999999999999
 21
815.0
 31
0.0
  0
LINE
  5
426
330
1E
100
AcDbEntity
  8
0
100
AcDbLine
 10
194.5999999999999
 20
834.5
 30
0.0
 11
196.5
 21
834.5
 31
0.0
  0
LINE
  5
427
330
1E
100
AcDbEntity
  8
0
100
AcDbLine
 10
196.5
 20
815.4999999999999
 30
0.0
 11
199.0
 21
815.4999999999999
 31
0.0
  0
LINE
  5
428
330
1E
100
AcDbEntity
  8
0
100
AcDbLine
 10
196.5
 20
834.5
 30
0.0
 11
199.0
 21
834.5
 31
0.0
  0
LINE
  5
429
330
1E
100
AcDbEntity
  8
0
100
AcDbLine
 10
196.9
 20
835.0
 30
0.0
 11
199.3
 21
835.0
 31
0.0
  0
LINE
  5
42A
330
1E
100
AcDbEntity
  8
0
100
AcDbLine
 10
199.3
 20
835.0
 30
0.0
 11
202.0
 21
835.0
 31
0.0
  0
LINE
  5
42B
330
1E
100
AcDbEntity
  8
0
100
AcDbLine
 10
199.0
 20
834.5
 30
0.0
 11
201.9
 21
834.5
 31
0.0
  0
LINE
  5
42C
330
1E
100
AcDbEntity
  8
0
100
AcDbLine
 10
201.9
 20
834.5
 30
0.0
 11
205.0
 21
834.5
 31
0.0
  0
LINE
  5
42D
330
1E
100
AcDbEntity
  8
0
100
AcDbLine
 10
199.0
 20
815.4999999999999
 30
0.0
 11
201.9
 21
815.4999999999999
 31
0.0
  0
LINE
  5
42E
330
1E
100
AcDbEntity
  8
0
100
AcDbLine
 10
205.0
 20
835.0
 30
0.0
 11
208.0
 21
835.0
 31
0.0
  0
LINE
  5
42F
330
1E
100
AcDbEntity
  8
0
100
AcDbLine
 10
205.0
 20
834.5
 30
0.0
 11
208.0999999999999
 21
834.5
 31
0.0
  0
LINE
  5
430
330
1E
100
AcDbEntity
  8
0
100
AcDbLine
 10
213.5
 20
815.4999999999999
 30
0.0
 11
215.3999999999999
 21
815.4999999999999
 31
0.0
  0
LINE
  5
431
330
1E
100
AcDbEntity
  8
0
100
AcDbLine
 10
217.0
 20
815.4999999999999
 30
0.0
 11
217.0
 21
834.5
 31
0.0
  0
LINE
  5
432
330
1E
100
AcDbEntity
  8
0
100
AcDbLine
 10
215.3999999999999
 20
815.4999999999999
 30
0.0
 11
216.5999999999999
 21
815.4999999999999
 31
0.0
  0
LINE
  5
433
330
1E
100
AcDbEntity
  8
0
100
AcDbLine
 10
216.5999999999999
 20
815.4999999999999
 30
0.0
 11
217.0
 21
815.4999999999999
 31
0.0
  0
LINE
  5
434
330
1E
100
AcDbEntity
  8
0
100
AcDbLine
 10
211.0
 20
815.4999999999999
 30
0.0
 11
213.5
 21
815.4999999999999
 31
0.0
  0
LINE
  5
435
330
1E
100
AcDbEntity
  8
0
100
AcDbLine
 10
208.0
 20
835.0
 30
0.0
 11
210.6999999999999
 21
835.0
 31
0.0
  0
LINE
  5
436
330
1E
100
AcDbEntity
  8
0
100
AcDbLine
 10
213.5
 20
834.5
 30
0.0
 11
215.3999999999999
 21
834.5
 31
0.0
  0
LINE
  5
437
330
1E
100
AcDbEntity
  8
0
100
AcDbLine
 10
215.3999999999999
 20
834.5
 30
0.0
 11
216.5999999999999
 21
834.5
 31
0.0
  0
LINE
  5
438
330
1E
100
AcDbEntity
  8
0
100
AcDbLine
 10
217.0
 20
834.5
 30
0.0
 11
217.0
 21
815.4999999999999
 31
0.0
  0
LINE
  5
439
330
1E
100
AcDbEntity
  8
0
100
AcDbLine
 10
216.5999999999999
 20
834.5
 30
0.0
 11
217.0
 21
834.5
 31
0.0
  0
LINE
  5
43A
330
1E
100
AcDbEntity
  8
0
100
AcDbLine
 10
213.0999999999999
 20
835.0
 30
0.0
 11
215.0
 21
835.0
 31
0.0
  0
LINE
  5
43B
330
1E
100
AcDbEntity
  8
0
100
AcDbLine
 10
215.0
 20
835.0
 30
0.0
 11
216.1
 21
835.0
 31
0.0
  0
LINE
  5
43C
330
1E
100
AcDbEntity
  8
0
100
AcDbLine
 10
216.5
 20
835.0
 30
0.0
 11
217.0
 21
834.5
 31
0.0
  0
LINE
  5
43D
330
1E
100
AcDbEntity
  8
0
100
AcDbLine
 10
216.1
 20
835.0
 30
0.0
 11
216.5
 21
835.0
 31
0.0
  0
LINE
  5
43E
330
1E
100
AcDbEntity
  8
0
100
AcDbLine
 10
210.6999999999999
 20
835.0
 30
0.0
 11
213.0999999999999
 21
835.0
 31
0.0
  0
LINE
  5
43F
330
1E
100
AcDbEntity
  8
0
100
AcDbLine
 10
211.0
 20
834.5
 30
0.0
 11
213.5
 21
834.5
 31
0.0
  0
LINE
  5
440
330
1E
100
AcDbEntity
  8
0
100
AcDbLine
 10
208.0999999999999
 20
834.5
 30
0.0
 11
211.0
 21
834.5
 31
0.0
  0
LINE
  5
441
330
1E
100
AcDbEntity
  8
0
100
AcDbLine
 10
208.0999999999999
 20
815.4999999999999
 30
0.0
 11
211.0
 21
815.4999999999999
 31
0.0
  0
LINE
  5
442
330
1E
100
AcDbEntity
  8
0
100
AcDbLine
 10
205.0
 20
815.4999999999999
 30
0.0
 11
208.0999999999999
 21
815.4999999999999
 31
0.0
  0
LINE
  5
443
330
1E
100
AcDbEntity
  8
0
100
AcDbLine
 10
202.0
 20
835.0
 30
0.0
 11
205.0
 21
835.0
 31
0.0
  0
LINE
  5
444
330
1E
100
AcDbEntity
  8
0
100
AcDbLine
 10
201.9
 20
815.4999999999999
 30
0.0
 11
205.0
 21
815.4999999999999
 31
0.0
  0
LINE
  5
445
330
1E
100
AcDbEntity
  8
0
100
AcDbLine
 10
195.0
 20
835.0
 30
0.0
 11
196.9
 21
835.0
 31
0.0
  0
LINE
  5
446
330
1E
100
AcDbEntity
  8
0
100
AcDbLine
 10
194.5999999999999
 20
815.4999999999999
 30
0.0
 11
196.5
 21
815.4999999999999
 31
0.0
  0
LINE
  5
447
330
1E
100
AcDbEntity
  8
0
100
AcDbLine
 10
194.4
 20
815.0
 30
0.0
 11
195.5
 21
815.0
 31
0.0
  0
LINE
  5
448
330
1E
100
AcDbEntity
  8
0
100
AcDbLine
 10
194.0
 20
815.0
 30
0.0
 11
194.4
 21
815.0
 31
0.0
  0
LINE
  5
449
330
1E
100
AcDbEntity
  8
0
100
AcDbLine
 10
193.4
 20
814.4999999999999
 30
0.0
 11
194.5999999999999
 21
814.4999999999999
 31
0.0
  0
LINE
  5
44A
330
1E
100
AcDbEntity
  8
0
100
AcDbLine
 10
193.0
 20
813.0
 30
0.0
 11
193.0
 21
814.4999999999999
 31
0.0
  0
LINE
  5
44B
330
1E
100
AcDbEntity
  8
0
100
AcDbLine
 10
193.0
 20
806.2000000000001
 30
0.0
 11
193.0
 21
811.0
 31
0.0
  0
LINE
  5
44C
330
1E
100
AcDbEntity
  8
0
100
AcDbLine
 10
187.0
 20
852.0
 30
0.0
 11
187.0
 21
863.4
 31
0.0
  0
LINE
  5
44D
330
1E
100
AcDbEntity
  8
0
100
AcDbLine
 10
186.4959999999999
 20
864.0
 30
0.0
 11
187.0
 21
863.4
 31
0.0
  0
LINE
  5
44E
330
1E
100
AcDbEntity
  8
0
100
AcDbLine
 10
187.0
 20
863.4
 30
0.0
 11
187.0
 21
852.0
 31
0.0
  0
LINE
  5
44F
330
1E
100
AcDbEntity
  8
0
100
AcDbLine
 10
186.0
 20
864.0
 30
0.0
 11
186.0
 21
864.5930000000001
 31
0.0
  0
LINE
  5
450
330
1E
100
AcDbEntity
  8
0
100
AcDbLine
 10
186.0
 20
864.5930000000001
 30
0.0
 11
186.0
 21
864.0
 31
0.0
  0
LINE
  5
451
330
1E
100
AcDbEntity
  8
0
100
AcDbLine
 10
156.0459999999999
 20
866.7280000000001
 30
0.0
 11
161.205
 21
867.0720000000001
 31
0.0
  0
LINE
  5
452
330
1E
100
AcDbEntity
  8
0
100
AcDbLine
 10
185.63
 20
868.2960000000001
 30
0.0
 11
186.0
 21
864.5930000000001
 31
0.0
  0
LINE
  5
453
330
1E
100
AcDbEntity
  8
0
100
AcDbLine
 10
185.510772529023
 20
868.69313898606
 30
0.0
 11
185.63
 21
868.2960000000001
 31
0.0
  0
LINE
  5
454
330
1E
100
AcDbEntity
  8
0
100
AcDbLine
 10
187.0
 20
868.792
 30
0.0
 11
187.0
 21
897.8819999999998
 31
0.0
  0
LINE
  5
455
330
1E
100
AcDbEntity
  8
0
100
AcDbLine
 10
186.2579999999999
 20
868.743
 30
0.0
 11
187.0
 21
868.792
 31
0.0
  0
LINE
  5
456
330
1E
100
AcDbEntity
  8
0
100
AcDbLine
 10
184.085
 20
868.598
 30
0.0
 11
186.2579999999999
 21
868.743
 31
0.0
  0
LINE
  5
457
330
1E
100
AcDbEntity
  8
0
100
AcDbLine
 10
180.6459999999999
 20
868.3689999999998
 30
0.0
 11
184.085
 21
868.598
 31
0.0
  0
LINE
  5
458
330
1E
100
AcDbEntity
  8
0
100
AcDbLine
 10
176.0839999999999
 20
868.064
 30
0.0
 11
180.6459999999999
 21
868.3689999999998
 31
0.0
  0
LINE
  5
459
330
1E
100
AcDbEntity
  8
0
100
AcDbLine
 10
170.925
 20
867.72
 30
0.0
 11
176.0839999999999
 21
868.064
 31
0.0
  0
LINE
  5
45A
330
1E
100
AcDbEntity
  8
0
100
AcDbLine
 10
166.0649999999999
 20
867.3960000000001
 30
0.0
 11
170.925
 21
867.72
 31
0.0
  0
LINE
  5
45B
330
1E
100
AcDbEntity
  8
0
100
AcDbLine
 10
161.205
 20
867.0720000000001
 30
0.0
 11
166.0649999999999
 21
867.3960000000001
 31
0.0
  0
LINE
  5
45C
330
1E
100
AcDbEntity
  8
0
100
AcDbLine
 10
145.1299999999999
 20
866.0
 30
0.0
 11
145.1299999999999
 21
881.372906976744
 31
0.0
  0
LINE
  5
45D
330
1E
100
AcDbEntity
  8
0
100
AcDbLine
 10
145.1299999999999
 20
866.0
 30
0.0
 11
145.877
 21
866.0499999999998
 31
0.0
  0
LINE
  5
45E
330
1E
100
AcDbEntity
  8
0
100
AcDbLine
 10
145.1299999999999
 20
887.0987746478871
 30
0.0
 11
145.1299999999999
 21
881.372906976744
 31
0.0
  0
LINE
  5
45F
330
1E
100
AcDbEntity
  8
0
100
AcDbLine
 10
145.1299999999999
 20
897.8819999999998
 30
0.0
 11
145.578
 21
898.8699999999999
 31
0.0
  0
LINE
  5
460
330
1E
100
AcDbEntity
  8
0
100
AcDbLine
 10
145.1299999999999
 20
897.8819999999998
 30
0.0
 11
145.1299999999999
 21
894.8999999999999
 31
0.0
  0
LINE
  5
461
330
1E
100
AcDbEntity
  8
0
100
AcDbLine
 10
145.1299999999999
 20
881.372906976744
 30
0.0
 11
145.1299999999999
 21
887.0987746478871
 31
0.0
  0
LINE
  5
462
330
1E
100
AcDbEntity
  8
0
100
AcDbLine
 10
146.326
 20
898.8699999999999
 30
0.0
 11
148.4189999999999
 21
898.8699999999999
 31
0.0
  0
LINE
  5
463
330
1E
100
AcDbEntity
  8
0
100
AcDbLine
 10
148.4189999999999
 20
898.8699999999999
 30
0.0
 11
151.859
 21
898.8699999999999
 31
0.0
  0
LINE
  5
464
330
1E
100
AcDbEntity
  8
0
100
AcDbLine
 10
151.859
 20
898.8699999999999
 30
0.0
 11
156.27
 21
898.8699999999999
 31
0.0
  0
LINE
  5
465
330
1E
100
AcDbEntity
  8
0
100
AcDbLine
 10
156.27
 20
898.8699999999999
 30
0.0
 11
161.3539999999999
 21
898.8699999999999
 31
0.0
  0
LINE
  5
466
330
1E
100
AcDbEntity
  8
0
100
AcDbLine
 10
185.804
 20
898.8699999999999
 30
0.0
 11
186.551
 21
898.8699999999999
 31
0.0
  0
LINE
  5
467
330
1E
100
AcDbEntity
  8
0
100
AcDbLine
 10
183.71
 20
898.8699999999999
 30
0.0
 11
185.804
 21
898.8699999999999
 31
0.0
  0
LINE
  5
468
330
1E
100
AcDbEntity
  8
0
100
AcDbLine
 10
180.2709999999999
 20
898.8699999999999
 30
0.0
 11
183.71
 21
898.8699999999999
 31
0.0
  0
LINE
  5
469
330
1E
100
AcDbEntity
  8
0
100
AcDbLine
 10
175.859
 20
898.8699999999999
 30
0.0
 11
180.2709999999999
 21
898.8699999999999
 31
0.0
  0
LINE
  5
46A
330
1E
100
AcDbEntity
  8
0
100
AcDbLine
 10
170.775
 20
898.8699999999999
 30
0.0
 11
175.859
 21
898.8699999999999
 31
0.0
  0
LINE
  5
46B
330
1E
100
AcDbEntity
  8
0
100
AcDbLine
 10
166.0649999999999
 20
898.8699999999999
 30
0.0
 11
170.775
 21
898.8699999999999
 31
0.0
  0
LINE
  5
46C
330
1E
100
AcDbEntity
  8
0
100
AcDbLine
 10
161.3539999999999
 20
898.8699999999999
 30
0.0
 11
166.0649999999999
 21
898.8699999999999
 31
0.0
  0
LINE
  5
46D
330
1E
100
AcDbEntity
  8
0
100
AcDbLine
 10
186.551
 20
898.8699999999999
 30
0.0
 11
187.0
 21
897.8819999999998
 31
0.0
  0
LINE
  5
46E
330
1E
100
AcDbEntity
  8
0
100
AcDbLine
 10
187.0
 20
897.8819999999998
 30
0.0
 11
187.0
 21
868.792
 31
0.0
  0
LINE
  5
46F
330
1E
100
AcDbEntity
  8
0
100
AcDbLine
 10
177.28
 20
899.647
 30
0.0
 11
185.505
 21
899.294
 31
0.0
  0
LINE
  5
470
330
1E
100
AcDbEntity
  8
0
100
AcDbLine
 10
185.505
 20
899.294
 30
0.0
 11
186.551
 21
898.8699999999999
 31
0.0
  0
LINE
  5
471
330
1E
100
AcDbEntity
  8
0
100
AcDbLine
 10
166.0649999999999
 20
900.0
 30
0.0
 11
177.28
 21
899.647
 31
0.0
  0
LINE
  5
472
330
1E
100
AcDbEntity
  8
0
100
AcDbLine
 10
154.8499999999999
 20
899.647
 30
0.0
 11
166.0649999999999
 21
900.0
 31
0.0
  0
LINE
  5
473
330
1E
100
AcDbEntity
  8
0
100
AcDbLine
 10
146.625
 20
899.294
 30
0.0
 11
154.8499999999999
 21
899.647
 31
0.0
  0
LINE
  5
474
330
1E
100
AcDbEntity
  8
0
100
AcDbLine
 10
145.578
 20
898.8699999999999
 30
0.0
 11
146.625
 21
899.294
 31
0.0
  0
LINE
  5
475
330
1E
100
AcDbEntity
  8
0
100
AcDbLine
 10
145.578
 20
898.8699999999999
 30
0.0
 11
146.326
 21
898.8699999999999
 31
0.0
  0
LINE
  5
476
330
1E
100
AcDbEntity
  8
0
100
AcDbLine
 10
145.1299999999999
 20
894.8999999999999
 30
0.0
 11
145.1299999999999
 21
897.8819999999998
 31
0.0
  0
LINE
  5
47E
330
1E
100
AcDbEntity
  8
0
100
AcDbLine
 10
122.0
 20
793.9286054058129
 30
0.0
 11
145.0
 21
807.0
 31
0.0
  0
LINE
  5
47F
330
1E
100
AcDbEntity
  8
0
100
AcDbLine
 10
122.0
 20
793.9286054058129
 30
0.0
 11
122.0
 21
772.0
 31
0.0
  0
LINE
  5
480
330
1E
100
AcDbEntity
  8
0
100
AcDbLine
 10
100.0
 20
772.0
 30
0.0
 11
100.2639999999999
 21
772.0
 31
0.0
  0
LINE
  5
481
330
1E
100
AcDbEntity
  8
0
100
AcDbLine
 10
100.0
 20
772.0
 30
0.0
 11
100.4
 21
772.0
 31
0.0
  0
LINE
  5
482
330
1E
100
AcDbEntity
  8
0
100
AcDbLine
 10
100.0
 20
772.0
 30
0.0
 11
100.0
 21
781.4255323157209
 31
0.0
  0
LINE
  5
487
330
1E
100
AcDbEntity
  8
0
100
AcDbLine
 10
153.8189999999999
 20
838.221
 30
0.0
 11
151.512
 21
841.6319999999998
 31
0.0
  0
LINE
  5
488
330
1E
100
AcDbEntity
  8
0
100
AcDbLine
 10
184.2279999999999
 20
619.5
 30
0.0
 11
184.2279999999999
 21
659.4999999999999
 31
0.0
  0
LINE
  5
489
330
1E
100
AcDbEntity
  8
0
100
AcDbLine
 10
100.04006468802
 20
781.4483019394769
 30
0.0
 11
122.0
 21
793.9286054058129
 31
0.0
  0
ENDSEC
  0
SECTION
  2
OBJECTS
  0
DICTIONARY
  5
C
330
0
100
AcDbDictionary
281
     1
  3
ACAD_GROUP
350
D
  3
ACAD_LAYOUT
350
19
  3
ACAD_MLINESTYLE
350
16
  3
ACAD_PLOTSETTINGS
350
18
  3
ACAD_PLOTSTYLENAME
350
E
  3
AcDbVariableDictionary
350
48A
  0
DICTIONARY
  5
D
102
{ACAD_REACTORS
330
C
102
}
330
C
100
AcDbDictionary
281
     1
  0
DICTIONARY
  5
19
102
{ACAD_REACTORS
330
C
102
}
330
C
100
AcDbDictionary
281
     1
  3
Layout1
350
1D
  3
Model
350
21
  0
DICTIONARY
  5
16
102
{ACAD_REACTORS
330
C
102
}
330
C
100
AcDbDictionary
281
     1
  3
Standard
350
17
  0
DICTIONARY
  5
18
102
{ACAD_REACTORS
330
C
102
}
330
C
100
AcDbDictionary
281
     1
  0
ACDBDICTIONARYWDFLT
  5
E
102
{ACAD_REACTORS
330
C
102
}
330
C
100
AcDbDictionary
281
     1
  3
Normal
350
F
100
AcDbDictionaryWithDefault
340
F
  0
DICTIONARY
  5
48A
102
{ACAD_REACTORS
330
C
102
}
330
C
100
AcDbDictionary
281
     1
  3
DIMASSOC
350
48B
  0
LAYOUT
  5
1D
102
{ACAD_REACTORS
330
19
102
}
330
19
100
AcDbPlotSettings
  1

  2
hp deskjet 980c series
  4

  6

 40
0.0
 41
0.0
 42
0.0
 43
0.0
 44
0.0
 45
0.0
 46
0.0
 47
0.0
 48
0.0
 49
0.0
140
0.0
141
0.0
142
1.0
143
1.0
 70
   688
 72
     0
 73
     0
 74
     5
  7

 75
    16
147
1.0
148
0.0
149
0.0
100
AcDbLayout
  1
Layout1
 70
     1
 71
     1
 10
0.0
 20
0.0
 11
12.0
 21
9.0
 12
0.0
 22
0.0
 32
0.0
 14
1.000000000000000E+20
 24
1.000000000000000E+20
 34
1.000000000000000E+20
 15
-1.000000000000000E+20
 25
-1.000000000000000E+20
 35
-1.000000000000000E+20
146
0.0
 13
0.0
 23
0.0
 33
0.0
 16
1.0
 26
0.0
 36
0.0
 17
0.0
 27
1.0
 37
0.0
 76
     0
330
1A
  0
LAYOUT
  5
21
102
{ACAD_REACTORS
330
19
102
}
330
19
100
AcDbPlotSettings
  1

  2
hp deskjet 980c series
  4

  6

 40
0.0
 41
0.0
 42
0.0
 43
0.0
 44
0.0
 45
0.0
 46
0.0
 47
0.0
 48
0.0
 49
0.0
140
0.0
141
0.0
142
1.0
143
1.0
 70
  1712
 72
     0
 73
     0
 74
     0
  7

 75
     0
147
1.0
148
0.0
149
0.0
100
AcDbLayout
  1
Model
 70
     1
 71
     0
 10
0.0
 20
0.0
 11
12.0
 21
9.0
 12
0.0
 22
0.0
 32
0.0
 14
0.0
 24
0.0
 34
0.0
 15
0.0
 25
0.0
 35
0.0
146
0.0
 13
0.0
 23
0.0
 33
0.0
 16
1.0
 26
0.0
 36
0.0
 17
0.0
 27
1.0
 37
0.0
 76
     0
330
1E
  0
MLINESTYLE
  5
17
102
{ACAD_REACTORS
330
16
102
}
330
16
100
AcDbMlineStyle
  2
STANDARD
 70
     0
  3

 62
   256
 51
90.0
 52
90.0
 71
     2
 49
0.5
 62
   256
  6
BYLAYER
 49
-0.5
 62
   256
  6
BYLAYER
  0
ACDBPLACEHOLDER
  5
F
102
{ACAD_REACTORS
330
E
102
}
330
E
  0
DICTIONARYVAR
  5
48B
102
{ACAD_REACTORS
330
48A
102
}
330
48A
100
DictionaryVariables
280
     0
  1
1
  0
ENDSEC
  0
EOF
