  0
SECTION
  2
HEADER
  9
$ACADVER
  1
AC1015
  9
$ACADMAINTVER
 70
    13
  9
$DWGCODEPAGE
  3
ANSI_1252
  9
$INSBASE
 10
0.0
 20
0.0
 30
0.0
  9
$EXTMIN
 10
0.0
 20
0.0
 30
0.0
  9
$EXTMAX
 10
624.0
 20
399.0
 30
0.0
  9
$LIMMIN
 10
0.0
 20
0.0
  9
$LIMMAX
 10
12.0
 20
9.0
  9
$ORTHOMODE
 70
     0
  9
$REGENMODE
 70
     1
  9
$FILLMODE
 70
     1
  9
$QTEXTMODE
 70
     0
  9
$MIRRTEXT
 70
     1
  9
$LTSCALE
 40
1.0
  9
$ATTMODE
 70
     1
  9
$TEXTSIZE
 40
0.2
  9
$TRACEWID
 40
0.05
  9
$TEXTSTYLE
  7
Standard
  9
$CLAYER
  8
0
  9
$CELTYPE
  6
Continuous
  9
$CECOLOR
 62
   256
  9
$CELTSCALE
 40
1.0
  9
$DISPSILH
 70
     0
  9
$DIMSCALE
 40
1.0
  9
$DIMASZ
 40
0.18
  9
$DIMEXO
 40
0.0625
  9
$DIMDLI
 40
0.38
  9
$DIMRND
 40
0.0
  9
$DIMDLE
 40
0.0
  9
$DIMEXE
 40
0.18
  9
$DIMTP
 40
0.0
  9
$DIMTM
 40
0.0
  9
$DIMTXT
 40
0.18
  9
$DIMCEN
 40
0.09
  9
$DIMTSZ
 40
0.0
  9
$DIMTOL
 70
     0
  9
$DIMLIM
 70
     0
  9
$DIMTIH
 70
     1
  9
$DIMTOH
 70
     1
  9
$DIMSE1
 70
     0
  9
$DIMSE2
 70
     0
  9
$DIMTAD
 70
     0
  9
$DIMZIN
 70
     0
  9
$DIMBLK
  1

  9
$DIMASO
 70
     1
  9
$DIMSHO
 70
     1
  9
$DIMPOST
  1

  9
$DIMAPOST
  1

  9
$DIMALT
 70
     0
  9
$DIMALTD
 70
     2
  9
$DIMALTF
 40
25.4
  9
$DIMLFAC
 40
1.0
  9
$DIMTOFL
 70
     0
  9
$DIMTVP
 40
0.0
  9
$DIMTIX
 70
     0
  9
$DIMSOXD
 70
     0
  9
$DIMSAH
 70
     0
  9
$DIMBLK1
  1

  9
$DIMBLK2
  1

  9
$DIMSTYLE
  2
Standard
  9
$DIMCLRD
 70
     0
  9
$DIMCLRE
 70
     0
  9
$DIMCLRT
 70
     0
  9
$DIMTFAC
 40
1.0
  9
$DIMGAP
 40
0.09
  9
$DIMJUST
 70
     0
  9
$DIMSD1
 70
     0
  9
$DIMSD2
 70
     0
  9
$DIMTOLJ
 70
     1
  9
$DIMTZIN
 70
     0
  9
$DIMALTZ
 70
     0
  9
$DIMALTTZ
 70
     0
  9
$DIMUPT
 70
     0
  9
$DIMDEC
 70
     4
  9
$DIMTDEC
 70
     4
  9
$DIMALTU
 70
     2
  9
$DIMALTTD
 70
     2
  9
$DIMTXSTY
  7
Standard
  9
$DIMAUNIT
 70
     0
  9
$DIMADEC
 70
     0
  9
$DIMALTRND
 40
0.0
  9
$DIMAZIN
 70
     0
  9
$DIMDSEP
 70
    46
  9
$DIMATFIT
 70
     3
  9
$DIMFRAC
 70
     0
  9
$DIMLDRBLK
  1

  9
$DIMLUNIT
 70
     2
  9
$DIMLWD
 70
    -2
  9
$DIMLWE
 70
    -2
  9
$DIMTMOVE
 70
     0
  9
$LUNITS
 70
     2
  9
$LUPREC
 70
     4
  9
$SKETCHINC
 40
0.1
  9
$FILLETRAD
 40
0.0
  9
$AUNITS
 70
     0
  9
$AUPREC
 70
     0
  9
$MENU
  1
.
  9
$ELEVATION
 40
0.0
  9
$PELEVATION
 40
0.0
  9
$THICKNESS
 40
0.0
  9
$LIMCHECK
 70
     0
  9
$CHAMFERA
 40
0.0
  9
$CHAMFERB
 40
0.0
  9
$CHAMFERC
 40
0.0
  9
$CHAMFERD
 40
0.0
  9
$SKPOLY
 70
     0
  9
$TDCREATE
 40
2454874.845652303
  9
$TDUCREATE
 40
2454874.803985636
  9
$TDUPDATE
 40
2454875.798565706
  9
$TDUUPDATE
 40
2454875.756899039
  9
$TDINDWG
 40
0.0037122106
  9
$TDUSRTIMER
 40
0.0037122106
  9
$USRTIMER
 70
     1
  9
$ANGBASE
 50
0.0
  9
$ANGDIR
 70
     0
  9
$PDMODE
 70
     0
  9
$PDSIZE
 40
0.0
  9
$PLINEWID
 40
0.0
  9
$SPLFRAME
 70
     0
  9
$SPLINETYPE
 70
     6
  9
$SPLINESEGS
 70
     8
  9
$HANDSEED
  5
2A0
  9
$SURFTAB1
 70
     6
  9
$SURFTAB2
 70
     6
  9
$SURFTYPE
 70
     6
  9
$SURFU
 70
     6
  9
$SURFV
 70
     6
  9
$UCSBASE
  2

  9
$UCSNAME
  2

  9
$UCSORG
 10
0.0
 20
0.0
 30
0.0
  9
$UCSXDIR
 10
1.0
 20
0.0
 30
0.0
  9
$UCSYDIR
 10
0.0
 20
1.0
 30
0.0
  9
$UCSORTHOREF
  2

  9
$UCSORTHOVIEW
 70
     1
  9
$UCSORGTOP
 10
0.0
 20
0.0
 30
0.0
  9
$UCSORGBOTTOM
 10
0.0
 20
0.0
 30
0.0
  9
$UCSORGLEFT
 10
0.0
 20
0.0
 30
0.0
  9
$UCSORGRIGHT
 10
0.0
 20
0.0
 30
0.0
  9
$UCSORGFRONT
 10
0.0
 20
0.0
 30
0.0
  9
$UCSORGBACK
 10
0.0
 20
0.0
 30
0.0
  9
$PUCSBASE
  2

  9
$PUCSNAME
  2

  9
$PUCSORG
 10
0.0
 20
0.0
 30
0.0
  9
$PUCSXDIR
 10
1.0
 20
0.0
 30
0.0
  9
$PUCSYDIR
 10
0.0
 20
1.0
 30
0.0
  9
$PUCSORTHOREF
  2

  9
$PUCSORTHOVIEW
 70
     0
  9
$PUCSORGTOP
 10
0.0
 20
0.0
 30
0.0
  9
$PUCSORGBOTTOM
 10
0.0
 20
0.0
 30
0.0
  9
$PUCSORGLEFT
 10
0.0
 20
0.0
 30
0.0
  9
$PUCSORGRIGHT
 10
0.0
 20
0.0
 30
0.0
  9
$PUCSORGFRONT
 10
0.0
 20
0.0
 30
0.0
  9
$PUCSORGBACK
 10
0.0
 20
0.0
 30
0.0
  9
$USERI1
 70
     0
  9
$USERI2
 70
     0
  9
$USERI3
 70
     0
  9
$USERI4
 70
     0
  9
$USERI5
 70
     0
  9
$USERR1
 40
0.0
  9
$USERR2
 40
0.0
  9
$USERR3
 40
0.0
  9
$USERR4
 40
0.0
  9
$USERR5
 40
0.0
  9
$WORLDVIEW
 70
     1
  9
$SHADEDGE
 70
     3
  9
$SHADEDIF
 70
    70
  9
$TILEMODE
 70
     1
  9
$MAXACTVP
 70
    64
  9
$PINSBASE
 10
0.0
 20
0.0
 30
0.0
  9
$PLIMCHECK
 70
     0
  9
$PEXTMIN
 10
1.000000000000000E+20
 20
1.000000000000000E+20
 30
1.000000000000000E+20
  9
$PEXTMAX
 10
-1.000000000000000E+20
 20
-1.000000000000000E+20
 30
-1.000000000000000E+20
  9
$PLIMMIN
 10
0.0
 20
0.0
  9
$PLIMMAX
 10
12.0
 20
9.0
  9
$UNITMODE
 70
     0
  9
$VISRETAIN
 70
     1
  9
$PLINEGEN
 70
     0
  9
$PSLTSCALE
 70
     1
  9
$TREEDEPTH
 70
  3020
  9
$CMLSTYLE
  2
Standard
  9
$CMLJUST
 70
     0
  9
$CMLSCALE
 40
1.0
  9
$PROXYGRAPHICS
 70
     1
  9
$MEASUREMENT
 70
     0
  9
$CELWEIGHT
370
    -1
  9
$ENDCAPS
280
     0
  9
$JOINSTYLE
280
     0
  9
$LWDISPLAY
290
     0
  9
$INSUNITS
 70
     0
  9
$HYPERLINKBASE
  1

  9
$STYLESHEET
  1

  9
$XEDIT
290
     1
  9
$CEPSNTYPE
380
     0
  9
$PSTYLEMODE
290
     1
  9
$FINGERPRINTGUID
  2
{E9E37B57-2F78-4673-97AB-8DD2715AA6EE}
  9
$VERSIONGUID
  2
{D97DB3CE-5F3B-4DA1-A42F-2D9AC150CDA2}
  9
$EXTNAMES
290
     1
  9
$PSVPSCALE
 40
0.0
  9
$OLESTARTUP
290
     0
  0
ENDSEC
  0
SECTION
  2
CLASSES
  0
CLASS
  1
ACDBDICTIONARYWDFLT
  2
AcDbDictionaryWithDefault
  3
AutoCAD 2000
 90
        0
280
     0
281
     0
  0
CLASS
  1
ACDBPLACEHOLDER
  2
AcDbPlaceHolder
  3
AutoCAD 2000
 90
        0
280
     0
281
     0
  0
CLASS
  1
LAYOUT
  2
AcDbLayout
  3
AutoCAD 2000
 90
        0
280
     0
281
     0
  0
CLASS
  1
DICTIONARYVAR
  2
AcDbDictionaryVar
  3
AutoCAD 2000
 90
        0
280
     0
281
     0
  0
ENDSEC
  0
SECTION
  2
TABLES
  0
TABLE
  2
VPORT
  5
8
330
0
100
AcDbSymbolTable
 70
     2
  0
VPORT
  5
29F
330
8
100
AcDbSymbolTableRecord
100
AcDbViewportTableRecord
  2
*Active
 70
     0
 10
0.0
 20
0.0
 11
1.0
 21
1.0
 12
312.0
 22
199.5
 13
0.0
 23
0.0
 14
1.0
 24
1.0
 15
0.0
 25
0.0
 16
0.0
 26
0.0
 36
1.0
 17
0.0
 27
0.0
 37
0.0
 40
401.52
 41
1.968387776606954
 42
50.0
 43
0.0
 44
0.0
 50
0.0
 51
0.0
 71
     0
 72
   100
 73
     1
 74
     3
 75
     0
 76
     0
 77
     0
 78
     0
281
     0
 65
     1
110
0.0
120
0.0
130
0.0
111
1.0
121
0.0
131
0.0
112
0.0
122
1.0
132
0.0
 79
     1
146
0.0
  0
ENDTAB
  0
TABLE
  2
LTYPE
  5
5
330
0
100
AcDbSymbolTable
 70
     1
  0
LTYPE
  5
13
330
5
100
AcDbSymbolTableRecord
100
AcDbLinetypeTableRecord
  2
ByBlock
 70
     0
  3

 72
    65
 73
     0
 40
0.0
  0
LTYPE
  5
14
330
5
100
AcDbSymbolTableRecord
100
AcDbLinetypeTableRecord
  2
ByLayer
 70
     0
  3

 72
    65
 73
     0
 40
0.0
  0
LTYPE
  5
15
330
5
100
AcDbSymbolTableRecord
100
AcDbLinetypeTableRecord
  2
Continuous
 70
     0
  3
Solid line
 72
    65
 73
     0
 40
0.0
  0
ENDTAB
  0
TABLE
  2
LAYER
  5
2
330
0
100
AcDbSymbolTable
 70
     1
  0
LAYER
  5
10
330
2
100
AcDbSymbolTableRecord
100
AcDbLayerTableRecord
  2
0
 70
     0
 62
     7
  6
Continuous
370
    -3
390
F
  0
ENDTAB
  0
TABLE
  2
STYLE
  5
3
330
0
100
AcDbSymbolTable
 70
     1
  0
STYLE
  5
11
330
3
100
AcDbSymbolTableRecord
100
AcDbTextStyleTableRecord
  2
Standard
 70
     0
 40
0.0
 41
1.0
 50
0.0
 71
     0
 42
0.2
  3
txt
  4

  0
ENDTAB
  0
TABLE
  2
VIEW
  5
6
330
0
100
AcDbSymbolTable
 70
     0
  0
ENDTAB
  0
TABLE
  2
UCS
  5
7
330
0
100
AcDbSymbolTable
 70
     0
  0
ENDTAB
  0
TABLE
  2
APPID
  5
9
330
0
100
AcDbSymbolTable
 70
     1
  0
APPID
  5
12
330
9
100
AcDbSymbolTableRecord
100
AcDbRegAppTableRecord
  2
ACAD
 70
     0
  0
ENDTAB
  0
TABLE
  2
DIMSTYLE
  5
A
330
0
100
AcDbSymbolTable
 70
     1
100
AcDbDimStyleTable
 71
     0
  0
DIMSTYLE
105
148
330
A
100
AcDbSymbolTableRecord
100
AcDbDimStyleTableRecord
  2
Standard
 70
     0
340
11
  0
ENDTAB
  0
TABLE
  2
BLOCK_RECORD
  5
1
330
0
100
AcDbSymbolTable
 70
     0
  0
BLOCK_RECORD
  5
1E
330
1
100
AcDbSymbolTableRecord
100
AcDbBlockTableRecord
  2
*Model_Space
340
21
  0
BLOCK_RECORD
  5
1A
330
1
100
AcDbSymbolTableRecord
100
AcDbBlockTableRecord
  2
*Paper_Space
340
1D
  0
ENDTAB
  0
ENDSEC
  0
SECTION
  2
BLOCKS
  0
BLOCK
  5
1F
330
1E
100
AcDbEntity
  8
0
100
AcDbBlockBegin
  2
*Model_Space
 70
     0
 10
0.0
 20
0.0
 30
0.0
  3
*Model_Space
  1

  0
ENDBLK
  5
20
330
1E
100
AcDbEntity
  8
0
100
AcDbBlockEnd
  0
BLOCK
  5
1B
330
1A
100
AcDbEntity
 67
     1
  8
0
100
AcDbBlockBegin
  2
*Paper_Space
 70
     0
 10
0.0
 20
0.0
 30
0.0
  3
*Paper_Space
  1

  0
ENDBLK
  5
1C
330
1A
100
AcDbEntity
 67
     1
  8
0
100
AcDbBlockEnd
  0
ENDSEC
  0
SECTION
  2
ENTITIES
  0
LINE
  5
42
330
1E
100
AcDbEntity
  8
0
100
AcDbLine
 10
24.5192
 20
204.0
 30
0.0
 11
24.6883
 21
246.485
 31
0.0
  0
LINE
  5
45
330
1E
100
AcDbEntity
  8
0
100
AcDbLine
 10
0.332075
 20
288.356
 30
0.0
 11
1.817529999999999
 21
317.225
 31
0.0
  0
LINE
  5
46
330
1E
100
AcDbEntity
  8
0
100
AcDbLine
 10
24.8252
 20
278.3229999999999
 30
0.0
 11
26.1939
 21
303.757
 31
0.0
  0
LINE
  5
47
330
1E
100
AcDbEntity
  8
0
100
AcDbLine
 10
24.6883
 20
246.485
 30
0.0
 11
24.8252
 21
278.3229999999999
 31
0.0
  0
LINE
  5
48
330
1E
100
AcDbEntity
  8
0
100
AcDbLine
 10
27.9753
 20
323.417
 30
0.0
 11
28.9313
 21
327.098
 31
0.0
  0
LINE
  5
49
330
1E
100
AcDbEntity
  8
0
100
AcDbLine
 10
26.1939
 20
303.757
 30
0.0
 11
27.9753
 21
323.417
 31
0.0
  0
LINE
  5
4A
330
1E
100
AcDbEntity
  8
0
100
AcDbLine
 10
24.1205
 20
382.0569999999998
 30
0.0
 11
35.6
 21
386.781
 31
0.0
  0
LINE
  5
4B
330
1E
100
AcDbEntity
  8
0
100
AcDbLine
 10
16.3668
 20
377.848
 30
0.0
 11
24.1205
 21
382.0569999999998
 31
0.0
  0
LINE
  5
4C
330
1E
100
AcDbEntity
  8
0
100
AcDbLine
 10
12.6613
 20
372.074
 30
0.0
 11
16.3668
 21
377.848
 31
0.0
  0
LINE
  5
4D
330
1E
100
AcDbEntity
  8
0
100
AcDbLine
 10
8.056410000000001
 20
363.074
 30
0.0
 11
12.6613
 21
372.074
 31
0.0
  0
LINE
  5
4E
330
1E
100
AcDbEntity
  8
0
100
AcDbLine
 10
5.82824
 20
355.433
 30
0.0
 11
8.056410000000001
 21
363.074
 31
0.0
  0
LINE
  5
4F
330
1E
100
AcDbEntity
  8
0
100
AcDbLine
 10
4.342789999999999
 20
345.4139999999998
 30
0.0
 11
5.82824
 21
355.433
 31
0.0
  0
LINE
  5
50
330
1E
100
AcDbEntity
  8
0
100
AcDbLine
 10
2.85734
 20
332.338
 30
0.0
 11
4.342789999999999
 21
345.4139999999998
 31
0.0
  0
LINE
  5
51
330
1E
100
AcDbEntity
  8
0
100
AcDbLine
 10
1.817529999999999
 20
317.225
 30
0.0
 11
2.85734
 21
332.338
 31
0.0
  0
LINE
  5
52
330
1E
100
AcDbEntity
  8
0
100
AcDbLine
 10
0.332075
 20
288.356
 30
0.0
 11
1.817529999999999
 21
317.225
 31
0.0
  0
LINE
  5
53
330
1E
100
AcDbEntity
  8
0
100
AcDbLine
 10
0.183533
 20
252.2209999999999
 30
0.0
 11
0.332075
 21
288.356
 31
0.0
  0
LINE
  5
55
330
1E
100
AcDbEntity
  8
0
100
AcDbLine
 10
0.0
 20
204.0
 30
0.0
 11
0.183533
 21
252.2209999999999
 31
0.0
  0
LINE
  5
6A
330
1E
100
AcDbEntity
  8
0
100
AcDbLine
 10
30.6009
 20
314.723
 30
0.0
 11
30.7693
 21
319.187
 31
0.0
  0
LINE
  5
6B
330
1E
100
AcDbEntity
  8
0
100
AcDbLine
 10
30.32529999999999
 20
323.9629999999999
 30
0.0
 11
30.7693
 21
319.187
 31
0.0
  0
LINE
  5
6D
330
1E
100
AcDbEntity
  8
0
100
AcDbLine
 10
28.9313
 20
327.098
 30
0.0
 11
29.98789999999999
 21
329.3989999999999
 31
0.0
  0
LINE
  5
6F
330
1E
100
AcDbEntity
  8
0
100
AcDbLine
 10
34.9188
 20
330.722
 30
0.0
 11
37.4849
 21
329.169
 31
0.0
  0
LINE
  5
70
330
1E
100
AcDbEntity
  8
0
100
AcDbLine
 10
32.0005
 20
330.6069999999998
 30
0.0
 11
34.9188
 21
330.722
 31
0.0
  0
LINE
  5
71
330
1E
100
AcDbEntity
  8
0
100
AcDbLine
 10
29.98789999999999
 20
329.3989999999999
 30
0.0
 11
32.0005
 21
330.6069999999998
 31
0.0
  0
LINE
  5
73
330
1E
100
AcDbEntity
  8
0
100
AcDbLine
 10
28.868041372023
 20
326.854427814243
 30
0.0
 11
30.32529999999999
 21
323.9629999999999
 31
0.0
  0
LINE
  5
74
330
1E
100
AcDbEntity
  8
0
100
AcDbLine
 10
35.6
 20
386.781
 30
0.0
 11
55.52899319572588
 21
391.8904833713416
 31
0.0
  0
LINE
  5
75
330
1E
100
AcDbEntity
  8
0
100
AcDbLine
 10
29.6544
 20
301.684
 30
0.0
 11
30.6009
 21
314.723
 31
0.0
  0
LINE
  5
76
330
1E
100
AcDbEntity
  8
0
100
AcDbLine
 10
28.3023
 20
276.779
 30
0.0
 11
29.6544
 21
301.684
 31
0.0
  0
LINE
  5
77
330
1E
100
AcDbEntity
  8
0
100
AcDbLine
 10
28.1671
 20
245.602
 30
0.0
 11
28.3023
 21
276.779
 31
0.0
  0
LINE
  5
78
330
1E
100
AcDbEntity
  8
0
100
AcDbLine
 10
40.4535
 20
314.7889999999998
 30
0.0
 11
40.8057
 21
319.5059999999998
 31
0.0
  0
LINE
  5
79
330
1E
100
AcDbEntity
  8
0
100
AcDbLine
 10
40.3025
 20
324.2799999999998
 30
0.0
 11
40.8057
 21
319.5059999999998
 31
0.0
  0
LINE
  5
7A
330
1E
100
AcDbEntity
  8
0
100
AcDbLine
 10
38.7931
 20
327.5009999999998
 30
0.0
 11
40.3025
 21
324.2799999999998
 31
0.0
  0
LINE
  5
7B
330
1E
100
AcDbEntity
  8
0
100
AcDbLine
 10
37.4849
 20
329.169
 30
0.0
 11
38.7931
 21
327.5009999999998
 31
0.0
  0
LINE
  5
7C
330
1E
100
AcDbEntity
  8
0
100
AcDbLine
 10
38.7039
 20
296.8959999999999
 30
0.0
 11
40.4535
 21
314.7889999999998
 31
0.0
  0
LINE
  5
7D
330
1E
100
AcDbEntity
  8
0
100
AcDbLine
 10
37.3952
 20
273.211
 30
0.0
 11
38.7039
 21
296.8959999999999
 31
0.0
  0
LINE
  5
7E
330
1E
100
AcDbEntity
  8
0
100
AcDbLine
 10
37.2643
 20
243.562
 30
0.0
 11
37.3952
 21
273.211
 31
0.0
  0
LINE
  5
8E
330
1E
100
AcDbEntity
  8
0
100
AcDbLine
 10
95.56151036627079
 20
397.6892921149392
 30
0.0
 11
113.0
 21
399.0
 31
0.0
  0
LINE
  5
8F
330
1E
100
AcDbEntity
  8
0
100
AcDbLine
 10
79.3164312892643
 20
395.5630624016116
 30
0.0
 11
95.56151036627079
 21
397.6892921149392
 31
0.0
  0
LINE
  5
90
330
1E
100
AcDbEntity
  8
0
100
AcDbLine
 10
68.58307610895417
 20
394.0167130846694
 30
0.0
 11
79.3164312892643
 21
395.5630624016116
 31
0.0
  0
LINE
  5
91
330
1E
100
AcDbEntity
  8
0
100
AcDbLine
 10
55.52899319572588
 20
391.8904833713416
 30
0.0
 11
68.58307610895417
 21
394.0167130846694
 31
0.0
  0
LINE
  5
94
330
1E
100
AcDbEntity
  8
0
100
AcDbLine
 10
37.1026
 20
204.0
 30
0.0
 11
37.2643
 21
243.562
 31
0.0
  0
LINE
  5
97
330
1E
100
AcDbEntity
  8
0
100
AcDbLine
 10
28.0
 20
204.0
 30
0.0
 11
28.1671
 21
245.602
 31
0.0
  0
LINE
  5
F0
330
1E
100
AcDbEntity
  8
0
100
AcDbLine
 10
288.253
 20
222.2529999999999
 30
0.0
 11
290.81
 21
225.189
 31
0.0
  0
LINE
  5
F1
330
1E
100
AcDbEntity
  8
0
100
AcDbLine
 10
286.01
 20
218.937
 30
0.0
 11
288.253
 21
222.2529999999999
 31
0.0
  0
LINE
  5
F2
330
1E
100
AcDbEntity
  8
0
100
AcDbLine
 10
284.3369999999998
 20
215.463
 30
0.0
 11
286.01
 21
218.937
 31
0.0
  0
LINE
  5
F3
330
1E
100
AcDbEntity
  8
0
100
AcDbLine
 10
283.074
 20
211.737
 30
0.0
 11
284.3369999999998
 21
215.463
 31
0.0
  0
LINE
  5
F4
330
1E
100
AcDbEntity
  8
0
100
AcDbLine
 10
282.3159999999998
 20
207.9159999999999
 30
0.0
 11
283.074
 21
211.737
 31
0.0
  0
LINE
  5
F5
330
1E
100
AcDbEntity
  8
0
100
AcDbLine
 10
290.81
 20
225.189
 30
0.0
 11
293.747
 21
227.747
 31
0.0
  0
LINE
  5
F6
330
1E
100
AcDbEntity
  8
0
100
AcDbLine
 10
293.747
 20
227.747
 30
0.0
 11
297.0629999999998
 21
229.99
 31
0.0
  0
LINE
  5
F7
330
1E
100
AcDbEntity
  8
0
100
AcDbLine
 10
300.537
 20
231.6629999999999
 30
0.0
 11
304.2629999999998
 21
232.926
 31
0.0
  0
LINE
  5
F8
330
1E
100
AcDbEntity
  8
0
100
AcDbLine
 10
297.0629999999998
 20
229.99
 30
0.0
 11
300.537
 21
231.6629999999999
 31
0.0
  0
LINE
  5
FA
330
1E
100
AcDbEntity
  8
0
100
AcDbLine
 10
113.0
 20
399.0
 30
0.0
 11
312.0
 21
399.0
 31
0.0
  0
LINE
  5
FB
330
1E
100
AcDbEntity
  8
0
100
AcDbLine
 10
304.2629999999998
 20
232.926
 30
0.0
 11
308.084
 21
233.684
 31
0.0
  0
LINE
  5
104
330
1E
100
AcDbEntity
  8
0
100
AcDbLine
 10
312.0
 20
234.0
 30
0.0
 11
315.9159999999999
 21
233.684
 31
0.0
  0
LINE
  5
144
330
1E
100
AcDbEntity
  8
0
100
AcDbLine
 10
308.084
 20
233.684
 30
0.0
 11
312.0
 21
234.0
 31
0.0
  0
LINE
  5
146
330
1E
100
AcDbEntity
  8
0
100
AcDbLine
 10
282.0
 20
204.0
 30
0.0
 11
282.3159999999998
 21
200.084
 31
0.0
  0
LINE
  5
147
330
1E
100
AcDbEntity
  8
0
100
AcDbLine
 10
282.0
 20
204.0
 30
0.0
 11
282.3159999999998
 21
207.9159999999999
 31
0.0
  0
LINE
  5
14D
330
1E
100
AcDbEntity
  8
0
100
AcDbLine
 10
95.46481471025435
 20
387.6380229887374
 30
0.0
 11
71.77407227273238
 21
384.5453243548529
 31
0.0
  0
LINE
  5
14E
330
1E
100
AcDbEntity
  8
0
100
AcDbLine
 10
71.77407227273238
 20
384.5453243548529
 30
0.0
 11
54.29272715318347
 21
381.2848404721025
 31
0.0
  0
LINE
  5
14F
330
1E
100
AcDbEntity
  8
0
100
AcDbLine
 10
54.29272715318347
 20
381.2848404721025
 30
0.0
 11
42.67241117872798
 21
378.440523122407
 31
0.0
  0
LINE
  5
150
330
1E
100
AcDbEntity
  8
0
100
AcDbLine
 10
42.67241117872798
 20
378.440523122407
 30
0.0
 11
33.54216452595096
 21
375.3591792472411
 31
0.0
  0
LINE
  5
151
330
1E
100
AcDbEntity
  8
0
100
AcDbLine
 10
33.54216452595096
 20
375.3591792472411
 30
0.0
 11
24.05619422198514
 21
370.5001369090219
 31
0.0
  0
LINE
  5
152
330
1E
100
AcDbEntity
  8
0
100
AcDbLine
 10
24.05619422198514
 20
370.5001369090219
 30
0.0
 11
19.31320907000213
 21
362.7967762651583
 31
0.0
  0
LINE
  5
153
330
1E
100
AcDbEntity
  8
0
100
AcDbLine
 10
19.31320907000213
 20
362.7967762651583
 30
0.0
 11
15.51881906673793
 21
353.4342308989511
 31
0.0
  0
LINE
  5
154
330
1E
100
AcDbEntity
  8
0
100
AcDbLine
 10
15.51881906673793
 20
353.4342308989511
 30
0.0
 11
13.14732743158538
 21
336.0127865345978
 31
0.0
  0
LINE
  5
155
330
1E
100
AcDbEntity
  8
0
100
AcDbLine
 10
13.14732743158538
 20
336.0127865345978
 30
0.0
 11
10.3015363403956
 21
307.9251504359759
 31
0.0
  0
LINE
  5
156
330
1E
100
AcDbEntity
  8
0
100
AcDbLine
 10
10.3015363403956
 20
307.9251504359759
 30
0.0
 11
8.76006593079137
 21
270.4749699270954
 31
0.0
  0
LINE
  5
157
330
1E
100
AcDbEntity
  8
0
100
AcDbLine
 10
8.76006593079137
 20
270.4749699270954
 30
0.0
 11
8.048618628413349
 21
238.3578838514263
 31
0.0
  0
LINE
  5
158
330
1E
100
AcDbEntity
  8
0
100
AcDbLine
 10
8.048618628413349
 20
238.3578838514263
 30
0.0
 11
7.69
 21
204.0
 31
0.0
  0
LINE
  5
159
330
1E
100
AcDbEntity
  8
0
100
AcDbLine
 10
157.572
 20
5.358000000000004
 30
0.0
 11
183.2069999999999
 21
3.968000000000017
 31
0.0
  0
LINE
  5
15A
330
1E
100
AcDbEntity
  8
0
100
AcDbLine
 10
139.5689999999998
 20
16.846
 30
0.0
 11
162.929
 21
15.03699999999997
 31
0.0
  0
LINE
  5
15B
330
1E
100
AcDbEntity
  8
0
100
AcDbLine
 10
8.048618628413349
 20
169.6421161485735
 30
0.0
 11
7.69
 21
204.0
 31
0.0
  0
LINE
  5
15C
330
1E
100
AcDbEntity
  8
0
100
AcDbLine
 10
28.0
 20
204.0
 30
0.0
 11
28.1671
 21
162.3979999999999
 31
0.0
  0
LINE
  5
15D
330
1E
100
AcDbEntity
  8
0
100
AcDbLine
 10
37.1026
 20
204.0
 30
0.0
 11
37.2643
 21
164.4379999999999
 31
0.0
  0
LINE
  5
15E
330
1E
100
AcDbEntity
  8
0
100
AcDbLine
 10
0.0
 20
204.0
 30
0.0
 11
0.183533
 21
155.7789999999999
 31
0.0
  0
LINE
  5
15F
330
1E
100
AcDbEntity
  8
0
100
AcDbLine
 10
24.5192
 20
204.0
 30
0.0
 11
24.6883
 21
161.5149999999998
 31
0.0
  0
LINE
  5
160
330
1E
100
AcDbEntity
  8
0
100
AcDbLine
 10
71.96034707952958
 20
24.34489427319386
 30
0.0
 11
54.29272715318347
 21
26.71515952789741
 31
0.0
  0
LINE
  5
161
330
1E
100
AcDbEntity
  8
0
100
AcDbLine
 10
55.2599
 20
16.46300000000001
 30
0.0
 11
68.7822
 21
14.67400000000002
 31
0.0
  0
LINE
  5
162
330
1E
100
AcDbEntity
  8
0
100
AcDbLine
 10
13.14732743158538
 20
71.98721346540217
 30
0.0
 11
10.3015363403956
 21
100.0748495640239
 31
0.0
  0
LINE
  5
163
330
1E
100
AcDbEntity
  8
0
100
AcDbLine
 10
1.817529999999999
 20
90.77499999999998
 30
0.0
 11
2.85734
 21
75.66199999999998
 31
0.0
  0
LINE
  5
164
330
1E
100
AcDbEntity
  8
0
100
AcDbLine
 10
10.3015363403956
 20
100.0748495640239
 30
0.0
 11
8.76006593079137
 21
137.5250300729044
 31
0.0
  0
LINE
  5
165
330
1E
100
AcDbEntity
  8
0
100
AcDbLine
 10
8.76006593079137
 20
137.5250300729044
 30
0.0
 11
8.048618628413349
 21
169.6421161485735
 31
0.0
  0
LINE
  5
166
330
1E
100
AcDbEntity
  8
0
100
AcDbLine
 10
0.183533
 20
155.7789999999999
 30
0.0
 11
0.332075
 21
119.6439999999999
 31
0.0
  0
LINE
  5
167
330
1E
100
AcDbEntity
  8
0
100
AcDbLine
 10
0.332075
 20
119.6439999999999
 30
0.0
 11
1.817529999999999
 21
90.77499999999998
 31
0.0
  0
LINE
  5
168
330
1E
100
AcDbEntity
  8
0
100
AcDbLine
 10
0.332075
 20
119.6439999999999
 30
0.0
 11
1.817529999999999
 21
90.77499999999998
 31
0.0
  0
LINE
  5
169
330
1E
100
AcDbEntity
  8
0
100
AcDbLine
 10
37.2643
 20
164.4379999999999
 30
0.0
 11
37.3952
 21
134.7889999999999
 31
0.0
  0
LINE
  5
16A
330
1E
100
AcDbEntity
  8
0
100
AcDbLine
 10
28.1671
 20
162.3979999999999
 30
0.0
 11
28.3023
 21
131.221
 31
0.0
  0
LINE
  5
16B
330
1E
100
AcDbEntity
  8
0
100
AcDbLine
 10
24.6883
 20
161.5149999999998
 30
0.0
 11
24.8252
 21
129.677
 31
0.0
  0
LINE
  5
16C
330
1E
100
AcDbEntity
  8
0
100
AcDbLine
 10
32.0005
 20
77.39300000000003
 30
0.0
 11
34.9188
 21
77.27800000000002
 31
0.0
  0
LINE
  5
16D
330
1E
100
AcDbEntity
  8
0
100
AcDbLine
 10
28.3023
 20
131.221
 30
0.0
 11
29.6544
 21
106.3159999999998
 31
0.0
  0
LINE
  5
16E
330
1E
100
AcDbEntity
  8
0
100
AcDbLine
 10
24.8252
 20
129.677
 30
0.0
 11
26.1939
 21
104.2429999999999
 31
0.0
  0
LINE
  5
16F
330
1E
100
AcDbEntity
  8
0
100
AcDbLine
 10
30.6009
 20
93.27699999999998
 30
0.0
 11
30.7693
 21
88.81299999999997
 31
0.0
  0
LINE
  5
170
330
1E
100
AcDbEntity
  8
0
100
AcDbLine
 10
26.1939
 20
104.2429999999999
 30
0.0
 11
27.9753
 21
84.58299999999997
 31
0.0
  0
LINE
  5
171
330
1E
100
AcDbEntity
  8
0
100
AcDbLine
 10
29.6544
 20
106.3159999999998
 30
0.0
 11
30.6009
 21
93.27699999999998
 31
0.0
  0
LINE
  5
172
330
1E
100
AcDbEntity
  8
0
100
AcDbLine
 10
27.9753
 20
84.58299999999997
 30
0.0
 11
28.9313
 21
80.90199999999999
 31
0.0
  0
LINE
  5
173
330
1E
100
AcDbEntity
  8
0
100
AcDbLine
 10
30.32529999999999
 20
84.03700000000005
 30
0.0
 11
30.7693
 21
88.81299999999997
 31
0.0
  0
LINE
  5
174
330
1E
100
AcDbEntity
  8
0
100
AcDbLine
 10
29.98789999999999
 20
78.601
 30
0.0
 11
32.0005
 21
77.39300000000003
 31
0.0
  0
LINE
  5
175
330
1E
100
AcDbEntity
  8
0
100
AcDbLine
 10
28.868041372023
 20
81.14557218575697
 30
0.0
 11
30.32529999999999
 21
84.03700000000005
 31
0.0
  0
LINE
  5
176
330
1E
100
AcDbEntity
  8
0
100
AcDbLine
 10
28.9313
 20
80.90199999999999
 30
0.0
 11
29.98789999999999
 21
78.601
 31
0.0
  0
LINE
  5
177
330
1E
100
AcDbEntity
  8
0
100
AcDbLine
 10
38.7039
 20
111.104
 30
0.0
 11
40.4535
 21
93.21099999999999
 31
0.0
  0
LINE
  5
178
330
1E
100
AcDbEntity
  8
0
100
AcDbLine
 10
37.3952
 20
134.7889999999999
 30
0.0
 11
38.7039
 21
111.104
 31
0.0
  0
LINE
  5
179
330
1E
100
AcDbEntity
  8
0
100
AcDbLine
 10
40.4535
 20
93.21099999999999
 30
0.0
 11
40.8057
 21
88.49400000000001
 31
0.0
  0
LINE
  5
17A
330
1E
100
AcDbEntity
  8
0
100
AcDbLine
 10
40.3025
 20
83.72000000000003
 30
0.0
 11
40.8057
 21
88.49400000000001
 31
0.0
  0
LINE
  5
17B
330
1E
100
AcDbEntity
  8
0
100
AcDbLine
 10
37.4849
 20
78.83099999999995
 30
0.0
 11
38.7931
 21
80.49900000000002
 31
0.0
  0
LINE
  5
17C
330
1E
100
AcDbEntity
  8
0
100
AcDbLine
 10
34.9188
 20
77.27800000000002
 30
0.0
 11
37.4849
 21
78.83099999999995
 31
0.0
  0
LINE
  5
17D
330
1E
100
AcDbEntity
  8
0
100
AcDbLine
 10
38.7931
 20
80.49900000000002
 30
0.0
 11
40.3025
 21
83.72000000000003
 31
0.0
  0
LINE
  5
17E
330
1E
100
AcDbEntity
  8
0
100
AcDbLine
 10
8.056410000000001
 20
44.92599999999998
 30
0.0
 11
12.6613
 21
35.92599999999999
 31
0.0
  0
LINE
  5
17F
330
1E
100
AcDbEntity
  8
0
100
AcDbLine
 10
4.342789999999999
 20
62.58600000000001
 30
0.0
 11
5.82824
 21
52.56699999999995
 31
0.0
  0
LINE
  5
180
330
1E
100
AcDbEntity
  8
0
100
AcDbLine
 10
2.85734
 20
75.66199999999998
 30
0.0
 11
4.342789999999999
 21
62.58600000000001
 31
0.0
  0
LINE
  5
181
330
1E
100
AcDbEntity
  8
0
100
AcDbLine
 10
5.82824
 20
52.56699999999995
 30
0.0
 11
8.056410000000001
 21
44.92599999999998
 31
0.0
  0
LINE
  5
182
330
1E
100
AcDbEntity
  8
0
100
AcDbLine
 10
24.1205
 20
25.94300000000004
 30
0.0
 11
35.6
 21
21.21899999999998
 31
0.0
  0
LINE
  5
183
330
1E
100
AcDbEntity
  8
0
100
AcDbLine
 10
42.67241117872798
 20
29.55947687759294
 30
0.0
 11
33.54216452595096
 21
32.64082075275883
 31
0.0
  0
LINE
  5
184
330
1E
100
AcDbEntity
  8
0
100
AcDbLine
 10
24.05619422198514
 20
37.49986309097812
 30
0.0
 11
19.31320907000213
 21
45.20322373484169
 31
0.0
  0
LINE
  5
185
330
1E
100
AcDbEntity
  8
0
100
AcDbLine
 10
15.51881906673793
 20
54.56576910104877
 30
0.0
 11
13.14732743158538
 21
71.98721346540217
 31
0.0
  0
LINE
  5
186
330
1E
100
AcDbEntity
  8
0
100
AcDbLine
 10
19.31320907000213
 20
45.20322373484169
 30
0.0
 11
15.51881906673793
 21
54.56576910104877
 31
0.0
  0
LINE
  5
187
330
1E
100
AcDbEntity
  8
0
100
AcDbLine
 10
16.3668
 20
30.15199999999998
 30
0.0
 11
24.1205
 21
25.94300000000004
 31
0.0
  0
LINE
  5
188
330
1E
100
AcDbEntity
  8
0
100
AcDbLine
 10
12.6613
 20
35.92599999999999
 30
0.0
 11
16.3668
 21
30.15199999999998
 31
0.0
  0
LINE
  5
189
330
1E
100
AcDbEntity
  8
0
100
AcDbLine
 10
33.54216452595096
 20
32.64082075275883
 30
0.0
 11
24.05619422198514
 21
37.49986309097812
 31
0.0
  0
LINE
  5
18A
330
1E
100
AcDbEntity
  8
0
100
AcDbLine
 10
54.29272715318347
 20
26.71515952789741
 30
0.0
 11
42.67241117872798
 21
29.55947687759294
 31
0.0
  0
LINE
  5
18B
330
1E
100
AcDbEntity
  8
0
100
AcDbLine
 10
35.6
 20
21.21899999999998
 30
0.0
 11
55.2599
 21
16.46300000000001
 31
0.0
  0
LINE
  5
18C
330
1E
100
AcDbEntity
  8
0
100
AcDbLine
 10
95.37969999999999
 20
11.22500000000002
 30
0.0
 11
112.925
 21
9.309000000000024
 31
0.0
  0
LINE
  5
18D
330
1E
100
AcDbEntity
  8
0
100
AcDbLine
 10
139.5689999999998
 20
16.846
 30
0.0
 11
95.43812687478135
 21
21.38206318278867
 31
0.0
  0
LINE
  5
18E
330
1E
100
AcDbEntity
  8
0
100
AcDbLine
 10
79.39879999999998
 20
13.39699999999999
 30
0.0
 11
95.37969999999999
 21
11.22500000000002
 31
0.0
  0
LINE
  5
18F
330
1E
100
AcDbEntity
  8
0
100
AcDbLine
 10
95.43812687478135
 20
21.38206318278867
 30
0.0
 11
71.96034707952958
 21
24.34489427319386
 31
0.0
  0
LINE
  5
190
330
1E
100
AcDbEntity
  8
0
100
AcDbLine
 10
68.7822
 20
14.67400000000002
 30
0.0
 11
79.39879999999998
 21
13.39699999999999
 31
0.0
  0
LINE
  5
191
330
1E
100
AcDbEntity
  8
0
100
AcDbLine
 10
112.925
 20
9.309000000000024
 30
0.0
 11
133.4429999999999
 21
7.329000000000008
 31
0.0
  0
LINE
  5
192
330
1E
100
AcDbEntity
  8
0
100
AcDbLine
 10
133.4429999999999
 20
7.329000000000008
 30
0.0
 11
157.572
 21
5.358000000000004
 31
0.0
  0
LINE
  5
193
330
1E
100
AcDbEntity
  8
0
100
AcDbLine
 10
282.0
 20
204.0
 30
0.0
 11
282.3159999999998
 21
200.084
 31
0.0
  0
LINE
  5
194
330
1E
100
AcDbEntity
  8
0
100
AcDbLine
 10
282.0
 20
204.0
 30
0.0
 11
282.3159999999998
 21
207.9159999999999
 31
0.0
  0
LINE
  5
195
330
1E
100
AcDbEntity
  8
0
100
AcDbLine
 10
239.532
 20
1.14499999999998
 30
0.0
 11
260.632
 21
0.6380000000000337
 31
0.0
  0
LINE
  5
196
330
1E
100
AcDbEntity
  8
0
100
AcDbLine
 10
242.5959999999999
 20
11.05199999999996
 30
0.0
 11
261.633
 21
10.57300000000003
 31
0.0
  0
LINE
  5
197
330
1E
100
AcDbEntity
  8
0
100
AcDbLine
 10
183.2069999999999
 20
3.968000000000017
 30
0.0
 11
211.479
 21
2.621999999999957
 31
0.0
  0
LINE
  5
198
330
1E
100
AcDbEntity
  8
0
100
AcDbLine
 10
187.713
 20
13.269
 30
0.0
 11
215.3109999999999
 21
11.89999999999997
 31
0.0
  0
LINE
  5
199
330
1E
100
AcDbEntity
  8
0
100
AcDbLine
 10
162.929
 20
15.03699999999997
 30
0.0
 11
187.713
 21
13.269
 31
0.0
  0
LINE
  5
19A
330
1E
100
AcDbEntity
  8
0
100
AcDbLine
 10
215.3109999999999
 20
11.89999999999997
 30
0.0
 11
242.5959999999999
 21
11.05199999999996
 31
0.0
  0
LINE
  5
19B
330
1E
100
AcDbEntity
  8
0
100
AcDbLine
 10
211.479
 20
2.621999999999957
 30
0.0
 11
239.532
 21
1.14499999999998
 31
0.0
  0
LINE
  5
19C
330
1E
100
AcDbEntity
  8
0
100
AcDbLine
 10
304.2629999999998
 20
175.074
 30
0.0
 11
308.084
 21
174.3159999999999
 31
0.0
  0
LINE
  5
19D
330
1E
100
AcDbEntity
  8
0
100
AcDbLine
 10
290.81
 20
182.8109999999999
 30
0.0
 11
293.747
 21
180.2529999999999
 31
0.0
  0
LINE
  5
19E
330
1E
100
AcDbEntity
  8
0
100
AcDbLine
 10
286.01
 20
189.0629999999999
 30
0.0
 11
288.253
 21
185.747
 31
0.0
  0
LINE
  5
19F
330
1E
100
AcDbEntity
  8
0
100
AcDbLine
 10
283.074
 20
196.263
 30
0.0
 11
284.3369999999998
 21
192.537
 31
0.0
  0
LINE
  5
1A0
330
1E
100
AcDbEntity
  8
0
100
AcDbLine
 10
282.3159999999998
 20
200.084
 30
0.0
 11
283.074
 21
196.263
 31
0.0
  0
LINE
  5
1A1
330
1E
100
AcDbEntity
  8
0
100
AcDbLine
 10
284.3369999999998
 20
192.537
 30
0.0
 11
286.01
 21
189.0629999999999
 31
0.0
  0
LINE
  5
1A2
330
1E
100
AcDbEntity
  8
0
100
AcDbLine
 10
288.253
 20
185.747
 30
0.0
 11
290.81
 21
182.8109999999999
 31
0.0
  0
LINE
  5
1A3
330
1E
100
AcDbEntity
  8
0
100
AcDbLine
 10
297.0629999999998
 20
178.01
 30
0.0
 11
300.537
 21
176.337
 31
0.0
  0
LINE
  5
1A4
330
1E
100
AcDbEntity
  8
0
100
AcDbLine
 10
293.747
 20
180.2529999999999
 30
0.0
 11
297.0629999999998
 21
178.01
 31
0.0
  0
LINE
  5
1A5
330
1E
100
AcDbEntity
  8
0
100
AcDbLine
 10
300.537
 20
176.337
 30
0.0
 11
304.2629999999998
 21
175.074
 31
0.0
  0
LINE
  5
1A6
330
1E
100
AcDbEntity
  8
0
100
AcDbLine
 10
312.0
 20
174.0
 30
0.0
 11
315.9159999999999
 21
174.3159999999999
 31
0.0
  0
LINE
  5
1A7
330
1E
100
AcDbEntity
  8
0
100
AcDbLine
 10
308.084
 20
174.3159999999999
 30
0.0
 11
312.0
 21
174.0
 31
0.0
  0
LINE
  5
1A8
330
1E
100
AcDbEntity
  8
0
100
AcDbLine
 10
282.606
 20
0.2330000000000041
 30
0.0
 11
312.0
 21
0.0
 31
0.0
  0
LINE
  5
1A9
330
1E
100
AcDbEntity
  8
0
100
AcDbLine
 10
283.602
 20
10.185
 30
0.0
 11
312.0
 21
9.970000000000027
 31
0.0
  0
LINE
  5
1AA
330
1E
100
AcDbEntity
  8
0
100
AcDbLine
 10
260.632
 20
0.6380000000000337
 30
0.0
 11
282.606
 21
0.2330000000000041
 31
0.0
  0
LINE
  5
1AB
330
1E
100
AcDbEntity
  8
0
100
AcDbLine
 10
261.633
 20
10.57300000000003
 30
0.0
 11
283.602
 21
10.185
 31
0.0
  0
LINE
  5
1AC
330
1E
100
AcDbEntity
  8
0
100
AcDbLine
 10
110.0
 20
204.0
 30
0.0
 11
109.9603851496453
 21
250.4309213962108
 31
0.0
  0
LINE
  5
1AD
330
1E
100
AcDbEntity
  8
0
100
AcDbLine
 10
109.9603851496453
 20
250.4309213962108
 30
0.0
 11
112.1848349590068
 21
278.2221483917528
 31
0.0
  0
LINE
  5
1AE
330
1E
100
AcDbEntity
  8
0
100
AcDbLine
 10
112.1848349590068
 20
278.2221483917528
 30
0.0
 11
114.4092847683682
 21
300.4551311353246
 31
0.0
  0
LINE
  5
1AF
330
1E
100
AcDbEntity
  8
0
100
AcDbLine
 10
114.4092847683682
 20
300.4551311353246
 30
0.0
 11
118.858186268769
 21
316.0182188646356
 31
0.0
  0
LINE
  5
1B0
330
1E
100
AcDbEntity
  8
0
100
AcDbLine
 10
118.858186268769
 20
316.0182188646356
 30
0.0
 11
127.1998744651327
 21
327.6905341836442
 31
0.0
  0
LINE
  5
1B1
330
1E
100
AcDbEntity
  8
0
100
AcDbLine
 10
127.1998744651327
 20
327.6905341836442
 30
0.0
 11
137.2098995480983
 21
336.0279029514708
 31
0.0
  0
LINE
  5
1B2
330
1E
100
AcDbEntity
  8
0
100
AcDbLine
 10
137.2098995480983
 20
336.0279029514708
 30
0.0
 11
150.0004873631849
 21
340.4744993089955
 31
0.0
  0
LINE
  5
1B3
330
1E
100
AcDbEntity
  8
0
100
AcDbLine
 10
150.0004873631849
 20
340.4744993089955
 30
0.0
 11
170.0205394107936
 21
344.3652707633488
 31
0.0
  0
LINE
  5
1B4
330
1E
100
AcDbEntity
  8
0
100
AcDbLine
 10
170.0205394107936
 20
344.3652707633488
 30
0.0
 11
206.16785492837
 21
346.5885694200856
 31
0.0
  0
LINE
  5
1B5
330
1E
100
AcDbEntity
  8
0
100
AcDbLine
 10
206.16785492837
 20
346.5885694200856
 30
0.0
 11
267.3402350350378
 21
348.2560431736509
 31
0.0
  0
LINE
  5
1B6
330
1E
100
AcDbEntity
  8
0
100
AcDbLine
 10
267.3402350350378
 20
348.2560431736509
 30
0.0
 11
312.0
 21
348.7999999999998
 31
0.0
  0
LINE
  5
1B7
330
1E
100
AcDbEntity
  8
0
100
AcDbLine
 10
150.0004873631849
 20
67.52550069100448
 30
0.0
 11
170.0205394107936
 21
63.63472923665107
 31
0.0
  0
LINE
  5
1B8
330
1E
100
AcDbEntity
  8
0
100
AcDbLine
 10
110.0
 20
204.0
 30
0.0
 11
109.9603851496453
 21
157.5690786037891
 31
0.0
  0
LINE
  5
1B9
330
1E
100
AcDbEntity
  8
0
100
AcDbLine
 10
127.1998744651327
 20
80.30946581635566
 30
0.0
 11
137.2098995480983
 21
71.97209704852913
 31
0.0
  0
LINE
  5
1BA
330
1E
100
AcDbEntity
  8
0
100
AcDbLine
 10
109.9603851496453
 20
157.5690786037891
 30
0.0
 11
112.1848349590068
 21
129.777851608247
 31
0.0
  0
LINE
  5
1BB
330
1E
100
AcDbEntity
  8
0
100
AcDbLine
 10
112.1848349590068
 20
129.777851608247
 30
0.0
 11
114.4092847683682
 21
107.5448688646752
 31
0.0
  0
LINE
  5
1BC
330
1E
100
AcDbEntity
  8
0
100
AcDbLine
 10
118.858186268769
 20
91.98178113536435
 30
0.0
 11
127.1998744651327
 21
80.30946581635566
 31
0.0
  0
LINE
  5
1BD
330
1E
100
AcDbEntity
  8
0
100
AcDbLine
 10
114.4092847683682
 20
107.5448688646752
 30
0.0
 11
118.858186268769
 21
91.98178113536435
 31
0.0
  0
LINE
  5
1BE
330
1E
100
AcDbEntity
  8
0
100
AcDbLine
 10
137.2098995480983
 20
71.97209704852913
 30
0.0
 11
150.0004873631849
 21
67.52550069100448
 31
0.0
  0
LINE
  5
1BF
330
1E
100
AcDbEntity
  8
0
100
AcDbLine
 10
206.16785492837
 20
61.41143057991438
 30
0.0
 11
267.3402350350378
 21
59.74395682634895
 31
0.0
  0
LINE
  5
1C0
330
1E
100
AcDbEntity
  8
0
100
AcDbLine
 10
170.0205394107936
 20
63.63472923665107
 30
0.0
 11
206.16785492837
 21
61.41143057991438
 31
0.0
  0
LINE
  5
1C1
330
1E
100
AcDbEntity
  8
0
100
AcDbLine
 10
267.3402350350378
 20
59.74395682634895
 30
0.0
 11
312.0
 21
59.19999999999999
 31
0.0
  0
LINE
  5
1C2
330
1E
100
AcDbEntity
  8
0
100
AcDbLine
 10
473.9995126368151
 20
67.52550069100448
 30
0.0
 11
453.9794605892064
 21
63.63472923665107
 31
0.0
  0
LINE
  5
1C3
330
1E
100
AcDbEntity
  8
0
100
AcDbLine
 10
473.9995126368151
 20
340.4744993089955
 30
0.0
 11
453.9794605892064
 21
344.3652707633488
 31
0.0
  0
LINE
  5
1C4
330
1E
100
AcDbEntity
  8
0
100
AcDbLine
 10
484.431
 20
16.846
 30
0.0
 11
461.071
 21
15.03699999999997
 31
0.0
  0
LINE
  5
1C5
330
1E
100
AcDbEntity
  8
0
100
AcDbLine
 10
466.4279999999997
 20
5.358000000000004
 30
0.0
 11
440.793
 21
3.968000000000017
 31
0.0
  0
LINE
  5
1C8
330
1E
100
AcDbEntity
  8
0
100
AcDbLine
 10
514.0
 20
204.0
 30
0.0
 11
514.0396148503546
 21
250.4309213962108
 31
0.0
  0
LINE
  5
1C9
330
1E
100
AcDbEntity
  8
0
100
AcDbLine
 10
615.9513813715866
 20
238.3578838514263
 30
0.0
 11
616.31
 21
204.0
 31
0.0
  0
LINE
  5
1CA
330
1E
100
AcDbEntity
  8
0
100
AcDbLine
 10
596.0
 20
204.0
 30
0.0
 11
595.8328999999999
 21
245.602
 31
0.0
  0
LINE
  5
1CB
330
1E
100
AcDbEntity
  8
0
100
AcDbLine
 10
586.8973999999998
 20
204.0
 30
0.0
 11
586.7356999999998
 21
243.562
 31
0.0
  0
LINE
  5
1CC
330
1E
100
AcDbEntity
  8
0
100
AcDbLine
 10
624.0
 20
204.0
 30
0.0
 11
623.8164669999998
 21
252.2209999999999
 31
0.0
  0
LINE
  5
1CD
330
1E
100
AcDbEntity
  8
0
100
AcDbLine
 10
599.4808
 20
204.0
 30
0.0
 11
599.3116999999998
 21
246.485
 31
0.0
  0
LINE
  5
1CE
330
1E
100
AcDbEntity
  8
0
100
AcDbLine
 10
568.7401
 20
16.46300000000001
 30
0.0
 11
555.2178
 21
14.67400000000002
 31
0.0
  0
LINE
  5
1CF
330
1E
100
AcDbEntity
  8
0
100
AcDbLine
 10
552.0396529204703
 20
24.34489427319386
 30
0.0
 11
569.7072728468165
 21
26.71515952789741
 31
0.0
  0
LINE
  5
1D0
330
1E
100
AcDbEntity
  8
0
100
AcDbLine
 10
622.1824699999999
 20
90.77499999999998
 30
0.0
 11
621.14266
 21
75.66199999999998
 31
0.0
  0
LINE
  5
1D1
330
1E
100
AcDbEntity
  8
0
100
AcDbLine
 10
610.8526725684146
 20
71.98721346540217
 30
0.0
 11
613.6984636596044
 21
100.0748495640239
 31
0.0
  0
LINE
  5
1D2
330
1E
100
AcDbEntity
  8
0
100
AcDbLine
 10
615.94359
 20
44.92599999999998
 30
0.0
 11
611.3387
 21
35.92599999999999
 31
0.0
  0
LINE
  5
1D3
330
1E
100
AcDbEntity
  8
0
100
AcDbLine
 10
619.65721
 20
62.58600000000001
 30
0.0
 11
618.1717599999998
 21
52.56699999999995
 31
0.0
  0
LINE
  5
1D4
330
1E
100
AcDbEntity
  8
0
100
AcDbLine
 10
618.1717599999998
 20
52.56699999999995
 30
0.0
 11
615.94359
 21
44.92599999999998
 31
0.0
  0
LINE
  5
1D5
330
1E
100
AcDbEntity
  8
0
100
AcDbLine
 10
621.14266
 20
75.66199999999998
 30
0.0
 11
619.65721
 21
62.58600000000001
 31
0.0
  0
LINE
  5
1D6
330
1E
100
AcDbEntity
  8
0
100
AcDbLine
 10
581.327588821272
 20
29.55947687759294
 30
0.0
 11
590.457835474049
 21
32.64082075275883
 31
0.0
  0
LINE
  5
1D7
330
1E
100
AcDbEntity
  8
0
100
AcDbLine
 10
599.8795
 20
25.94300000000004
 30
0.0
 11
588.3999999999998
 21
21.21899999999998
 31
0.0
  0
LINE
  5
1D8
330
1E
100
AcDbEntity
  8
0
100
AcDbLine
 10
599.9438057780147
 20
37.49986309097812
 30
0.0
 11
604.6867909299979
 21
45.20322373484169
 31
0.0
  0
LINE
  5
1D9
330
1E
100
AcDbEntity
  8
0
100
AcDbLine
 10
607.6331999999998
 20
30.15199999999998
 30
0.0
 11
599.8795
 21
25.94300000000004
 31
0.0
  0
LINE
  5
1DA
330
1E
100
AcDbEntity
  8
0
100
AcDbLine
 10
611.3387
 20
35.92599999999999
 30
0.0
 11
607.6331999999998
 21
30.15199999999998
 31
0.0
  0
LINE
  5
1DB
330
1E
100
AcDbEntity
  8
0
100
AcDbLine
 10
590.457835474049
 20
32.64082075275883
 30
0.0
 11
599.9438057780147
 21
37.49986309097812
 31
0.0
  0
LINE
  5
1DC
330
1E
100
AcDbEntity
  8
0
100
AcDbLine
 10
608.481180933262
 20
54.56576910104877
 30
0.0
 11
610.8526725684146
 21
71.98721346540217
 31
0.0
  0
LINE
  5
1DD
330
1E
100
AcDbEntity
  8
0
100
AcDbLine
 10
604.6867909299979
 20
45.20322373484169
 30
0.0
 11
608.481180933262
 21
54.56576910104877
 31
0.0
  0
LINE
  5
1DE
330
1E
100
AcDbEntity
  8
0
100
AcDbLine
 10
588.3999999999998
 20
21.21899999999998
 30
0.0
 11
568.7401
 21
16.46300000000001
 31
0.0
  0
LINE
  5
1DF
330
1E
100
AcDbEntity
  8
0
100
AcDbLine
 10
569.7072728468165
 20
26.71515952789741
 30
0.0
 11
581.327588821272
 21
29.55947687759294
 31
0.0
  0
LINE
  5
1E0
330
1E
100
AcDbEntity
  8
0
100
AcDbLine
 10
613.6984636596044
 20
100.0748495640239
 30
0.0
 11
615.2399340692086
 21
137.5250300729044
 31
0.0
  0
LINE
  5
1E1
330
1E
100
AcDbEntity
  8
0
100
AcDbLine
 10
623.8164669999998
 20
155.7789999999999
 30
0.0
 11
623.6679249999999
 21
119.6439999999999
 31
0.0
  0
LINE
  5
1E2
330
1E
100
AcDbEntity
  8
0
100
AcDbLine
 10
615.2399340692086
 20
137.5250300729044
 30
0.0
 11
615.9513813715866
 21
169.6421161485735
 31
0.0
  0
LINE
  5
1E3
330
1E
100
AcDbEntity
  8
0
100
AcDbLine
 10
623.6679249999999
 20
119.6439999999999
 30
0.0
 11
622.1824699999999
 21
90.77499999999998
 31
0.0
  0
LINE
  5
1E4
330
1E
100
AcDbEntity
  8
0
100
AcDbLine
 10
623.6679249999999
 20
119.6439999999999
 30
0.0
 11
622.1824699999999
 21
90.77499999999998
 31
0.0
  0
LINE
  5
1E5
330
1E
100
AcDbEntity
  8
0
100
AcDbLine
 10
624.0
 20
204.0
 30
0.0
 11
623.8164669999998
 21
155.7789999999999
 31
0.0
  0
LINE
  5
1E6
330
1E
100
AcDbEntity
  8
0
100
AcDbLine
 10
615.9513813715866
 20
169.6421161485735
 30
0.0
 11
616.31
 21
204.0
 31
0.0
  0
LINE
  5
1E7
330
1E
100
AcDbEntity
  8
0
100
AcDbLine
 10
599.3116999999998
 20
161.5149999999998
 30
0.0
 11
599.1748
 21
129.677
 31
0.0
  0
LINE
  5
1E8
330
1E
100
AcDbEntity
  8
0
100
AcDbLine
 10
595.8328999999999
 20
162.3979999999999
 30
0.0
 11
595.6977000000001
 21
131.221
 31
0.0
  0
LINE
  5
1E9
330
1E
100
AcDbEntity
  8
0
100
AcDbLine
 10
586.7356999999998
 20
164.4379999999999
 30
0.0
 11
586.6047999999998
 21
134.7889999999999
 31
0.0
  0
LINE
  5
1EA
330
1E
100
AcDbEntity
  8
0
100
AcDbLine
 10
591.9995
 20
77.39300000000003
 30
0.0
 11
589.0811999999998
 21
77.27800000000002
 31
0.0
  0
LINE
  5
1EB
330
1E
100
AcDbEntity
  8
0
100
AcDbLine
 10
599.1748
 20
129.677
 30
0.0
 11
597.8061
 21
104.2429999999999
 31
0.0
  0
LINE
  5
1EC
330
1E
100
AcDbEntity
  8
0
100
AcDbLine
 10
595.6977000000001
 20
131.221
 30
0.0
 11
594.3456
 21
106.3159999999998
 31
0.0
  0
LINE
  5
1ED
330
1E
100
AcDbEntity
  8
0
100
AcDbLine
 10
597.8061
 20
104.2429999999999
 30
0.0
 11
596.0247
 21
84.58299999999997
 31
0.0
  0
LINE
  5
1EE
330
1E
100
AcDbEntity
  8
0
100
AcDbLine
 10
593.3990999999998
 20
93.27699999999998
 30
0.0
 11
593.2306999999998
 21
88.81299999999997
 31
0.0
  0
LINE
  5
1EF
330
1E
100
AcDbEntity
  8
0
100
AcDbLine
 10
596.0247
 20
84.58299999999997
 30
0.0
 11
595.0687
 21
80.90199999999999
 31
0.0
  0
LINE
  5
1F0
330
1E
100
AcDbEntity
  8
0
100
AcDbLine
 10
593.6747
 20
84.03700000000005
 30
0.0
 11
593.2306999999998
 21
88.81299999999997
 31
0.0
  0
LINE
  5
1F1
330
1E
100
AcDbEntity
  8
0
100
AcDbLine
 10
594.0121
 20
78.601
 30
0.0
 11
591.9995
 21
77.39300000000003
 31
0.0
  0
LINE
  5
1F2
330
1E
100
AcDbEntity
  8
0
100
AcDbLine
 10
595.0687
 20
80.90199999999999
 30
0.0
 11
594.0121
 21
78.601
 31
0.0
  0
LINE
  5
1F3
330
1E
100
AcDbEntity
  8
0
100
AcDbLine
 10
595.131958627977
 20
81.14557218575697
 30
0.0
 11
593.6747
 21
84.03700000000005
 31
0.0
  0
LINE
  5
1F4
330
1E
100
AcDbEntity
  8
0
100
AcDbLine
 10
594.3456
 20
106.3159999999998
 30
0.0
 11
593.3990999999998
 21
93.27699999999998
 31
0.0
  0
LINE
  5
1F5
330
1E
100
AcDbEntity
  8
0
100
AcDbLine
 10
585.2961
 20
111.104
 30
0.0
 11
583.5465
 21
93.21099999999999
 31
0.0
  0
LINE
  5
1F6
330
1E
100
AcDbEntity
  8
0
100
AcDbLine
 10
583.5465
 20
93.21099999999999
 30
0.0
 11
583.1942999999998
 21
88.49400000000001
 31
0.0
  0
LINE
  5
1F7
330
1E
100
AcDbEntity
  8
0
100
AcDbLine
 10
583.6974999999998
 20
83.72000000000003
 30
0.0
 11
583.1942999999998
 21
88.49400000000001
 31
0.0
  0
LINE
  5
1F8
330
1E
100
AcDbEntity
  8
0
100
AcDbLine
 10
586.5151
 20
78.83099999999995
 30
0.0
 11
585.2069
 21
80.49900000000002
 31
0.0
  0
LINE
  5
1F9
330
1E
100
AcDbEntity
  8
0
100
AcDbLine
 10
589.0811999999998
 20
77.27800000000002
 30
0.0
 11
586.5151
 21
78.83099999999995
 31
0.0
  0
LINE
  5
1FA
330
1E
100
AcDbEntity
  8
0
100
AcDbLine
 10
585.2069
 20
80.49900000000002
 30
0.0
 11
583.6974999999998
 21
83.72000000000003
 31
0.0
  0
LINE
  5
1FB
330
1E
100
AcDbEntity
  8
0
100
AcDbLine
 10
586.6047999999998
 20
134.7889999999999
 30
0.0
 11
585.2961
 21
111.104
 31
0.0
  0
LINE
  5
1FC
330
1E
100
AcDbEntity
  8
0
100
AcDbLine
 10
599.4808
 20
204.0
 30
0.0
 11
599.3116999999998
 21
161.5149999999998
 31
0.0
  0
LINE
  5
1FD
330
1E
100
AcDbEntity
  8
0
100
AcDbLine
 10
596.0
 20
204.0
 30
0.0
 11
595.8328999999999
 21
162.3979999999999
 31
0.0
  0
LINE
  5
1FE
330
1E
100
AcDbEntity
  8
0
100
AcDbLine
 10
586.8973999999998
 20
204.0
 30
0.0
 11
586.7356999999998
 21
164.4379999999999
 31
0.0
  0
LINE
  5
1FF
330
1E
100
AcDbEntity
  8
0
100
AcDbLine
 10
496.8001255348672
 20
80.30946581635566
 30
0.0
 11
486.7901004519016
 21
71.97209704852913
 31
0.0
  0
LINE
  5
200
330
1E
100
AcDbEntity
  8
0
100
AcDbLine
 10
484.431
 20
16.846
 30
0.0
 11
528.5618731252186
 21
21.38206318278867
 31
0.0
  0
LINE
  5
201
330
1E
100
AcDbEntity
  8
0
100
AcDbLine
 10
528.6203
 20
11.22500000000002
 30
0.0
 11
511.075
 21
9.309000000000024
 31
0.0
  0
LINE
  5
202
330
1E
100
AcDbEntity
  8
0
100
AcDbLine
 10
544.6011999999999
 20
13.39699999999999
 30
0.0
 11
528.6203
 21
11.22500000000002
 31
0.0
  0
LINE
  5
203
330
1E
100
AcDbEntity
  8
0
100
AcDbLine
 10
528.5618731252186
 20
21.38206318278867
 30
0.0
 11
552.0396529204703
 21
24.34489427319386
 31
0.0
  0
LINE
  5
204
330
1E
100
AcDbEntity
  8
0
100
AcDbLine
 10
555.2178
 20
14.67400000000002
 30
0.0
 11
544.6011999999999
 21
13.39699999999999
 31
0.0
  0
LINE
  5
205
330
1E
100
AcDbEntity
  8
0
100
AcDbLine
 10
511.075
 20
9.309000000000024
 30
0.0
 11
490.5569999999998
 21
7.329000000000008
 31
0.0
  0
LINE
  5
206
330
1E
100
AcDbEntity
  8
0
100
AcDbLine
 10
490.5569999999998
 20
7.329000000000008
 30
0.0
 11
466.4279999999997
 21
5.358000000000004
 31
0.0
  0
LINE
  5
207
330
1E
100
AcDbEntity
  8
0
100
AcDbLine
 10
486.7901004519016
 20
71.97209704852913
 30
0.0
 11
473.9995126368151
 21
67.52550069100448
 31
0.0
  0
LINE
  5
208
330
1E
100
AcDbEntity
  8
0
100
AcDbLine
 10
514.0396148503546
 20
157.5690786037891
 30
0.0
 11
511.8151650409932
 21
129.777851608247
 31
0.0
  0
LINE
  5
209
330
1E
100
AcDbEntity
  8
0
100
AcDbLine
 10
511.8151650409932
 20
129.777851608247
 30
0.0
 11
509.5907152316317
 21
107.5448688646752
 31
0.0
  0
LINE
  5
20A
330
1E
100
AcDbEntity
  8
0
100
AcDbLine
 10
505.1418137312309
 20
91.98178113536435
 30
0.0
 11
496.8001255348672
 21
80.30946581635566
 31
0.0
  0
LINE
  5
20B
330
1E
100
AcDbEntity
  8
0
100
AcDbLine
 10
509.5907152316317
 20
107.5448688646752
 30
0.0
 11
505.1418137312309
 21
91.98178113536435
 31
0.0
  0
LINE
  5
20C
330
1E
100
AcDbEntity
  8
0
100
AcDbLine
 10
514.0
 20
204.0
 30
0.0
 11
514.0396148503546
 21
157.5690786037891
 31
0.0
  0
LINE
  5
20F
330
1E
100
AcDbEntity
  8
0
100
AcDbLine
 10
610.8526725684146
 20
336.0127865345978
 30
0.0
 11
613.6984636596044
 21
307.9251504359759
 31
0.0
  0
LINE
  5
210
330
1E
100
AcDbEntity
  8
0
100
AcDbLine
 10
622.1824699999999
 20
317.225
 30
0.0
 11
621.14266
 21
332.338
 31
0.0
  0
LINE
  5
211
330
1E
100
AcDbEntity
  8
0
100
AcDbLine
 10
613.6984636596044
 20
307.9251504359759
 30
0.0
 11
615.2399340692086
 21
270.4749699270954
 31
0.0
  0
LINE
  5
212
330
1E
100
AcDbEntity
  8
0
100
AcDbLine
 10
615.2399340692086
 20
270.4749699270954
 30
0.0
 11
615.9513813715866
 21
238.3578838514263
 31
0.0
  0
LINE
  5
213
330
1E
100
AcDbEntity
  8
0
100
AcDbLine
 10
623.8164669999998
 20
252.2209999999999
 30
0.0
 11
623.6679249999999
 21
288.356
 31
0.0
  0
LINE
  5
214
330
1E
100
AcDbEntity
  8
0
100
AcDbLine
 10
623.6679249999999
 20
288.356
 30
0.0
 11
622.1824699999999
 21
317.225
 31
0.0
  0
LINE
  5
215
330
1E
100
AcDbEntity
  8
0
100
AcDbLine
 10
623.6679249999999
 20
288.356
 30
0.0
 11
622.1824699999999
 21
317.225
 31
0.0
  0
LINE
  5
216
330
1E
100
AcDbEntity
  8
0
100
AcDbLine
 10
586.7356999999998
 20
243.562
 30
0.0
 11
586.6047999999998
 21
273.211
 31
0.0
  0
LINE
  5
217
330
1E
100
AcDbEntity
  8
0
100
AcDbLine
 10
595.8328999999999
 20
245.602
 30
0.0
 11
595.6977000000001
 21
276.779
 31
0.0
  0
LINE
  5
218
330
1E
100
AcDbEntity
  8
0
100
AcDbLine
 10
599.3116999999998
 20
246.485
 30
0.0
 11
599.1748
 21
278.3229999999999
 31
0.0
  0
LINE
  5
219
330
1E
100
AcDbEntity
  8
0
100
AcDbLine
 10
591.9995
 20
330.6069999999998
 30
0.0
 11
589.0811999999998
 21
330.722
 31
0.0
  0
LINE
  5
21A
330
1E
100
AcDbEntity
  8
0
100
AcDbLine
 10
595.6977000000001
 20
276.779
 30
0.0
 11
594.3456
 21
301.684
 31
0.0
  0
LINE
  5
21B
330
1E
100
AcDbEntity
  8
0
100
AcDbLine
 10
599.1748
 20
278.3229999999999
 30
0.0
 11
597.8061
 21
303.757
 31
0.0
  0
LINE
  5
21C
330
1E
100
AcDbEntity
  8
0
100
AcDbLine
 10
593.3990999999998
 20
314.723
 30
0.0
 11
593.2306999999998
 21
319.187
 31
0.0
  0
LINE
  5
21D
330
1E
100
AcDbEntity
  8
0
100
AcDbLine
 10
597.8061
 20
303.757
 30
0.0
 11
596.0247
 21
323.417
 31
0.0
  0
LINE
  5
21E
330
1E
100
AcDbEntity
  8
0
100
AcDbLine
 10
594.3456
 20
301.684
 30
0.0
 11
593.3990999999998
 21
314.723
 31
0.0
  0
LINE
  5
21F
330
1E
100
AcDbEntity
  8
0
100
AcDbLine
 10
596.0247
 20
323.417
 30
0.0
 11
595.0687
 21
327.098
 31
0.0
  0
LINE
  5
220
330
1E
100
AcDbEntity
  8
0
100
AcDbLine
 10
593.6747
 20
323.9629999999999
 30
0.0
 11
593.2306999999998
 21
319.187
 31
0.0
  0
LINE
  5
221
330
1E
100
AcDbEntity
  8
0
100
AcDbLine
 10
594.0121
 20
329.3989999999999
 30
0.0
 11
591.9995
 21
330.6069999999998
 31
0.0
  0
LINE
  5
222
330
1E
100
AcDbEntity
  8
0
100
AcDbLine
 10
595.131958627977
 20
326.854427814243
 30
0.0
 11
593.6747
 21
323.9629999999999
 31
0.0
  0
LINE
  5
223
330
1E
100
AcDbEntity
  8
0
100
AcDbLine
 10
595.0687
 20
327.098
 30
0.0
 11
594.0121
 21
329.3989999999999
 31
0.0
  0
LINE
  5
224
330
1E
100
AcDbEntity
  8
0
100
AcDbLine
 10
585.2961
 20
296.8959999999999
 30
0.0
 11
583.5465
 21
314.7889999999998
 31
0.0
  0
LINE
  5
225
330
1E
100
AcDbEntity
  8
0
100
AcDbLine
 10
586.6047999999998
 20
273.211
 30
0.0
 11
585.2961
 21
296.8959999999999
 31
0.0
  0
LINE
  5
226
330
1E
100
AcDbEntity
  8
0
100
AcDbLine
 10
583.5465
 20
314.7889999999998
 30
0.0
 11
583.1942999999998
 21
319.5059999999998
 31
0.0
  0
LINE
  5
227
330
1E
100
AcDbEntity
  8
0
100
AcDbLine
 10
583.6974999999998
 20
324.2799999999998
 30
0.0
 11
583.1942999999998
 21
319.5059999999998
 31
0.0
  0
LINE
  5
228
330
1E
100
AcDbEntity
  8
0
100
AcDbLine
 10
586.5151
 20
329.169
 30
0.0
 11
585.2069
 21
327.5009999999998
 31
0.0
  0
LINE
  5
229
330
1E
100
AcDbEntity
  8
0
100
AcDbLine
 10
589.0811999999998
 20
330.722
 30
0.0
 11
586.5151
 21
329.169
 31
0.0
  0
LINE
  5
22A
330
1E
100
AcDbEntity
  8
0
100
AcDbLine
 10
585.2069
 20
327.5009999999998
 30
0.0
 11
583.6974999999998
 21
324.2799999999998
 31
0.0
  0
LINE
  5
22C
330
1E
100
AcDbEntity
  8
0
100
AcDbLine
 10
619.65721
 20
345.4139999999998
 30
0.0
 11
618.1717599999998
 21
355.433
 31
0.0
  0
LINE
  5
22D
330
1E
100
AcDbEntity
  8
0
100
AcDbLine
 10
621.14266
 20
332.338
 30
0.0
 11
619.65721
 21
345.4139999999998
 31
0.0
  0
LINE
  5
232
330
1E
100
AcDbEntity
  8
0
100
AcDbLine
 10
608.481180933262
 20
353.4342308989511
 30
0.0
 11
610.8526725684146
 21
336.0127865345978
 31
0.0
  0
LINE
  5
239
330
1E
100
AcDbEntity
  8
0
100
AcDbLine
 10
496.8001255348672
 20
327.6905341836442
 30
0.0
 11
486.7901004519016
 21
336.0279029514708
 31
0.0
  0
LINE
  5
23A
330
1E
100
AcDbEntity
  8
0
100
AcDbLine
 10
514.0396148503546
 20
250.4309213962108
 30
0.0
 11
511.8151650409932
 21
278.2221483917528
 31
0.0
  0
LINE
  5
23B
330
1E
100
AcDbEntity
  8
0
100
AcDbLine
 10
511.8151650409932
 20
278.2221483917528
 30
0.0
 11
509.5907152316317
 21
300.4551311353246
 31
0.0
  0
LINE
  5
23C
330
1E
100
AcDbEntity
  8
0
100
AcDbLine
 10
505.1418137312309
 20
316.0182188646356
 30
0.0
 11
496.8001255348672
 21
327.6905341836442
 31
0.0
  0
LINE
  5
23D
330
1E
100
AcDbEntity
  8
0
100
AcDbLine
 10
509.5907152316317
 20
300.4551311353246
 30
0.0
 11
505.1418137312309
 21
316.0182188646356
 31
0.0
  0
LINE
  5
243
330
1E
100
AcDbEntity
  8
0
100
AcDbLine
 10
486.7901004519016
 20
336.0279029514708
 30
0.0
 11
473.9995126368151
 21
340.4744993089955
 31
0.0
  0
LINE
  5
246
330
1E
100
AcDbEntity
  8
0
100
AcDbLine
 10
342.0
 20
204.0
 30
0.0
 11
341.684
 21
207.9159999999999
 31
0.0
  0
LINE
  5
247
330
1E
100
AcDbEntity
  8
0
100
AcDbLine
 10
342.0
 20
204.0
 30
0.0
 11
341.684
 21
207.9159999999999
 31
0.0
  0
LINE
  5
248
330
1E
100
AcDbEntity
  8
0
100
AcDbLine
 10
417.8321450716297
 20
61.41143057991438
 30
0.0
 11
356.659764964962
 21
59.74395682634895
 31
0.0
  0
LINE
  5
249
330
1E
100
AcDbEntity
  8
0
100
AcDbLine
 10
381.4039999999998
 20
11.05199999999996
 30
0.0
 11
362.3669999999999
 21
10.57300000000003
 31
0.0
  0
LINE
  5
24A
330
1E
100
AcDbEntity
  8
0
100
AcDbLine
 10
384.4679999999998
 20
1.14499999999998
 30
0.0
 11
363.368
 21
0.6380000000000337
 31
0.0
  0
LINE
  5
24B
330
1E
100
AcDbEntity
  8
0
100
AcDbLine
 10
436.287
 20
13.269
 30
0.0
 11
408.689
 21
11.89999999999997
 31
0.0
  0
LINE
  5
24C
330
1E
100
AcDbEntity
  8
0
100
AcDbLine
 10
440.793
 20
3.968000000000017
 30
0.0
 11
412.521
 21
2.621999999999957
 31
0.0
  0
LINE
  5
24D
330
1E
100
AcDbEntity
  8
0
100
AcDbLine
 10
453.9794605892064
 20
63.63472923665107
 30
0.0
 11
417.8321450716297
 21
61.41143057991438
 31
0.0
  0
LINE
  5
24E
330
1E
100
AcDbEntity
  8
0
100
AcDbLine
 10
461.071
 20
15.03699999999997
 30
0.0
 11
436.287
 21
13.269
 31
0.0
  0
LINE
  5
24F
330
1E
100
AcDbEntity
  8
0
100
AcDbLine
 10
412.521
 20
2.621999999999957
 30
0.0
 11
384.4679999999998
 21
1.14499999999998
 31
0.0
  0
LINE
  5
250
330
1E
100
AcDbEntity
  8
0
100
AcDbLine
 10
408.689
 20
11.89999999999997
 30
0.0
 11
381.4039999999998
 21
11.05199999999996
 31
0.0
  0
LINE
  5
251
330
1E
100
AcDbEntity
  8
0
100
AcDbLine
 10
356.659764964962
 20
59.74395682634895
 30
0.0
 11
312.0
 21
59.19999999999999
 31
0.0
  0
LINE
  5
252
330
1E
100
AcDbEntity
  8
0
100
AcDbLine
 10
340.3979999999999
 20
10.185
 30
0.0
 11
312.0
 21
9.970000000000027
 31
0.0
  0
LINE
  5
253
330
1E
100
AcDbEntity
  8
0
100
AcDbLine
 10
341.394
 20
0.2330000000000041
 30
0.0
 11
312.0
 21
0.0
 31
0.0
  0
LINE
  5
254
330
1E
100
AcDbEntity
  8
0
100
AcDbLine
 10
362.3669999999999
 20
10.57300000000003
 30
0.0
 11
340.3979999999999
 21
10.185
 31
0.0
  0
LINE
  5
255
330
1E
100
AcDbEntity
  8
0
100
AcDbLine
 10
363.368
 20
0.6380000000000337
 30
0.0
 11
341.394
 21
0.2330000000000041
 31
0.0
  0
LINE
  5
256
330
1E
100
AcDbEntity
  8
0
100
AcDbLine
 10
319.737
 20
175.074
 30
0.0
 11
315.9159999999999
 21
174.3159999999999
 31
0.0
  0
LINE
  5
257
330
1E
100
AcDbEntity
  8
0
100
AcDbLine
 10
333.19
 20
182.8109999999999
 30
0.0
 11
330.2529999999998
 21
180.2529999999999
 31
0.0
  0
LINE
  5
258
330
1E
100
AcDbEntity
  8
0
100
AcDbLine
 10
337.99
 20
189.0629999999999
 30
0.0
 11
335.7469999999999
 21
185.747
 31
0.0
  0
LINE
  5
259
330
1E
100
AcDbEntity
  8
0
100
AcDbLine
 10
335.7469999999999
 20
185.747
 30
0.0
 11
333.19
 21
182.8109999999999
 31
0.0
  0
LINE
  5
25A
330
1E
100
AcDbEntity
  8
0
100
AcDbLine
 10
340.9259999999998
 20
196.263
 30
0.0
 11
339.663
 21
192.537
 31
0.0
  0
LINE
  5
25B
330
1E
100
AcDbEntity
  8
0
100
AcDbLine
 10
339.663
 20
192.537
 30
0.0
 11
337.99
 21
189.0629999999999
 31
0.0
  0
LINE
  5
25C
330
1E
100
AcDbEntity
  8
0
100
AcDbLine
 10
341.684
 20
200.084
 30
0.0
 11
340.9259999999998
 21
196.263
 31
0.0
  0
LINE
  5
25D
330
1E
100
AcDbEntity
  8
0
100
AcDbLine
 10
342.0
 20
204.0
 30
0.0
 11
341.684
 21
200.084
 31
0.0
  0
LINE
  5
25E
330
1E
100
AcDbEntity
  8
0
100
AcDbLine
 10
342.0
 20
204.0
 30
0.0
 11
341.684
 21
200.084
 31
0.0
  0
LINE
  5
25F
330
1E
100
AcDbEntity
  8
0
100
AcDbLine
 10
326.937
 20
178.01
 30
0.0
 11
323.4629999999999
 21
176.337
 31
0.0
  0
LINE
  5
260
330
1E
100
AcDbEntity
  8
0
100
AcDbLine
 10
330.2529999999998
 20
180.2529999999999
 30
0.0
 11
326.937
 21
178.01
 31
0.0
  0
LINE
  5
261
330
1E
100
AcDbEntity
  8
0
100
AcDbLine
 10
323.4629999999999
 20
176.337
 30
0.0
 11
319.737
 21
175.074
 31
0.0
  0
LINE
  5
262
330
1E
100
AcDbEntity
  8
0
100
AcDbLine
 10
312.0
 20
174.0
 30
0.0
 11
308.084
 21
174.3159999999999
 31
0.0
  0
LINE
  5
263
330
1E
100
AcDbEntity
  8
0
100
AcDbLine
 10
315.9159999999999
 20
174.3159999999999
 30
0.0
 11
312.0
 21
174.0
 31
0.0
  0
LINE
  5
264
330
1E
100
AcDbEntity
  8
0
100
AcDbLine
 10
417.8321450716297
 20
346.5885694200856
 30
0.0
 11
356.659764964962
 21
348.2560431736509
 31
0.0
  0
LINE
  5
269
330
1E
100
AcDbEntity
  8
0
100
AcDbLine
 10
453.9794605892064
 20
344.3652707633488
 30
0.0
 11
417.8321450716297
 21
346.5885694200856
 31
0.0
  0
LINE
  5
26D
330
1E
100
AcDbEntity
  8
0
100
AcDbLine
 10
319.737
 20
232.926
 30
0.0
 11
315.9159999999999
 21
233.684
 31
0.0
  0
LINE
  5
26E
330
1E
100
AcDbEntity
  8
0
100
AcDbLine
 10
333.19
 20
225.189
 30
0.0
 11
330.2529999999998
 21
227.747
 31
0.0
  0
LINE
  5
26F
330
1E
100
AcDbEntity
  8
0
100
AcDbLine
 10
337.99
 20
218.937
 30
0.0
 11
335.7469999999999
 21
222.2529999999999
 31
0.0
  0
LINE
  5
270
330
1E
100
AcDbEntity
  8
0
100
AcDbLine
 10
340.9259999999998
 20
211.737
 30
0.0
 11
339.663
 21
215.463
 31
0.0
  0
LINE
  5
271
330
1E
100
AcDbEntity
  8
0
100
AcDbLine
 10
341.684
 20
207.9159999999999
 30
0.0
 11
340.9259999999998
 21
211.737
 31
0.0
  0
LINE
  5
272
330
1E
100
AcDbEntity
  8
0
100
AcDbLine
 10
339.663
 20
215.463
 30
0.0
 11
337.99
 21
218.937
 31
0.0
  0
LINE
  5
273
330
1E
100
AcDbEntity
  8
0
100
AcDbLine
 10
335.7469999999999
 20
222.2529999999999
 30
0.0
 11
333.19
 21
225.189
 31
0.0
  0
LINE
  5
274
330
1E
100
AcDbEntity
  8
0
100
AcDbLine
 10
326.937
 20
229.99
 30
0.0
 11
323.4629999999999
 21
231.6629999999999
 31
0.0
  0
LINE
  5
275
330
1E
100
AcDbEntity
  8
0
100
AcDbLine
 10
330.2529999999998
 20
227.747
 30
0.0
 11
326.937
 21
229.99
 31
0.0
  0
LINE
  5
276
330
1E
100
AcDbEntity
  8
0
100
AcDbLine
 10
323.4629999999999
 20
231.6629999999999
 30
0.0
 11
319.737
 21
232.926
 31
0.0
  0
LINE
  5
277
330
1E
100
AcDbEntity
  8
0
100
AcDbLine
 10
312.0
 20
234.0
 30
0.0
 11
308.084
 21
233.684
 31
0.0
  0
LINE
  5
278
330
1E
100
AcDbEntity
  8
0
100
AcDbLine
 10
315.9159999999999
 20
233.684
 30
0.0
 11
312.0
 21
234.0
 31
0.0
  0
LINE
  5
279
330
1E
100
AcDbEntity
  8
0
100
AcDbLine
 10
356.659764964962
 20
348.2560431736509
 30
0.0
 11
312.0
 21
348.7999999999998
 31
0.0
  0
LINE
  5
285
330
1E
100
AcDbEntity
  8
0
100
AcDbLine
 10
95.46481471025435
 20
387.6380229887374
 30
0.0
 11
112.9669542505753
 21
388.9910785215684
 31
0.0
  0
LINE
  5
286
330
1E
100
AcDbEntity
  8
0
100
AcDbLine
 10
112.9669542505753
 20
388.9910785215684
 30
0.0
 11
312.0
 21
389.0
 31
0.0
  0
LINE
  5
287
330
1E
100
AcDbEntity
  8
0
100
AcDbLine
 10
511.0330457494247
 20
388.9910785215684
 30
0.0
 11
312.0
 21
389.0
 31
0.0
  0
LINE
  5
288
330
1E
100
AcDbEntity
  8
0
100
AcDbLine
 10
511.0
 20
399.0
 30
0.0
 11
312.0
 21
399.0
 31
0.0
  0
LINE
  5
289
330
1E
100
AcDbEntity
  8
0
100
AcDbLine
 10
599.9438057780148
 20
370.5001369090219
 30
0.0
 11
604.6867909299979
 21
362.7967762651583
 31
0.0
  0
LINE
  5
28A
330
1E
100
AcDbEntity
  8
0
100
AcDbLine
 10
607.6331999999999
 20
377.848
 30
0.0
 11
599.8795
 21
382.0569999999998
 31
0.0
  0
LINE
  5
28B
330
1E
100
AcDbEntity
  8
0
100
AcDbLine
 10
615.94359
 20
363.074
 30
0.0
 11
611.3387
 21
372.074
 31
0.0
  0
LINE
  5
28C
330
1E
100
AcDbEntity
  8
0
100
AcDbLine
 10
611.3387
 20
372.074
 30
0.0
 11
607.6331999999999
 21
377.848
 31
0.0
  0
LINE
  5
28D
330
1E
100
AcDbEntity
  8
0
100
AcDbLine
 10
555.4169238910458
 20
394.0167130846694
 30
0.0
 11
544.6835687107356
 21
395.5630624016116
 31
0.0
  0
LINE
  5
28E
330
1E
100
AcDbEntity
  8
0
100
AcDbLine
 10
552.2259277272675
 20
384.5453243548529
 30
0.0
 11
569.7072728468165
 21
381.2848404721025
 31
0.0
  0
LINE
  5
28F
330
1E
100
AcDbEntity
  8
0
100
AcDbLine
 10
568.4710068042741
 20
391.8904833713416
 30
0.0
 11
555.4169238910458
 21
394.0167130846694
 31
0.0
  0
LINE
  5
290
330
1E
100
AcDbEntity
  8
0
100
AcDbLine
 10
588.3999999999999
 20
386.781
 30
0.0
 11
568.4710068042741
 21
391.8904833713416
 31
0.0
  0
LINE
  5
291
330
1E
100
AcDbEntity
  8
0
100
AcDbLine
 10
569.7072728468165
 20
381.2848404721025
 30
0.0
 11
581.327588821272
 21
378.440523122407
 31
0.0
  0
LINE
  5
292
330
1E
100
AcDbEntity
  8
0
100
AcDbLine
 10
590.457835474049
 20
375.3591792472411
 30
0.0
 11
599.9438057780148
 21
370.5001369090219
 31
0.0
  0
LINE
  5
293
330
1E
100
AcDbEntity
  8
0
100
AcDbLine
 10
581.327588821272
 20
378.440523122407
 30
0.0
 11
590.457835474049
 21
375.3591792472411
 31
0.0
  0
LINE
  5
294
330
1E
100
AcDbEntity
  8
0
100
AcDbLine
 10
599.8795
 20
382.0569999999998
 30
0.0
 11
588.3999999999999
 21
386.781
 31
0.0
  0
LINE
  5
295
330
1E
100
AcDbEntity
  8
0
100
AcDbLine
 10
528.5351852897456
 20
387.6380229887374
 30
0.0
 11
552.2259277272675
 21
384.5453243548529
 31
0.0
  0
LINE
  5
296
330
1E
100
AcDbEntity
  8
0
100
AcDbLine
 10
528.5351852897456
 20
387.6380229887374
 30
0.0
 11
511.0330457494247
 21
388.9910785215684
 31
0.0
  0
LINE
  5
297
330
1E
100
AcDbEntity
  8
0
100
AcDbLine
 10
544.6835687107356
 20
395.5630624016116
 30
0.0
 11
528.4384896337292
 21
397.6892921149392
 31
0.0
  0
LINE
  5
298
330
1E
100
AcDbEntity
  8
0
100
AcDbLine
 10
528.4384896337292
 20
397.6892921149392
 30
0.0
 11
511.0
 21
399.0
 31
0.0
  0
LINE
  5
299
330
1E
100
AcDbEntity
  8
0
100
AcDbLine
 10
618.1717599999999
 20
355.433
 30
0.0
 11
615.94359
 21
363.074
 31
0.0
  0
LINE
  5
29A
330
1E
100
AcDbEntity
  8
0
100
AcDbLine
 10
604.6867909299979
 20
362.7967762651583
 30
0.0
 11
608.481180933262
 21
353.4342308989511
 31
0.0
  0
ENDSEC
  0
SECTION
  2
OBJECTS
  0
DICTIONARY
  5
C
330
0
100
AcDbDictionary
281
     1
  3
ACAD_GROUP
350
D
  3
ACAD_LAYOUT
350
19
  3
ACAD_MLINESTYLE
350
16
  3
ACAD_PLOTSETTINGS
350
18
  3
ACAD_PLOTSTYLENAME
350
E
  3
AcDbVariableDictionary
350
27E
  0
DICTIONARY
  5
D
102
{ACAD_REACTORS
330
C
102
}
330
C
100
AcDbDictionary
281
     1
  0
DICTIONARY
  5
19
102
{ACAD_REACTORS
330
C
102
}
330
C
100
AcDbDictionary
281
     1
  3
Layout1
350
1D
  3
Model
350
21
  0
DICTIONARY
  5
16
102
{ACAD_REACTORS
330
C
102
}
330
C
100
AcDbDictionary
281
     1
  3
Standard
350
17
  0
DICTIONARY
  5
18
102
{ACAD_REACTORS
330
C
102
}
330
C
100
AcDbDictionary
281
     1
  0
ACDBDICTIONARYWDFLT
  5
E
102
{ACAD_REACTORS
330
C
102
}
330
C
100
AcDbDictionary
281
     1
  3
Normal
350
F
100
AcDbDictionaryWithDefault
340
F
  0
DICTIONARY
  5
27E
102
{ACAD_REACTORS
330
C
102
}
330
C
100
AcDbDictionary
281
     1
  3
DIMASSOC
350
27F
  0
LAYOUT
  5
1D
102
{ACAD_REACTORS
330
19
102
}
330
19
100
AcDbPlotSettings
  1

  2
hp deskjet 980c series
  4

  6

 40
0.0
 41
0.0
 42
0.0
 43
0.0
 44
0.0
 45
0.0
 46
0.0
 47
0.0
 48
0.0
 49
0.0
140
0.0
141
0.0
142
1.0
143
1.0
 70
   688
 72
     0
 73
     0
 74
     5
  7

 75
    16
147
1.0
148
0.0
149
0.0
100
AcDbLayout
  1
Layout1
 70
     1
 71
     1
 10
0.0
 20
0.0
 11
12.0
 21
9.0
 12
0.0
 22
0.0
 32
0.0
 14
1.000000000000000E+20
 24
1.000000000000000E+20
 34
1.000000000000000E+20
 15
-1.000000000000000E+20
 25
-1.000000000000000E+20
 35
-1.000000000000000E+20
146
0.0
 13
0.0
 23
0.0
 33
0.0
 16
1.0
 26
0.0
 36
0.0
 17
0.0
 27
1.0
 37
0.0
 76
     0
330
1A
  0
LAYOUT
  5
21
102
{ACAD_REACTORS
330
19
102
}
330
19
100
AcDbPlotSettings
  1

  2
hp deskjet 980c series
  4

  6

 40
0.0
 41
0.0
 42
0.0
 43
0.0
 44
0.0
 45
0.0
 46
0.0
 47
0.0
 48
0.0
 49
0.0
140
0.0
141
0.0
142
1.0
143
1.0
 70
  1712
 72
     0
 73
     0
 74
     0
  7

 75
     0
147
1.0
148
0.0
149
0.0
100
AcDbLayout
  1
Model
 70
     1
 71
     0
 10
0.0
 20
0.0
 11
12.0
 21
9.0
 12
0.0
 22
0.0
 32
0.0
 14
0.0
 24
0.0
 34
0.0
 15
0.0
 25
0.0
 35
0.0
146
0.0
 13
0.0
 23
0.0
 33
0.0
 16
1.0
 26
0.0
 36
0.0
 17
0.0
 27
1.0
 37
0.0
 76
     0
330
1E
  0
MLINESTYLE
  5
17
102
{ACAD_REACTORS
330
16
102
}
330
16
100
AcDbMlineStyle
  2
STANDARD
 70
     0
  3

 62
   256
 51
90.0
 52
90.0
 71
     2
 49
0.5
 62
   256
  6
BYLAYER
 49
-0.5
 62
   256
  6
BYLAYER
  0
ACDBPLACEHOLDER
  5
F
102
{ACAD_REACTORS
330
E
102
}
330
E
  0
DICTIONARYVAR
  5
27F
102
{ACAD_REACTORS
330
27E
102
}
330
27E
100
DictionaryVariables
280
     0
  1
1
  0
ENDSEC
  0
EOF
